999
********************************
999
*   DXF File - Entities Only   *
999
*        3D Data Format        *
999
*     Output from ENVISAGE     *
999
*     31-Dec-2007 14:53:52     *
999
********************************
  0
SECTION 
  2
HEADER
  9
$ACADVER
  1
AC1009
  9
$EXTMIN
 10
-290000.000
 20
-250000.000
 30
-4000.000
  9
$EXTMAX
 10
320000.000
 20
160000.000
 30
6000.000
  0
ENDSEC
  0
SECTION
  2
ENTITIES
  0
POLYLINE
  8
E74LXLIFT
 62
3
 66
     1
 70
     8
  0
VERTEX
  8
E74LXLIFT
 62
3
 10
3438.154
 20
-8399.404
 30
-2090.000
 70
    32
  0
VERTEX
  8
E74LXLIFT
 62
3
 10
3437.371
 20
-8410.277
 30
-2090.000
 70
    32
  0
VERTEX
  8
E74LXLIFT
 62
3
 10
3425.895
 20
-8408.602
 30
-2090.000
 70
    32
  0
VERTEX
  8
E74LXLIFT
 62
3
 10
3406.003
 20
-8397.315
 30
-2090.000
 70
    32
  0
VERTEX
  8
E74LXLIFT
 62
3
 10
3396.014
 20
-8400.508
 30
-2090.000
 70
    32
  0
VERTEX
  8
E74LXLIFT
 62
3
 10
3391.943
 20
-8398.174
 30
-2090.000
 70
    32
  0
VERTEX
  8
E74LXLIFT
 62
3
 10
3382.526
 20
-8402.041
 30
-2090.000
 70
    32
  0
VERTEX
  8
E74LXLIFT
 62
3
 10
3379.564
 20
-8400.062
 30
-2090.000
 70
    32
  0
VERTEX
  8
E74LXLIFT
 62
3
 10
3373.546
 20
-8400.583
 30
-2090.000
 70
    32
  0
VERTEX
  8
E74LXLIFT
 62
3
 10
3366.534
 20
-8393.722
 30
-2090.000
 70
    32
  0
VERTEX
  8
E74LXLIFT
 62
3
 10
3366.090
 20
-8388.324
 30
-2090.000
 70
    32
  0
VERTEX
  8
E74LXLIFT
 62
3
 10
3362.391
 20
-8380.967
 30
-2090.000
 70
    32
  0
VERTEX
  8
E74LXLIFT
 62
3
 10
3356.640
 20
-8381.105
 30
-2090.000
 70
    32
  0
VERTEX
  8
E74LXLIFT
 62
3
 10
3351.558
 20
-8369.740
 30
-2090.000
 70
    32
  0
VERTEX
  8
E74LXLIFT
 62
3
 10
3343.845
 20
-8367.097
 30
-2090.000
 70
    32
  0
VERTEX
  8
E74LXLIFT
 62
3
 10
3339.724
 20
-8363.881
 30
-2090.000
 70
    32
  0
VERTEX
  8
E74LXLIFT
 62
3
 10
3338.736
 20
-8352.100
 30
-2090.000
 70
    32
  0
VERTEX
  8
E74LXLIFT
 62
3
 10
3342.580
 20
-8335.871
 30
-2090.000
 70
    32
  0
VERTEX
  8
E74LXLIFT
 62
3
 10
3345.601
 20
-8332.473
 30
-2090.000
 70
    32
  0
VERTEX
  8
E74LXLIFT
 62
3
 10
3353.876
 20
-8333.689
 30
-2090.000
 70
    32
  0
VERTEX
  8
E74LXLIFT
 62
3
 10
3355.961
 20
-8327.141
 30
-2090.000
 70
    32
  0
VERTEX
  8
E74LXLIFT
 62
3
 10
3370.028
 20
-8329.291
 30
-2090.000
 70
    32
  0
VERTEX
  8
E74LXLIFT
 62
3
 10
3377.751
 20
-8342.240
 30
-2090.000
 70
    32
  0
VERTEX
  8
E74LXLIFT
 62
3
 10
3393.810
 20
-8339.106
 30
-2090.000
 70
    32
  0
VERTEX
  8
E74LXLIFT
 62
3
 10
3396.989
 20
-8350.175
 30
-2090.000
 70
    32
  0
VERTEX
  8
E74LXLIFT
 62
3
 10
3376.073
 20
-8353.292
 30
-2090.000
 70
    32
  0
VERTEX
  8
E74LXLIFT
 62
3
 10
3374.684
 20
-8356.181
 30
-2090.000
 70
    32
  0
VERTEX
  8
E74LXLIFT
 62
3
 10
3379.629
 20
-8361.292
 30
-2090.000
 70
    32
  0
VERTEX
  8
E74LXLIFT
 62
3
 10
3394.979
 20
-8364.048
 30
-2090.000
 70
    32
  0
VERTEX
  8
E74LXLIFT
 62
3
 10
3399.244
 20
-8374.068
 30
-2090.000
 70
    32
  0
VERTEX
  8
E74LXLIFT
 62
3
 10
3414.510
 20
-8389.133
 30
-2090.000
 70
    32
  0
VERTEX
  8
E74LXLIFT
 62
3
 10
3417.380
 20
-8389.199
 30
-2090.000
 70
    32
  0
VERTEX
  8
E74LXLIFT
 62
3
 10
3432.397
 20
-8400.483
 30
-2090.000
 70
    32
  0
VERTEX
  8
E74LXLIFT
 62
3
 10
3437.895
 20
-8399.485
 30
-2090.000
 70
    32
  0
SEQEND
  8
E74LXLIFT
  0
POLYLINE
  8
E74LXLIFT
 62
4
 66
     1
 70
     9
  0
VERTEX
  8
E74LXLIFT
 62
4
 10
3372.409
 20
-8332.658
 30
-2101.000
 70
    32
  0
VERTEX
  8
E74LXLIFT
 62
4
 10
3359.899
 20
-8326.991
 30
-2101.000
 70
    32
  0
VERTEX
  8
E74LXLIFT
 62
4
 10
3354.783
 20
-8333.197
 30
-2101.000
 70
    32
  0
VERTEX
  8
E74LXLIFT
 62
4
 10
3348.881
 20
-8333.209
 30
-2101.000
 70
    32
  0
VERTEX
  8
E74LXLIFT
 62
4
 10
3342.999
 20
-8341.091
 30
-2101.000
 70
    32
  0
VERTEX
  8
E74LXLIFT
 62
4
 10
3340.047
 20
-8351.096
 30
-2101.000
 70
    32
  0
VERTEX
  8
E74LXLIFT
 62
4
 10
3341.692
 20
-8360.054
 30
-2101.000
 70
    32
  0
VERTEX
  8
E74LXLIFT
 62
4
 10
3348.729
 20
-8367.114
 30
-2101.000
 70
    32
  0
VERTEX
  8
E74LXLIFT
 62
4
 10
3358.500
 20
-8372.493
 30
-2101.000
 70
    32
  0
VERTEX
  8
E74LXLIFT
 62
4
 10
3362.741
 20
-8377.618
 30
-2101.000
 70
    32
  0
VERTEX
  8
E74LXLIFT
 62
4
 10
3374.065
 20
-8387.515
 30
-2101.000
 70
    32
  0
VERTEX
  8
E74LXLIFT
 62
4
 10
3397.171
 20
-8398.532
 30
-2101.000
 70
    32
  0
VERTEX
  8
E74LXLIFT
 62
4
 10
3405.859
 20
-8396.521
 30
-2101.000
 70
    32
  0
VERTEX
  8
E74LXLIFT
 62
4
 10
3412.596
 20
-8400.417
 30
-2101.000
 70
    32
  0
VERTEX
  8
E74LXLIFT
 62
4
 10
3418.444
 20
-8389.742
 30
-2101.000
 70
    32
  0
VERTEX
  8
E74LXLIFT
 62
4
 10
3408.963
 20
-8383.591
 30
-2101.000
 70
    32
  0
VERTEX
  8
E74LXLIFT
 62
4
 10
3393.231
 20
-8365.592
 30
-2101.000
 70
    32
  0
VERTEX
  8
E74LXLIFT
 62
4
 10
3377.257
 20
-8357.060
 30
-2101.000
 70
    32
  0
VERTEX
  8
E74LXLIFT
 62
4
 10
3375.373
 20
-8337.572
 30
-2101.000
 70
    32
  0
SEQEND
  8
E74LXLIFT
  0
POLYLINE
  8
E74LXLIFT
 62
11
 66
     1
 70
     9
  0
VERTEX
  8
E74LXLIFT
 62
11
 10
3372.409
 20
-8332.658
 30
-2114.000
 70
    32
  0
VERTEX
  8
E74LXLIFT
 62
11
 10
3359.899
 20
-8326.991
 30
-2114.000
 70
    32
  0
VERTEX
  8
E74LXLIFT
 62
11
 10
3354.783
 20
-8333.197
 30
-2114.000
 70
    32
  0
VERTEX
  8
E74LXLIFT
 62
11
 10
3348.881
 20
-8333.209
 30
-2114.000
 70
    32
  0
VERTEX
  8
E74LXLIFT
 62
11
 10
3342.999
 20
-8341.091
 30
-2114.000
 70
    32
  0
VERTEX
  8
E74LXLIFT
 62
11
 10
3340.047
 20
-8351.096
 30
-2114.000
 70
    32
  0
VERTEX
  8
E74LXLIFT
 62
11
 10
3341.692
 20
-8360.054
 30
-2114.000
 70
    32
  0
VERTEX
  8
E74LXLIFT
 62
11
 10
3348.729
 20
-8367.114
 30
-2114.000
 70
    32
  0
VERTEX
  8
E74LXLIFT
 62
11
 10
3358.500
 20
-8372.493
 30
-2114.000
 70
    32
  0
VERTEX
  8
E74LXLIFT
 62
11
 10
3362.741
 20
-8377.618
 30
-2114.000
 70
    32
  0
VERTEX
  8
E74LXLIFT
 62
11
 10
3374.065
 20
-8387.515
 30
-2114.000
 70
    32
  0
VERTEX
  8
E74LXLIFT
 62
11
 10
3397.171
 20
-8398.532
 30
-2114.000
 70
    32
  0
VERTEX
  8
E74LXLIFT
 62
11
 10
3405.859
 20
-8396.521
 30
-2114.000
 70
    32
  0
VERTEX
  8
E74LXLIFT
 62
11
 10
3412.596
 20
-8400.417
 30
-2114.000
 70
    32
  0
VERTEX
  8
E74LXLIFT
 62
11
 10
3418.444
 20
-8389.742
 30
-2114.000
 70
    32
  0
VERTEX
  8
E74LXLIFT
 62
11
 10
3408.963
 20
-8383.591
 30
-2114.000
 70
    32
  0
VERTEX
  8
E74LXLIFT
 62
11
 10
3393.231
 20
-8365.592
 30
-2114.000
 70
    32
  0
VERTEX
  8
E74LXLIFT
 62
11
 10
3377.257
 20
-8357.060
 30
-2114.000
 70
    32
  0
VERTEX
  8
E74LXLIFT
 62
11
 10
3375.373
 20
-8337.572
 30
-2114.000
 70
    32
  0
SEQEND
  8
E74LXLIFT
  0
POLYLINE
  8
E74LXLIFT
 62
8
 66
     1
 70
     9
  0
VERTEX
  8
E74LXLIFT
 62
8
 10
3853.019
 20
-8368.237
 30
-2059.000
 70
    32
  0
VERTEX
  8
E74LXLIFT
 62
8
 10
3853.382
 20
-8350.969
 30
-2059.000
 70
    32
  0
VERTEX
  8
E74LXLIFT
 62
8
 10
3874.394
 20
-8348.986
 30
-2059.000
 70
    32
  0
VERTEX
  8
E74LXLIFT
 62
8
 10
3883.951
 20
-8354.796
 30
-2058.000
 70
    32
  0
VERTEX
  8
E74LXLIFT
 62
8
 10
3883.662
 20
-8354.620
 30
-2056.000
 70
    32
  0
VERTEX
  8
E74LXLIFT
 62
8
 10
3891.730
 20
-8357.523
 30
-2057.000
 70
    32
  0
VERTEX
  8
E74LXLIFT
 62
8
 10
3895.091
 20
-8355.354
 30
-2057.000
 70
    32
  0
VERTEX
  8
E74LXLIFT
 62
8
 10
3902.085
 20
-8369.563
 30
-2056.000
 70
    32
  0
VERTEX
  8
E74LXLIFT
 62
8
 10
3905.349
 20
-8378.173
 30
-2056.000
 70
    32
  0
VERTEX
  8
E74LXLIFT
 62
8
 10
3915.209
 20
-8384.301
 30
-2057.000
 70
    32
  0
VERTEX
  8
E74LXLIFT
 62
8
 10
3915.375
 20
-8384.404
 30
-2057.000
 70
    32
  0
VERTEX
  8
E74LXLIFT
 62
8
 10
3915.542
 20
-8384.487
 30
-2057.000
 70
    32
  0
VERTEX
  8
E74LXLIFT
 62
8
 10
3918.374
 20
-8382.089
 30
-2057.000
 70
    32
  0
VERTEX
  8
E74LXLIFT
 62
8
 10
3923.533
 20
-8382.369
 30
-2057.000
 70
    32
  0
VERTEX
  8
E74LXLIFT
 62
8
 10
3927.366
 20
-8387.573
 30
-2054.588
 70
    32
  0
VERTEX
  8
E74LXLIFT
 62
8
 10
3932.054
 20
-8393.128
 30
-2054.366
 70
    32
  0
VERTEX
  8
E74LXLIFT
 62
8
 10
3933.983
 20
-8395.415
 30
-2054.274
 70
    32
  0
VERTEX
  8
E74LXLIFT
 62
8
 10
3958.756
 20
-8412.344
 30
-2053.318
 70
    32
  0
VERTEX
  8
E74LXLIFT
 62
8
 10
3973.741
 20
-8423.481
 30
-2052.724
 70
    32
  0
VERTEX
  8
E74LXLIFT
 62
8
 10
3968.990
 20
-8428.471
 30
-2052.793
 70
    32
  0
VERTEX
  8
E74LXLIFT
 62
8
 10
3968.991
 20
-8433.708
 30
-2053.000
 70
    32
  0
VERTEX
  8
E74LXLIFT
 62
8
 10
3972.202
 20
-8440.785
 30
-2053.500
 70
    32
  0
VERTEX
  8
E74LXLIFT
 62
8
 10
3972.372
 20
-8445.757
 30
-2053.000
 70
    32
  0
VERTEX
  8
E74LXLIFT
 62
8
 10
3975.593
 20
-8451.527
 30
-2052.000
 70
    32
  0
VERTEX
  8
E74LXLIFT
 62
8
 10
3986.789
 20
-8450.337
 30
-2051.500
 70
    32
  0
VERTEX
  8
E74LXLIFT
 62
8
 10
3996.511
 20
-8446.421
 30
-2051.500
 70
    32
  0
VERTEX
  8
E74LXLIFT
 62
8
 10
4005.609
 20
-8440.952
 30
-2051.500
 70
    32
  0
VERTEX
  8
E74LXLIFT
 62
8
 10
4009.323
 20
-8450.236
 30
-2051.500
 70
    32
  0
VERTEX
  8
E74LXLIFT
 62
8
 10
3992.995
 20
-8458.070
 30
-2051.500
 70
    32
  0
VERTEX
  8
E74LXLIFT
 62
8
 10
3989.984
 20
-8464.587
 30
-2053.000
 70
    32
  0
VERTEX
  8
E74LXLIFT
 62
8
 10
3987.356
 20
-8465.009
 30
-2053.000
 70
    32
  0
VERTEX
  8
E74LXLIFT
 62
8
 10
3986.941
 20
-8467.980
 30
-2053.000
 70
    32
  0
VERTEX
  8
E74LXLIFT
 62
8
 10
3991.177
 20
-8475.713
 30
-2053.500
 70
    32
  0
VERTEX
  8
E74LXLIFT
 62
8
 10
3980.915
 20
-8481.920
 30
-2053.500
 70
    32
  0
VERTEX
  8
E74LXLIFT
 62
8
 10
3970.253
 20
-8482.770
 30
-2053.500
 70
    32
  0
VERTEX
  8
E74LXLIFT
 62
8
 10
3967.737
 20
-8475.734
 30
-2052.500
 70
    32
  0
VERTEX
  8
E74LXLIFT
 62
8
 10
3957.913
 20
-8470.482
 30
-2052.500
 70
    32
  0
VERTEX
  8
E74LXLIFT
 62
8
 10
3954.293
 20
-8464.264
 30
-2052.500
 70
    32
  0
VERTEX
  8
E74LXLIFT
 62
8
 10
3944.287
 20
-8458.284
 30
-2052.000
 70
    32
  0
VERTEX
  8
E74LXLIFT
 62
8
 10
3935.436
 20
-8454.891
 30
-2052.000
 70
    32
  0
VERTEX
  8
E74LXLIFT
 62
8
 10
3935.278
 20
-8448.955
 30
-2052.000
 70
    32
  0
VERTEX
  8
E74LXLIFT
 62
8
 10
3929.777
 20
-8444.607
 30
-2052.000
 70
    32
  0
VERTEX
  8
E74LXLIFT
 62
8
 10
3938.372
 20
-8433.053
 30
-2052.000
 70
    32
  0
VERTEX
  8
E74LXLIFT
 62
8
 10
3951.013
 20
-8442.375
 30
-2052.000
 70
    32
  0
VERTEX
  8
E74LXLIFT
 62
8
 10
3957.144
 20
-8436.571
 30
-2053.000
 70
    32
  0
VERTEX
  8
E74LXLIFT
 62
8
 10
3956.467
 20
-8431.644
 30
-2053.000
 70
    32
  0
VERTEX
  8
E74LXLIFT
 62
8
 10
3954.325
 20
-8424.764
 30
-2054.000
 70
    32
  0
VERTEX
  8
E74LXLIFT
 62
8
 10
3951.618
 20
-8422.863
 30
-2053.322
 70
    32
  0
VERTEX
  8
E74LXLIFT
 62
8
 10
3950.345
 20
-8424.406
 30
-2053.328
 70
    32
  0
VERTEX
  8
E74LXLIFT
 62
8
 10
3943.870
 20
-8417.581
 30
-2053.620
 70
    32
  0
VERTEX
  8
E74LXLIFT
 62
8
 10
3919.212
 20
-8398.802
 30
-2055.000
 70
    32
  0
VERTEX
  8
E74LXLIFT
 62
8
 10
3909.680
 20
-8394.174
 30
-2056.000
 70
    32
  0
VERTEX
  8
E74LXLIFT
 62
8
 10
3909.341
 20
-8394.198
 30
-2056.000
 70
    32
  0
VERTEX
  8
E74LXLIFT
 62
8
 10
3908.621
 20
-8394.184
 30
-2057.000
 70
    32
  0
VERTEX
  8
E74LXLIFT
 62
8
 10
3899.680
 20
-8394.006
 30
-2056.000
 70
    32
  0
VERTEX
  8
E74LXLIFT
 62
8
 10
3896.109
 20
-8386.095
 30
-2056.000
 70
    32
  0
VERTEX
  8
E74LXLIFT
 62
8
 10
3889.845
 20
-8376.223
 30
-2056.000
 70
    32
  0
VERTEX
  8
E74LXLIFT
 62
8
 10
3883.563
 20
-8372.109
 30
-2056.000
 70
    32
  0
VERTEX
  8
E74LXLIFT
 62
8
 10
3883.547
 20
-8372.097
 30
-2056.532
 70
    32
  0
VERTEX
  8
E74LXLIFT
 62
8
 10
3877.241
 20
-8375.076
 30
-2056.532
 70
    32
  0
VERTEX
  8
E74LXLIFT
 62
8
 10
3876.385
 20
-8380.757
 30
-2056.532
 70
    32
  0
VERTEX
  8
E74LXLIFT
 62
8
 10
3880.103
 20
-8382.232
 30
-2056.532
 70
    32
  0
VERTEX
  8
E74LXLIFT
 62
8
 10
3880.607
 20
-8390.418
 30
-2056.532
 70
    32
  0
VERTEX
  8
E74LXLIFT
 62
8
 10
3878.699
 20
-8396.802
 30
-2056.532
 70
    32
  0
VERTEX
  8
E74LXLIFT
 62
8
 10
3888.019
 20
-8417.308
 30
-2056.532
 70
    32
  0
VERTEX
  8
E74LXLIFT
 62
8
 10
3882.384
 20
-8420.975
 30
-2056.532
 70
    32
  0
VERTEX
  8
E74LXLIFT
 62
8
 10
3892.060
 20
-8447.696
 30
-2056.532
 70
    32
  0
VERTEX
  8
E74LXLIFT
 62
8
 10
3889.582
 20
-8449.660
 30
-2056.532
 70
    32
  0
VERTEX
  8
E74LXLIFT
 62
8
 10
3895.059
 20
-8470.644
 30
-2056.532
 70
    32
  0
VERTEX
  8
E74LXLIFT
 62
8
 10
3901.196
 20
-8482.266
 30
-2056.532
 70
    32
  0
VERTEX
  8
E74LXLIFT
 62
8
 10
3901.035
 20
-8481.975
 30
-2055.000
 70
    32
  0
VERTEX
  8
E74LXLIFT
 62
8
 10
3911.833
 20
-8489.750
 30
-2055.000
 70
    32
  0
VERTEX
  8
E74LXLIFT
 62
8
 10
3920.589
 20
-8493.652
 30
-2055.000
 70
    32
  0
VERTEX
  8
E74LXLIFT
 62
8
 10
3923.151
 20
-8500.498
 30
-2055.000
 70
    32
  0
VERTEX
  8
E74LXLIFT
 62
8
 10
3932.454
 20
-8504.943
 30
-2055.000
 70
    32
  0
VERTEX
  8
E74LXLIFT
 62
8
 10
3934.679
 20
-8509.620
 30
-2055.000
 70
    32
  0
VERTEX
  8
E74LXLIFT
 62
8
 10
3944.930
 20
-8515.329
 30
-2055.000
 70
    32
  0
VERTEX
  8
E74LXLIFT
 62
8
 10
3953.981
 20
-8525.213
 30
-2055.000
 70
    32
  0
VERTEX
  8
E74LXLIFT
 62
8
 10
3950.374
 20
-8530.318
 30
-2055.000
 70
    32
  0
VERTEX
  8
E74LXLIFT
 62
8
 10
3945.542
 20
-8534.419
 30
-2055.000
 70
    32
  0
VERTEX
  8
E74LXLIFT
 62
8
 10
3926.261
 20
-8521.008
 30
-2055.000
 70
    32
  0
VERTEX
  8
E74LXLIFT
 62
8
 10
3905.919
 20
-8505.379
 30
-2055.000
 70
    32
  0
VERTEX
  8
E74LXLIFT
 62
8
 10
3905.919
 20
-8505.379
 30
-2056.532
 70
    32
  0
VERTEX
  8
E74LXLIFT
 62
8
 10
3898.960
 20
-8497.113
 30
-2056.532
 70
    32
  0
VERTEX
  8
E74LXLIFT
 62
8
 10
3896.763
 20
-8496.702
 30
-2056.532
 70
    32
  0
VERTEX
  8
E74LXLIFT
 62
8
 10
3881.676
 20
-8471.540
 30
-2056.532
 70
    32
  0
VERTEX
  8
E74LXLIFT
 62
8
 10
3877.514
 20
-8444.806
 30
-2056.532
 70
    32
  0
VERTEX
  8
E74LXLIFT
 62
8
 10
3868.726
 20
-8422.595
 30
-2056.532
 70
    32
  0
VERTEX
  8
E74LXLIFT
 62
8
 10
3868.857
 20
-8414.269
 30
-2056.532
 70
    32
  0
VERTEX
  8
E74LXLIFT
 62
8
 10
3859.728
 20
-8399.396
 30
-2057.000
 70
    32
  0
VERTEX
  8
E74LXLIFT
 62
8
 10
3851.830
 20
-8390.886
 30
-2059.000
 70
    32
  0
VERTEX
  8
E74LXLIFT
 62
8
 10
3853.019
 20
-8368.237
 30
-2059.000
 70
    32
  0
SEQEND
  8
E74LXLIFT
  0
POLYLINE
  8
E74LXLIFT
 62
1
 66
     1
 70
     9
  0
VERTEX
  8
E74LXLIFT
 62
1
 10
3855.506
 20
-8394.712
 30
-2072.000
 70
    32
  0
VERTEX
  8
E74LXLIFT
 62
1
 10
3866.187
 20
-8407.221
 30
-2075.000
 70
    32
  0
VERTEX
  8
E74LXLIFT
 62
1
 10
3868.801
 20
-8415.145
 30
-2076.000
 70
    32
  0
VERTEX
  8
E74LXLIFT
 62
1
 10
3867.348
 20
-8421.826
 30
-2078.000
 70
    32
  0
VERTEX
  8
E74LXLIFT
 62
1
 10
3870.202
 20
-8427.888
 30
-2079.000
 70
    32
  0
VERTEX
  8
E74LXLIFT
 62
1
 10
3875.472
 20
-8438.595
 30
-2082.000
 70
    32
  0
VERTEX
  8
E74LXLIFT
 62
1
 10
3879.408
 20
-8452.495
 30
-2082.000
 70
    32
  0
VERTEX
  8
E74LXLIFT
 62
1
 10
3881.848
 20
-8466.962
 30
-2082.000
 70
    32
  0
VERTEX
  8
E74LXLIFT
 62
1
 10
3886.088
 20
-8481.072
 30
-2082.000
 70
    32
  0
VERTEX
  8
E74LXLIFT
 62
1
 10
3898.010
 20
-8480.558
 30
-2082.000
 70
    32
  0
VERTEX
  8
E74LXLIFT
 62
1
 10
3896.092
 20
-8469.200
 30
-2082.000
 70
    32
  0
VERTEX
  8
E74LXLIFT
 62
1
 10
3891.543
 20
-8459.776
 30
-2082.000
 70
    32
  0
VERTEX
  8
E74LXLIFT
 62
1
 10
3888.676
 20
-8447.072
 30
-2082.000
 70
    32
  0
VERTEX
  8
E74LXLIFT
 62
1
 10
3885.012
 20
-8427.312
 30
-2079.000
 70
    32
  0
VERTEX
  8
E74LXLIFT
 62
1
 10
3886.523
 20
-8420.959
 30
-2078.000
 70
    32
  0
VERTEX
  8
E74LXLIFT
 62
1
 10
3884.510
 20
-8415.296
 30
-2077.000
 70
    32
  0
VERTEX
  8
E74LXLIFT
 62
1
 10
3885.403
 20
-8405.554
 30
-2075.000
 70
    32
  0
VERTEX
  8
E74LXLIFT
 62
1
 10
3878.866
 20
-8386.079
 30
-2072.000
 70
    32
  0
SEQEND
  8
E74LXLIFT
  0
POLYLINE
  8
E74LXLIFT
 62
6
 66
     1
 70
     9
  0
VERTEX
  8
E74LXLIFT
 62
6
 10
3358.668
 20
-8359.853
 30
-2036.000
 70
    32
  0
VERTEX
  8
E74LXLIFT
 62
6
 10
3356.776
 20
-8363.480
 30
-2036.000
 70
    32
  0
VERTEX
  8
E74LXLIFT
 62
6
 10
3361.197
 20
-8366.748
 30
-2036.000
 70
    32
  0
VERTEX
  8
E74LXLIFT
 62
6
 10
3369.628
 20
-8369.167
 30
-2036.000
 70
    32
  0
VERTEX
  8
E74LXLIFT
 62
6
 10
3370.925
 20
-8374.605
 30
-2036.000
 70
    32
  0
VERTEX
  8
E74LXLIFT
 62
6
 10
3376.844
 20
-8380.348
 30
-2036.000
 70
    32
  0
VERTEX
  8
E74LXLIFT
 62
6
 10
3373.485
 20
-8385.553
 30
-2036.000
 70
    32
  0
VERTEX
  8
E74LXLIFT
 62
6
 10
3367.846
 20
-8389.778
 30
-2036.000
 70
    32
  0
VERTEX
  8
E74LXLIFT
 62
6
 10
3359.839
 20
-8384.232
 30
-2036.000
 70
    32
  0
VERTEX
  8
E74LXLIFT
 62
6
 10
3355.128
 20
-8385.489
 30
-2036.000
 70
    32
  0
VERTEX
  8
E74LXLIFT
 62
6
 10
3348.517
 20
-8391.824
 30
-2036.000
 70
    32
  0
VERTEX
  8
E74LXLIFT
 62
6
 10
3347.179
 20
-8398.461
 30
-2036.000
 70
    32
  0
VERTEX
  8
E74LXLIFT
 62
6
 10
3342.621
 20
-8400.379
 30
-2036.000
 70
    32
  0
VERTEX
  8
E74LXLIFT
 62
6
 10
3336.976
 20
-8398.922
 30
-2036.000
 70
    32
  0
VERTEX
  8
E74LXLIFT
 62
6
 10
3337.133
 20
-8398.062
 30
-2036.000
 70
    32
  0
VERTEX
  8
E74LXLIFT
 62
6
 10
3333.439
 20
-8397.920
 30
-2036.000
 70
    32
  0
VERTEX
  8
E74LXLIFT
 62
6
 10
3316.581
 20
-8403.024
 30
-2036.000
 70
    32
  0
VERTEX
  8
E74LXLIFT
 62
6
 10
3316.043
 20
-8400.073
 30
-2036.000
 70
    32
  0
VERTEX
  8
E74LXLIFT
 62
6
 10
3321.625
 20
-8392.098
 30
-2036.000
 70
    32
  0
VERTEX
  8
E74LXLIFT
 62
6
 10
3334.089
 20
-8384.213
 30
-2036.000
 70
    32
  0
VERTEX
  8
E74LXLIFT
 62
6
 10
3331.055
 20
-8381.829
 30
-2036.000
 70
    32
  0
VERTEX
  8
E74LXLIFT
 62
6
 10
3324.651
 20
-8380.209
 30
-2036.000
 70
    32
  0
VERTEX
  8
E74LXLIFT
 62
6
 10
3317.515
 20
-8385.515
 30
-2036.000
 70
    32
  0
VERTEX
  8
E74LXLIFT
 62
6
 10
3311.619
 20
-8378.726
 30
-2036.000
 70
    32
  0
VERTEX
  8
E74LXLIFT
 62
6
 10
3308.581
 20
-8371.275
 30
-2036.000
 70
    32
  0
VERTEX
  8
E74LXLIFT
 62
6
 10
3307.510
 20
-8363.710
 30
-2036.000
 70
    32
  0
VERTEX
  8
E74LXLIFT
 62
6
 10
3289.647
 20
-8347.639
 30
-2036.000
 70
    32
  0
VERTEX
  8
E74LXLIFT
 62
6
 10
3291.278
 20
-8340.876
 30
-2036.000
 70
    32
  0
VERTEX
  8
E74LXLIFT
 62
6
 10
3301.282
 20
-8335.593
 30
-2036.000
 70
    32
  0
VERTEX
  8
E74LXLIFT
 62
6
 10
3299.815
 20
-8332.602
 30
-2036.000
 70
    32
  0
VERTEX
  8
E74LXLIFT
 62
6
 10
3303.227
 20
-8328.948
 30
-2036.000
 70
    32
  0
VERTEX
  8
E74LXLIFT
 62
6
 10
3310.105
 20
-8331.533
 30
-2036.000
 70
    32
  0
VERTEX
  8
E74LXLIFT
 62
6
 10
3310.206
 20
-8332.104
 30
-2036.000
 70
    32
  0
VERTEX
  8
E74LXLIFT
 62
6
 10
3315.604
 20
-8333.903
 30
-2036.000
 70
    32
  0
VERTEX
  8
E74LXLIFT
 62
6
 10
3321.145
 20
-8332.346
 30
-2036.000
 70
    32
  0
VERTEX
  8
E74LXLIFT
 62
6
 10
3323.839
 20
-8324.367
 30
-2036.000
 70
    32
  0
VERTEX
  8
E74LXLIFT
 62
6
 10
3331.511
 20
-8322.352
 30
-2036.000
 70
    32
  0
VERTEX
  8
E74LXLIFT
 62
6
 10
3335.539
 20
-8326.323
 30
-2036.000
 70
    32
  0
VERTEX
  8
E74LXLIFT
 62
6
 10
3334.015
 20
-8334.989
 30
-2036.000
 70
    32
  0
VERTEX
  8
E74LXLIFT
 62
6
 10
3336.310
 20
-8347.458
 30
-2036.000
 70
    32
  0
VERTEX
  8
E74LXLIFT
 62
6
 10
3337.700
 20
-8349.408
 30
-2036.000
 70
    32
  0
VERTEX
  8
E74LXLIFT
 62
6
 10
3348.134
 20
-8348.509
 30
-2036.000
 70
    32
  0
VERTEX
  8
E74LXLIFT
 62
6
 10
3350.488
 20
-8348.731
 30
-2037.662
 70
    32
  0
SEQEND
  8
E74LXLIFT
  0
POLYLINE
  8
E74LXLIFT
 62
2
 66
     1
 70
     9
  0
VERTEX
  8
E74LXLIFT
 62
2
 10
3348.327
 20
-8352.025
 30
-2028.000
 70
    32
  0
VERTEX
  8
E74LXLIFT
 62
2
 10
3367.909
 20
-8354.911
 30
-2028.000
 70
    32
  0
VERTEX
  8
E74LXLIFT
 62
2
 10
3366.342
 20
-8365.107
 30
-2027.984
 70
    32
  0
VERTEX
  8
E74LXLIFT
 62
2
 10
3366.430
 20
-8371.106
 30
-2027.434
 70
    32
  0
VERTEX
  8
E74LXLIFT
 62
2
 10
3365.667
 20
-8372.392
 30
-2027.000
 70
    32
  0
VERTEX
  8
E74LXLIFT
 62
2
 10
3367.330
 20
-8377.247
 30
-2027.000
 70
    32
  0
VERTEX
  8
E74LXLIFT
 62
2
 10
3364.811
 20
-8387.855
 30
-2027.000
 70
    32
  0
VERTEX
  8
E74LXLIFT
 62
2
 10
3366.598
 20
-8391.793
 30
-2027.000
 70
    32
  0
VERTEX
  8
E74LXLIFT
 62
2
 10
3368.833
 20
-8396.161
 30
-2026.000
 70
    32
  0
VERTEX
  8
E74LXLIFT
 62
2
 10
3360.237
 20
-8401.107
 30
-2026.000
 70
    32
  0
VERTEX
  8
E74LXLIFT
 62
2
 10
3355.901
 20
-8395.424
 30
-2025.000
 70
    32
  0
VERTEX
  8
E74LXLIFT
 62
2
 10
3350.743
 20
-8395.630
 30
-2025.000
 70
    32
  0
VERTEX
  8
E74LXLIFT
 62
2
 10
3344.358
 20
-8400.877
 30
-2025.000
 70
    32
  0
VERTEX
  8
E74LXLIFT
 62
2
 10
3340.750
 20
-8407.168
 30
-2025.000
 70
    32
  0
VERTEX
  8
E74LXLIFT
 62
2
 10
3335.338
 20
-8404.485
 30
-2025.000
 70
    32
  0
VERTEX
  8
E74LXLIFT
 62
2
 10
3324.811
 20
-8411.075
 30
-2025.000
 70
    32
  0
VERTEX
  8
E74LXLIFT
 62
2
 10
3311.683
 20
-8412.826
 30
-2025.000
 70
    32
  0
VERTEX
  8
E74LXLIFT
 62
2
 10
3303.867
 20
-8406.588
 30
-2025.000
 70
    32
  0
VERTEX
  8
E74LXLIFT
 62
2
 10
3325.621
 20
-8395.960
 30
-2025.000
 70
    32
  0
VERTEX
  8
E74LXLIFT
 62
2
 10
3328.672
 20
-8388.171
 30
-2024.000
 70
    32
  0
VERTEX
  8
E74LXLIFT
 62
2
 10
3326.667
 20
-8383.630
 30
-2024.000
 70
    32
  0
VERTEX
  8
E74LXLIFT
 62
2
 10
3308.262
 20
-8385.417
 30
-2025.216
 70
    32
  0
VERTEX
  8
E74LXLIFT
 62
2
 10
3301.445
 20
-8377.282
 30
-2024.293
 70
    32
  0
VERTEX
  8
E74LXLIFT
 62
2
 10
3299.237
 20
-8366.073
 30
-2024.103
 70
    32
  0
VERTEX
  8
E74LXLIFT
 62
2
 10
3290.675
 20
-8363.184
 30
-2023.653
 70
    32
  0
VERTEX
  8
E74LXLIFT
 62
2
 10
3290.860
 20
-8350.182
 30
-2024.008
 70
    32
  0
VERTEX
  8
E74LXLIFT
 62
2
 10
3292.064
 20
-8344.660
 30
-2023.686
 70
    32
  0
VERTEX
  8
E74LXLIFT
 62
2
 10
3298.576
 20
-8335.310
 30
-2024.185
 70
    32
  0
VERTEX
  8
E74LXLIFT
 62
2
 10
3302.107
 20
-8332.836
 30
-2023.000
 70
    32
  0
VERTEX
  8
E74LXLIFT
 62
2
 10
3300.729
 20
-8325.547
 30
-2022.000
 70
    32
  0
VERTEX
  8
E74LXLIFT
 62
2
 10
3288.808
 20
-8312.870
 30
-2021.000
 70
    32
  0
VERTEX
  8
E74LXLIFT
 62
2
 10
3292.784
 20
-8303.895
 30
-2021.000
 70
    32
  0
VERTEX
  8
E74LXLIFT
 62
2
 10
3300.903
 20
-8303.520
 30
-2021.000
 70
    32
  0
VERTEX
  8
E74LXLIFT
 62
2
 10
3310.423
 20
-8314.739
 30
-2021.000
 70
    32
  0
VERTEX
  8
E74LXLIFT
 62
2
 10
3318.840
 20
-8315.988
 30
-2021.000
 70
    32
  0
VERTEX
  8
E74LXLIFT
 62
2
 10
3322.994
 20
-8325.785
 30
-2023.283
 70
    32
  0
VERTEX
  8
E74LXLIFT
 62
2
 10
3325.934
 20
-8337.122
 30
-2025.500
 70
    32
  0
VERTEX
  8
E74LXLIFT
 62
2
 10
3333.177
 20
-8340.017
 30
-2027.000
 70
    32
  0
VERTEX
  8
E74LXLIFT
 62
2
 10
3336.469
 20
-8350.453
 30
-2028.000
 70
    32
  0
SEQEND
  8
E74LXLIFT
  0
POLYLINE
  8
E74LXLIFT
 62
1
 66
     1
 70
     9
  0
VERTEX
  8
E74LXLIFT
 62
1
 10
3285.647
 20
-8419.221
 30
-1909.000
 70
    32
  0
VERTEX
  8
E74LXLIFT
 62
1
 10
3268.802
 20
-8400.070
 30
-1909.000
 70
    32
  0
VERTEX
  8
E74LXLIFT
 62
1
 10
3270.418
 20
-8390.414
 30
-1909.000
 70
    32
  0
VERTEX
  8
E74LXLIFT
 62
1
 10
3259.497
 20
-8373.468
 30
-1909.000
 70
    32
  0
VERTEX
  8
E74LXLIFT
 62
1
 10
3234.640
 20
-8365.545
 30
-1907.220
 70
    32
  0
VERTEX
  8
E74LXLIFT
 62
1
 10
3234.608
 20
-8364.685
 30
-1907.220
 70
    32
  0
VERTEX
  8
E74LXLIFT
 62
1
 10
3226.413
 20
-8369.506
 30
-1907.220
 70
    32
  0
VERTEX
  8
E74LXLIFT
 62
1
 10
3211.909
 20
-8350.936
 30
-1907.220
 70
    32
  0
VERTEX
  8
E74LXLIFT
 62
1
 10
3216.612
 20
-8341.906
 30
-1907.220
 70
    32
  0
VERTEX
  8
E74LXLIFT
 62
1
 10
3211.847
 20
-8335.431
 30
-1907.220
 70
    32
  0
VERTEX
  8
E74LXLIFT
 62
1
 10
3215.740
 20
-8331.341
 30
-1907.220
 70
    32
  0
VERTEX
  8
E74LXLIFT
 62
1
 10
3225.911
 20
-8329.931
 30
-1907.220
 70
    32
  0
VERTEX
  8
E74LXLIFT
 62
1
 10
3235.434
 20
-8324.097
 30
-1907.220
 70
    32
  0
VERTEX
  8
E74LXLIFT
 62
1
 10
3239.644
 20
-8324.604
 30
-1907.220
 70
    32
  0
VERTEX
  8
E74LXLIFT
 62
1
 10
3241.841
 20
-8319.178
 30
-1907.220
 70
    32
  0
VERTEX
  8
E74LXLIFT
 62
1
 10
3247.172
 20
-8319.683
 30
-1907.220
 70
    32
  0
VERTEX
  8
E74LXLIFT
 62
1
 10
3250.460
 20
-8320.691
 30
-1907.220
 70
    32
  0
VERTEX
  8
E74LXLIFT
 62
1
 10
3249.103
 20
-8334.656
 30
-1907.220
 70
    32
  0
VERTEX
  8
E74LXLIFT
 62
1
 10
3246.816
 20
-8334.373
 30
-1907.220
 70
    32
  0
VERTEX
  8
E74LXLIFT
 62
1
 10
3243.688
 20
-8336.938
 30
-1907.220
 70
    32
  0
VERTEX
  8
E74LXLIFT
 62
1
 10
3238.381
 20
-8345.398
 30
-1907.220
 70
    32
  0
VERTEX
  8
E74LXLIFT
 62
1
 10
3241.184
 20
-8352.208
 30
-1907.220
 70
    32
  0
VERTEX
  8
E74LXLIFT
 62
1
 10
3253.430
 20
-8357.211
 30
-1908.000
 70
    32
  0
VERTEX
  8
E74LXLIFT
 62
1
 10
3264.774
 20
-8360.931
 30
-1909.220
 70
    32
  0
VERTEX
  8
E74LXLIFT
 62
1
 10
3278.661
 20
-8375.882
 30
-1909.000
 70
    32
  0
VERTEX
  8
E74LXLIFT
 62
1
 10
3285.410
 20
-8377.793
 30
-1909.000
 70
    32
  0
VERTEX
  8
E74LXLIFT
 62
1
 10
3285.928
 20
-8387.390
 30
-1909.000
 70
    32
  0
VERTEX
  8
E74LXLIFT
 62
1
 10
3297.559
 20
-8412.549
 30
-1909.000
 70
    32
  0
SEQEND
  8
E74LXLIFT
  0
POLYLINE
  8
E74LXLIFT
 62
1
 66
     1
 70
     8
  0
VERTEX
  8
E74LXLIFT
 62
1
 10
3235.536
 20
-8330.690
 30
-1907.722
 70
    32
  0
VERTEX
  8
E74LXLIFT
 62
1
 10
3235.534
 20
-8330.647
 30
-1907.722
 70
    32
  0
VERTEX
  8
E74LXLIFT
 62
1
 10
3235.529
 20
-8330.603
 30
-1907.722
 70
    32
  0
VERTEX
  8
E74LXLIFT
 62
1
 10
3235.519
 20
-8330.561
 30
-1907.722
 70
    32
  0
VERTEX
  8
E74LXLIFT
 62
1
 10
3235.506
 20
-8330.519
 30
-1907.722
 70
    32
  0
VERTEX
  8
E74LXLIFT
 62
1
 10
3235.489
 20
-8330.479
 30
-1907.722
 70
    32
  0
VERTEX
  8
E74LXLIFT
 62
1
 10
3235.469
 20
-8330.440
 30
-1907.722
 70
    32
  0
VERTEX
  8
E74LXLIFT
 62
1
 10
3235.446
 20
-8330.404
 30
-1907.722
 70
    32
  0
VERTEX
  8
E74LXLIFT
 62
1
 10
3235.419
 20
-8330.369
 30
-1907.722
 70
    32
  0
VERTEX
  8
E74LXLIFT
 62
1
 10
3235.390
 20
-8330.337
 30
-1907.722
 70
    32
  0
VERTEX
  8
E74LXLIFT
 62
1
 10
3235.358
 20
-8330.307
 30
-1907.722
 70
    32
  0
VERTEX
  8
E74LXLIFT
 62
1
 10
3235.323
 20
-8330.281
 30
-1907.722
 70
    32
  0
VERTEX
  8
E74LXLIFT
 62
1
 10
3235.286
 20
-8330.257
 30
-1907.722
 70
    32
  0
VERTEX
  8
E74LXLIFT
 62
1
 10
3235.247
 20
-8330.237
 30
-1907.722
 70
    32
  0
VERTEX
  8
E74LXLIFT
 62
1
 10
3235.207
 20
-8330.220
 30
-1907.722
 70
    32
  0
VERTEX
  8
E74LXLIFT
 62
1
 10
3235.166
 20
-8330.207
 30
-1907.722
 70
    32
  0
VERTEX
  8
E74LXLIFT
 62
1
 10
3235.123
 20
-8330.198
 30
-1907.722
 70
    32
  0
VERTEX
  8
E74LXLIFT
 62
1
 10
3235.080
 20
-8330.192
 30
-1907.722
 70
    32
  0
VERTEX
  8
E74LXLIFT
 62
1
 10
3235.036
 20
-8330.190
 30
-1907.722
 70
    32
  0
VERTEX
  8
E74LXLIFT
 62
1
 10
3234.993
 20
-8330.192
 30
-1907.722
 70
    32
  0
VERTEX
  8
E74LXLIFT
 62
1
 10
3234.949
 20
-8330.198
 30
-1907.722
 70
    32
  0
VERTEX
  8
E74LXLIFT
 62
1
 10
3234.907
 20
-8330.207
 30
-1907.722
 70
    32
  0
VERTEX
  8
E74LXLIFT
 62
1
 10
3234.865
 20
-8330.220
 30
-1907.722
 70
    32
  0
VERTEX
  8
E74LXLIFT
 62
1
 10
3234.825
 20
-8330.237
 30
-1907.722
 70
    32
  0
VERTEX
  8
E74LXLIFT
 62
1
 10
3234.786
 20
-8330.257
 30
-1907.722
 70
    32
  0
VERTEX
  8
E74LXLIFT
 62
1
 10
3234.749
 20
-8330.281
 30
-1907.722
 70
    32
  0
VERTEX
  8
E74LXLIFT
 62
1
 10
3234.715
 20
-8330.307
 30
-1907.722
 70
    32
  0
VERTEX
  8
E74LXLIFT
 62
1
 10
3234.683
 20
-8330.337
 30
-1907.722
 70
    32
  0
VERTEX
  8
E74LXLIFT
 62
1
 10
3234.653
 20
-8330.369
 30
-1907.722
 70
    32
  0
VERTEX
  8
E74LXLIFT
 62
1
 10
3234.627
 20
-8330.404
 30
-1907.722
 70
    32
  0
VERTEX
  8
E74LXLIFT
 62
1
 10
3234.603
 20
-8330.440
 30
-1907.722
 70
    32
  0
VERTEX
  8
E74LXLIFT
 62
1
 10
3234.583
 20
-8330.479
 30
-1907.722
 70
    32
  0
VERTEX
  8
E74LXLIFT
 62
1
 10
3234.566
 20
-8330.519
 30
-1907.722
 70
    32
  0
VERTEX
  8
E74LXLIFT
 62
1
 10
3234.553
 20
-8330.561
 30
-1907.722
 70
    32
  0
VERTEX
  8
E74LXLIFT
 62
1
 10
3234.544
 20
-8330.603
 30
-1907.722
 70
    32
  0
VERTEX
  8
E74LXLIFT
 62
1
 10
3234.538
 20
-8330.647
 30
-1907.722
 70
    32
  0
VERTEX
  8
E74LXLIFT
 62
1
 10
3234.536
 20
-8330.690
 30
-1907.722
 70
    32
  0
VERTEX
  8
E74LXLIFT
 62
1
 10
3234.538
 20
-8330.734
 30
-1907.722
 70
    32
  0
VERTEX
  8
E74LXLIFT
 62
1
 10
3234.544
 20
-8330.777
 30
-1907.722
 70
    32
  0
VERTEX
  8
E74LXLIFT
 62
1
 10
3234.553
 20
-8330.820
 30
-1907.722
 70
    32
  0
VERTEX
  8
E74LXLIFT
 62
1
 10
3234.566
 20
-8330.861
 30
-1907.722
 70
    32
  0
VERTEX
  8
E74LXLIFT
 62
1
 10
3234.583
 20
-8330.902
 30
-1907.722
 70
    32
  0
VERTEX
  8
E74LXLIFT
 62
1
 10
3234.603
 20
-8330.940
 30
-1907.722
 70
    32
  0
VERTEX
  8
E74LXLIFT
 62
1
 10
3234.627
 20
-8330.977
 30
-1907.722
 70
    32
  0
VERTEX
  8
E74LXLIFT
 62
1
 10
3234.653
 20
-8331.012
 30
-1907.722
 70
    32
  0
VERTEX
  8
E74LXLIFT
 62
1
 10
3234.683
 20
-8331.044
 30
-1907.722
 70
    32
  0
VERTEX
  8
E74LXLIFT
 62
1
 10
3234.715
 20
-8331.073
 30
-1907.722
 70
    32
  0
VERTEX
  8
E74LXLIFT
 62
1
 10
3234.749
 20
-8331.100
 30
-1907.722
 70
    32
  0
VERTEX
  8
E74LXLIFT
 62
1
 10
3234.786
 20
-8331.123
 30
-1907.722
 70
    32
  0
VERTEX
  8
E74LXLIFT
 62
1
 10
3234.825
 20
-8331.143
 30
-1907.722
 70
    32
  0
VERTEX
  8
E74LXLIFT
 62
1
 10
3234.865
 20
-8331.160
 30
-1907.722
 70
    32
  0
VERTEX
  8
E74LXLIFT
 62
1
 10
3234.907
 20
-8331.173
 30
-1907.722
 70
    32
  0
VERTEX
  8
E74LXLIFT
 62
1
 10
3234.949
 20
-8331.183
 30
-1907.722
 70
    32
  0
VERTEX
  8
E74LXLIFT
 62
1
 10
3234.993
 20
-8331.188
 30
-1907.722
 70
    32
  0
VERTEX
  8
E74LXLIFT
 62
1
 10
3235.036
 20
-8331.190
 30
-1907.722
 70
    32
  0
VERTEX
  8
E74LXLIFT
 62
1
 10
3235.080
 20
-8331.188
 30
-1907.722
 70
    32
  0
VERTEX
  8
E74LXLIFT
 62
1
 10
3235.123
 20
-8331.183
 30
-1907.722
 70
    32
  0
VERTEX
  8
E74LXLIFT
 62
1
 10
3235.166
 20
-8331.173
 30
-1907.722
 70
    32
  0
VERTEX
  8
E74LXLIFT
 62
1
 10
3235.207
 20
-8331.160
 30
-1907.722
 70
    32
  0
VERTEX
  8
E74LXLIFT
 62
1
 10
3235.247
 20
-8331.143
 30
-1907.722
 70
    32
  0
VERTEX
  8
E74LXLIFT
 62
1
 10
3235.286
 20
-8331.123
 30
-1907.722
 70
    32
  0
VERTEX
  8
E74LXLIFT
 62
1
 10
3235.323
 20
-8331.100
 30
-1907.722
 70
    32
  0
VERTEX
  8
E74LXLIFT
 62
1
 10
3235.358
 20
-8331.073
 30
-1907.722
 70
    32
  0
VERTEX
  8
E74LXLIFT
 62
1
 10
3235.390
 20
-8331.044
 30
-1907.722
 70
    32
  0
VERTEX
  8
E74LXLIFT
 62
1
 10
3235.419
 20
-8331.012
 30
-1907.722
 70
    32
  0
VERTEX
  8
E74LXLIFT
 62
1
 10
3235.446
 20
-8330.977
 30
-1907.722
 70
    32
  0
VERTEX
  8
E74LXLIFT
 62
1
 10
3235.469
 20
-8330.940
 30
-1907.722
 70
    32
  0
VERTEX
  8
E74LXLIFT
 62
1
 10
3235.489
 20
-8330.902
 30
-1907.722
 70
    32
  0
VERTEX
  8
E74LXLIFT
 62
1
 10
3235.506
 20
-8330.861
 30
-1907.722
 70
    32
  0
VERTEX
  8
E74LXLIFT
 62
1
 10
3235.519
 20
-8330.820
 30
-1907.722
 70
    32
  0
VERTEX
  8
E74LXLIFT
 62
1
 10
3235.529
 20
-8330.777
 30
-1907.722
 70
    32
  0
VERTEX
  8
E74LXLIFT
 62
1
 10
3235.534
 20
-8330.734
 30
-1907.722
 70
    32
  0
VERTEX
  8
E74LXLIFT
 62
1
 10
3235.536
 20
-8330.690
 30
-1907.722
 70
    32
  0
SEQEND
  8
E74LXLIFT
  0
TEXT
  8
E74LXLIFT
 62
1
 10
3234.835
 20
-8332.076
 30
-1907.813
 40
1.500
  1
Fl -1919.163
 50
282.482
 41
 1.0 
  0
POLYLINE
  8
E74LXLIFT
 62
3
 66
     1
 70
     9
  0
VERTEX
  8
E74LXLIFT
 62
3
 10
3253.566
 20
-8312.115
 30
-1944.000
 70
    32
  0
VERTEX
  8
E74LXLIFT
 62
3
 10
3259.570
 20
-8317.337
 30
-1944.000
 70
    32
  0
VERTEX
  8
E74LXLIFT
 62
3
 10
3259.424
 20
-8317.210
 30
-1944.000
 70
    32
  0
VERTEX
  8
E74LXLIFT
 62
3
 10
3258.034
 20
-8322.047
 30
-1944.000
 70
    32
  0
VERTEX
  8
E74LXLIFT
 62
3
 10
3250.275
 20
-8326.415
 30
-1944.000
 70
    32
  0
VERTEX
  8
E74LXLIFT
 62
3
 10
3244.728
 20
-8326.674
 30
-1944.000
 70
    32
  0
VERTEX
  8
E74LXLIFT
 62
3
 10
3241.092
 20
-8333.695
 30
-1944.000
 70
    32
  0
VERTEX
  8
E74LXLIFT
 62
3
 10
3241.207
 20
-8348.180
 30
-1944.000
 70
    32
  0
VERTEX
  8
E74LXLIFT
 62
3
 10
3243.514
 20
-8355.735
 30
-1944.000
 70
    32
  0
VERTEX
  8
E74LXLIFT
 62
3
 10
3249.742
 20
-8360.078
 30
-1944.000
 70
    32
  0
VERTEX
  8
E74LXLIFT
 62
3
 10
3250.153
 20
-8366.315
 30
-1944.000
 70
    32
  0
VERTEX
  8
E74LXLIFT
 62
3
 10
3253.214
 20
-8368.867
 30
-1944.000
 70
    32
  0
VERTEX
  8
E74LXLIFT
 62
3
 10
3253.214
 20
-8368.867
 30
-1944.000
 70
    32
  0
VERTEX
  8
E74LXLIFT
 62
3
 10
3257.915
 20
-8370.642
 30
-1944.000
 70
    32
  0
VERTEX
  8
E74LXLIFT
 62
3
 10
3263.802
 20
-8362.357
 30
-1944.000
 70
    32
  0
VERTEX
  8
E74LXLIFT
 62
3
 10
3270.212
 20
-8355.017
 30
-1944.000
 70
    32
  0
VERTEX
  8
E74LXLIFT
 62
3
 10
3272.655
 20
-8345.768
 30
-1944.000
 70
    32
  0
VERTEX
  8
E74LXLIFT
 62
3
 10
3278.612
 20
-8340.667
 30
-1944.000
 70
    32
  0
VERTEX
  8
E74LXLIFT
 62
3
 10
3286.440
 20
-8344.924
 30
-1944.000
 70
    32
  0
VERTEX
  8
E74LXLIFT
 62
3
 10
3286.440
 20
-8344.924
 30
-1944.000
 70
    32
  0
VERTEX
  8
E74LXLIFT
 62
3
 10
3291.979
 20
-8356.497
 30
-1944.000
 70
    32
  0
VERTEX
  8
E74LXLIFT
 62
3
 10
3290.305
 20
-8360.824
 30
-1944.000
 70
    32
  0
VERTEX
  8
E74LXLIFT
 62
3
 10
3281.996
 20
-8359.886
 30
-1944.000
 70
    32
  0
VERTEX
  8
E74LXLIFT
 62
3
 10
3280.894
 20
-8369.797
 30
-1944.000
 70
    32
  0
VERTEX
  8
E74LXLIFT
 62
3
 10
3290.497
 20
-8371.269
 30
-1944.000
 70
    32
  0
VERTEX
  8
E74LXLIFT
 62
3
 10
3293.899
 20
-8385.382
 30
-1944.000
 70
    32
  0
VERTEX
  8
E74LXLIFT
 62
3
 10
3293.494
 20
-8391.914
 30
-1944.000
 70
    32
  0
VERTEX
  8
E74LXLIFT
 62
3
 10
3281.046
 20
-8396.690
 30
-1944.000
 70
    32
  0
VERTEX
  8
E74LXLIFT
 62
3
 10
3284.159
 20
-8405.265
 30
-1944.000
 70
    32
  0
VERTEX
  8
E74LXLIFT
 62
3
 10
3283.310
 20
-8408.901
 30
-1944.000
 70
    32
  0
VERTEX
  8
E74LXLIFT
 62
3
 10
3289.624
 20
-8413.158
 30
-1944.000
 70
    32
  0
VERTEX
  8
E74LXLIFT
 62
3
 10
3293.832
 20
-8415.164
 30
-1944.000
 70
    32
  0
VERTEX
  8
E74LXLIFT
 62
3
 10
3299.845
 20
-8410.636
 30
-1944.000
 70
    32
  0
VERTEX
  8
E74LXLIFT
 62
3
 10
3302.347
 20
-8412.885
 30
-1944.000
 70
    32
  0
VERTEX
  8
E74LXLIFT
 62
3
 10
3302.330
 20
-8417.764
 30
-1944.000
 70
    32
  0
VERTEX
  8
E74LXLIFT
 62
3
 10
3314.507
 20
-8417.005
 30
-1944.000
 70
    32
  0
VERTEX
  8
E74LXLIFT
 62
3
 10
3314.681
 20
-8401.576
 30
-1944.000
 70
    32
  0
VERTEX
  8
E74LXLIFT
 62
3
 10
3316.701
 20
-8396.339
 30
-1944.000
 70
    32
  0
VERTEX
  8
E74LXLIFT
 62
3
 10
3323.316
 20
-8385.502
 30
-1944.000
 70
    32
  0
VERTEX
  8
E74LXLIFT
 62
3
 10
3325.579
 20
-8378.127
 30
-1944.000
 70
    32
  0
VERTEX
  8
E74LXLIFT
 62
3
 10
3324.017
 20
-8373.924
 30
-1944.000
 70
    32
  0
VERTEX
  8
E74LXLIFT
 62
3
 10
3316.491
 20
-8368.517
 30
-1944.000
 70
    32
  0
VERTEX
  8
E74LXLIFT
 62
3
 10
3309.274
 20
-8364.724
 30
-1944.000
 70
    32
  0
VERTEX
  8
E74LXLIFT
 62
3
 10
3304.586
 20
-8358.716
 30
-1944.000
 70
    32
  0
VERTEX
  8
E74LXLIFT
 62
3
 10
3301.432
 20
-8348.648
 30
-1944.000
 70
    32
  0
VERTEX
  8
E74LXLIFT
 62
3
 10
3295.619
 20
-8336.045
 30
-1944.000
 70
    32
  0
VERTEX
  8
E74LXLIFT
 62
3
 10
3288.822
 20
-8331.278
 30
-1944.000
 70
    32
  0
VERTEX
  8
E74LXLIFT
 62
3
 10
3286.413
 20
-8322.598
 30
-1944.000
 70
    32
  0
VERTEX
  8
E74LXLIFT
 62
3
 10
3288.794
 20
-8317.690
 30
-1944.000
 70
    32
  0
VERTEX
  8
E74LXLIFT
 62
3
 10
3280.354
 20
-8311.262
 30
-1944.000
 70
    32
  0
VERTEX
  8
E74LXLIFT
 62
3
 10
3275.859
 20
-8316.273
 30
-1944.000
 70
    32
  0
VERTEX
  8
E74LXLIFT
 62
3
 10
3269.976
 20
-8313.642
 30
-1944.000
 70
    32
  0
VERTEX
  8
E74LXLIFT
 62
3
 10
3253.299
 20
-8298.781
 30
-1944.000
 70
    32
  0
SEQEND
  8
E74LXLIFT
  0
TEXT
  8
E74LXLIFT
 62
1
 10
3275.240
 20
-8387.942
 30
-1920.273
 40
1.575
  1
Fl -1920.273
 41
 1.0 
  0
POLYLINE
  8
E74LXLIFT
 62
11
 66
     1
 70
     9
  0
VERTEX
  8
E74LXLIFT
 62
11
 10
3781.761
 20
-8335.543
 30
-2015.430
 70
    32
  0
VERTEX
  8
E74LXLIFT
 62
11
 10
3815.296
 20
-8342.944
 30
-2013.446
 70
    32
  0
VERTEX
  8
E74LXLIFT
 62
11
 10
3825.286
 20
-8341.906
 30
-2012.249
 70
    32
  0
VERTEX
  8
E74LXLIFT
 62
11
 10
3832.172
 20
-8334.979
 30
-2010.036
 70
    32
  0
VERTEX
  8
E74LXLIFT
 62
11
 10
3842.429
 20
-8336.393
 30
-2011.886
 70
    32
  0
VERTEX
  8
E74LXLIFT
 62
11
 10
3848.144
 20
-8334.566
 30
-2012.886
 70
    32
  0
VERTEX
  8
E74LXLIFT
 62
11
 10
3866.518
 20
-8353.195
 30
-2011.587
 70
    32
  0
VERTEX
  8
E74LXLIFT
 62
11
 10
3863.635
 20
-8368.408
 30
-2014.650
 70
    32
  0
VERTEX
  8
E74LXLIFT
 62
11
 10
3867.560
 20
-8383.492
 30
-2015.713
 70
    32
  0
VERTEX
  8
E74LXLIFT
 62
11
 10
3872.705
 20
-8397.634
 30
-2016.414
 70
    32
  0
VERTEX
  8
E74LXLIFT
 62
11
 10
3875.945
 20
-8406.590
 30
-2013.782
 70
    32
  0
VERTEX
  8
E74LXLIFT
 62
11
 10
3881.562
 20
-8429.684
 30
-2011.532
 70
    32
  0
VERTEX
  8
E74LXLIFT
 62
11
 10
3884.794
 20
-8439.884
 30
-2011.886
 70
    32
  0
VERTEX
  8
E74LXLIFT
 62
11
 10
3884.794
 20
-8439.884
 30
-2014.886
 70
    32
  0
VERTEX
  8
E74LXLIFT
 62
11
 10
3885.292
 20
-8441.089
 30
-2015.294
 70
    32
  0
VERTEX
  8
E74LXLIFT
 62
11
 10
3885.203
 20
-8452.772
 30
-2015.619
 70
    32
  0
VERTEX
  8
E74LXLIFT
 62
11
 10
3893.670
 20
-8469.696
 30
-2015.081
 70
    32
  0
VERTEX
  8
E74LXLIFT
 62
11
 10
3894.049
 20
-8470.564
 30
-2016.104
 70
    32
  0
VERTEX
  8
E74LXLIFT
 62
11
 10
3895.405
 20
-8472.403
 30
-2016.122
 70
    32
  0
VERTEX
  8
E74LXLIFT
 62
11
 10
3902.606
 20
-8485.642
 30
-2016.479
 70
    32
  0
VERTEX
  8
E74LXLIFT
 62
11
 10
3911.141
 20
-8490.797
 30
-2014.831
 70
    32
  0
VERTEX
  8
E74LXLIFT
 62
11
 10
3911.172
 20
-8498.417
 30
-2014.807
 70
    32
  0
VERTEX
  8
E74LXLIFT
 62
11
 10
3912.435
 20
-8502.901
 30
-2014.883
 70
    32
  0
VERTEX
  8
E74LXLIFT
 62
11
 10
3913.151
 20
-8505.699
 30
-2016.712
 70
    32
  0
VERTEX
  8
E74LXLIFT
 62
11
 10
3921.972
 20
-8523.458
 30
-2016.663
 70
    32
  0
VERTEX
  8
E74LXLIFT
 62
11
 10
3923.108
 20
-8526.395
 30
-2014.154
 70
    32
  0
VERTEX
  8
E74LXLIFT
 62
11
 10
3925.372
 20
-8533.246
 30
-2014.142
 70
    32
  0
VERTEX
  8
E74LXLIFT
 62
11
 10
3916.010
 20
-8536.760
 30
-2014.142
 70
    32
  0
VERTEX
  8
E74LXLIFT
 62
11
 10
3908.512
 20
-8537.662
 30
-2014.129
 70
    32
  0
VERTEX
  8
E74LXLIFT
 62
11
 10
3903.624
 20
-8536.727
 30
-2014.130
 70
    32
  0
VERTEX
  8
E74LXLIFT
 62
11
 10
3901.536
 20
-8528.202
 30
-2014.136
 70
    32
  0
VERTEX
  8
E74LXLIFT
 62
11
 10
3901.243
 20
-8525.868
 30
-2016.770
 70
    32
  0
VERTEX
  8
E74LXLIFT
 62
11
 10
3897.365
 20
-8512.485
 30
-2016.613
 70
    32
  0
VERTEX
  8
E74LXLIFT
 62
11
 10
3894.724
 20
-8509.452
 30
-2014.827
 70
    32
  0
VERTEX
  8
E74LXLIFT
 62
11
 10
3887.911
 20
-8495.672
 30
-2014.868
 70
    32
  0
VERTEX
  8
E74LXLIFT
 62
11
 10
3886.785
 20
-8492.786
 30
-2016.404
 70
    32
  0
VERTEX
  8
E74LXLIFT
 62
11
 10
3880.645
 20
-8487.991
 30
-2016.482
 70
    32
  0
VERTEX
  8
E74LXLIFT
 62
11
 10
3880.068
 20
-8486.246
 30
-2016.104
 70
    32
  0
VERTEX
  8
E74LXLIFT
 62
11
 10
3876.231
 20
-8471.387
 30
-2016.153
 70
    32
  0
VERTEX
  8
E74LXLIFT
 62
11
 10
3875.991
 20
-8470.425
 30
-2015.126
 70
    32
  0
VERTEX
  8
E74LXLIFT
 62
11
 10
3871.248
 20
-8442.126
 30
-2015.339
 70
    32
  0
VERTEX
  8
E74LXLIFT
 62
11
 10
3871.263
 20
-8440.759
 30
-2011.801
 70
    32
  0
VERTEX
  8
E74LXLIFT
 62
11
 10
3870.317
 20
-8431.287
 30
-2011.041
 70
    32
  0
VERTEX
  8
E74LXLIFT
 62
11
 10
3865.806
 20
-8418.716
 30
-2012.728
 70
    32
  0
VERTEX
  8
E74LXLIFT
 62
11
 10
3858.931
 20
-8405.034
 30
-2013.780
 70
    32
  0
VERTEX
  8
E74LXLIFT
 62
11
 10
3855.566
 20
-8400.565
 30
-2014.518
 70
    32
  0
VERTEX
  8
E74LXLIFT
 62
11
 10
3849.612
 20
-8383.909
 30
-2015.632
 70
    32
  0
VERTEX
  8
E74LXLIFT
 62
11
 10
3841.423
 20
-8372.871
 30
-2013.972
 70
    32
  0
VERTEX
  8
E74LXLIFT
 62
11
 10
3836.848
 20
-8371.854
 30
-2014.311
 70
    32
  0
VERTEX
  8
E74LXLIFT
 62
11
 10
3825.469
 20
-8357.545
 30
-2011.293
 70
    32
  0
VERTEX
  8
E74LXLIFT
 62
11
 10
3812.544
 20
-8355.752
 30
-2013.756
 70
    32
  0
VERTEX
  8
E74LXLIFT
 62
11
 10
3808.578
 20
-8358.449
 30
-2013.242
 70
    32
  0
VERTEX
  8
E74LXLIFT
 62
11
 10
3779.821
 20
-8345.192
 30
-2015.361
 70
    32
  0
SEQEND
  8
E74LXLIFT
  0
TEXT
  8
E74LXLIFT
 62
1
 10
3782.257
 20
-8341.192
 30
-2015.688
 40
1.181
  1
BK -2015.688
 41
 1.0 
  0
TEXT
  8
E74LXLIFT
 62
1
 10
3805.297
 20
-8345.710
 30
-2013.647
 40
1.575
  1
BK -2013.647
 41
 1.0 
  0
TEXT
  8
E74LXLIFT
 62
1
 10
3833.677
 20
-8337.329
 30
-2010.027
 40
1.181
  1
BK -2010.027
 41
 1.0 
  0
TEXT
  8
E74LXLIFT
 62
1
 10
3845.636
 20
-8340.004
 30
-2013.923
 40
1.181
  1
BK -2013.923
 41
 1.0 
  0
TEXT
  8
E74LXLIFT
 62
1
 10
3827.331
 20
-8347.820
 30
-2010.601
 40
1.575
  1
BK -2010.601
 41
 1.0 
  0
TEXT
  8
E74LXLIFT
 62
1
 10
3838.742
 20
-8352.591
 30
-2011.151
 40
1.181
  1
BK -2011.151
 41
 1.0 
  0
POLYLINE
  8
E74LXLIFT
 62
1
 66
     1
 70
     8
  0
VERTEX
  8
E74LXLIFT
 62
1
 10
3839.742
 20
-8353.891
 30
-2011.151
 70
    32
  0
VERTEX
  8
E74LXLIFT
 62
1
 10
3839.740
 20
-8353.847
 30
-2011.151
 70
    32
  0
VERTEX
  8
E74LXLIFT
 62
1
 10
3839.734
 20
-8353.804
 30
-2011.151
 70
    32
  0
VERTEX
  8
E74LXLIFT
 62
1
 10
3839.725
 20
-8353.762
 30
-2011.151
 70
    32
  0
VERTEX
  8
E74LXLIFT
 62
1
 10
3839.712
 20
-8353.720
 30
-2011.151
 70
    32
  0
VERTEX
  8
E74LXLIFT
 62
1
 10
3839.695
 20
-8353.680
 30
-2011.151
 70
    32
  0
VERTEX
  8
E74LXLIFT
 62
1
 10
3839.675
 20
-8353.641
 30
-2011.151
 70
    32
  0
VERTEX
  8
E74LXLIFT
 62
1
 10
3839.652
 20
-8353.604
 30
-2011.151
 70
    32
  0
VERTEX
  8
E74LXLIFT
 62
1
 10
3839.625
 20
-8353.570
 30
-2011.151
 70
    32
  0
VERTEX
  8
E74LXLIFT
 62
1
 10
3839.596
 20
-8353.537
 30
-2011.151
 70
    32
  0
VERTEX
  8
E74LXLIFT
 62
1
 10
3839.563
 20
-8353.508
 30
-2011.151
 70
    32
  0
VERTEX
  8
E74LXLIFT
 62
1
 10
3839.529
 20
-8353.481
 30
-2011.151
 70
    32
  0
VERTEX
  8
E74LXLIFT
 62
1
 10
3839.492
 20
-8353.458
 30
-2011.151
 70
    32
  0
VERTEX
  8
E74LXLIFT
 62
1
 10
3839.453
 20
-8353.438
 30
-2011.151
 70
    32
  0
VERTEX
  8
E74LXLIFT
 62
1
 10
3839.413
 20
-8353.421
 30
-2011.151
 70
    32
  0
VERTEX
  8
E74LXLIFT
 62
1
 10
3839.371
 20
-8353.408
 30
-2011.151
 70
    32
  0
VERTEX
  8
E74LXLIFT
 62
1
 10
3839.329
 20
-8353.399
 30
-2011.151
 70
    32
  0
VERTEX
  8
E74LXLIFT
 62
1
 10
3839.286
 20
-8353.393
 30
-2011.151
 70
    32
  0
VERTEX
  8
E74LXLIFT
 62
1
 10
3839.242
 20
-8353.391
 30
-2011.151
 70
    32
  0
VERTEX
  8
E74LXLIFT
 62
1
 10
3839.198
 20
-8353.393
 30
-2011.151
 70
    32
  0
VERTEX
  8
E74LXLIFT
 62
1
 10
3839.155
 20
-8353.399
 30
-2011.151
 70
    32
  0
VERTEX
  8
E74LXLIFT
 62
1
 10
3839.113
 20
-8353.408
 30
-2011.151
 70
    32
  0
VERTEX
  8
E74LXLIFT
 62
1
 10
3839.071
 20
-8353.421
 30
-2011.151
 70
    32
  0
VERTEX
  8
E74LXLIFT
 62
1
 10
3839.031
 20
-8353.438
 30
-2011.151
 70
    32
  0
VERTEX
  8
E74LXLIFT
 62
1
 10
3838.992
 20
-8353.458
 30
-2011.151
 70
    32
  0
VERTEX
  8
E74LXLIFT
 62
1
 10
3838.955
 20
-8353.481
 30
-2011.151
 70
    32
  0
VERTEX
  8
E74LXLIFT
 62
1
 10
3838.921
 20
-8353.508
 30
-2011.151
 70
    32
  0
VERTEX
  8
E74LXLIFT
 62
1
 10
3838.888
 20
-8353.537
 30
-2011.151
 70
    32
  0
VERTEX
  8
E74LXLIFT
 62
1
 10
3838.859
 20
-8353.570
 30
-2011.151
 70
    32
  0
VERTEX
  8
E74LXLIFT
 62
1
 10
3838.832
 20
-8353.604
 30
-2011.151
 70
    32
  0
VERTEX
  8
E74LXLIFT
 62
1
 10
3838.809
 20
-8353.641
 30
-2011.151
 70
    32
  0
VERTEX
  8
E74LXLIFT
 62
1
 10
3838.789
 20
-8353.680
 30
-2011.151
 70
    32
  0
VERTEX
  8
E74LXLIFT
 62
1
 10
3838.772
 20
-8353.720
 30
-2011.151
 70
    32
  0
VERTEX
  8
E74LXLIFT
 62
1
 10
3838.759
 20
-8353.762
 30
-2011.151
 70
    32
  0
VERTEX
  8
E74LXLIFT
 62
1
 10
3838.750
 20
-8353.804
 30
-2011.151
 70
    32
  0
VERTEX
  8
E74LXLIFT
 62
1
 10
3838.744
 20
-8353.847
 30
-2011.151
 70
    32
  0
VERTEX
  8
E74LXLIFT
 62
1
 10
3838.742
 20
-8353.891
 30
-2011.151
 70
    32
  0
VERTEX
  8
E74LXLIFT
 62
1
 10
3838.744
 20
-8353.935
 30
-2011.151
 70
    32
  0
VERTEX
  8
E74LXLIFT
 62
1
 10
3838.750
 20
-8353.978
 30
-2011.151
 70
    32
  0
VERTEX
  8
E74LXLIFT
 62
1
 10
3838.759
 20
-8354.020
 30
-2011.151
 70
    32
  0
VERTEX
  8
E74LXLIFT
 62
1
 10
3838.772
 20
-8354.062
 30
-2011.151
 70
    32
  0
VERTEX
  8
E74LXLIFT
 62
1
 10
3838.789
 20
-8354.102
 30
-2011.151
 70
    32
  0
VERTEX
  8
E74LXLIFT
 62
1
 10
3838.809
 20
-8354.141
 30
-2011.151
 70
    32
  0
VERTEX
  8
E74LXLIFT
 62
1
 10
3838.832
 20
-8354.178
 30
-2011.151
 70
    32
  0
VERTEX
  8
E74LXLIFT
 62
1
 10
3838.859
 20
-8354.212
 30
-2011.151
 70
    32
  0
VERTEX
  8
E74LXLIFT
 62
1
 10
3838.888
 20
-8354.245
 30
-2011.151
 70
    32
  0
VERTEX
  8
E74LXLIFT
 62
1
 10
3838.921
 20
-8354.274
 30
-2011.151
 70
    32
  0
VERTEX
  8
E74LXLIFT
 62
1
 10
3838.955
 20
-8354.301
 30
-2011.151
 70
    32
  0
VERTEX
  8
E74LXLIFT
 62
1
 10
3838.992
 20
-8354.324
 30
-2011.151
 70
    32
  0
VERTEX
  8
E74LXLIFT
 62
1
 10
3839.031
 20
-8354.344
 30
-2011.151
 70
    32
  0
VERTEX
  8
E74LXLIFT
 62
1
 10
3839.071
 20
-8354.361
 30
-2011.151
 70
    32
  0
VERTEX
  8
E74LXLIFT
 62
1
 10
3839.113
 20
-8354.374
 30
-2011.151
 70
    32
  0
VERTEX
  8
E74LXLIFT
 62
1
 10
3839.155
 20
-8354.383
 30
-2011.151
 70
    32
  0
VERTEX
  8
E74LXLIFT
 62
1
 10
3839.198
 20
-8354.389
 30
-2011.151
 70
    32
  0
VERTEX
  8
E74LXLIFT
 62
1
 10
3839.242
 20
-8354.391
 30
-2011.151
 70
    32
  0
VERTEX
  8
E74LXLIFT
 62
1
 10
3839.286
 20
-8354.389
 30
-2011.151
 70
    32
  0
VERTEX
  8
E74LXLIFT
 62
1
 10
3839.329
 20
-8354.383
 30
-2011.151
 70
    32
  0
VERTEX
  8
E74LXLIFT
 62
1
 10
3839.371
 20
-8354.374
 30
-2011.151
 70
    32
  0
VERTEX
  8
E74LXLIFT
 62
1
 10
3839.413
 20
-8354.361
 30
-2011.151
 70
    32
  0
VERTEX
  8
E74LXLIFT
 62
1
 10
3839.453
 20
-8354.344
 30
-2011.151
 70
    32
  0
VERTEX
  8
E74LXLIFT
 62
1
 10
3839.492
 20
-8354.324
 30
-2011.151
 70
    32
  0
VERTEX
  8
E74LXLIFT
 62
1
 10
3839.529
 20
-8354.301
 30
-2011.151
 70
    32
  0
VERTEX
  8
E74LXLIFT
 62
1
 10
3839.563
 20
-8354.274
 30
-2011.151
 70
    32
  0
VERTEX
  8
E74LXLIFT
 62
1
 10
3839.596
 20
-8354.245
 30
-2011.151
 70
    32
  0
VERTEX
  8
E74LXLIFT
 62
1
 10
3839.625
 20
-8354.212
 30
-2011.151
 70
    32
  0
VERTEX
  8
E74LXLIFT
 62
1
 10
3839.652
 20
-8354.178
 30
-2011.151
 70
    32
  0
VERTEX
  8
E74LXLIFT
 62
1
 10
3839.675
 20
-8354.141
 30
-2011.151
 70
    32
  0
VERTEX
  8
E74LXLIFT
 62
1
 10
3839.695
 20
-8354.102
 30
-2011.151
 70
    32
  0
VERTEX
  8
E74LXLIFT
 62
1
 10
3839.712
 20
-8354.062
 30
-2011.151
 70
    32
  0
VERTEX
  8
E74LXLIFT
 62
1
 10
3839.725
 20
-8354.020
 30
-2011.151
 70
    32
  0
VERTEX
  8
E74LXLIFT
 62
1
 10
3839.734
 20
-8353.978
 30
-2011.151
 70
    32
  0
VERTEX
  8
E74LXLIFT
 62
1
 10
3839.740
 20
-8353.935
 30
-2011.151
 70
    32
  0
VERTEX
  8
E74LXLIFT
 62
1
 10
3839.742
 20
-8353.891
 30
-2011.151
 70
    32
  0
SEQEND
  8
E74LXLIFT
  0
TEXT
  8
E74LXLIFT
 62
1
 10
3833.817
 20
-8361.501
 30
-2010.553
 40
1.181
  1
BK -2010.553
 41
 1.0 
  0
POLYLINE
  8
E74LXLIFT
 62
1
 66
     1
 70
     8
  0
VERTEX
  8
E74LXLIFT
 62
1
 10
3833.239
 20
-8360.967
 30
-2010.553
 70
    32
  0
VERTEX
  8
E74LXLIFT
 62
1
 10
3833.237
 20
-8360.923
 30
-2010.553
 70
    32
  0
VERTEX
  8
E74LXLIFT
 62
1
 10
3833.231
 20
-8360.880
 30
-2010.553
 70
    32
  0
VERTEX
  8
E74LXLIFT
 62
1
 10
3833.222
 20
-8360.838
 30
-2010.553
 70
    32
  0
VERTEX
  8
E74LXLIFT
 62
1
 10
3833.209
 20
-8360.796
 30
-2010.553
 70
    32
  0
VERTEX
  8
E74LXLIFT
 62
1
 10
3833.192
 20
-8360.756
 30
-2010.553
 70
    32
  0
VERTEX
  8
E74LXLIFT
 62
1
 10
3833.172
 20
-8360.717
 30
-2010.553
 70
    32
  0
VERTEX
  8
E74LXLIFT
 62
1
 10
3833.149
 20
-8360.680
 30
-2010.553
 70
    32
  0
VERTEX
  8
E74LXLIFT
 62
1
 10
3833.122
 20
-8360.646
 30
-2010.553
 70
    32
  0
VERTEX
  8
E74LXLIFT
 62
1
 10
3833.093
 20
-8360.613
 30
-2010.553
 70
    32
  0
VERTEX
  8
E74LXLIFT
 62
1
 10
3833.060
 20
-8360.584
 30
-2010.553
 70
    32
  0
VERTEX
  8
E74LXLIFT
 62
1
 10
3833.026
 20
-8360.557
 30
-2010.553
 70
    32
  0
VERTEX
  8
E74LXLIFT
 62
1
 10
3832.989
 20
-8360.534
 30
-2010.553
 70
    32
  0
VERTEX
  8
E74LXLIFT
 62
1
 10
3832.950
 20
-8360.514
 30
-2010.553
 70
    32
  0
VERTEX
  8
E74LXLIFT
 62
1
 10
3832.910
 20
-8360.497
 30
-2010.553
 70
    32
  0
VERTEX
  8
E74LXLIFT
 62
1
 10
3832.868
 20
-8360.484
 30
-2010.553
 70
    32
  0
VERTEX
  8
E74LXLIFT
 62
1
 10
3832.826
 20
-8360.475
 30
-2010.553
 70
    32
  0
VERTEX
  8
E74LXLIFT
 62
1
 10
3832.783
 20
-8360.469
 30
-2010.553
 70
    32
  0
VERTEX
  8
E74LXLIFT
 62
1
 10
3832.739
 20
-8360.467
 30
-2010.553
 70
    32
  0
VERTEX
  8
E74LXLIFT
 62
1
 10
3832.695
 20
-8360.469
 30
-2010.553
 70
    32
  0
VERTEX
  8
E74LXLIFT
 62
1
 10
3832.652
 20
-8360.475
 30
-2010.553
 70
    32
  0
VERTEX
  8
E74LXLIFT
 62
1
 10
3832.610
 20
-8360.484
 30
-2010.553
 70
    32
  0
VERTEX
  8
E74LXLIFT
 62
1
 10
3832.568
 20
-8360.497
 30
-2010.553
 70
    32
  0
VERTEX
  8
E74LXLIFT
 62
1
 10
3832.528
 20
-8360.514
 30
-2010.553
 70
    32
  0
VERTEX
  8
E74LXLIFT
 62
1
 10
3832.489
 20
-8360.534
 30
-2010.553
 70
    32
  0
VERTEX
  8
E74LXLIFT
 62
1
 10
3832.452
 20
-8360.557
 30
-2010.553
 70
    32
  0
VERTEX
  8
E74LXLIFT
 62
1
 10
3832.418
 20
-8360.584
 30
-2010.553
 70
    32
  0
VERTEX
  8
E74LXLIFT
 62
1
 10
3832.385
 20
-8360.613
 30
-2010.553
 70
    32
  0
VERTEX
  8
E74LXLIFT
 62
1
 10
3832.356
 20
-8360.646
 30
-2010.553
 70
    32
  0
VERTEX
  8
E74LXLIFT
 62
1
 10
3832.329
 20
-8360.680
 30
-2010.553
 70
    32
  0
VERTEX
  8
E74LXLIFT
 62
1
 10
3832.306
 20
-8360.717
 30
-2010.553
 70
    32
  0
VERTEX
  8
E74LXLIFT
 62
1
 10
3832.286
 20
-8360.756
 30
-2010.553
 70
    32
  0
VERTEX
  8
E74LXLIFT
 62
1
 10
3832.269
 20
-8360.796
 30
-2010.553
 70
    32
  0
VERTEX
  8
E74LXLIFT
 62
1
 10
3832.256
 20
-8360.838
 30
-2010.553
 70
    32
  0
VERTEX
  8
E74LXLIFT
 62
1
 10
3832.247
 20
-8360.880
 30
-2010.553
 70
    32
  0
VERTEX
  8
E74LXLIFT
 62
1
 10
3832.241
 20
-8360.923
 30
-2010.553
 70
    32
  0
VERTEX
  8
E74LXLIFT
 62
1
 10
3832.239
 20
-8360.967
 30
-2010.553
 70
    32
  0
VERTEX
  8
E74LXLIFT
 62
1
 10
3832.241
 20
-8361.011
 30
-2010.553
 70
    32
  0
VERTEX
  8
E74LXLIFT
 62
1
 10
3832.247
 20
-8361.054
 30
-2010.553
 70
    32
  0
VERTEX
  8
E74LXLIFT
 62
1
 10
3832.256
 20
-8361.096
 30
-2010.553
 70
    32
  0
VERTEX
  8
E74LXLIFT
 62
1
 10
3832.269
 20
-8361.138
 30
-2010.553
 70
    32
  0
VERTEX
  8
E74LXLIFT
 62
1
 10
3832.286
 20
-8361.178
 30
-2010.553
 70
    32
  0
VERTEX
  8
E74LXLIFT
 62
1
 10
3832.306
 20
-8361.217
 30
-2010.553
 70
    32
  0
VERTEX
  8
E74LXLIFT
 62
1
 10
3832.329
 20
-8361.254
 30
-2010.553
 70
    32
  0
VERTEX
  8
E74LXLIFT
 62
1
 10
3832.356
 20
-8361.288
 30
-2010.553
 70
    32
  0
VERTEX
  8
E74LXLIFT
 62
1
 10
3832.385
 20
-8361.321
 30
-2010.553
 70
    32
  0
VERTEX
  8
E74LXLIFT
 62
1
 10
3832.418
 20
-8361.350
 30
-2010.553
 70
    32
  0
VERTEX
  8
E74LXLIFT
 62
1
 10
3832.452
 20
-8361.377
 30
-2010.553
 70
    32
  0
VERTEX
  8
E74LXLIFT
 62
1
 10
3832.489
 20
-8361.400
 30
-2010.553
 70
    32
  0
VERTEX
  8
E74LXLIFT
 62
1
 10
3832.528
 20
-8361.420
 30
-2010.553
 70
    32
  0
VERTEX
  8
E74LXLIFT
 62
1
 10
3832.568
 20
-8361.437
 30
-2010.553
 70
    32
  0
VERTEX
  8
E74LXLIFT
 62
1
 10
3832.610
 20
-8361.450
 30
-2010.553
 70
    32
  0
VERTEX
  8
E74LXLIFT
 62
1
 10
3832.652
 20
-8361.459
 30
-2010.553
 70
    32
  0
VERTEX
  8
E74LXLIFT
 62
1
 10
3832.695
 20
-8361.465
 30
-2010.553
 70
    32
  0
VERTEX
  8
E74LXLIFT
 62
1
 10
3832.739
 20
-8361.467
 30
-2010.553
 70
    32
  0
VERTEX
  8
E74LXLIFT
 62
1
 10
3832.783
 20
-8361.465
 30
-2010.553
 70
    32
  0
VERTEX
  8
E74LXLIFT
 62
1
 10
3832.826
 20
-8361.459
 30
-2010.553
 70
    32
  0
VERTEX
  8
E74LXLIFT
 62
1
 10
3832.868
 20
-8361.450
 30
-2010.553
 70
    32
  0
VERTEX
  8
E74LXLIFT
 62
1
 10
3832.910
 20
-8361.437
 30
-2010.553
 70
    32
  0
VERTEX
  8
E74LXLIFT
 62
1
 10
3832.950
 20
-8361.420
 30
-2010.553
 70
    32
  0
VERTEX
  8
E74LXLIFT
 62
1
 10
3832.989
 20
-8361.400
 30
-2010.553
 70
    32
  0
VERTEX
  8
E74LXLIFT
 62
1
 10
3833.026
 20
-8361.377
 30
-2010.553
 70
    32
  0
VERTEX
  8
E74LXLIFT
 62
1
 10
3833.060
 20
-8361.350
 30
-2010.553
 70
    32
  0
VERTEX
  8
E74LXLIFT
 62
1
 10
3833.093
 20
-8361.321
 30
-2010.553
 70
    32
  0
VERTEX
  8
E74LXLIFT
 62
1
 10
3833.122
 20
-8361.288
 30
-2010.553
 70
    32
  0
VERTEX
  8
E74LXLIFT
 62
1
 10
3833.149
 20
-8361.254
 30
-2010.553
 70
    32
  0
VERTEX
  8
E74LXLIFT
 62
1
 10
3833.172
 20
-8361.217
 30
-2010.553
 70
    32
  0
VERTEX
  8
E74LXLIFT
 62
1
 10
3833.192
 20
-8361.178
 30
-2010.553
 70
    32
  0
VERTEX
  8
E74LXLIFT
 62
1
 10
3833.209
 20
-8361.138
 30
-2010.553
 70
    32
  0
VERTEX
  8
E74LXLIFT
 62
1
 10
3833.222
 20
-8361.096
 30
-2010.553
 70
    32
  0
VERTEX
  8
E74LXLIFT
 62
1
 10
3833.231
 20
-8361.054
 30
-2010.553
 70
    32
  0
VERTEX
  8
E74LXLIFT
 62
1
 10
3833.237
 20
-8361.011
 30
-2010.553
 70
    32
  0
VERTEX
  8
E74LXLIFT
 62
1
 10
3833.239
 20
-8360.967
 30
-2010.553
 70
    32
  0
SEQEND
  8
E74LXLIFT
  0
POLYLINE
  8
E74LXLIFT
 62
11
 66
     1
 70
     9
  0
VERTEX
  8
E74LXLIFT
 62
11
 10
3858.957
 20
-8382.035
 30
-2015.076
 70
    32
  0
VERTEX
  8
E74LXLIFT
 62
11
 10
3860.706
 20
-8385.215
 30
-2015.076
 70
    32
  0
VERTEX
  8
E74LXLIFT
 62
11
 10
3857.207
 20
-8385.213
 30
-2015.076
 70
    32
  0
SEQEND
  8
E74LXLIFT
  0
POINT
  8
E74LXLIFT
 62
11
 10
3858.957
 20
-8384.245
 30
-2015.076
  0
TEXT
  8
E74LXLIFT
 62
11
 10
3860.323
 20
-8383.306
 30
-2015.076
 40
1.575
  1
ST-096T
 41
 1.0 
  0
TEXT
  8
E74LXLIFT
 62
11
 10
3860.674
 20
-8385.210
 30
-2015.076
 40
1.575
  1
-2015.076
 41
 1.0 
  0
TEXT
  8
E74LXLIFT
 62
11
 10
3853.397
 20
-8366.638
 30
-2014.674
 40
1.575
  1
-2014.674
 41
 1.0 
  0
TEXT
  8
E74LXLIFT
 62
11
 10
3853.540
 20
-8364.996
 30
-2014.674
 40
1.575
  1
ST-096S
 41
 1.0 
  0
POLYLINE
  8
E74LXLIFT
 62
11
 66
     1
 70
     9
  0
VERTEX
  8
E74LXLIFT
 62
11
 10
3851.735
 20
-8363.288
 30
-2014.674
 70
    32
  0
VERTEX
  8
E74LXLIFT
 62
11
 10
3853.484
 20
-8366.468
 30
-2014.674
 70
    32
  0
VERTEX
  8
E74LXLIFT
 62
11
 10
3849.985
 20
-8366.466
 30
-2014.674
 70
    32
  0
SEQEND
  8
E74LXLIFT
  0
POINT
  8
E74LXLIFT
 62
11
 10
3851.735
 20
-8365.498
 30
-2014.674
  0
TEXT
  8
E74LXLIFT
 62
1
 10
3859.157
 20
-8397.272
 30
-2010.553
 40
1.575
  1
FACE-1.5
 41
 1.0 
  0
TEXT
  8
E74LXLIFT
 62
1
 10
3865.731
 20
-8399.366
 30
-2014.267
 40
1.575
  1
BK -2014.267
 50
3.342
 41
 1.0 
  0
TEXT
  8
E74LXLIFT
 62
1
 10
3875.912
 20
-8437.927
 30
-2011.848
 40
1.575
  1
BK -2011.848
 50
3.342
 41
 1.0 
  0
TEXT
  8
E74LXLIFT
 62
1
 10
3875.780
 20
-8442.179
 30
-2015.324
 40
1.575
  1
BK -2015.324
 50
3.342
 41
 1.0 
  0
TEXT
  8
E74LXLIFT
 62
1
 10
3880.872
 20
-8458.406
 30
-2015.344
 40
1.575
  1
BK -2015.344
 50
3.342
 41
 1.0 
  0
TEXT
  8
E74LXLIFT
 62
1
 10
3885.712
 20
-8472.439
 30
-2016.100
 40
1.575
  1
BK -2016.1
 50
3.342
 41
 1.0 
  0
TEXT
  8
E74LXLIFT
 62
1
 10
3886.636
 20
-8476.654
 30
-2016.434
 40
1.575
  1
BK -2016.434
 50
1.990
 41
 1.0 
  0
TEXT
  8
E74LXLIFT
 62
1
 10
3894.859
 20
-8491.580
 30
-2014.821
 40
1.575
  1
BK -2014.821
 50
1.990
 41
 1.0 
  0
TEXT
  8
E74LXLIFT
 62
1
 10
3904.002
 20
-8509.312
 30
-2016.679
 40
1.575
  1
BK -2016.679
 50
1.990
 41
 1.0 
  0
TEXT
  8
E74LXLIFT
 62
1
 10
3910.428
 20
-8532.815
 30
-2014.125
 40
1.575
  1
BK -2014.125
 50
1.990
 41
 1.0 
  0
POLYLINE
  8
E74LXLIFT
 62
2
 66
     1
 70
     9
  0
VERTEX
  8
E74LXLIFT
 62
2
 10
3315.401
 20
-8383.904
 30
-1897.000
 70
    32
  0
VERTEX
  8
E74LXLIFT
 62
2
 10
3293.620
 20
-8373.929
 30
-1897.000
 70
    32
  0
VERTEX
  8
E74LXLIFT
 62
2
 10
3277.961
 20
-8365.571
 30
-1897.000
 70
    32
  0
VERTEX
  8
E74LXLIFT
 62
2
 10
3275.671
 20
-8367.475
 30
-1897.000
 70
    32
  0
VERTEX
  8
E74LXLIFT
 62
2
 10
3271.429
 20
-8367.385
 30
-1897.000
 70
    32
  0
VERTEX
  8
E74LXLIFT
 62
2
 10
3265.444
 20
-8361.228
 30
-1897.000
 70
    32
  0
VERTEX
  8
E74LXLIFT
 62
2
 10
3256.557
 20
-8368.129
 30
-1897.000
 70
    32
  0
VERTEX
  8
E74LXLIFT
 62
2
 10
3268.784
 20
-8384.438
 30
-1897.000
 70
    32
  0
VERTEX
  8
E74LXLIFT
 62
2
 10
3267.759
 20
-8388.831
 30
-1897.000
 70
    32
  0
VERTEX
  8
E74LXLIFT
 62
2
 10
3263.256
 20
-8393.108
 30
-1897.000
 70
    32
  0
VERTEX
  8
E74LXLIFT
 62
2
 10
3263.040
 20
-8395.354
 30
-1897.000
 70
    32
  0
VERTEX
  8
E74LXLIFT
 62
2
 10
3268.362
 20
-8402.769
 30
-1897.000
 70
    32
  0
VERTEX
  8
E74LXLIFT
 62
2
 10
3269.367
 20
-8409.626
 30
-1897.000
 70
    32
  0
VERTEX
  8
E74LXLIFT
 62
2
 10
3278.145
 20
-8418.219
 30
-1897.000
 70
    32
  0
VERTEX
  8
E74LXLIFT
 62
2
 10
3286.720
 20
-8424.346
 30
-1897.000
 70
    32
  0
VERTEX
  8
E74LXLIFT
 62
2
 10
3290.720
 20
-8425.917
 30
-1897.000
 70
    32
  0
VERTEX
  8
E74LXLIFT
 62
2
 10
3305.568
 20
-8416.045
 30
-1897.000
 70
    32
  0
VERTEX
  8
E74LXLIFT
 62
2
 10
3310.715
 20
-8403.206
 30
-1897.000
 70
    32
  0
VERTEX
  8
E74LXLIFT
 62
2
 10
3315.513
 20
-8388.788
 30
-1897.000
 70
    32
  0
SEQEND
  8
E74LXLIFT
  0
POLYLINE
  8
E74LXLIFT
 62
3
 66
     1
 70
     9
  0
VERTEX
  8
E74LXLIFT
 62
3
 10
3266.240
 20
-8363.793
 30
-1895.000
 70
    32
  0
VERTEX
  8
E74LXLIFT
 62
3
 10
3259.028
 20
-8369.752
 30
-1895.000
 70
    32
  0
VERTEX
  8
E74LXLIFT
 62
3
 10
3268.435
 20
-8382.859
 30
-1895.000
 70
    32
  0
VERTEX
  8
E74LXLIFT
 62
3
 10
3269.434
 20
-8387.890
 30
-1895.000
 70
    32
  0
VERTEX
  8
E74LXLIFT
 62
3
 10
3265.382
 20
-8394.979
 30
-1895.000
 70
    32
  0
VERTEX
  8
E74LXLIFT
 62
3
 10
3265.586
 20
-8397.446
 30
-1895.000
 70
    32
  0
VERTEX
  8
E74LXLIFT
 62
3
 10
3268.062
 20
-8400.895
 30
-1895.000
 70
    32
  0
VERTEX
  8
E74LXLIFT
 62
3
 10
3269.627
 20
-8405.259
 30
-1895.000
 70
    32
  0
VERTEX
  8
E74LXLIFT
 62
3
 10
3270.825
 20
-8410.931
 30
-1895.000
 70
    32
  0
VERTEX
  8
E74LXLIFT
 62
3
 10
3279.378
 20
-8418.118
 30
-1895.000
 70
    32
  0
VERTEX
  8
E74LXLIFT
 62
3
 10
3282.441
 20
-8419.839
 30
-1895.000
 70
    32
  0
VERTEX
  8
E74LXLIFT
 62
3
 10
3291.276
 20
-8421.599
 30
-1895.000
 70
    32
  0
VERTEX
  8
E74LXLIFT
 62
3
 10
3296.774
 20
-8420.527
 30
-1895.000
 70
    32
  0
VERTEX
  8
E74LXLIFT
 62
3
 10
3305.263
 20
-8412.345
 30
-1895.000
 70
    32
  0
VERTEX
  8
E74LXLIFT
 62
3
 10
3310.184
 20
-8398.100
 30
-1895.000
 70
    32
  0
VERTEX
  8
E74LXLIFT
 62
3
 10
3312.490
 20
-8393.309
 30
-1895.000
 70
    32
  0
VERTEX
  8
E74LXLIFT
 62
3
 10
3314.275
 20
-8387.064
 30
-1895.000
 70
    32
  0
VERTEX
  8
E74LXLIFT
 62
3
 10
3314.761
 20
-8384.102
 30
-1895.000
 70
    32
  0
VERTEX
  8
E74LXLIFT
 62
3
 10
3292.436
 20
-8373.734
 30
-1895.000
 70
    32
  0
VERTEX
  8
E74LXLIFT
 62
3
 10
3278.999
 20
-8366.655
 30
-1895.000
 70
    32
  0
VERTEX
  8
E74LXLIFT
 62
3
 10
3274.417
 20
-8368.637
 30
-1895.000
 70
    32
  0
VERTEX
  8
E74LXLIFT
 62
3
 10
3270.077
 20
-8369.139
 30
-1895.000
 70
    32
  0
SEQEND
  8
E74LXLIFT
  0
POLYLINE
  8
E74LXLIFT
 62
4
 66
     1
 70
     9
  0
VERTEX
  8
E74LXLIFT
 62
4
 10
3275.504
 20
-8369.424
 30
-1892.000
 70
    32
  0
VERTEX
  8
E74LXLIFT
 62
4
 10
3269.268
 20
-8371.287
 30
-1892.000
 70
    32
  0
VERTEX
  8
E74LXLIFT
 62
4
 10
3266.807
 20
-8373.315
 30
-1892.000
 70
    32
  0
VERTEX
  8
E74LXLIFT
 62
4
 10
3266.299
 20
-8377.337
 30
-1892.000
 70
    32
  0
VERTEX
  8
E74LXLIFT
 62
4
 10
3268.527
 20
-8380.441
 30
-1892.000
 70
    32
  0
VERTEX
  8
E74LXLIFT
 62
4
 10
3268.718
 20
-8387.620
 30
-1892.000
 70
    32
  0
VERTEX
  8
E74LXLIFT
 62
4
 10
3269.019
 20
-8389.495
 30
-1892.000
 70
    32
  0
VERTEX
  8
E74LXLIFT
 62
4
 10
3270.955
 20
-8394.376
 30
-1892.000
 70
    32
  0
VERTEX
  8
E74LXLIFT
 62
4
 10
3270.324
 20
-8398.226
 30
-1892.000
 70
    32
  0
VERTEX
  8
E74LXLIFT
 62
4
 10
3268.698
 20
-8398.871
 30
-1892.000
 70
    32
  0
VERTEX
  8
E74LXLIFT
 62
4
 10
3269.132
 20
-8404.569
 30
-1892.000
 70
    32
  0
VERTEX
  8
E74LXLIFT
 62
4
 10
3271.192
 20
-8409.623
 30
-1892.000
 70
    32
  0
VERTEX
  8
E74LXLIFT
 62
4
 10
3277.133
 20
-8417.901
 30
-1892.000
 70
    32
  0
VERTEX
  8
E74LXLIFT
 62
4
 10
3282.021
 20
-8419.618
 30
-1892.000
 70
    32
  0
VERTEX
  8
E74LXLIFT
 62
4
 10
3289.053
 20
-8420.320
 30
-1892.000
 70
    32
  0
VERTEX
  8
E74LXLIFT
 62
4
 10
3297.626
 20
-8416.257
 30
-1892.000
 70
    32
  0
VERTEX
  8
E74LXLIFT
 62
4
 10
3301.736
 20
-8412.524
 30
-1892.000
 70
    32
  0
VERTEX
  8
E74LXLIFT
 62
4
 10
3303.649
 20
-8408.277
 30
-1892.000
 70
    32
  0
VERTEX
  8
E74LXLIFT
 62
4
 10
3308.349
 20
-8394.452
 30
-1892.000
 70
    32
  0
VERTEX
  8
E74LXLIFT
 62
4
 10
3306.563
 20
-8390.508
 30
-1892.000
 70
    32
  0
VERTEX
  8
E74LXLIFT
 62
4
 10
3295.040
 20
-8379.181
 30
-1892.000
 70
    32
  0
VERTEX
  8
E74LXLIFT
 62
4
 10
3289.431
 20
-8375.368
 30
-1892.000
 70
    32
  0
VERTEX
  8
E74LXLIFT
 62
4
 10
3280.242
 20
-8370.205
 30
-1892.000
 70
    32
  0
SEQEND
  8
E74LXLIFT
  0
POLYLINE
  8
E74LXLIFT
 62
5
 66
     1
 70
     9
  0
VERTEX
  8
E74LXLIFT
 62
5
 10
3272.623
 20
-8371.231
 30
-1888.000
 70
    32
  0
VERTEX
  8
E74LXLIFT
 62
5
 10
3266.833
 20
-8374.079
 30
-1888.000
 70
    32
  0
VERTEX
  8
E74LXLIFT
 62
5
 10
3267.803
 20
-8386.709
 30
-1888.000
 70
    32
  0
VERTEX
  8
E74LXLIFT
 62
5
 10
3268.480
 20
-8390.927
 30
-1888.000
 70
    32
  0
VERTEX
  8
E74LXLIFT
 62
5
 10
3270.089
 20
-8393.169
 30
-1888.000
 70
    32
  0
VERTEX
  8
E74LXLIFT
 62
5
 10
3270.373
 20
-8397.930
 30
-1888.000
 70
    32
  0
VERTEX
  8
E74LXLIFT
 62
5
 10
3268.778
 20
-8401.165
 30
-1888.000
 70
    32
  0
VERTEX
  8
E74LXLIFT
 62
5
 10
3269.265
 20
-8408.393
 30
-1888.000
 70
    32
  0
VERTEX
  8
E74LXLIFT
 62
5
 10
3270.034
 20
-8410.192
 30
-1888.000
 70
    32
  0
VERTEX
  8
E74LXLIFT
 62
5
 10
3275.604
 20
-8417.953
 30
-1888.000
 70
    32
  0
VERTEX
  8
E74LXLIFT
 62
5
 10
3280.815
 20
-8420.484
 30
-1888.000
 70
    32
  0
VERTEX
  8
E74LXLIFT
 62
5
 10
3286.242
 20
-8420.770
 30
-1888.000
 70
    32
  0
VERTEX
  8
E74LXLIFT
 62
5
 10
3289.597
 20
-8420.714
 30
-1888.000
 70
    32
  0
VERTEX
  8
E74LXLIFT
 62
5
 10
3300.061
 20
-8413.465
 30
-1888.000
 70
    32
  0
VERTEX
  8
E74LXLIFT
 62
5
 10
3304.939
 20
-8401.342
 30
-1888.000
 70
    32
  0
VERTEX
  8
E74LXLIFT
 62
5
 10
3307.262
 20
-8393.664
 30
-1888.000
 70
    32
  0
VERTEX
  8
E74LXLIFT
 62
5
 10
3305.578
 20
-8390.954
 30
-1888.000
 70
    32
  0
VERTEX
  8
E74LXLIFT
 62
5
 10
3292.525
 20
-8379.680
 30
-1888.000
 70
    32
  0
VERTEX
  8
E74LXLIFT
 62
5
 10
3286.571
 20
-8376.114
 30
-1888.000
 70
    32
  0
VERTEX
  8
E74LXLIFT
 62
5
 10
3276.941
 20
-8371.790
 30
-1888.000
 70
    32
  0
SEQEND
  8
E74LXLIFT
  0
POLYLINE
  8
E74LXLIFT
 62
6
 66
     1
 70
     9
  0
VERTEX
  8
E74LXLIFT
 62
6
 10
3273.130
 20
-8370.800
 30
-1884.000
 70
    32
  0
VERTEX
  8
E74LXLIFT
 62
6
 10
3266.504
 20
-8375.106
 30
-1884.000
 70
    32
  0
VERTEX
  8
E74LXLIFT
 62
6
 10
3267.057
 20
-8387.124
 30
-1884.000
 70
    32
  0
VERTEX
  8
E74LXLIFT
 62
6
 10
3269.698
 20
-8398.093
 30
-1884.000
 70
    32
  0
VERTEX
  8
E74LXLIFT
 62
6
 10
3267.647
 20
-8407.941
 30
-1884.000
 70
    32
  0
VERTEX
  8
E74LXLIFT
 62
6
 10
3274.652
 20
-8419.368
 30
-1884.000
 70
    32
  0
VERTEX
  8
E74LXLIFT
 62
6
 10
3279.315
 20
-8420.658
 30
-1884.000
 70
    32
  0
VERTEX
  8
E74LXLIFT
 62
6
 10
3285.615
 20
-8421.522
 30
-1884.000
 70
    32
  0
VERTEX
  8
E74LXLIFT
 62
6
 10
3289.453
 20
-8420.413
 30
-1884.000
 70
    32
  0
VERTEX
  8
E74LXLIFT
 62
6
 10
3299.504
 20
-8413.797
 30
-1884.000
 70
    32
  0
VERTEX
  8
E74LXLIFT
 62
6
 10
3300.597
 20
-8410.321
 30
-1884.000
 70
    32
  0
VERTEX
  8
E74LXLIFT
 62
6
 10
3305.384
 20
-8399.705
 30
-1884.000
 70
    32
  0
VERTEX
  8
E74LXLIFT
 62
6
 10
3306.219
 20
-8394.619
 30
-1884.000
 70
    32
  0
VERTEX
  8
E74LXLIFT
 62
6
 10
3303.878
 20
-8390.316
 30
-1884.000
 70
    32
  0
VERTEX
  8
E74LXLIFT
 62
6
 10
3299.009
 20
-8386.032
 30
-1884.000
 70
    32
  0
VERTEX
  8
E74LXLIFT
 62
6
 10
3287.278
 20
-8376.351
 30
-1884.000
 70
    32
  0
VERTEX
  8
E74LXLIFT
 62
6
 10
3275.333
 20
-8371.163
 30
-1884.000
 70
    32
  0
SEQEND
  8
E74LXLIFT
  0
POLYLINE
  8
E74LXLIFT
 62
7
 66
     1
 70
     9
  0
VERTEX
  8
E74LXLIFT
 62
7
 10
3274.640
 20
-8370.613
 30
-1880.000
 70
    32
  0
VERTEX
  8
E74LXLIFT
 62
7
 10
3272.269
 20
-8371.268
 30
-1880.000
 70
    32
  0
VERTEX
  8
E74LXLIFT
 62
7
 10
3266.264
 20
-8374.980
 30
-1880.000
 70
    32
  0
VERTEX
  8
E74LXLIFT
 62
7
 10
3267.191
 20
-8384.186
 30
-1880.000
 70
    32
  0
VERTEX
  8
E74LXLIFT
 62
7
 10
3266.369
 20
-8388.665
 30
-1880.000
 70
    32
  0
VERTEX
  8
E74LXLIFT
 62
7
 10
3268.640
 20
-8398.703
 30
-1880.000
 70
    32
  0
VERTEX
  8
E74LXLIFT
 62
7
 10
3266.838
 20
-8405.980
 30
-1880.000
 70
    32
  0
VERTEX
  8
E74LXLIFT
 62
7
 10
3266.944
 20
-8409.044
 30
-1880.000
 70
    32
  0
VERTEX
  8
E74LXLIFT
 62
7
 10
3272.618
 20
-8419.033
 30
-1880.000
 70
    32
  0
VERTEX
  8
E74LXLIFT
 62
7
 10
3277.185
 20
-8421.439
 30
-1880.000
 70
    32
  0
VERTEX
  8
E74LXLIFT
 62
7
 10
3282.764
 20
-8421.923
 30
-1880.000
 70
    32
  0
VERTEX
  8
E74LXLIFT
 62
7
 10
3287.141
 20
-8421.773
 30
-1880.000
 70
    32
  0
VERTEX
  8
E74LXLIFT
 62
7
 10
3298.151
 20
-8414.619
 30
-1880.000
 70
    32
  0
VERTEX
  8
E74LXLIFT
 62
7
 10
3299.863
 20
-8410.548
 30
-1880.000
 70
    32
  0
VERTEX
  8
E74LXLIFT
 62
7
 10
3305.500
 20
-8395.284
 30
-1880.000
 70
    32
  0
VERTEX
  8
E74LXLIFT
 62
7
 10
3299.819
 20
-8387.993
 30
-1880.000
 70
    32
  0
VERTEX
  8
E74LXLIFT
 62
7
 10
3292.744
 20
-8382.301
 30
-1880.000
 70
    32
  0
VERTEX
  8
E74LXLIFT
 62
7
 10
3286.234
 20
-8376.353
 30
-1880.000
 70
    32
  0
VERTEX
  8
E74LXLIFT
 62
7
 10
3281.219
 20
-8375.615
 30
-1880.000
 70
    32
  0
VERTEX
  8
E74LXLIFT
 62
7
 10
3278.797
 20
-8372.865
 30
-1880.000
 70
    32
  0
SEQEND
  8
E74LXLIFT
  0
POLYLINE
  8
E74LXLIFT
 62
8
 66
     1
 70
     9
  0
VERTEX
  8
E74LXLIFT
 62
8
 10
3274.865
 20
-8370.302
 30
-1877.000
 70
    32
  0
VERTEX
  8
E74LXLIFT
 62
8
 10
3266.094
 20
-8374.952
 30
-1877.000
 70
    32
  0
VERTEX
  8
E74LXLIFT
 62
8
 10
3266.048
 20
-8384.259
 30
-1877.000
 70
    32
  0
VERTEX
  8
E74LXLIFT
 62
8
 10
3265.654
 20
-8390.375
 30
-1877.000
 70
    32
  0
VERTEX
  8
E74LXLIFT
 62
8
 10
3265.958
 20
-8393.298
 30
-1877.000
 70
    32
  0
VERTEX
  8
E74LXLIFT
 62
8
 10
3267.519
 20
-8396.516
 30
-1877.000
 70
    32
  0
VERTEX
  8
E74LXLIFT
 62
8
 10
3267.012
 20
-8402.265
 30
-1877.000
 70
    32
  0
VERTEX
  8
E74LXLIFT
 62
8
 10
3265.611
 20
-8406.561
 30
-1877.000
 70
    32
  0
VERTEX
  8
E74LXLIFT
 62
8
 10
3265.915
 20
-8409.484
 30
-1877.000
 70
    32
  0
VERTEX
  8
E74LXLIFT
 62
8
 10
3272.029
 20
-8420.503
 30
-1877.000
 70
    32
  0
VERTEX
  8
E74LXLIFT
 62
8
 10
3276.128
 20
-8422.048
 30
-1877.000
 70
    32
  0
VERTEX
  8
E74LXLIFT
 62
8
 10
3282.822
 20
-8422.629
 30
-1877.000
 70
    32
  0
VERTEX
  8
E74LXLIFT
 62
8
 10
3286.521
 20
-8422.367
 30
-1877.000
 70
    32
  0
VERTEX
  8
E74LXLIFT
 62
8
 10
3297.278
 20
-8415.694
 30
-1877.000
 70
    32
  0
VERTEX
  8
E74LXLIFT
 62
8
 10
3300.366
 20
-8408.542
 30
-1877.000
 70
    32
  0
VERTEX
  8
E74LXLIFT
 62
8
 10
3304.504
 20
-8397.645
 30
-1877.000
 70
    32
  0
VERTEX
  8
E74LXLIFT
 62
8
 10
3304.412
 20
-8395.018
 30
-1877.000
 70
    32
  0
VERTEX
  8
E74LXLIFT
 62
8
 10
3301.720
 20
-8391.266
 30
-1877.000
 70
    32
  0
VERTEX
  8
E74LXLIFT
 62
8
 10
3285.740
 20
-8376.707
 30
-1877.000
 70
    32
  0
SEQEND
  8
E74LXLIFT
  0
POLYLINE
  8
E74LXLIFT
 62
2
 66
     1
 70
     9
  0
VERTEX
  8
E74LXLIFT
 62
2
 10
3275.725
 20
-8369.835
 30
-1873.000
 70
    32
  0
VERTEX
  8
E74LXLIFT
 62
2
 10
3269.036
 20
-8371.345
 30
-1873.000
 70
    32
  0
VERTEX
  8
E74LXLIFT
 62
2
 10
3265.034
 20
-8374.516
 30
-1873.000
 70
    32
  0
VERTEX
  8
E74LXLIFT
 62
2
 10
3264.389
 20
-8376.325
 30
-1873.000
 70
    32
  0
VERTEX
  8
E74LXLIFT
 62
2
 10
3264.656
 20
-8381.070
 30
-1873.000
 70
    32
  0
VERTEX
  8
E74LXLIFT
 62
2
 10
3264.556
 20
-8391.762
 30
-1873.000
 70
    32
  0
VERTEX
  8
E74LXLIFT
 62
2
 10
3267.413
 20
-8399.284
 30
-1873.000
 70
    32
  0
VERTEX
  8
E74LXLIFT
 62
2
 10
3265.112
 20
-8404.825
 30
-1873.000
 70
    32
  0
VERTEX
  8
E74LXLIFT
 62
2
 10
3264.715
 20
-8409.896
 30
-1873.000
 70
    32
  0
VERTEX
  8
E74LXLIFT
 62
2
 10
3270.038
 20
-8420.436
 30
-1873.000
 70
    32
  0
VERTEX
  8
E74LXLIFT
 62
2
 10
3271.467
 20
-8421.803
 30
-1873.000
 70
    32
  0
VERTEX
  8
E74LXLIFT
 62
2
 10
3274.364
 20
-8422.716
 30
-1873.000
 70
    32
  0
VERTEX
  8
E74LXLIFT
 62
2
 10
3281.907
 20
-8423.435
 30
-1873.000
 70
    32
  0
VERTEX
  8
E74LXLIFT
 62
2
 10
3286.086
 20
-8423.427
 30
-1873.000
 70
    32
  0
VERTEX
  8
E74LXLIFT
 62
2
 10
3290.865
 20
-8420.297
 30
-1873.000
 70
    32
  0
VERTEX
  8
E74LXLIFT
 62
2
 10
3297.447
 20
-8415.722
 30
-1873.000
 70
    32
  0
VERTEX
  8
E74LXLIFT
 62
2
 10
3304.094
 20
-8397.490
 30
-1873.000
 70
    32
  0
VERTEX
  8
E74LXLIFT
 62
2
 10
3301.938
 20
-8393.653
 30
-1873.000
 70
    32
  0
VERTEX
  8
E74LXLIFT
 62
2
 10
3296.216
 20
-8387.139
 30
-1873.000
 70
    32
  0
VERTEX
  8
E74LXLIFT
 62
2
 10
3293.853
 20
-8385.095
 30
-1873.000
 70
    32
  0
VERTEX
  8
E74LXLIFT
 62
2
 10
3284.015
 20
-8375.553
 30
-1873.000
 70
    32
  0
SEQEND
  8
E74LXLIFT
  0
POLYLINE
  8
E74LXLIFT
 62
3
 66
     1
 70
     9
  0
VERTEX
  8
E74LXLIFT
 62
3
 10
3271.771
 20
-8367.106
 30
-1869.000
 70
    32
  0
VERTEX
  8
E74LXLIFT
 62
3
 10
3262.584
 20
-8371.563
 30
-1869.000
 70
    32
  0
VERTEX
  8
E74LXLIFT
 62
3
 10
3262.508
 20
-8373.540
 30
-1869.000
 70
    32
  0
VERTEX
  8
E74LXLIFT
 62
3
 10
3262.919
 20
-8392.263
 30
-1869.000
 70
    32
  0
VERTEX
  8
E74LXLIFT
 62
3
 10
3264.864
 20
-8395.568
 30
-1869.000
 70
    32
  0
VERTEX
  8
E74LXLIFT
 62
3
 10
3265.469
 20
-8403.254
 30
-1869.000
 70
    32
  0
VERTEX
  8
E74LXLIFT
 62
3
 10
3264.121
 20
-8404.649
 30
-1869.000
 70
    32
  0
VERTEX
  8
E74LXLIFT
 62
3
 10
3262.820
 20
-8408.788
 30
-1869.000
 70
    32
  0
VERTEX
  8
E74LXLIFT
 62
3
 10
3268.584
 20
-8422.174
 30
-1869.000
 70
    32
  0
VERTEX
  8
E74LXLIFT
 62
3
 10
3272.542
 20
-8423.821
 30
-1869.000
 70
    32
  0
VERTEX
  8
E74LXLIFT
 62
3
 10
3285.051
 20
-8424.886
 30
-1869.000
 70
    32
  0
VERTEX
  8
E74LXLIFT
 62
3
 10
3297.877
 20
-8415.681
 30
-1869.000
 70
    32
  0
VERTEX
  8
E74LXLIFT
 62
3
 10
3298.342
 20
-8408.296
 30
-1869.000
 70
    32
  0
VERTEX
  8
E74LXLIFT
 62
3
 10
3302.718
 20
-8399.813
 30
-1869.000
 70
    32
  0
VERTEX
  8
E74LXLIFT
 62
3
 10
3303.318
 20
-8397.673
 30
-1869.000
 70
    32
  0
VERTEX
  8
E74LXLIFT
 62
3
 10
3302.262
 20
-8395.012
 30
-1869.000
 70
    32
  0
VERTEX
  8
E74LXLIFT
 62
3
 10
3296.254
 20
-8388.426
 30
-1869.000
 70
    32
  0
VERTEX
  8
E74LXLIFT
 62
3
 10
3293.322
 20
-8385.829
 30
-1869.000
 70
    32
  0
VERTEX
  8
E74LXLIFT
 62
3
 10
3283.793
 20
-8374.932
 30
-1869.000
 70
    32
  0
VERTEX
  8
E74LXLIFT
 62
3
 10
3275.707
 20
-8368.128
 30
-1869.000
 70
    32
  0
SEQEND
  8
E74LXLIFT
  0
POLYLINE
  8
E74LXLIFT
 62
4
 66
     1
 70
     9
  0
VERTEX
  8
E74LXLIFT
 62
4
 10
3274.427
 20
-8364.559
 30
-1867.000
 70
    32
  0
VERTEX
  8
E74LXLIFT
 62
4
 10
3270.552
 20
-8363.921
 30
-1867.000
 70
    32
  0
VERTEX
  8
E74LXLIFT
 62
4
 10
3260.317
 20
-8368.702
 30
-1867.000
 70
    32
  0
VERTEX
  8
E74LXLIFT
 62
4
 10
3260.404
 20
-8371.204
 30
-1867.000
 70
    32
  0
VERTEX
  8
E74LXLIFT
 62
4
 10
3261.000
 20
-8391.076
 30
-1867.000
 70
    32
  0
VERTEX
  8
E74LXLIFT
 62
4
 10
3263.560
 20
-8398.214
 30
-1867.000
 70
    32
  0
VERTEX
  8
E74LXLIFT
 62
4
 10
3261.107
 20
-8409.376
 30
-1867.000
 70
    32
  0
VERTEX
  8
E74LXLIFT
 62
4
 10
3267.174
 20
-8423.185
 30
-1867.000
 70
    32
  0
VERTEX
  8
E74LXLIFT
 62
4
 10
3270.789
 20
-8424.651
 30
-1867.000
 70
    32
  0
VERTEX
  8
E74LXLIFT
 62
4
 10
3284.712
 20
-8426.198
 30
-1867.000
 70
    32
  0
VERTEX
  8
E74LXLIFT
 62
4
 10
3298.564
 20
-8416.043
 30
-1867.000
 70
    32
  0
VERTEX
  8
E74LXLIFT
 62
4
 10
3298.652
 20
-8403.372
 30
-1867.000
 70
    32
  0
VERTEX
  8
E74LXLIFT
 62
4
 10
3302.371
 20
-8398.139
 30
-1867.000
 70
    32
  0
VERTEX
  8
E74LXLIFT
 62
4
 10
3297.798
 20
-8392.660
 30
-1867.000
 70
    32
  0
VERTEX
  8
E74LXLIFT
 62
4
 10
3288.294
 20
-8383.881
 30
-1867.000
 70
    32
  0
VERTEX
  8
E74LXLIFT
 62
4
 10
3282.781
 20
-8373.521
 30
-1867.000
 70
    32
  0
VERTEX
  8
E74LXLIFT
 62
4
 10
3278.436
 20
-8370.443
 30
-1867.000
 70
    32
  0
SEQEND
  8
E74LXLIFT
  0
POLYLINE
  8
E74LXLIFT
 62
6
 66
     1
 70
     9
  0
VERTEX
  8
E74LXLIFT
 62
6
 10
3321.706
 20
-8436.996
 30
-1897.000
 70
    32
  0
VERTEX
  8
E74LXLIFT
 62
6
 10
3302.222
 20
-8421.074
 30
-1897.000
 70
    32
  0
VERTEX
  8
E74LXLIFT
 62
6
 10
3302.253
 20
-8421.100
 30
-1897.000
 70
    32
  0
VERTEX
  8
E74LXLIFT
 62
6
 10
3310.494
 20
-8409.020
 30
-1897.000
 70
    32
  0
VERTEX
  8
E74LXLIFT
 62
6
 10
3317.496
 20
-8385.083
 30
-1897.000
 70
    32
  0
VERTEX
  8
E74LXLIFT
 62
6
 10
3304.102
 20
-8379.237
 30
-1897.000
 70
    32
  0
VERTEX
  8
E74LXLIFT
 62
6
 10
3299.703
 20
-8374.638
 30
-1897.000
 70
    32
  0
VERTEX
  8
E74LXLIFT
 62
6
 10
3291.746
 20
-8371.488
 30
-1897.000
 70
    32
  0
VERTEX
  8
E74LXLIFT
 62
6
 10
3285.268
 20
-8364.756
 30
-1897.000
 70
    32
  0
VERTEX
  8
E74LXLIFT
 62
6
 10
3280.005
 20
-8367.439
 30
-1897.000
 70
    32
  0
VERTEX
  8
E74LXLIFT
 62
6
 10
3280.201
 20
-8367.441
 30
-1897.000
 70
    32
  0
VERTEX
  8
E74LXLIFT
 62
6
 10
3270.934
 20
-8367.334
 30
-1897.000
 70
    32
  0
VERTEX
  8
E74LXLIFT
 62
6
 10
3253.050
 20
-8357.183
 30
-1897.000
 70
    32
  0
VERTEX
  8
E74LXLIFT
 62
6
 10
3239.566
 20
-8350.914
 30
-1895.313
 70
    32
  0
VERTEX
  8
E74LXLIFT
 62
6
 10
3238.264
 20
-8345.267
 30
-1897.000
 70
    32
  0
VERTEX
  8
E74LXLIFT
 62
6
 10
3243.938
 20
-8336.740
 30
-1897.000
 70
    32
  0
VERTEX
  8
E74LXLIFT
 62
6
 10
3246.740
 20
-8334.420
 30
-1897.000
 70
    32
  0
VERTEX
  8
E74LXLIFT
 62
6
 10
3256.727
 20
-8334.934
 30
-1897.000
 70
    32
  0
VERTEX
  8
E74LXLIFT
 62
6
 10
3259.236
 20
-8323.488
 30
-1897.000
 70
    32
  0
VERTEX
  8
E74LXLIFT
 62
6
 10
3247.258
 20
-8319.493
 30
-1897.000
 70
    32
  0
VERTEX
  8
E74LXLIFT
 62
6
 10
3241.771
 20
-8319.110
 30
-1897.000
 70
    32
  0
VERTEX
  8
E74LXLIFT
 62
6
 10
3239.927
 20
-8323.992
 30
-1897.000
 70
    32
  0
VERTEX
  8
E74LXLIFT
 62
6
 10
3235.322
 20
-8324.157
 30
-1897.000
 70
    32
  0
VERTEX
  8
E74LXLIFT
 62
6
 10
3230.201
 20
-8320.613
 30
-1897.000
 70
    32
  0
VERTEX
  8
E74LXLIFT
 62
6
 10
3223.668
 20
-8323.982
 30
-1897.000
 70
    32
  0
VERTEX
  8
E74LXLIFT
 62
6
 10
3225.929
 20
-8329.936
 30
-1897.000
 70
    32
  0
VERTEX
  8
E74LXLIFT
 62
6
 10
3226.011
 20
-8330.022
 30
-1895.313
 70
    32
  0
VERTEX
  8
E74LXLIFT
 62
6
 10
3215.679
 20
-8331.497
 30
-1895.313
 70
    32
  0
VERTEX
  8
E74LXLIFT
 62
6
 10
3211.796
 20
-8335.392
 30
-1895.313
 70
    32
  0
VERTEX
  8
E74LXLIFT
 62
6
 10
3216.651
 20
-8341.696
 30
-1895.313
 70
    32
  0
VERTEX
  8
E74LXLIFT
 62
6
 10
3211.718
 20
-8350.733
 30
-1895.313
 70
    32
  0
VERTEX
  8
E74LXLIFT
 62
6
 10
3211.745
 20
-8359.126
 30
-1895.313
 70
    32
  0
VERTEX
  8
E74LXLIFT
 62
6
 10
3216.848
 20
-8360.948
 30
-1895.313
 70
    32
  0
VERTEX
  8
E74LXLIFT
 62
6
 10
3226.415
 20
-8369.479
 30
-1895.313
 70
    32
  0
VERTEX
  8
E74LXLIFT
 62
6
 10
3235.061
 20
-8364.088
 30
-1897.000
 70
    32
  0
VERTEX
  8
E74LXLIFT
 62
6
 10
3235.603
 20
-8381.440
 30
-1897.000
 70
    32
  0
VERTEX
  8
E74LXLIFT
 62
6
 10
3244.020
 20
-8384.432
 30
-1897.000
 70
    32
  0
VERTEX
  8
E74LXLIFT
 62
6
 10
3246.813
 20
-8387.568
 30
-1897.000
 70
    32
  0
VERTEX
  8
E74LXLIFT
 62
6
 10
3250.381
 20
-8385.760
 30
-1897.000
 70
    32
  0
VERTEX
  8
E74LXLIFT
 62
6
 10
3250.522
 20
-8383.186
 30
-1897.000
 70
    32
  0
VERTEX
  8
E74LXLIFT
 62
6
 10
3247.561
 20
-8377.985
 30
-1897.000
 70
    32
  0
VERTEX
  8
E74LXLIFT
 62
6
 10
3247.926
 20
-8374.001
 30
-1897.000
 70
    32
  0
VERTEX
  8
E74LXLIFT
 62
6
 10
3252.037
 20
-8370.890
 30
-1897.000
 70
    32
  0
VERTEX
  8
E74LXLIFT
 62
6
 10
3257.587
 20
-8372.141
 30
-1897.000
 70
    32
  0
VERTEX
  8
E74LXLIFT
 62
6
 10
3261.622
 20
-8374.535
 30
-1897.000
 70
    32
  0
VERTEX
  8
E74LXLIFT
 62
6
 10
3267.770
 20
-8383.611
 30
-1897.000
 70
    32
  0
VERTEX
  8
E74LXLIFT
 62
6
 10
3268.901
 20
-8390.620
 30
-1897.000
 70
    32
  0
VERTEX
  8
E74LXLIFT
 62
6
 10
3273.610
 20
-8396.411
 30
-1897.000
 70
    32
  0
VERTEX
  8
E74LXLIFT
 62
6
 10
3268.268
 20
-8410.438
 30
-1897.000
 70
    32
  0
VERTEX
  8
E74LXLIFT
 62
6
 10
3289.527
 20
-8425.942
 30
-1897.000
 70
    32
  0
VERTEX
  8
E74LXLIFT
 62
6
 10
3315.472
 20
-8445.952
 30
-1897.000
 70
    32
  0
SEQEND
  8
E74LXLIFT
  0
TEXT
  8
E74LXLIFT
 62
6
 10
3298.419
 20
-8422.431
 30
-1897.000
 40
1.575
  1
ST-513R
 41
 1.0 
  0
TEXT
  8
E74LXLIFT
 62
6
 10
3299.259
 20
-8424.704
 30
-1897.000
 40
1.575
  1
-1896.953
 41
 1.0 
  0
TEXT
  8
E74LXLIFT
 62
6
 10
3299.510
 20
-8427.155
 30
-1897.000
 40
1.575
  1
-1908.953 s
 41
 1.0 
  0
POLYLINE
  8
E74LXLIFT
 62
6
 66
     1
 70
     9
  0
VERTEX
  8
E74LXLIFT
 62
6
 10
3296.971
 20
-8421.387
 30
-1896.953
 70
    32
  0
VERTEX
  8
E74LXLIFT
 62
6
 10
3298.720
 20
-8424.567
 30
-1896.953
 70
    32
  0
VERTEX
  8
E74LXLIFT
 62
6
 10
3295.221
 20
-8424.565
 30
-1896.953
 70
    32
  0
SEQEND
  8
E74LXLIFT
  0
POINT
  8
E74LXLIFT
 62
6
 10
3296.971
 20
-8423.597
 30
-1896.953
  0
POINT
  8
E74LXLIFT
 62
6
 10
3289.525
 20
-8410.618
 30
-1897.198
  0
POLYLINE
  8
E74LXLIFT
 62
6
 66
     1
 70
     9
  0
VERTEX
  8
E74LXLIFT
 62
6
 10
3289.525
 20
-8408.408
 30
-1897.198
 70
    32
  0
VERTEX
  8
E74LXLIFT
 62
6
 10
3291.274
 20
-8411.588
 30
-1897.198
 70
    32
  0
VERTEX
  8
E74LXLIFT
 62
6
 10
3287.775
 20
-8411.586
 30
-1897.198
 70
    32
  0
SEQEND
  8
E74LXLIFT
  0
TEXT
  8
E74LXLIFT
 62
6
 10
3292.805
 20
-8408.394
 30
-1897.000
 40
1.575
  1
ST-513Q
 41
 1.0 
  0
TEXT
  8
E74LXLIFT
 62
6
 10
3290.677
 20
-8411.038
 30
-1897.000
 40
1.575
  1
-1897.198
 41
 1.0 
  0
TEXT
  8
E74LXLIFT
 62
6
 10
3243.019
 20
-8350.925
 30
-1896.598
 40
1.575
  1
ST-568Q
 50
35.670
 41
 1.0 
  0
TEXT
  8
E74LXLIFT
 62
6
 10
3245.678
 20
-8352.752
 30
-1896.598
 40
1.575
  1
-1896.598
 50
35.670
 41
 1.0 
  0
POLYLINE
  8
E74LXLIFT
 62
6
 66
     1
 70
     9
  0
VERTEX
  8
E74LXLIFT
 62
6
 10
3256.253
 20
-8362.458
 30
-1895.942
 70
    32
  0
VERTEX
  8
E74LXLIFT
 62
6
 10
3258.002
 20
-8365.638
 30
-1895.942
 70
    32
  0
VERTEX
  8
E74LXLIFT
 62
6
 10
3254.503
 20
-8365.636
 30
-1895.942
 70
    32
  0
SEQEND
  8
E74LXLIFT
  0
POINT
  8
E74LXLIFT
 62
6
 10
3256.253
 20
-8364.668
 30
-1895.942
  0
POLYLINE
  8
E74LXLIFT
 62
6
 66
     1
 70
     9
  0
VERTEX
  8
E74LXLIFT
 62
6
 10
3237.404
 20
-8357.934
 30
-1896.372
 70
    32
  0
VERTEX
  8
E74LXLIFT
 62
6
 10
3239.153
 20
-8361.114
 30
-1896.372
 70
    32
  0
VERTEX
  8
E74LXLIFT
 62
6
 10
3235.654
 20
-8361.112
 30
-1896.372
 70
    32
  0
SEQEND
  8
E74LXLIFT
  0
POINT
  8
E74LXLIFT
 62
6
 10
3237.404
 20
-8360.144
 30
-1896.372
  0
POLYLINE
  8
E74LXLIFT
 62
6
 66
     1
 70
     9
  0
VERTEX
  8
E74LXLIFT
 62
6
 10
3239.567
 20
-8353.100
 30
-1896.598
 70
    32
  0
VERTEX
  8
E74LXLIFT
 62
6
 10
3241.316
 20
-8356.280
 30
-1896.598
 70
    32
  0
VERTEX
  8
E74LXLIFT
 62
6
 10
3237.817
 20
-8356.278
 30
-1896.598
 70
    32
  0
SEQEND
  8
E74LXLIFT
  0
POINT
  8
E74LXLIFT
 62
6
 10
3239.567
 20
-8355.310
 30
-1896.598
  0
TEXT
  8
E74LXLIFT
 62
6
 10
3224.952
 20
-8374.558
 30
-1896.372
 40
1.575
  1
-1896.372
 50
35.670
 41
 1.0 
  0
TEXT
  8
E74LXLIFT
 62
6
 10
3224.796
 20
-8371.395
 30
-1896.372
 40
1.575
  1
ST-567Q
 50
35.670
 41
 1.0 
  0
TEXT
  8
E74LXLIFT
 62
6
 10
3242.591
 20
-8377.383
 30
-1895.942
 40
1.575
  1
ST-567R
 50
35.670
 41
 1.0 
  0
TEXT
  8
E74LXLIFT
 62
6
 10
3243.299
 20
-8380.463
 30
-1895.942
 40
1.575
  1
-1895.942
 50
35.670
 41
 1.0 
  0
LINE
  8
E74LXLIFT
 62
1
 10
3875.516
 20
-8406.498
 30
-2003.000
 11
3861.381
 21
-8408.800
 31
-2010.315
  0
POLYLINE
  8
E74LXLIFT
 62
3
 66
     1
 70
     9
  0
VERTEX
  8
E74LXLIFT
 62
3
 10
3933.417
 20
-8441.048
 30
-2048.000
 70
    32
  0
VERTEX
  8
E74LXLIFT
 62
3
 10
3952.410
 20
-8455.005
 30
-2048.000
 70
    32
  0
VERTEX
  8
E74LXLIFT
 62
3
 10
3975.314
 20
-8472.869
 30
-2048.000
 70
    32
  0
VERTEX
  8
E74LXLIFT
 62
3
 10
3986.487
 20
-8477.893
 30
-2048.000
 70
    32
  0
VERTEX
  8
E74LXLIFT
 62
3
 10
3997.101
 20
-8471.752
 30
-2048.000
 70
    32
  0
VERTEX
  8
E74LXLIFT
 62
3
 10
3989.280
 20
-8450.539
 30
-2048.000
 70
    32
  0
VERTEX
  8
E74LXLIFT
 62
3
 10
3974.197
 20
-8451.655
 30
-2048.000
 70
    32
  0
VERTEX
  8
E74LXLIFT
 62
3
 10
3969.728
 20
-8445.514
 30
-2048.000
 70
    32
  0
VERTEX
  8
E74LXLIFT
 62
3
 10
3947.382
 20
-8441.606
 30
-2048.000
 70
    32
  0
VERTEX
  8
E74LXLIFT
 62
3
 10
3937.886
 20
-8434.907
 30
-2048.000
 70
    32
  0
SEQEND
  8
E74LXLIFT
  0
POLYLINE
  8
E74LXLIFT
 62
3
 66
     1
 70
     9
  0
VERTEX
  8
E74LXLIFT
 62
3
 10
3854.649
 20
-8353.402
 30
-2048.000
 70
    32
  0
VERTEX
  8
E74LXLIFT
 62
3
 10
3853.532
 20
-8371.824
 30
-2048.000
 70
    32
  0
VERTEX
  8
E74LXLIFT
 62
3
 10
3859.677
 20
-8385.781
 30
-2048.000
 70
    32
  0
VERTEX
  8
E74LXLIFT
 62
3
 10
3868.615
 20
-8405.878
 30
-2048.000
 70
    32
  0
VERTEX
  8
E74LXLIFT
 62
3
 10
3868.615
 20
-8412.577
 30
-2048.000
 70
    32
  0
VERTEX
  8
E74LXLIFT
 62
3
 10
3869.174
 20
-8422.626
 30
-2048.000
 70
    32
  0
VERTEX
  8
E74LXLIFT
 62
3
 10
3876.994
 20
-8437.699
 30
-2048.000
 70
    32
  0
VERTEX
  8
E74LXLIFT
 62
3
 10
3880.905
 20
-8459.471
 30
-2048.000
 70
    32
  0
VERTEX
  8
E74LXLIFT
 62
3
 10
3883.698
 20
-8472.869
 30
-2048.000
 70
    32
  0
VERTEX
  8
E74LXLIFT
 62
3
 10
3890.960
 20
-8486.825
 30
-2048.000
 70
    32
  0
VERTEX
  8
E74LXLIFT
 62
3
 10
3901.574
 20
-8500.223
 30
-2048.000
 70
    32
  0
VERTEX
  8
E74LXLIFT
 62
3
 10
3907.161
 20
-8505.248
 30
-2048.000
 70
    32
  0
VERTEX
  8
E74LXLIFT
 62
3
 10
3943.472
 20
-8530.928
 30
-2048.000
 70
    32
  0
VERTEX
  8
E74LXLIFT
 62
3
 10
3949.058
 20
-8523.112
 30
-2048.000
 70
    32
  0
VERTEX
  8
E74LXLIFT
 62
3
 10
3928.947
 20
-8507.481
 30
-2048.000
 70
    32
  0
VERTEX
  8
E74LXLIFT
 62
3
 10
3914.423
 20
-8499.665
 30
-2048.000
 70
    32
  0
VERTEX
  8
E74LXLIFT
 62
3
 10
3904.926
 20
-8489.058
 30
-2048.000
 70
    32
  0
VERTEX
  8
E74LXLIFT
 62
3
 10
3897.105
 20
-8475.660
 30
-2048.000
 70
    32
  0
VERTEX
  8
E74LXLIFT
 62
3
 10
3893.195
 20
-8466.170
 30
-2048.000
 70
    32
  0
VERTEX
  8
E74LXLIFT
 62
3
 10
3888.726
 20
-8448.305
 30
-2048.000
 70
    32
  0
VERTEX
  8
E74LXLIFT
 62
3
 10
3884.815
 20
-8429.325
 30
-2048.000
 70
    32
  0
VERTEX
  8
E74LXLIFT
 62
3
 10
3879.229
 20
-8420.951
 30
-2048.000
 70
    32
  0
VERTEX
  8
E74LXLIFT
 62
3
 10
3878.112
 20
-8412.577
 30
-2048.000
 70
    32
  0
VERTEX
  8
E74LXLIFT
 62
3
 10
3879.788
 20
-8403.645
 30
-2048.000
 70
    32
  0
VERTEX
  8
E74LXLIFT
 62
3
 10
3877.553
 20
-8389.688
 30
-2048.000
 70
    32
  0
VERTEX
  8
E74LXLIFT
 62
3
 10
3876.436
 20
-8380.198
 30
-2048.000
 70
    32
  0
VERTEX
  8
E74LXLIFT
 62
3
 10
3875.319
 20
-8374.615
 30
-2048.000
 70
    32
  0
VERTEX
  8
E74LXLIFT
 62
3
 10
3882.581
 20
-8371.266
 30
-2048.000
 70
    32
  0
VERTEX
  8
E74LXLIFT
 62
3
 10
3884.815
 20
-8356.193
 30
-2048.000
 70
    32
  0
VERTEX
  8
E74LXLIFT
 62
3
 10
3872.525
 20
-8349.494
 30
-2048.000
 70
    32
  0
SEQEND
  8
E74LXLIFT
  0
POLYLINE
  8
E74LXLIFT
 62
3
 66
     1
 70
     9
  0
VERTEX
  8
E74LXLIFT
 62
3
 10
3908.837
 20
-8394.713
 30
-2048.000
 70
    32
  0
VERTEX
  8
E74LXLIFT
 62
3
 10
3917.775
 20
-8381.873
 30
-2048.000
 70
    32
  0
VERTEX
  8
E74LXLIFT
 62
3
 10
3908.278
 20
-8381.873
 30
-2048.000
 70
    32
  0
VERTEX
  8
E74LXLIFT
 62
3
 10
3903.250
 20
-8377.407
 30
-2048.000
 70
    32
  0
VERTEX
  8
E74LXLIFT
 62
3
 10
3894.871
 20
-8356.193
 30
-2048.000
 70
    32
  0
VERTEX
  8
E74LXLIFT
 62
3
 10
3891.519
 20
-8357.868
 30
-2048.000
 70
    32
  0
VERTEX
  8
E74LXLIFT
 62
3
 10
3884.815
 20
-8357.309
 30
-2048.000
 70
    32
  0
VERTEX
  8
E74LXLIFT
 62
3
 10
3883.139
 20
-8371.266
 30
-2048.000
 70
    32
  0
VERTEX
  8
E74LXLIFT
 62
3
 10
3886.491
 20
-8375.174
 30
-2048.000
 70
    32
  0
VERTEX
  8
E74LXLIFT
 62
3
 10
3892.078
 20
-8376.290
 30
-2048.000
 70
    32
  0
VERTEX
  8
E74LXLIFT
 62
3
 10
3898.223
 20
-8388.572
 30
-2048.000
 70
    32
  0
VERTEX
  8
E74LXLIFT
 62
3
 10
3901.016
 20
-8392.480
 30
-2048.000
 70
    32
  0
SEQEND
  8
E74LXLIFT
  0
POLYLINE
  8
E74LXLIFT
 62
22
 66
     1
 70
     9
  0
VERTEX
  8
E74LXLIFT
 62
22
 10
3836.914
 20
-8358.346
 30
-2028.000
 70
    32
  0
VERTEX
  8
E74LXLIFT
 62
22
 10
3848.935
 20
-8370.902
 30
-2031.000
 70
    32
  0
VERTEX
  8
E74LXLIFT
 62
22
 10
3849.963
 20
-8376.068
 30
-2031.500
 70
    32
  0
VERTEX
  8
E74LXLIFT
 62
22
 10
3844.448
 20
-8391.156
 30
-2032.500
 70
    32
  0
VERTEX
  8
E74LXLIFT
 62
22
 10
3850.743
 20
-8397.296
 30
-2033.000
 70
    32
  0
VERTEX
  8
E74LXLIFT
 62
22
 10
3852.157
 20
-8405.249
 30
-2035.000
 70
    32
  0
VERTEX
  8
E74LXLIFT
 62
22
 10
3861.211
 20
-8406.221
 30
-2033.000
 70
    32
  0
VERTEX
  8
E74LXLIFT
 62
22
 10
3862.606
 20
-8416.656
 30
-2033.000
 70
    32
  0
VERTEX
  8
E74LXLIFT
 62
22
 10
3869.173
 20
-8428.304
 30
-2033.000
 70
    32
  0
VERTEX
  8
E74LXLIFT
 62
22
 10
3882.177
 20
-8458.635
 30
-2033.500
 70
    32
  0
VERTEX
  8
E74LXLIFT
 62
22
 10
3884.369
 20
-8478.503
 30
-2033.500
 70
    32
  0
VERTEX
  8
E74LXLIFT
 62
22
 10
3897.838
 20
-8501.011
 30
-2033.900
 70
    32
  0
VERTEX
  8
E74LXLIFT
 62
22
 10
3912.935
 20
-8513.608
 30
-2033.900
 70
    32
  0
VERTEX
  8
E74LXLIFT
 62
22
 10
3925.039
 20
-8534.690
 30
-2033.900
 70
    32
  0
VERTEX
  8
E74LXLIFT
 62
22
 10
3934.413
 20
-8531.206
 30
-2033.900
 70
    32
  0
VERTEX
  8
E74LXLIFT
 62
22
 10
3924.183
 20
-8509.427
 30
-2033.900
 70
    32
  0
VERTEX
  8
E74LXLIFT
 62
22
 10
3919.738
 20
-8496.852
 30
-2033.900
 70
    32
  0
VERTEX
  8
E74LXLIFT
 62
22
 10
3900.663
 20
-8468.865
 30
-2033.500
 70
    32
  0
VERTEX
  8
E74LXLIFT
 62
22
 10
3885.399
 20
-8427.364
 30
-2035.183
 70
    32
  0
VERTEX
  8
E74LXLIFT
 62
22
 10
3887.324
 20
-8427.205
 30
-2036.641
 70
    32
  0
VERTEX
  8
E74LXLIFT
 62
22
 10
3906.998
 20
-8429.667
 30
-2036.641
 70
    32
  0
VERTEX
  8
E74LXLIFT
 62
22
 10
3907.399
 20
-8429.913
 30
-2036.600
 70
    32
  0
VERTEX
  8
E74LXLIFT
 62
22
 10
3917.954
 20
-8437.095
 30
-2035.900
 70
    32
  0
VERTEX
  8
E74LXLIFT
 62
22
 10
3922.753
 20
-8441.183
 30
-2035.500
 70
    32
  0
VERTEX
  8
E74LXLIFT
 62
22
 10
3927.774
 20
-8458.046
 30
-2035.000
 70
    32
  0
VERTEX
  8
E74LXLIFT
 62
22
 10
3933.785
 20
-8461.794
 30
-2035.000
 70
    32
  0
VERTEX
  8
E74LXLIFT
 62
22
 10
3952.680
 20
-8456.717
 30
-2034.800
 70
    32
  0
VERTEX
  8
E74LXLIFT
 62
22
 10
3957.875
 20
-8462.699
 30
-2034.500
 70
    32
  0
VERTEX
  8
E74LXLIFT
 62
22
 10
3971.633
 20
-8465.031
 30
-2034.500
 70
    32
  0
VERTEX
  8
E74LXLIFT
 62
22
 10
3973.684
 20
-8449.531
 30
-2034.500
 70
    32
  0
VERTEX
  8
E74LXLIFT
 62
22
 10
3927.355
 20
-8429.244
 30
-2035.900
 70
    32
  0
VERTEX
  8
E74LXLIFT
 62
22
 10
3903.147
 20
-8416.659
 30
-2036.600
 70
    32
  0
VERTEX
  8
E74LXLIFT
 62
22
 10
3898.469
 20
-8411.524
 30
-2036.600
 70
    32
  0
VERTEX
  8
E74LXLIFT
 62
22
 10
3889.903
 20
-8412.647
 30
-2036.600
 70
    32
  0
VERTEX
  8
E74LXLIFT
 62
22
 10
3889.092
 20
-8412.749
 30
-2036.641
 70
    32
  0
VERTEX
  8
E74LXLIFT
 62
22
 10
3880.160
 20
-8409.857
 30
-2036.641
 70
    32
  0
VERTEX
  8
E74LXLIFT
 62
22
 10
3878.467
 20
-8408.867
 30
-2033.041
 70
    32
  0
VERTEX
  8
E74LXLIFT
 62
22
 10
3876.562
 20
-8403.432
 30
-2033.000
 70
    32
  0
VERTEX
  8
E74LXLIFT
 62
22
 10
3874.783
 20
-8398.645
 30
-2035.000
 70
    32
  0
VERTEX
  8
E74LXLIFT
 62
22
 10
3874.943
 20
-8392.310
 30
-2034.049
 70
    32
  0
VERTEX
  8
E74LXLIFT
 62
22
 10
3874.943
 20
-8383.469
 30
-2032.722
 70
    32
  0
VERTEX
  8
E74LXLIFT
 62
22
 10
3875.150
 20
-8371.956
 30
-2030.993
 70
    32
  0
VERTEX
  8
E74LXLIFT
 62
22
 10
3875.224
 20
-8365.341
 30
-2030.000
 70
    32
  0
VERTEX
  8
E74LXLIFT
 62
22
 10
3878.045
 20
-8363.623
 30
-2030.000
 70
    32
  0
VERTEX
  8
E74LXLIFT
 62
22
 10
3883.030
 20
-8366.858
 30
-2030.000
 70
    32
  0
VERTEX
  8
E74LXLIFT
 62
22
 10
3891.559
 20
-8370.941
 30
-2030.000
 70
    32
  0
VERTEX
  8
E74LXLIFT
 62
22
 10
3897.130
 20
-8366.678
 30
-2030.000
 70
    32
  0
VERTEX
  8
E74LXLIFT
 62
22
 10
3897.696
 20
-8352.031
 30
-2030.000
 70
    32
  0
VERTEX
  8
E74LXLIFT
 62
22
 10
3871.111
 20
-8344.734
 30
-2030.000
 70
    32
  0
VERTEX
  8
E74LXLIFT
 62
22
 10
3864.052
 20
-8338.990
 30
-2030.000
 70
    32
  0
VERTEX
  8
E74LXLIFT
 62
22
 10
3855.776
 20
-8336.163
 30
-2030.000
 70
    32
  0
VERTEX
  8
E74LXLIFT
 62
22
 10
3833.306
 20
-8347.586
 30
-2027.000
 70
    32
  0
SEQEND
  8
E74LXLIFT
  0
TEXT
  8
E74LXLIFT
 62
7
 10
3874.750
 20
-8371.583
 30
-2039.788
 40
1.500
  1
-2039.788
 50
295.665
 41
 1.0 
  0
LINE
  8
E74LXLIFT
 62
7
 10
3855.792
 20
-8367.081
 30
-2029.953
 11
3894.175
 21
-8494.890
 31
-2029.953
  0
TEXT
  8
E74LXLIFT
 62
1
 10
3841.780
 20
-8413.123
 30
-2036.346
 40
1.969
  1
-2036.346
 41
 1.0 
  0
POINT
  8
E74LXLIFT
 62
1
 10
3862.517
 20
-8406.257
 30
-2036.346
  0
POLYLINE
  8
E74LXLIFT
 62
1
 66
     1
 70
     9
  0
VERTEX
  8
E74LXLIFT
 62
1
 10
3862.517
 20
-8404.047
 30
-2036.346
 70
    32
  0
VERTEX
  8
E74LXLIFT
 62
1
 10
3864.266
 20
-8407.227
 30
-2036.346
 70
    32
  0
VERTEX
  8
E74LXLIFT
 62
1
 10
3860.767
 20
-8407.225
 30
-2036.346
 70
    32
  0
SEQEND
  8
E74LXLIFT
  0
POINT
  8
E74LXLIFT
 62
1
 10
3873.946
 20
-8411.665
 30
-2036.455
  0
POLYLINE
  8
E74LXLIFT
 62
1
 66
     1
 70
     9
  0
VERTEX
  8
E74LXLIFT
 62
1
 10
3873.946
 20
-8409.455
 30
-2036.455
 70
    32
  0
VERTEX
  8
E74LXLIFT
 62
1
 10
3875.695
 20
-8412.635
 30
-2036.455
 70
    32
  0
VERTEX
  8
E74LXLIFT
 62
1
 10
3872.196
 20
-8412.633
 30
-2036.455
 70
    32
  0
SEQEND
  8
E74LXLIFT
  0
TEXT
  8
E74LXLIFT
 62
7
 10
3843.165
 20
-8368.216
 30
-2029.953
 40
1.500
  1
ST-664O
 41
 1.0 
  0
TEXT
  8
E74LXLIFT
 62
7
 10
3840.608
 20
-8370.667
 30
-2029.953
 40
1.500
  1
-2029.953
 41
 1.0 
  0
POINT
  8
E74LXLIFT
 62
7
 10
3855.792
 20
-8367.081
 30
-2029.953
  0
POLYLINE
  8
E74LXLIFT
 62
2
 66
     1
 70
     9
  0
VERTEX
  8
E74LXLIFT
 62
2
 10
3844.767
 20
-8366.026
 30
-2029.760
 70
    32
  0
VERTEX
  8
E74LXLIFT
 62
2
 10
3844.560
 20
-8382.156
 30
-2028.340
 70
    32
  0
VERTEX
  8
E74LXLIFT
 62
2
 10
3846.650
 20
-8389.340
 30
-2027.000
 70
    32
  0
VERTEX
  8
E74LXLIFT
 62
2
 10
3844.477
 20
-8392.847
 30
-2026.967
 70
    32
  0
VERTEX
  8
E74LXLIFT
 62
2
 10
3847.869
 20
-8399.209
 30
-2026.661
 70
    32
  0
VERTEX
  8
E74LXLIFT
 62
2
 10
3853.255
 20
-8401.137
 30
-2026.255
 70
    32
  0
VERTEX
  8
E74LXLIFT
 62
2
 10
3857.008
 20
-8403.436
 30
-2025.240
 70
    32
  0
VERTEX
  8
E74LXLIFT
 62
2
 10
3860.543
 20
-8414.178
 30
-2024.944
 70
    32
  0
VERTEX
  8
E74LXLIFT
 62
2
 10
3861.440
 20
-8418.060
 30
-2023.889
 70
    32
  0
VERTEX
  8
E74LXLIFT
 62
2
 10
3867.558
 20
-8421.526
 30
-2023.596
 70
    32
  0
VERTEX
  8
E74LXLIFT
 62
2
 10
3871.347
 20
-8437.157
 30
-2023.979
 70
    32
  0
VERTEX
  8
E74LXLIFT
 62
2
 10
3875.268
 20
-8439.927
 30
-2023.851
 70
    32
  0
VERTEX
  8
E74LXLIFT
 62
2
 10
3877.169
 20
-8448.010
 30
-2023.818
 70
    32
  0
VERTEX
  8
E74LXLIFT
 62
2
 10
3877.826
 20
-8461.660
 30
-2024.006
 70
    32
  0
VERTEX
  8
E74LXLIFT
 62
2
 10
3876.673
 20
-8470.185
 30
-2024.302
 70
    32
  0
VERTEX
  8
E74LXLIFT
 62
2
 10
3882.421
 20
-8478.757
 30
-2023.000
 70
    32
  0
VERTEX
  8
E74LXLIFT
 62
2
 10
3882.761
 20
-8487.180
 30
-2023.700
 70
    32
  0
VERTEX
  8
E74LXLIFT
 62
2
 10
3887.802
 20
-8493.761
 30
-2023.000
 70
    32
  0
VERTEX
  8
E74LXLIFT
 62
2
 10
3892.250
 20
-8508.084
 30
-2023.000
 70
    32
  0
VERTEX
  8
E74LXLIFT
 62
2
 10
3893.164
 20
-8507.800
 30
-2023.800
 70
    32
  0
VERTEX
  8
E74LXLIFT
 62
2
 10
3906.035
 20
-8522.007
 30
-2023.800
 70
    32
  0
VERTEX
  8
E74LXLIFT
 62
2
 10
3905.621
 20
-8537.815
 30
-2023.000
 70
    32
  0
VERTEX
  8
E74LXLIFT
 62
2
 10
3908.604
 20
-8542.972
 30
-2023.000
 70
    32
  0
VERTEX
  8
E74LXLIFT
 62
2
 10
3920.872
 20
-8537.699
 30
-2023.000
 70
    32
  0
VERTEX
  8
E74LXLIFT
 62
2
 10
3921.273
 20
-8537.236
 30
-2023.000
 70
    32
  0
VERTEX
  8
E74LXLIFT
 62
2
 10
3930.441
 20
-8533.551
 30
-2023.000
 70
    32
  0
VERTEX
  8
E74LXLIFT
 62
2
 10
3932.027
 20
-8524.805
 30
-2023.000
 70
    32
  0
VERTEX
  8
E74LXLIFT
 62
2
 10
3925.994
 20
-8512.132
 30
-2023.800
 70
    32
  0
VERTEX
  8
E74LXLIFT
 62
2
 10
3916.125
 20
-8500.670
 30
-2023.000
 70
    32
  0
VERTEX
  8
E74LXLIFT
 62
2
 10
3911.677
 20
-8486.347
 30
-2023.000
 70
    32
  0
VERTEX
  8
E74LXLIFT
 62
2
 10
3902.908
 20
-8473.551
 30
-2023.500
 70
    32
  0
VERTEX
  8
E74LXLIFT
 62
2
 10
3887.317
 20
-8439.638
 30
-2023.830
 70
    32
  0
VERTEX
  8
E74LXLIFT
 62
2
 10
3883.329
 20
-8424.413
 30
-2023.979
 70
    32
  0
VERTEX
  8
E74LXLIFT
 62
2
 10
3876.746
 20
-8407.090
 30
-2025.497
 70
    32
  0
VERTEX
  8
E74LXLIFT
 62
2
 10
3870.805
 20
-8391.172
 30
-2026.774
 70
    32
  0
VERTEX
  8
E74LXLIFT
 62
2
 10
3870.572
 20
-8355.043
 30
-2029.989
 70
    32
  0
SEQEND
  8
E74LXLIFT
  0
LINE
  8
E74LXLIFT
 62
1
 10
3894.355
 20
-8477.497
 30
-2022.874
 11
3926.015
 21
-8534.327
 31
-2022.874
  0
TEXT
  8
E74LXLIFT
 62
1
 10
3886.288
 20
-8485.199
 30
-2023.846
 40
1.500
  1
ST-035T
 41
 1.0 
  0
TEXT
  8
E74LXLIFT
 62
1
 10
3883.904
 20
-8487.144
 30
-2023.846
 40
1.500
  1
-2023.846
 41
 1.0 
  0
TEXT
  8
E74LXLIFT
 62
1
 10
3880.663
 20
-8410.400
 30
-2036.455
 40
1.969
  1
-2036.455
 41
 1.0 
  0
TEXT
  8
E74LXLIFT
 62
7
 10
3837.694
 20
-8363.646
 30
-2029.774
 40
1.500
  1
BK -2029.774
 41
 1.0 
  0
POINT
  8
E74LXLIFT
 62
7
 10
3856.412
 20
-8349.853
 30
-2029.220
  0
TEXT
  8
E74LXLIFT
 62
7
 10
3841.190
 20
-8352.345
 30
-2029.220
 40
1.500
  1
-2029.220
 41
 1.0 
  0
POLYLINE
  8
E74LXLIFT
 62
7
 66
     1
 70
     8
  0
VERTEX
  8
E74LXLIFT
 62
7
 10
3856.409
 20
-8362.993
 30
-2029.774
 70
    32
  0
VERTEX
  8
E74LXLIFT
 62
7
 10
3856.407
 20
-8362.949
 30
-2029.774
 70
    32
  0
VERTEX
  8
E74LXLIFT
 62
7
 10
3856.401
 20
-8362.906
 30
-2029.774
 70
    32
  0
VERTEX
  8
E74LXLIFT
 62
7
 10
3856.392
 20
-8362.864
 30
-2029.774
 70
    32
  0
VERTEX
  8
E74LXLIFT
 62
7
 10
3856.379
 20
-8362.822
 30
-2029.774
 70
    32
  0
VERTEX
  8
E74LXLIFT
 62
7
 10
3856.362
 20
-8362.782
 30
-2029.774
 70
    32
  0
VERTEX
  8
E74LXLIFT
 62
7
 10
3856.342
 20
-8362.743
 30
-2029.774
 70
    32
  0
VERTEX
  8
E74LXLIFT
 62
7
 10
3856.319
 20
-8362.706
 30
-2029.774
 70
    32
  0
VERTEX
  8
E74LXLIFT
 62
7
 10
3856.292
 20
-8362.672
 30
-2029.774
 70
    32
  0
VERTEX
  8
E74LXLIFT
 62
7
 10
3856.263
 20
-8362.639
 30
-2029.774
 70
    32
  0
VERTEX
  8
E74LXLIFT
 62
7
 10
3856.230
 20
-8362.610
 30
-2029.774
 70
    32
  0
VERTEX
  8
E74LXLIFT
 62
7
 10
3856.196
 20
-8362.583
 30
-2029.774
 70
    32
  0
VERTEX
  8
E74LXLIFT
 62
7
 10
3856.159
 20
-8362.560
 30
-2029.774
 70
    32
  0
VERTEX
  8
E74LXLIFT
 62
7
 10
3856.120
 20
-8362.540
 30
-2029.774
 70
    32
  0
VERTEX
  8
E74LXLIFT
 62
7
 10
3856.080
 20
-8362.523
 30
-2029.774
 70
    32
  0
VERTEX
  8
E74LXLIFT
 62
7
 10
3856.038
 20
-8362.510
 30
-2029.774
 70
    32
  0
VERTEX
  8
E74LXLIFT
 62
7
 10
3855.996
 20
-8362.501
 30
-2029.774
 70
    32
  0
VERTEX
  8
E74LXLIFT
 62
7
 10
3855.953
 20
-8362.495
 30
-2029.774
 70
    32
  0
VERTEX
  8
E74LXLIFT
 62
7
 10
3855.909
 20
-8362.493
 30
-2029.774
 70
    32
  0
VERTEX
  8
E74LXLIFT
 62
7
 10
3855.865
 20
-8362.495
 30
-2029.774
 70
    32
  0
VERTEX
  8
E74LXLIFT
 62
7
 10
3855.822
 20
-8362.501
 30
-2029.774
 70
    32
  0
VERTEX
  8
E74LXLIFT
 62
7
 10
3855.780
 20
-8362.510
 30
-2029.774
 70
    32
  0
VERTEX
  8
E74LXLIFT
 62
7
 10
3855.738
 20
-8362.523
 30
-2029.774
 70
    32
  0
VERTEX
  8
E74LXLIFT
 62
7
 10
3855.698
 20
-8362.540
 30
-2029.774
 70
    32
  0
VERTEX
  8
E74LXLIFT
 62
7
 10
3855.659
 20
-8362.560
 30
-2029.774
 70
    32
  0
VERTEX
  8
E74LXLIFT
 62
7
 10
3855.622
 20
-8362.583
 30
-2029.774
 70
    32
  0
VERTEX
  8
E74LXLIFT
 62
7
 10
3855.588
 20
-8362.610
 30
-2029.774
 70
    32
  0
VERTEX
  8
E74LXLIFT
 62
7
 10
3855.555
 20
-8362.639
 30
-2029.774
 70
    32
  0
VERTEX
  8
E74LXLIFT
 62
7
 10
3855.526
 20
-8362.672
 30
-2029.774
 70
    32
  0
VERTEX
  8
E74LXLIFT
 62
7
 10
3855.499
 20
-8362.706
 30
-2029.774
 70
    32
  0
VERTEX
  8
E74LXLIFT
 62
7
 10
3855.476
 20
-8362.743
 30
-2029.774
 70
    32
  0
VERTEX
  8
E74LXLIFT
 62
7
 10
3855.456
 20
-8362.782
 30
-2029.774
 70
    32
  0
VERTEX
  8
E74LXLIFT
 62
7
 10
3855.439
 20
-8362.822
 30
-2029.774
 70
    32
  0
VERTEX
  8
E74LXLIFT
 62
7
 10
3855.426
 20
-8362.864
 30
-2029.774
 70
    32
  0
VERTEX
  8
E74LXLIFT
 62
7
 10
3855.417
 20
-8362.906
 30
-2029.774
 70
    32
  0
VERTEX
  8
E74LXLIFT
 62
7
 10
3855.411
 20
-8362.949
 30
-2029.774
 70
    32
  0
VERTEX
  8
E74LXLIFT
 62
7
 10
3855.409
 20
-8362.993
 30
-2029.774
 70
    32
  0
VERTEX
  8
E74LXLIFT
 62
7
 10
3855.411
 20
-8363.037
 30
-2029.774
 70
    32
  0
VERTEX
  8
E74LXLIFT
 62
7
 10
3855.417
 20
-8363.080
 30
-2029.774
 70
    32
  0
VERTEX
  8
E74LXLIFT
 62
7
 10
3855.426
 20
-8363.122
 30
-2029.774
 70
    32
  0
VERTEX
  8
E74LXLIFT
 62
7
 10
3855.439
 20
-8363.164
 30
-2029.774
 70
    32
  0
VERTEX
  8
E74LXLIFT
 62
7
 10
3855.456
 20
-8363.204
 30
-2029.774
 70
    32
  0
VERTEX
  8
E74LXLIFT
 62
7
 10
3855.476
 20
-8363.243
 30
-2029.774
 70
    32
  0
VERTEX
  8
E74LXLIFT
 62
7
 10
3855.499
 20
-8363.280
 30
-2029.774
 70
    32
  0
VERTEX
  8
E74LXLIFT
 62
7
 10
3855.526
 20
-8363.314
 30
-2029.774
 70
    32
  0
VERTEX
  8
E74LXLIFT
 62
7
 10
3855.555
 20
-8363.347
 30
-2029.774
 70
    32
  0
VERTEX
  8
E74LXLIFT
 62
7
 10
3855.588
 20
-8363.376
 30
-2029.774
 70
    32
  0
VERTEX
  8
E74LXLIFT
 62
7
 10
3855.622
 20
-8363.403
 30
-2029.774
 70
    32
  0
VERTEX
  8
E74LXLIFT
 62
7
 10
3855.659
 20
-8363.426
 30
-2029.774
 70
    32
  0
VERTEX
  8
E74LXLIFT
 62
7
 10
3855.698
 20
-8363.446
 30
-2029.774
 70
    32
  0
VERTEX
  8
E74LXLIFT
 62
7
 10
3855.738
 20
-8363.463
 30
-2029.774
 70
    32
  0
VERTEX
  8
E74LXLIFT
 62
7
 10
3855.780
 20
-8363.476
 30
-2029.774
 70
    32
  0
VERTEX
  8
E74LXLIFT
 62
7
 10
3855.822
 20
-8363.485
 30
-2029.774
 70
    32
  0
VERTEX
  8
E74LXLIFT
 62
7
 10
3855.865
 20
-8363.491
 30
-2029.774
 70
    32
  0
VERTEX
  8
E74LXLIFT
 62
7
 10
3855.909
 20
-8363.493
 30
-2029.774
 70
    32
  0
VERTEX
  8
E74LXLIFT
 62
7
 10
3855.953
 20
-8363.491
 30
-2029.774
 70
    32
  0
VERTEX
  8
E74LXLIFT
 62
7
 10
3855.996
 20
-8363.485
 30
-2029.774
 70
    32
  0
VERTEX
  8
E74LXLIFT
 62
7
 10
3856.038
 20
-8363.476
 30
-2029.774
 70
    32
  0
VERTEX
  8
E74LXLIFT
 62
7
 10
3856.080
 20
-8363.463
 30
-2029.774
 70
    32
  0
VERTEX
  8
E74LXLIFT
 62
7
 10
3856.120
 20
-8363.446
 30
-2029.774
 70
    32
  0
VERTEX
  8
E74LXLIFT
 62
7
 10
3856.159
 20
-8363.426
 30
-2029.774
 70
    32
  0
VERTEX
  8
E74LXLIFT
 62
7
 10
3856.196
 20
-8363.403
 30
-2029.774
 70
    32
  0
VERTEX
  8
E74LXLIFT
 62
7
 10
3856.230
 20
-8363.376
 30
-2029.774
 70
    32
  0
VERTEX
  8
E74LXLIFT
 62
7
 10
3856.263
 20
-8363.347
 30
-2029.774
 70
    32
  0
VERTEX
  8
E74LXLIFT
 62
7
 10
3856.292
 20
-8363.314
 30
-2029.774
 70
    32
  0
VERTEX
  8
E74LXLIFT
 62
7
 10
3856.319
 20
-8363.280
 30
-2029.774
 70
    32
  0
VERTEX
  8
E74LXLIFT
 62
7
 10
3856.342
 20
-8363.243
 30
-2029.774
 70
    32
  0
VERTEX
  8
E74LXLIFT
 62
7
 10
3856.362
 20
-8363.204
 30
-2029.774
 70
    32
  0
VERTEX
  8
E74LXLIFT
 62
7
 10
3856.379
 20
-8363.164
 30
-2029.774
 70
    32
  0
VERTEX
  8
E74LXLIFT
 62
7
 10
3856.392
 20
-8363.122
 30
-2029.774
 70
    32
  0
VERTEX
  8
E74LXLIFT
 62
7
 10
3856.401
 20
-8363.080
 30
-2029.774
 70
    32
  0
VERTEX
  8
E74LXLIFT
 62
7
 10
3856.407
 20
-8363.037
 30
-2029.774
 70
    32
  0
VERTEX
  8
E74LXLIFT
 62
7
 10
3856.409
 20
-8362.993
 30
-2029.774
 70
    32
  0
SEQEND
  8
E74LXLIFT
  0
POLYLINE
  8
E74LXLIFT
 62
7
 66
     1
 70
     9
  0
VERTEX
  8
E74LXLIFT
 62
7
 10
3855.792
 20
-8364.871
 30
-2029.953
 70
    32
  0
VERTEX
  8
E74LXLIFT
 62
7
 10
3857.541
 20
-8368.051
 30
-2029.953
 70
    32
  0
VERTEX
  8
E74LXLIFT
 62
7
 10
3854.042
 20
-8368.049
 30
-2029.953
 70
    32
  0
SEQEND
  8
E74LXLIFT
  0
TEXT
  8
E74LXLIFT
 62
7
 10
3842.477
 20
-8349.685
 30
-2029.220
 40
1.500
  1
ST-665O
 41
 1.0 
  0
TEXT
  8
E74LXLIFT
 62
7
 10
3845.181
 20
-8381.768
 30
-2029.134
 40
1.500
  1
-2029.134
 41
 1.0 
  0
TEXT
  8
E74LXLIFT
 62
7
 10
3846.332
 20
-8379.560
 30
-2029.134
 40
1.500
  1
ST-663O
 41
 1.0 
  0
POINT
  8
E74LXLIFT
 62
7
 10
3859.500
 20
-8379.428
 30
-2029.134
  0
POLYLINE
  8
E74LXLIFT
 62
7
 66
     1
 70
     9
  0
VERTEX
  8
E74LXLIFT
 62
7
 10
3859.500
 20
-8377.218
 30
-2029.134
 70
    32
  0
VERTEX
  8
E74LXLIFT
 62
7
 10
3861.249
 20
-8380.398
 30
-2029.134
 70
    32
  0
VERTEX
  8
E74LXLIFT
 62
7
 10
3857.750
 20
-8380.396
 30
-2029.134
 70
    32
  0
SEQEND
  8
E74LXLIFT
  0
POLYLINE
  8
E74LXLIFT
 62
7
 66
     1
 70
     9
  0
VERTEX
  8
E74LXLIFT
 62
7
 10
3856.412
 20
-8347.643
 30
-2029.220
 70
    32
  0
VERTEX
  8
E74LXLIFT
 62
7
 10
3858.161
 20
-8350.823
 30
-2029.220
 70
    32
  0
VERTEX
  8
E74LXLIFT
 62
7
 10
3854.662
 20
-8350.821
 30
-2029.220
 70
    32
  0
SEQEND
  8
E74LXLIFT
  0
TEXT
  8
E74LXLIFT
 62
1
 10
3845.422
 20
-8408.919
 30
-2036.346
 40
1.969
  1
ST-827R
 41
 1.0 
  0
TEXT
  8
E74LXLIFT
 62
1
 10
3883.900
 20
-8477.398
 30
-2022.874
 40
1.500
  1
ST-035S
 41
 1.0 
  0
TEXT
  8
E74LXLIFT
 62
1
 10
3881.800
 20
-8479.287
 30
-2022.874
 40
1.500
  1
-2022.874
 41
 1.0 
  0
POINT
  8
E74LXLIFT
 62
1
 10
3898.238
 20
-8484.467
 30
-2023.846
  0
POLYLINE
  8
E74LXLIFT
 62
1
 66
     1
 70
     9
  0
VERTEX
  8
E74LXLIFT
 62
1
 10
3898.238
 20
-8482.257
 30
-2023.846
 70
    32
  0
VERTEX
  8
E74LXLIFT
 62
1
 10
3899.987
 20
-8485.437
 30
-2023.846
 70
    32
  0
VERTEX
  8
E74LXLIFT
 62
1
 10
3896.488
 20
-8485.435
 30
-2023.846
 70
    32
  0
SEQEND
  8
E74LXLIFT
  0
TEXT
  8
E74LXLIFT
 62
1
 10
3881.889
 20
-8408.026
 30
-2036.455
 40
1.969
  1
ST-827Q
 41
 1.0 
  0
POINT
  8
E74LXLIFT
 62
1
 10
3894.355
 20
-8477.497
 30
-2022.874
  0
POLYLINE
  8
E74LXLIFT
 62
1
 66
     1
 70
     9
  0
VERTEX
  8
E74LXLIFT
 62
1
 10
3894.355
 20
-8475.287
 30
-2022.874
 70
    32
  0
VERTEX
  8
E74LXLIFT
 62
1
 10
3896.104
 20
-8478.467
 30
-2022.874
 70
    32
  0
VERTEX
  8
E74LXLIFT
 62
1
 10
3892.605
 20
-8478.465
 30
-2022.874
 70
    32
  0
SEQEND
  8
E74LXLIFT
  0
POLYLINE
  8
E74LXLIFT
 62
1
 66
     1
 70
     9
  0
VERTEX
  8
E74LXLIFT
 62
1
 10
3816.451
 20
-8340.027
 30
-2002.900
 70
    32
  0
VERTEX
  8
E74LXLIFT
 62
1
 10
3821.760
 20
-8338.415
 30
-2002.690
 70
    32
  0
VERTEX
  8
E74LXLIFT
 62
1
 10
3825.515
 20
-8336.333
 30
-2002.690
 70
    32
  0
VERTEX
  8
E74LXLIFT
 62
1
 10
3829.245
 20
-8332.309
 30
-2003.000
 70
    32
  0
VERTEX
  8
E74LXLIFT
 62
1
 10
3833.878
 20
-8328.949
 30
-2003.000
 70
    32
  0
VERTEX
  8
E74LXLIFT
 62
1
 10
3841.938
 20
-8331.483
 30
-2003.000
 70
    32
  0
VERTEX
  8
E74LXLIFT
 62
1
 10
3849.580
 20
-8339.863
 30
-2003.000
 70
    32
  0
VERTEX
  8
E74LXLIFT
 62
1
 10
3853.356
 20
-8351.023
 30
-2003.000
 70
    32
  0
VERTEX
  8
E74LXLIFT
 62
1
 10
3862.981
 20
-8364.976
 30
-2003.000
 70
    32
  0
VERTEX
  8
E74LXLIFT
 62
1
 10
3868.082
 20
-8373.037
 30
-2003.000
 70
    32
  0
VERTEX
  8
E74LXLIFT
 62
1
 10
3871.367
 20
-8383.116
 30
-2003.000
 70
    32
  0
VERTEX
  8
E74LXLIFT
 62
1
 10
3874.799
 20
-8387.986
 30
-2003.000
 70
    32
  0
VERTEX
  8
E74LXLIFT
 62
1
 10
3873.325
 20
-8395.329
 30
-2003.000
 70
    32
  0
VERTEX
  8
E74LXLIFT
 62
1
 10
3875.516
 20
-8406.498
 30
-2003.000
 70
    32
  0
VERTEX
  8
E74LXLIFT
 62
1
 10
3885.600
 20
-8451.500
 30
-2003.000
 70
    32
  0
VERTEX
  8
E74LXLIFT
 62
1
 10
3887.000
 20
-8466.200
 30
-2003.000
 70
    32
  0
VERTEX
  8
E74LXLIFT
 62
1
 10
3889.500
 20
-8477.700
 30
-2003.000
 70
    32
  0
VERTEX
  8
E74LXLIFT
 62
1
 10
3916.800
 20
-8530.000
 30
-2003.000
 70
    32
  0
VERTEX
  8
E74LXLIFT
 62
1
 10
3922.600
 20
-8541.700
 30
-2003.000
 70
    32
  0
VERTEX
  8
E74LXLIFT
 62
1
 10
3910.100
 20
-8545.400
 30
-2003.000
 70
    32
  0
VERTEX
  8
E74LXLIFT
 62
1
 10
3895.500
 20
-8522.000
 30
-2003.000
 70
    32
  0
VERTEX
  8
E74LXLIFT
 62
1
 10
3882.400
 20
-8518.000
 30
-2003.000
 70
    32
  0
VERTEX
  8
E74LXLIFT
 62
1
 10
3882.700
 20
-8500.900
 30
-2003.000
 70
    32
  0
VERTEX
  8
E74LXLIFT
 62
1
 10
3877.600
 20
-8485.200
 30
-2003.000
 70
    32
  0
VERTEX
  8
E74LXLIFT
 62
1
 10
3864.800
 20
-8485.100
 30
-2003.000
 70
    32
  0
VERTEX
  8
E74LXLIFT
 62
1
 10
3865.600
 20
-8463.000
 30
-2003.000
 70
    32
  0
VERTEX
  8
E74LXLIFT
 62
1
 10
3863.200
 20
-8435.600
 30
-2003.000
 70
    32
  0
VERTEX
  8
E74LXLIFT
 62
1
 10
3859.000
 20
-8424.000
 30
-2003.000
 70
    32
  0
VERTEX
  8
E74LXLIFT
 62
1
 10
3861.381
 20
-8408.800
 30
-2003.000
 70
    32
  0
VERTEX
  8
E74LXLIFT
 62
1
 10
3861.381
 20
-8408.800
 30
-2003.000
 70
    32
  0
VERTEX
  8
E74LXLIFT
 62
1
 10
3860.057
 20
-8397.944
 30
-2003.000
 70
    32
  0
VERTEX
  8
E74LXLIFT
 62
1
 10
3856.848
 20
-8392.105
 30
-2003.000
 70
    32
  0
VERTEX
  8
E74LXLIFT
 62
1
 10
3849.966
 20
-8383.047
 30
-2003.000
 70
    32
  0
VERTEX
  8
E74LXLIFT
 62
1
 10
3845.710
 20
-8381.191
 30
-2003.000
 70
    32
  0
VERTEX
  8
E74LXLIFT
 62
1
 10
3834.158
 20
-8362.437
 30
-2003.000
 70
    32
  0
VERTEX
  8
E74LXLIFT
 62
1
 10
3824.005
 20
-8355.987
 30
-2002.900
 70
    32
  0
SEQEND
  8
E74LXLIFT
  0
ENDSEC
  0
EOF
