999
********************************
999
*   DXF File - Entities Only   *
999
*        3D Data Format        *
999
*     Output from ENVISAGE     *
999
*     31-Dec-2007 14:54:30     *
999
********************************
  0
SECTION 
  2
HEADER
  9
$ACADVER
  1
AC1009
  9
$EXTMIN
 10
-290000.000
 20
-250000.000
 30
-4000.000
  9
$EXTMAX
 10
320000.000
 20
160000.000
 30
6000.000
  0
ENDSEC
  0
SECTION
  2
ENTITIES
  0
POLYLINE
  8
E75LALIFT
 62
11
 66
     1
 70
     9
  0
VERTEX
  8
E75LALIFT
 62
11
 10
4165.119
 20
-8650.386
 30
-2078.508
 70
    32
  0
VERTEX
  8
E75LALIFT
 62
11
 10
4185.633
 20
-8663.525
 30
-2075.699
 70
    32
  0
VERTEX
  8
E75LALIFT
 62
11
 10
4190.766
 20
-8669.481
 30
-2075.101
 70
    32
  0
VERTEX
  8
E75LALIFT
 62
11
 10
4187.426
 20
-8681.377
 30
-2075.014
 70
    32
  0
VERTEX
  8
E75LALIFT
 62
11
 10
4190.527
 20
-8692.177
 30
-2075.222
 70
    32
  0
VERTEX
  8
E75LALIFT
 62
11
 10
4194.060
 20
-8701.659
 30
-2069.709
 70
    32
  0
VERTEX
  8
E75LALIFT
 62
11
 10
4194.260
 20
-8710.163
 30
-2072.997
 70
    32
  0
VERTEX
  8
E75LALIFT
 62
11
 10
4190.547
 20
-8712.387
 30
-2072.995
 70
    32
  0
VERTEX
  8
E75LALIFT
 62
11
 10
4182.824
 20
-8712.525
 30
-2072.852
 70
    32
  0
VERTEX
  8
E75LALIFT
 62
11
 10
4176.279
 20
-8710.377
 30
-2072.964
 70
    32
  0
VERTEX
  8
E75LALIFT
 62
11
 10
4168.774
 20
-8707.334
 30
-2071.997
 70
    32
  0
VERTEX
  8
E75LALIFT
 62
11
 10
4170.102
 20
-8701.213
 30
-2069.870
 70
    32
  0
VERTEX
  8
E75LALIFT
 62
11
 10
4172.807
 20
-8693.045
 30
-2075.003
 70
    32
  0
VERTEX
  8
E75LALIFT
 62
11
 10
4172.638
 20
-8680.706
 30
-2075.059
 70
    32
  0
VERTEX
  8
E75LALIFT
 62
11
 10
4171.749
 20
-8672.859
 30
-2075.090
 70
    32
  0
VERTEX
  8
E75LALIFT
 62
11
 10
4156.989
 20
-8659.997
 30
-2078.040
 70
    32
  0
SEQEND
  8
E75LALIFT
  0
TEXT
  8
E75LALIFT
 62
1
 10
4169.383
 20
-8715.007
 30
-2099.000
 40
1.575
  1
SOL-2099
 50
35.136
 41
 1.0 
  0
POLYLINE
  8
E75LALIFT
 62
1
 66
     1
 70
     9
  0
VERTEX
  8
E75LALIFT
 62
1
 10
4332.880
 20
-8585.724
 30
-2347.578
 70
    32
  0
VERTEX
  8
E75LALIFT
 62
1
 10
4340.923
 20
-8593.601
 30
-2347.578
 70
    32
  0
VERTEX
  8
E75LALIFT
 62
1
 10
4357.453
 20
-8602.714
 30
-2347.578
 70
    32
  0
VERTEX
  8
E75LALIFT
 62
1
 10
4365.987
 20
-8607.213
 30
-2347.578
 70
    32
  0
VERTEX
  8
E75LALIFT
 62
1
 10
4363.750
 20
-8615.669
 30
-2347.578
 70
    32
  0
VERTEX
  8
E75LALIFT
 62
1
 10
4358.517
 20
-8621.043
 30
-2347.578
 70
    32
  0
VERTEX
  8
E75LALIFT
 62
1
 10
4351.693
 20
-8621.928
 30
-2347.578
 70
    32
  0
VERTEX
  8
E75LALIFT
 62
1
 10
4341.858
 20
-8626.473
 30
-2347.578
 70
    32
  0
VERTEX
  8
E75LALIFT
 62
1
 10
4333.074
 20
-8623.432
 30
-2347.578
 70
    32
  0
VERTEX
  8
E75LALIFT
 62
1
 10
4325.024
 20
-8607.056
 30
-2347.578
 70
    32
  0
VERTEX
  8
E75LALIFT
 62
1
 10
4318.391
 20
-8590.944
 30
-2347.578
 70
    32
  0
SEQEND
  8
E75LALIFT
  0
POLYLINE
  8
E75LALIFT
 62
8
 66
     1
 70
     9
  0
VERTEX
  8
E75LALIFT
 62
8
 10
4199.839
 20
-8544.217
 30
-2333.000
 70
    32
  0
VERTEX
  8
E75LALIFT
 62
8
 10
4197.611
 20
-8536.353
 30
-2333.000
 70
    32
  0
VERTEX
  8
E75LALIFT
 62
8
 10
4199.016
 20
-8531.038
 30
-2333.000
 70
    32
  0
VERTEX
  8
E75LALIFT
 62
8
 10
4198.247
 20
-8525.029
 30
-2333.000
 70
    32
  0
VERTEX
  8
E75LALIFT
 62
8
 10
4198.167
 20
-8524.635
 30
-2334.000
 70
    32
  0
VERTEX
  8
E75LALIFT
 62
8
 10
4188.585
 20
-8513.470
 30
-2334.000
 70
    32
  0
VERTEX
  8
E75LALIFT
 62
8
 10
4168.970
 20
-8506.476
 30
-2334.000
 70
    32
  0
VERTEX
  8
E75LALIFT
 62
8
 10
4148.746
 20
-8506.860
 30
-2334.000
 70
    32
  0
VERTEX
  8
E75LALIFT
 62
8
 10
4140.800
 20
-8500.707
 30
-2334.000
 70
    32
  0
VERTEX
  8
E75LALIFT
 62
8
 10
4148.227
 20
-8488.840
 30
-2334.000
 70
    32
  0
VERTEX
  8
E75LALIFT
 62
8
 10
4158.116
 20
-8491.911
 30
-2334.000
 70
    32
  0
VERTEX
  8
E75LALIFT
 62
8
 10
4180.184
 20
-8496.247
 30
-2334.000
 70
    32
  0
VERTEX
  8
E75LALIFT
 62
8
 10
4197.896
 20
-8504.425
 30
-2334.000
 70
    32
  0
VERTEX
  8
E75LALIFT
 62
8
 10
4199.198
 20
-8505.156
 30
-2333.000
 70
    32
  0
VERTEX
  8
E75LALIFT
 62
8
 10
4203.106
 20
-8499.831
 30
-2333.000
 70
    32
  0
VERTEX
  8
E75LALIFT
 62
8
 10
4208.440
 20
-8505.268
 30
-2333.000
 70
    32
  0
VERTEX
  8
E75LALIFT
 62
8
 10
4208.633
 20
-8504.724
 30
-2333.149
 70
    32
  0
VERTEX
  8
E75LALIFT
 62
8
 10
4218.401
 20
-8466.752
 30
-2333.149
 70
    32
  0
VERTEX
  8
E75LALIFT
 62
8
 10
4228.118
 20
-8469.300
 30
-2333.149
 70
    32
  0
VERTEX
  8
E75LALIFT
 62
8
 10
4218.217
 20
-8508.657
 30
-2333.149
 70
    32
  0
VERTEX
  8
E75LALIFT
 62
8
 10
4218.079
 20
-8509.198
 30
-2333.000
 70
    32
  0
VERTEX
  8
E75LALIFT
 62
8
 10
4227.518
 20
-8512.257
 30
-2333.000
 70
    32
  0
VERTEX
  8
E75LALIFT
 62
8
 10
4234.613
 20
-8521.935
 30
-2333.000
 70
    32
  0
VERTEX
  8
E75LALIFT
 62
8
 10
4242.502
 20
-8521.132
 30
-2334.500
 70
    32
  0
VERTEX
  8
E75LALIFT
 62
8
 10
4243.284
 20
-8526.082
 30
-2334.500
 70
    32
  0
VERTEX
  8
E75LALIFT
 62
8
 10
4255.487
 20
-8529.848
 30
-2334.500
 70
    32
  0
VERTEX
  8
E75LALIFT
 62
8
 10
4265.427
 20
-8536.143
 30
-2334.500
 70
    32
  0
VERTEX
  8
E75LALIFT
 62
8
 10
4271.688
 20
-8539.274
 30
-2334.500
 70
    32
  0
VERTEX
  8
E75LALIFT
 62
8
 10
4272.734
 20
-8550.532
 30
-2334.500
 70
    32
  0
VERTEX
  8
E75LALIFT
 62
8
 10
4290.154
 20
-8558.653
 30
-2334.500
 70
    32
  0
VERTEX
  8
E75LALIFT
 62
8
 10
4304.545
 20
-8565.562
 30
-2334.108
 70
    32
  0
VERTEX
  8
E75LALIFT
 62
8
 10
4313.639
 20
-8566.753
 30
-2334.154
 70
    32
  0
VERTEX
  8
E75LALIFT
 62
8
 10
4315.274
 20
-8568.673
 30
-2333.452
 70
    32
  0
VERTEX
  8
E75LALIFT
 62
8
 10
4317.970
 20
-8568.354
 30
-2333.501
 70
    32
  0
VERTEX
  8
E75LALIFT
 62
8
 10
4336.087
 20
-8571.917
 30
-2333.501
 70
    32
  0
VERTEX
  8
E75LALIFT
 62
8
 10
4332.880
 20
-8585.724
 30
-2333.501
 70
    32
  0
VERTEX
  8
E75LALIFT
 62
8
 10
4334.864
 20
-8586.313
 30
-2333.600
 70
    32
  0
VERTEX
  8
E75LALIFT
 62
8
 10
4338.435
 20
-8588.559
 30
-2333.600
 70
    32
  0
VERTEX
  8
E75LALIFT
 62
8
 10
4345.246
 20
-8588.430
 30
-2333.600
 70
    32
  0
VERTEX
  8
E75LALIFT
 62
8
 10
4360.556
 20
-8596.767
 30
-2333.600
 70
    32
  0
VERTEX
  8
E75LALIFT
 62
8
 10
4363.749
 20
-8604.148
 30
-2333.600
 70
    32
  0
VERTEX
  8
E75LALIFT
 62
8
 10
4372.564
 20
-8608.183
 30
-2337.500
 70
    32
  0
VERTEX
  8
E75LALIFT
 62
8
 10
4379.700
 20
-8610.004
 30
-2338.676
 70
    32
  0
VERTEX
  8
E75LALIFT
 62
8
 10
4394.988
 20
-8614.130
 30
-2337.000
 70
    32
  0
VERTEX
  8
E75LALIFT
 62
8
 10
4407.674
 20
-8621.829
 30
-2337.700
 70
    32
  0
VERTEX
  8
E75LALIFT
 62
8
 10
4413.273
 20
-8625.069
 30
-2337.900
 70
    32
  0
VERTEX
  8
E75LALIFT
 62
8
 10
4416.473
 20
-8628.918
 30
-2338.000
 70
    32
  0
VERTEX
  8
E75LALIFT
 62
8
 10
4427.584
 20
-8637.502
 30
-2340.000
 70
    32
  0
VERTEX
  8
E75LALIFT
 62
8
 10
4439.723
 20
-8644.064
 30
-2342.000
 70
    32
  0
VERTEX
  8
E75LALIFT
 62
8
 10
4447.415
 20
-8652.117
 30
-2342.000
 70
    32
  0
VERTEX
  8
E75LALIFT
 62
8
 10
4447.807
 20
-8655.332
 30
-2342.000
 70
    32
  0
VERTEX
  8
E75LALIFT
 62
8
 10
4462.937
 20
-8679.097
 30
-2342.000
 70
    32
  0
VERTEX
  8
E75LALIFT
 62
8
 10
4463.677
 20
-8682.623
 30
-2342.000
 70
    32
  0
VERTEX
  8
E75LALIFT
 62
8
 10
4478.428
 20
-8702.943
 30
-2342.000
 70
    32
  0
VERTEX
  8
E75LALIFT
 62
8
 10
4469.153
 20
-8709.785
 30
-2342.000
 70
    32
  0
VERTEX
  8
E75LALIFT
 62
8
 10
4454.657
 20
-8689.579
 30
-2342.000
 70
    32
  0
VERTEX
  8
E75LALIFT
 62
8
 10
4449.791
 20
-8683.229
 30
-2342.000
 70
    32
  0
VERTEX
  8
E75LALIFT
 62
8
 10
4446.012
 20
-8674.964
 30
-2342.000
 70
    32
  0
VERTEX
  8
E75LALIFT
 62
8
 10
4438.164
 20
-8663.530
 30
-2342.000
 70
    32
  0
VERTEX
  8
E75LALIFT
 62
8
 10
4429.703
 20
-8651.959
 30
-2342.000
 70
    32
  0
VERTEX
  8
E75LALIFT
 62
8
 10
4426.055
 20
-8649.675
 30
-2342.000
 70
    32
  0
VERTEX
  8
E75LALIFT
 62
8
 10
4421.800
 20
-8649.328
 30
-2342.000
 70
    32
  0
VERTEX
  8
E75LALIFT
 62
8
 10
4401.516
 20
-8631.617
 30
-2337.800
 70
    32
  0
VERTEX
  8
E75LALIFT
 62
8
 10
4392.768
 20
-8625.653
 30
-2337.700
 70
    32
  0
VERTEX
  8
E75LALIFT
 62
8
 10
4377.666
 20
-8621.840
 30
-2338.706
 70
    32
  0
VERTEX
  8
E75LALIFT
 62
8
 10
4367.503
 20
-8619.185
 30
-2337.500
 70
    32
  0
VERTEX
  8
E75LALIFT
 62
8
 10
4361.024
 20
-8617.992
 30
-2333.600
 70
    32
  0
VERTEX
  8
E75LALIFT
 62
8
 10
4358.517
 20
-8621.043
 30
-2333.501
 70
    32
  0
VERTEX
  8
E75LALIFT
 62
8
 10
4351.693
 20
-8621.928
 30
-2333.501
 70
    32
  0
VERTEX
  8
E75LALIFT
 62
8
 10
4341.858
 20
-8626.473
 30
-2333.501
 70
    32
  0
VERTEX
  8
E75LALIFT
 62
8
 10
4333.074
 20
-8623.432
 30
-2333.501
 70
    32
  0
VERTEX
  8
E75LALIFT
 62
8
 10
4325.024
 20
-8607.056
 30
-2333.501
 70
    32
  0
VERTEX
  8
E75LALIFT
 62
8
 10
4317.893
 20
-8590.444
 30
-2333.501
 70
    32
  0
VERTEX
  8
E75LALIFT
 62
8
 10
4317.962
 20
-8590.054
 30
-2333.480
 70
    32
  0
VERTEX
  8
E75LALIFT
 62
8
 10
4306.626
 20
-8583.849
 30
-2334.897
 70
    32
  0
VERTEX
  8
E75LALIFT
 62
8
 10
4293.417
 20
-8578.735
 30
-2334.934
 70
    32
  0
VERTEX
  8
E75LALIFT
 62
8
 10
4286.893
 20
-8579.737
 30
-2334.395
 70
    32
  0
VERTEX
  8
E75LALIFT
 62
8
 10
4279.578
 20
-8574.733
 30
-2334.500
 70
    32
  0
VERTEX
  8
E75LALIFT
 62
8
 10
4265.123
 20
-8567.630
 30
-2334.500
 70
    32
  0
VERTEX
  8
E75LALIFT
 62
8
 10
4251.455
 20
-8560.891
 30
-2334.500
 70
    32
  0
VERTEX
  8
E75LALIFT
 62
8
 10
4244.016
 20
-8557.648
 30
-2334.500
 70
    32
  0
VERTEX
  8
E75LALIFT
 62
8
 10
4237.226
 20
-8553.032
 30
-2334.500
 70
    32
  0
VERTEX
  8
E75LALIFT
 62
8
 10
4220.999
 20
-8549.065
 30
-2333.000
 70
    32
  0
VERTEX
  8
E75LALIFT
 62
8
 10
4220.737
 20
-8549.176
 30
-2333.000
 70
    32
  0
VERTEX
  8
E75LALIFT
 62
8
 10
4212.026
 20
-8552.869
 30
-2333.000
 70
    32
  0
SEQEND
  8
E75LALIFT
  0
POLYLINE
  8
E75LALIFT
 62
3
 66
     1
 70
     8
  0
VERTEX
  8
E75LALIFT
 62
3
 10
4586.292
 20
-8786.259
 30
-2427.700
 70
    32
  0
VERTEX
  8
E75LALIFT
 62
3
 10
4587.977
 20
-8776.012
 30
-2427.700
 70
    32
  0
VERTEX
  8
E75LALIFT
 62
3
 10
4588.616
 20
-8763.395
 30
-2427.200
 70
    32
  0
VERTEX
  8
E75LALIFT
 62
3
 10
4585.235
 20
-8758.796
 30
-2426.800
 70
    32
  0
VERTEX
  8
E75LALIFT
 62
3
 10
4584.726
 20
-8757.259
 30
-2426.800
 70
    32
  0
VERTEX
  8
E75LALIFT
 62
3
 10
4583.611
 20
-8750.059
 30
-2426.400
 70
    32
  0
VERTEX
  8
E75LALIFT
 62
3
 10
4588.963
 20
-8740.672
 30
-2426.000
 70
    32
  0
VERTEX
  8
E75LALIFT
 62
3
 10
4580.166
 20
-8729.451
 30
-2426.000
 70
    32
  0
VERTEX
  8
E75LALIFT
 62
3
 10
4578.825
 20
-8725.285
 30
-2426.000
 70
    32
  0
VERTEX
  8
E75LALIFT
 62
3
 10
4562.938
 20
-8715.469
 30
-2426.000
 70
    32
  0
VERTEX
  8
E75LALIFT
 62
3
 10
4558.119
 20
-8707.847
 30
-2426.000
 70
    32
  0
VERTEX
  8
E75LALIFT
 62
3
 10
4552.386
 20
-8711.975
 30
-2426.000
 70
    32
  0
VERTEX
  8
E75LALIFT
 62
3
 10
4548.745
 20
-8713.630
 30
-2425.800
 70
    32
  0
VERTEX
  8
E75LALIFT
 62
3
 10
4532.481
 20
-8715.911
 30
-2425.000
 70
    32
  0
VERTEX
  8
E75LALIFT
 62
3
 10
4530.510
 20
-8718.778
 30
-2425.000
 70
    32
  0
VERTEX
  8
E75LALIFT
 62
3
 10
4530.583
 20
-8721.777
 30
-2425.000
 70
    32
  0
VERTEX
  8
E75LALIFT
 62
3
 10
4520.446
 20
-8720.389
 30
-2424.500
 70
    32
  0
VERTEX
  8
E75LALIFT
 62
3
 10
4505.759
 20
-8718.621
 30
-2424.000
 70
    32
  0
VERTEX
  8
E75LALIFT
 62
3
 10
4502.456
 20
-8729.050
 30
-2423.000
 70
    32
  0
VERTEX
  8
E75LALIFT
 62
3
 10
4496.688
 20
-8732.184
 30
-2423.700
 70
    32
  0
VERTEX
  8
E75LALIFT
 62
3
 10
4494.146
 20
-8736.517
 30
-2423.600
 70
    32
  0
VERTEX
  8
E75LALIFT
 62
3
 10
4489.097
 20
-8743.271
 30
-2423.000
 70
    32
  0
VERTEX
  8
E75LALIFT
 62
3
 10
4494.070
 20
-8753.833
 30
-2423.000
 70
    32
  0
VERTEX
  8
E75LALIFT
 62
3
 10
4501.247
 20
-8746.815
 30
-2423.600
 70
    32
  0
VERTEX
  8
E75LALIFT
 62
3
 10
4511.033
 20
-8740.194
 30
-2423.800
 70
    32
  0
VERTEX
  8
E75LALIFT
 62
3
 10
4523.778
 20
-8733.032
 30
-2424.500
 70
    32
  0
VERTEX
  8
E75LALIFT
 62
3
 10
4536.745
 20
-8732.494
 30
-2425.100
 70
    32
  0
VERTEX
  8
E75LALIFT
 62
3
 10
4545.754
 20
-8729.170
 30
-2425.500
 70
    32
  0
VERTEX
  8
E75LALIFT
 62
3
 10
4551.461
 20
-8729.972
 30
-2426.000
 70
    32
  0
VERTEX
  8
E75LALIFT
 62
3
 10
4568.543
 20
-8732.296
 30
-2426.000
 70
    32
  0
VERTEX
  8
E75LALIFT
 62
3
 10
4572.789
 20
-8753.853
 30
-2426.600
 70
    32
  0
VERTEX
  8
E75LALIFT
 62
3
 10
4575.947
 20
-8782.634
 30
-2427.700
 70
    32
  0
SEQEND
  8
E75LALIFT
  0
POLYLINE
  8
E75LALIFT
 62
8
 66
     1
 70
     9
  0
VERTEX
  8
E75LALIFT
 62
8
 10
4483.793
 20
-8869.647
 30
-2438.000
 70
    32
  0
VERTEX
  8
E75LALIFT
 62
8
 10
4467.064
 20
-8869.462
 30
-2438.000
 70
    32
  0
VERTEX
  8
E75LALIFT
 62
8
 10
4459.096
 20
-8870.205
 30
-2438.000
 70
    32
  0
VERTEX
  8
E75LALIFT
 62
8
 10
4458.905
 20
-8871.226
 30
-2437.047
 70
    32
  0
VERTEX
  8
E75LALIFT
 62
8
 10
4456.029
 20
-8871.222
 30
-2437.144
 70
    32
  0
VERTEX
  8
E75LALIFT
 62
8
 10
4454.502
 20
-8870.335
 30
-2435.793
 70
    32
  0
VERTEX
  8
E75LALIFT
 62
8
 10
4446.300
 20
-8866.768
 30
-2435.793
 70
    32
  0
VERTEX
  8
E75LALIFT
 62
8
 10
4439.949
 20
-8854.986
 30
-2435.793
 70
    32
  0
VERTEX
  8
E75LALIFT
 62
8
 10
4435.660
 20
-8846.626
 30
-2435.793
 70
    32
  0
VERTEX
  8
E75LALIFT
 62
8
 10
4430.250
 20
-8852.519
 30
-2435.793
 70
    32
  0
VERTEX
  8
E75LALIFT
 62
8
 10
4416.440
 20
-8862.284
 30
-2435.793
 70
    32
  0
VERTEX
  8
E75LALIFT
 62
8
 10
4407.367
 20
-8872.464
 30
-2435.793
 70
    32
  0
VERTEX
  8
E75LALIFT
 62
8
 10
4419.904
 20
-8881.615
 30
-2435.793
 70
    32
  0
VERTEX
  8
E75LALIFT
 62
8
 10
4423.245
 20
-8888.427
 30
-2435.793
 70
    32
  0
VERTEX
  8
E75LALIFT
 62
8
 10
4421.657
 20
-8892.036
 30
-2435.793
 70
    32
  0
VERTEX
  8
E75LALIFT
 62
8
 10
4421.461
 20
-8892.822
 30
-2434.523
 70
    32
  0
VERTEX
  8
E75LALIFT
 62
8
 10
4426.554
 20
-8898.972
 30
-2436.427
 70
    32
  0
VERTEX
  8
E75LALIFT
 62
8
 10
4433.829
 20
-8897.426
 30
-2436.196
 70
    32
  0
VERTEX
  8
E75LALIFT
 62
8
 10
4439.574
 20
-8899.981
 30
-2436.933
 70
    32
  0
VERTEX
  8
E75LALIFT
 62
8
 10
4446.016
 20
-8895.950
 30
-2436.345
 70
    32
  0
VERTEX
  8
E75LALIFT
 62
8
 10
4460.023
 20
-8896.415
 30
-2436.400
 70
    32
  0
VERTEX
  8
E75LALIFT
 62
8
 10
4465.478
 20
-8893.545
 30
-2436.554
 70
    32
  0
VERTEX
  8
E75LALIFT
 62
8
 10
4478.213
 20
-8881.300
 30
-2438.000
 70
    32
  0
VERTEX
  8
E75LALIFT
 62
8
 10
4483.962
 20
-8880.729
 30
-2438.000
 70
    32
  0
SEQEND
  8
E75LALIFT
  0
POLYLINE
  8
E75LALIFT
 62
27
 66
     1
 70
     8
  0
VERTEX
  8
E75LALIFT
 62
27
 10
4439.958
 20
-8666.829
 30
-2338.063
 70
    32
  0
VERTEX
  8
E75LALIFT
 62
27
 10
4435.327
 20
-8687.580
 30
-2338.063
 70
    32
  0
VERTEX
  8
E75LALIFT
 62
27
 10
4422.112
 20
-8691.736
 30
-2338.191
 70
    32
  0
VERTEX
  8
E75LALIFT
 62
27
 10
4421.245
 20
-8692.077
 30
-2338.000
 70
    32
  0
VERTEX
  8
E75LALIFT
 62
27
 10
4412.607
 20
-8677.862
 30
-2338.000
 70
    32
  0
VERTEX
  8
E75LALIFT
 62
27
 10
4405.221
 20
-8674.131
 30
-2338.000
 70
    32
  0
VERTEX
  8
E75LALIFT
 62
27
 10
4391.626
 20
-8671.719
 30
-2338.000
 70
    32
  0
VERTEX
  8
E75LALIFT
 62
27
 10
4389.812
 20
-8683.746
 30
-2338.000
 70
    32
  0
VERTEX
  8
E75LALIFT
 62
27
 10
4377.653
 20
-8682.873
 30
-2338.000
 70
    32
  0
VERTEX
  8
E75LALIFT
 62
27
 10
4372.657
 20
-8681.960
 30
-2338.270
 70
    32
  0
VERTEX
  8
E75LALIFT
 62
27
 10
4346.311
 20
-8679.844
 30
-2337.305
 70
    32
  0
VERTEX
  8
E75LALIFT
 62
27
 10
4346.274
 20
-8691.315
 30
-2337.301
 70
    32
  0
VERTEX
  8
E75LALIFT
 62
27
 10
4362.409
 20
-8693.813
 30
-2338.275
 70
    32
  0
VERTEX
  8
E75LALIFT
 62
27
 10
4367.613
 20
-8695.414
 30
-2339.092
 70
    32
  0
VERTEX
  8
E75LALIFT
 62
27
 10
4377.007
 20
-8699.602
 30
-2339.660
 70
    32
  0
VERTEX
  8
E75LALIFT
 62
27
 10
4386.887
 20
-8701.916
 30
-2338.520
 70
    32
  0
VERTEX
  8
E75LALIFT
 62
27
 10
4386.847
 20
-8703.975
 30
-2338.000
 70
    32
  0
VERTEX
  8
E75LALIFT
 62
27
 10
4395.478
 20
-8708.518
 30
-2338.000
 70
    32
  0
VERTEX
  8
E75LALIFT
 62
27
 10
4406.845
 20
-8712.541
 30
-2338.000
 70
    32
  0
VERTEX
  8
E75LALIFT
 62
27
 10
4414.768
 20
-8706.533
 30
-2338.000
 70
    32
  0
VERTEX
  8
E75LALIFT
 62
27
 10
4420.865
 20
-8709.825
 30
-2338.000
 70
    32
  0
VERTEX
  8
E75LALIFT
 62
27
 10
4429.281
 20
-8707.383
 30
-2338.000
 70
    32
  0
VERTEX
  8
E75LALIFT
 62
27
 10
4460.779
 20
-8704.928
 30
-2338.000
 70
    32
  0
VERTEX
  8
E75LALIFT
 62
27
 10
4474.685
 20
-8704.861
 30
-2338.000
 70
    32
  0
VERTEX
  8
E75LALIFT
 62
27
 10
4496.030
 20
-8703.475
 30
-2338.000
 70
    32
  0
VERTEX
  8
E75LALIFT
 62
27
 10
4508.167
 20
-8711.656
 30
-2338.000
 70
    32
  0
VERTEX
  8
E75LALIFT
 62
27
 10
4513.212
 20
-8707.733
 30
-2338.000
 70
    32
  0
VERTEX
  8
E75LALIFT
 62
27
 10
4517.672
 20
-8696.523
 30
-2338.000
 70
    32
  0
VERTEX
  8
E75LALIFT
 62
27
 10
4509.143
 20
-8686.475
 30
-2338.000
 70
    32
  0
VERTEX
  8
E75LALIFT
 62
27
 10
4506.464
 20
-8672.865
 30
-2338.000
 70
    32
  0
VERTEX
  8
E75LALIFT
 62
27
 10
4506.107
 20
-8672.236
 30
-2335.631
 70
    32
  0
VERTEX
  8
E75LALIFT
 62
27
 10
4503.201
 20
-8668.006
 30
-2335.007
 70
    32
  0
VERTEX
  8
E75LALIFT
 62
27
 10
4498.543
 20
-8668.738
 30
-2336.809
 70
    32
  0
VERTEX
  8
E75LALIFT
 62
27
 10
4487.133
 20
-8663.903
 30
-2336.732
 70
    32
  0
VERTEX
  8
E75LALIFT
 62
27
 10
4473.095
 20
-8674.217
 30
-2338.174
 70
    32
  0
VERTEX
  8
E75LALIFT
 62
27
 10
4463.705
 20
-8676.326
 30
-2340.312
 70
    32
  0
VERTEX
  8
E75LALIFT
 62
27
 10
4459.524
 20
-8674.082
 30
-2338.063
 70
    32
  0
SEQEND
  8
E75LALIFT
  0
POLYLINE
  8
E75LALIFT
 62
1
 66
     1
 70
     8
  0
VERTEX
  8
E75LALIFT
 62
1
 10
4574.746
 20
-8782.608
 30
-2430.064
 70
    32
  0
VERTEX
  8
E75LALIFT
 62
1
 10
4576.964
 20
-8773.529
 30
-2424.344
 70
    32
  0
VERTEX
  8
E75LALIFT
 62
1
 10
4575.652
 20
-8763.549
 30
-2418.359
 70
    32
  0
VERTEX
  8
E75LALIFT
 62
1
 10
4571.199
 20
-8751.919
 30
-2416.358
 70
    32
  0
VERTEX
  8
E75LALIFT
 62
1
 10
4559.533
 20
-8739.450
 30
-2414.111
 70
    32
  0
VERTEX
  8
E75LALIFT
 62
1
 10
4552.298
 20
-8730.411
 30
-2413.590
 70
    32
  0
VERTEX
  8
E75LALIFT
 62
1
 10
4550.126
 20
-8730.389
 30
-2413.672
 70
    32
  0
VERTEX
  8
E75LALIFT
 62
1
 10
4543.600
 20
-8729.474
 30
-2413.044
 70
    32
  0
VERTEX
  8
E75LALIFT
 62
1
 10
4538.763
 20
-8724.777
 30
-2412.501
 70
    32
  0
VERTEX
  8
E75LALIFT
 62
1
 10
4527.410
 20
-8724.332
 30
-2412.330
 70
    32
  0
VERTEX
  8
E75LALIFT
 62
1
 10
4509.663
 20
-8720.881
 30
-2411.172
 70
    32
  0
VERTEX
  8
E75LALIFT
 62
1
 10
4499.681
 20
-8718.683
 30
-2410.364
 70
    32
  0
VERTEX
  8
E75LALIFT
 62
1
 10
4500.715
 20
-8708.159
 30
-2409.622
 70
    32
  0
VERTEX
  8
E75LALIFT
 62
1
 10
4510.943
 20
-8704.822
 30
-2410.761
 70
    32
  0
VERTEX
  8
E75LALIFT
 62
1
 10
4526.738
 20
-8705.493
 30
-2411.733
 70
    32
  0
VERTEX
  8
E75LALIFT
 62
1
 10
4534.067
 20
-8704.061
 30
-2411.734
 70
    32
  0
VERTEX
  8
E75LALIFT
 62
1
 10
4550.004
 20
-8702.456
 30
-2410.948
 70
    32
  0
VERTEX
  8
E75LALIFT
 62
1
 10
4557.432
 20
-8712.086
 30
-2413.366
 70
    32
  0
VERTEX
  8
E75LALIFT
 62
1
 10
4563.939
 20
-8721.528
 30
-2412.526
 70
    32
  0
VERTEX
  8
E75LALIFT
 62
1
 10
4578.619
 20
-8739.702
 30
-2415.807
 70
    32
  0
VERTEX
  8
E75LALIFT
 62
1
 10
4582.615
 20
-8746.307
 30
-2416.108
 70
    32
  0
VERTEX
  8
E75LALIFT
 62
1
 10
4584.175
 20
-8759.542
 30
-2419.127
 70
    32
  0
VERTEX
  8
E75LALIFT
 62
1
 10
4587.923
 20
-8766.968
 30
-2421.120
 70
    32
  0
VERTEX
  8
E75LALIFT
 62
1
 10
4586.586
 20
-8783.548
 30
-2430.057
 70
    32
  0
SEQEND
  8
E75LALIFT
  0
POLYLINE
  8
E75LALIFT
 62
8
 66
     1
 70
     9
  0
VERTEX
  8
E75LALIFT
 62
8
 10
4251.522
 20
-8388.503
 30
-2282.845
 70
    32
  0
VERTEX
  8
E75LALIFT
 62
8
 10
4240.181
 20
-8380.642
 30
-2282.785
 70
    32
  0
VERTEX
  8
E75LALIFT
 62
8
 10
4220.034
 20
-8387.220
 30
-2281.979
 70
    32
  0
VERTEX
  8
E75LALIFT
 62
8
 10
4213.249
 20
-8391.069
 30
-2281.294
 70
    32
  0
VERTEX
  8
E75LALIFT
 62
8
 10
4204.399
 20
-8376.470
 30
-2278.938
 70
    32
  0
VERTEX
  8
E75LALIFT
 62
8
 10
4213.610
 20
-8373.539
 30
-2279.957
 70
    32
  0
VERTEX
  8
E75LALIFT
 62
8
 10
4214.500
 20
-8371.203
 30
-2279.957
 70
    32
  0
VERTEX
  8
E75LALIFT
 62
8
 10
4222.336
 20
-8371.400
 30
-2281.638
 70
    32
  0
VERTEX
  8
E75LALIFT
 62
8
 10
4227.232
 20
-8361.433
 30
-2282.006
 70
    32
  0
VERTEX
  8
E75LALIFT
 62
8
 10
4236.818
 20
-8363.407
 30
-2282.782
 70
    32
  0
SEQEND
  8
E75LALIFT
  0
POLYLINE
  8
E75LALIFT
 62
3
 66
     1
 70
     9
  0
VERTEX
  8
E75LALIFT
 62
3
 10
4143.754
 20
-8486.238
 30
-2265.028
 70
    32
  0
VERTEX
  8
E75LALIFT
 62
3
 10
4134.681
 20
-8486.834
 30
-2266.880
 70
    32
  0
VERTEX
  8
E75LALIFT
 62
3
 10
4129.106
 20
-8490.386
 30
-2265.116
 70
    32
  0
VERTEX
  8
E75LALIFT
 62
3
 10
4120.692
 20
-8489.547
 30
-2261.182
 70
    32
  0
VERTEX
  8
E75LALIFT
 62
3
 10
4117.996
 20
-8482.024
 30
-2260.260
 70
    32
  0
VERTEX
  8
E75LALIFT
 62
3
 10
4114.811
 20
-8477.950
 30
-2257.289
 70
    32
  0
VERTEX
  8
E75LALIFT
 62
3
 10
4108.876
 20
-8476.262
 30
-2255.692
 70
    32
  0
VERTEX
  8
E75LALIFT
 62
3
 10
4102.281
 20
-8469.740
 30
-2252.403
 70
    32
  0
VERTEX
  8
E75LALIFT
 62
3
 10
4100.007
 20
-8469.299
 30
-2252.838
 70
    32
  0
VERTEX
  8
E75LALIFT
 62
3
 10
4091.819
 20
-8462.259
 30
-2252.356
 70
    32
  0
VERTEX
  8
E75LALIFT
 62
3
 10
4088.527
 20
-8466.036
 30
-2252.737
 70
    32
  0
VERTEX
  8
E75LALIFT
 62
3
 10
4084.275
 20
-8466.973
 30
-2254.098
 70
    32
  0
VERTEX
  8
E75LALIFT
 62
3
 10
4076.326
 20
-8459.300
 30
-2254.032
 70
    32
  0
VERTEX
  8
E75LALIFT
 62
3
 10
4074.544
 20
-8459.487
 30
-2254.374
 70
    32
  0
VERTEX
  8
E75LALIFT
 62
3
 10
4061.057
 20
-8456.970
 30
-2253.968
 70
    32
  0
VERTEX
  8
E75LALIFT
 62
3
 10
4058.608
 20
-8462.094
 30
-2253.811
 70
    32
  0
VERTEX
  8
E75LALIFT
 62
3
 10
4061.819
 20
-8469.215
 30
-2254.269
 70
    32
  0
VERTEX
  8
E75LALIFT
 62
3
 10
4065.528
 20
-8477.272
 30
-2254.030
 70
    32
  0
VERTEX
  8
E75LALIFT
 62
3
 10
4067.910
 20
-8486.035
 30
-2255.194
 70
    32
  0
VERTEX
  8
E75LALIFT
 62
3
 10
4078.323
 20
-8486.169
 30
-2252.792
 70
    32
  0
VERTEX
  8
E75LALIFT
 62
3
 10
4081.640
 20
-8492.294
 30
-2253.499
 70
    32
  0
VERTEX
  8
E75LALIFT
 62
3
 10
4091.324
 20
-8487.531
 30
-2255.360
 70
    32
  0
VERTEX
  8
E75LALIFT
 62
3
 10
4099.756
 20
-8484.620
 30
-2256.716
 70
    32
  0
VERTEX
  8
E75LALIFT
 62
3
 10
4102.987
 20
-8488.059
 30
-2257.725
 70
    32
  0
VERTEX
  8
E75LALIFT
 62
3
 10
4104.432
 20
-8493.351
 30
-2258.660
 70
    32
  0
VERTEX
  8
E75LALIFT
 62
3
 10
4109.694
 20
-8495.641
 30
-2260.765
 70
    32
  0
VERTEX
  8
E75LALIFT
 62
3
 10
4114.104
 20
-8497.563
 30
-2261.614
 70
    32
  0
VERTEX
  8
E75LALIFT
 62
3
 10
4115.886
 20
-8501.929
 30
-2262.672
 70
    32
  0
VERTEX
  8
E75LALIFT
 62
3
 10
4118.257
 20
-8504.629
 30
-2264.158
 70
    32
  0
VERTEX
  8
E75LALIFT
 62
3
 10
4116.466
 20
-8508.799
 30
-2264.162
 70
    32
  0
VERTEX
  8
E75LALIFT
 62
3
 10
4111.134
 20
-8510.186
 30
-2264.149
 70
    32
  0
VERTEX
  8
E75LALIFT
 62
3
 10
4102.882
 20
-8506.996
 30
-2264.015
 70
    32
  0
VERTEX
  8
E75LALIFT
 62
3
 10
4097.755
 20
-8504.394
 30
-2263.992
 70
    32
  0
VERTEX
  8
E75LALIFT
 62
3
 10
4094.719
 20
-8498.438
 30
-2264.887
 70
    32
  0
VERTEX
  8
E75LALIFT
 62
3
 10
4094.142
 20
-8488.920
 30
-2265.928
 70
    32
  0
VERTEX
  8
E75LALIFT
 62
3
 10
4096.036
 20
-8485.395
 30
-2266.421
 70
    32
  0
VERTEX
  8
E75LALIFT
 62
3
 10
4093.657
 20
-8479.453
 30
-2265.979
 70
    32
  0
VERTEX
  8
E75LALIFT
 62
3
 10
4079.273
 20
-8485.101
 30
-2265.119
 70
    32
  0
VERTEX
  8
E75LALIFT
 62
3
 10
4081.836
 20
-8495.743
 30
-2265.281
 70
    32
  0
VERTEX
  8
E75LALIFT
 62
3
 10
4080.089
 20
-8499.601
 30
-2264.536
 70
    32
  0
VERTEX
  8
E75LALIFT
 62
3
 10
4075.872
 20
-8501.165
 30
-2263.790
 70
    32
  0
VERTEX
  8
E75LALIFT
 62
3
 10
4069.993
 20
-8500.396
 30
-2263.735
 70
    32
  0
VERTEX
  8
E75LALIFT
 62
3
 10
4064.974
 20
-8500.668
 30
-2264.084
 70
    32
  0
VERTEX
  8
E75LALIFT
 62
3
 10
4064.347
 20
-8503.087
 30
-2263.083
 70
    32
  0
VERTEX
  8
E75LALIFT
 62
3
 10
4063.857
 20
-8510.830
 30
-2263.257
 70
    32
  0
VERTEX
  8
E75LALIFT
 62
3
 10
4072.558
 20
-8510.868
 30
-2264.200
 70
    32
  0
VERTEX
  8
E75LALIFT
 62
3
 10
4085.752
 20
-8515.652
 30
-2263.363
 70
    32
  0
VERTEX
  8
E75LALIFT
 62
3
 10
4089.575
 20
-8518.267
 30
-2264.224
 70
    32
  0
VERTEX
  8
E75LALIFT
 62
3
 10
4089.728
 20
-8523.630
 30
-2263.584
 70
    32
  0
VERTEX
  8
E75LALIFT
 62
3
 10
4101.522
 20
-8527.705
 30
-2263.785
 70
    32
  0
VERTEX
  8
E75LALIFT
 62
3
 10
4106.068
 20
-8526.850
 30
-2263.772
 70
    32
  0
VERTEX
  8
E75LALIFT
 62
3
 10
4120.472
 20
-8531.835
 30
-2264.588
 70
    32
  0
VERTEX
  8
E75LALIFT
 62
3
 10
4124.303
 20
-8534.372
 30
-2264.254
 70
    32
  0
VERTEX
  8
E75LALIFT
 62
3
 10
4137.401
 20
-8535.143
 30
-2264.952
 70
    32
  0
VERTEX
  8
E75LALIFT
 62
3
 10
4141.938
 20
-8531.338
 30
-2264.903
 70
    32
  0
VERTEX
  8
E75LALIFT
 62
3
 10
4145.715
 20
-8531.549
 30
-2264.390
 70
    32
  0
VERTEX
  8
E75LALIFT
 62
3
 10
4153.434
 20
-8527.720
 30
-2264.040
 70
    32
  0
VERTEX
  8
E75LALIFT
 62
3
 10
4154.937
 20
-8517.723
 30
-2264.041
 70
    32
  0
VERTEX
  8
E75LALIFT
 62
3
 10
4149.412
 20
-8513.531
 30
-2264.623
 70
    32
  0
VERTEX
  8
E75LALIFT
 62
3
 10
4146.223
 20
-8505.372
 30
-2265.137
 70
    32
  0
VERTEX
  8
E75LALIFT
 62
3
 10
4148.701
 20
-8498.551
 30
-2265.451
 70
    32
  0
SEQEND
  8
E75LALIFT
  0
POLYLINE
  8
E75LALIFT
 62
1
 66
     1
 70
     9
  0
VERTEX
  8
E75LALIFT
 62
1
 10
4113.458
 20
-8624.706
 30
-2101.789
 70
    32
  0
VERTEX
  8
E75LALIFT
 62
1
 10
4139.365
 20
-8638.308
 30
-2089.637
 70
    32
  0
VERTEX
  8
E75LALIFT
 62
1
 10
4164.375
 20
-8650.219
 30
-2078.597
 70
    32
  0
VERTEX
  8
E75LALIFT
 62
1
 10
4156.939
 20
-8659.954
 30
-2078.280
 70
    32
  0
VERTEX
  8
E75LALIFT
 62
1
 10
4134.725
 20
-8647.166
 30
-2089.637
 70
    32
  0
VERTEX
  8
E75LALIFT
 62
1
 10
4108.810
 20
-8633.560
 30
-2101.789
 70
    32
  0
SEQEND
  8
E75LALIFT
  0
POLYLINE
  8
E75LALIFT
 62
7
 66
     1
 70
     9
  0
VERTEX
  8
E75LALIFT
 62
7
 10
4099.522
 20
-8590.478
 30
-2092.375
 70
    32
  0
VERTEX
  8
E75LALIFT
 62
7
 10
4115.325
 20
-8592.650
 30
-2091.090
 70
    32
  0
VERTEX
  8
E75LALIFT
 62
7
 10
4130.859
 20
-8593.846
 30
-2090.812
 70
    32
  0
VERTEX
  8
E75LALIFT
 62
7
 10
4145.901
 20
-8585.617
 30
-2088.914
 70
    32
  0
VERTEX
  8
E75LALIFT
 62
7
 10
4144.459
 20
-8581.353
 30
-2088.875
 70
    32
  0
VERTEX
  8
E75LALIFT
 62
7
 10
4127.827
 20
-8570.586
 30
-2089.528
 70
    32
  0
VERTEX
  8
E75LALIFT
 62
7
 10
4129.136
 20
-8561.787
 30
-2090.688
 70
    32
  0
VERTEX
  8
E75LALIFT
 62
7
 10
4135.644
 20
-8556.251
 30
-2090.321
 70
    32
  0
VERTEX
  8
E75LALIFT
 62
7
 10
4143.254
 20
-8558.166
 30
-2090.087
 70
    32
  0
VERTEX
  8
E75LALIFT
 62
7
 10
4152.082
 20
-8555.255
 30
-2089.901
 70
    32
  0
VERTEX
  8
E75LALIFT
 62
7
 10
4156.962
 20
-8556.298
 30
-2089.908
 70
    32
  0
VERTEX
  8
E75LALIFT
 62
7
 10
4164.701
 20
-8569.313
 30
-2089.465
 70
    32
  0
VERTEX
  8
E75LALIFT
 62
7
 10
4169.908
 20
-8573.097
 30
-2089.548
 70
    32
  0
VERTEX
  8
E75LALIFT
 62
7
 10
4176.932
 20
-8575.461
 30
-2090.250
 70
    32
  0
VERTEX
  8
E75LALIFT
 62
7
 10
4184.462
 20
-8582.776
 30
-2090.174
 70
    32
  0
VERTEX
  8
E75LALIFT
 62
7
 10
4192.381
 20
-8588.190
 30
-2088.734
 70
    32
  0
VERTEX
  8
E75LALIFT
 62
7
 10
4194.103
 20
-8597.148
 30
-2089.939
 70
    32
  0
VERTEX
  8
E75LALIFT
 62
7
 10
4193.894
 20
-8611.308
 30
-2087.756
 70
    32
  0
VERTEX
  8
E75LALIFT
 62
7
 10
4187.125
 20
-8617.547
 30
-2090.442
 70
    32
  0
VERTEX
  8
E75LALIFT
 62
7
 10
4162.090
 20
-8610.772
 30
-2089.634
 70
    32
  0
VERTEX
  8
E75LALIFT
 62
7
 10
4156.139
 20
-8612.687
 30
-2088.615
 70
    32
  0
VERTEX
  8
E75LALIFT
 62
7
 10
4134.456
 20
-8607.980
 30
-2090.579
 70
    32
  0
VERTEX
  8
E75LALIFT
 62
7
 10
4117.185
 20
-8604.582
 30
-2091.528
 70
    32
  0
VERTEX
  8
E75LALIFT
 62
7
 10
4112.937
 20
-8610.207
 30
-2091.301
 70
    32
  0
VERTEX
  8
E75LALIFT
 62
7
 10
4101.894
 20
-8609.326
 30
-2091.217
 70
    32
  0
VERTEX
  8
E75LALIFT
 62
7
 10
4091.451
 20
-8601.510
 30
-2092.601
 70
    32
  0
SEQEND
  8
E75LALIFT
  0
ENDSEC
  0
EOF
