999
********************************
999
*   DXF File - Entities Only   *
999
*        3D Data Format        *
999
*     Output from ENVISAGE     *
999
*     31-Dec-2007 14:55:03     *
999
********************************
  0
SECTION 
  2
HEADER
  9
$ACADVER
  1
AC1009
  9
$EXTMIN
 10
-290000.000
 20
-250000.000
 30
-4000.000
  9
$EXTMAX
 10
320000.000
 20
160000.000
 30
6000.000
  0
ENDSEC
  0
SECTION
  2
ENTITIES
  0
POLYLINE
  8
E75LPLIFT
 62
7
 66
     1
 70
     9
  0
VERTEX
  8
E75LPLIFT
 62
7
 10
4436.214
 20
-8651.052
 30
-2251.200
 70
    32
  0
VERTEX
  8
E75LPLIFT
 62
7
 10
4446.965
 20
-8667.554
 30
-2251.200
 70
    32
  0
VERTEX
  8
E75LPLIFT
 62
7
 10
4444.173
 20
-8671.341
 30
-2251.200
 70
    32
  0
VERTEX
  8
E75LPLIFT
 62
7
 10
4450.645
 20
-8689.796
 30
-2251.200
 70
    32
  0
VERTEX
  8
E75LPLIFT
 62
7
 10
4462.289
 20
-8684.015
 30
-2251.200
 70
    32
  0
VERTEX
  8
E75LPLIFT
 62
7
 10
4461.639
 20
-8678.633
 30
-2251.200
 70
    32
  0
VERTEX
  8
E75LPLIFT
 62
7
 10
4462.841
 20
-8674.639
 30
-2251.200
 70
    32
  0
VERTEX
  8
E75LPLIFT
 62
7
 10
4464.841
 20
-8674.450
 30
-2251.443
 70
    32
  0
VERTEX
  8
E75LPLIFT
 62
7
 10
4473.159
 20
-8679.938
 30
-2251.443
 70
    32
  0
VERTEX
  8
E75LPLIFT
 62
7
 10
4476.417
 20
-8691.799
 30
-2251.443
 70
    32
  0
VERTEX
  8
E75LPLIFT
 62
7
 10
4467.706
 20
-8701.911
 30
-2250.301
 70
    32
  0
VERTEX
  8
E75LPLIFT
 62
7
 10
4463.960
 20
-8712.216
 30
-2250.555
 70
    32
  0
VERTEX
  8
E75LPLIFT
 62
7
 10
4439.545
 20
-8725.092
 30
-2251.200
 70
    32
  0
VERTEX
  8
E75LPLIFT
 62
7
 10
4413.579
 20
-8732.788
 30
-2251.200
 70
    32
  0
VERTEX
  8
E75LPLIFT
 62
7
 10
4422.169
 20
-8742.545
 30
-2251.200
 70
    32
  0
VERTEX
  8
E75LPLIFT
 62
7
 10
4432.968
 20
-8739.700
 30
-2251.700
 70
    32
  0
VERTEX
  8
E75LPLIFT
 62
7
 10
4436.643
 20
-8738.302
 30
-2251.700
 70
    32
  0
VERTEX
  8
E75LPLIFT
 62
7
 10
4441.997
 20
-8739.517
 30
-2251.700
 70
    32
  0
VERTEX
  8
E75LPLIFT
 62
7
 10
4436.314
 20
-8752.677
 30
-2252.700
 70
    32
  0
VERTEX
  8
E75LPLIFT
 62
7
 10
4433.221
 20
-8761.529
 30
-2253.200
 70
    32
  0
VERTEX
  8
E75LPLIFT
 62
7
 10
4434.237
 20
-8799.915
 30
-2258.200
 70
    32
  0
VERTEX
  8
E75LPLIFT
 62
7
 10
4445.562
 20
-8799.961
 30
-2258.200
 70
    32
  0
VERTEX
  8
E75LPLIFT
 62
7
 10
4445.299
 20
-8776.628
 30
-2255.200
 70
    32
  0
VERTEX
  8
E75LPLIFT
 62
7
 10
4443.684
 20
-8765.499
 30
-2253.200
 70
    32
  0
VERTEX
  8
E75LPLIFT
 62
7
 10
4449.570
 20
-8748.743
 30
-2252.200
 70
    32
  0
VERTEX
  8
E75LPLIFT
 62
7
 10
4453.593
 20
-8738.599
 30
-2251.200
 70
    32
  0
VERTEX
  8
E75LPLIFT
 62
7
 10
4463.186
 20
-8725.887
 30
-2251.000
 70
    32
  0
VERTEX
  8
E75LPLIFT
 62
7
 10
4469.736
 20
-8722.077
 30
-2250.200
 70
    32
  0
VERTEX
  8
E75LPLIFT
 62
7
 10
4478.302
 20
-8728.365
 30
-2250.613
 70
    32
  0
VERTEX
  8
E75LPLIFT
 62
7
 10
4484.618
 20
-8728.716
 30
-2251.285
 70
    32
  0
VERTEX
  8
E75LPLIFT
 62
7
 10
4488.272
 20
-8720.301
 30
-2251.382
 70
    32
  0
VERTEX
  8
E75LPLIFT
 62
7
 10
4491.230
 20
-8719.798
 30
-2251.382
 70
    32
  0
VERTEX
  8
E75LPLIFT
 62
7
 10
4490.389
 20
-8710.821
 30
-2251.490
 70
    32
  0
VERTEX
  8
E75LPLIFT
 62
7
 10
4493.612
 20
-8706.861
 30
-2251.566
 70
    32
  0
VERTEX
  8
E75LPLIFT
 62
7
 10
4492.407
 20
-8700.068
 30
-2252.250
 70
    32
  0
VERTEX
  8
E75LPLIFT
 62
7
 10
4493.896
 20
-8694.603
 30
-2251.216
 70
    32
  0
VERTEX
  8
E75LPLIFT
 62
7
 10
4485.908
 20
-8679.618
 30
-2251.443
 70
    32
  0
VERTEX
  8
E75LPLIFT
 62
7
 10
4473.337
 20
-8663.201
 30
-2251.443
 70
    32
  0
VERTEX
  8
E75LPLIFT
 62
7
 10
4471.903
 20
-8661.440
 30
-2251.200
 70
    32
  0
VERTEX
  8
E75LPLIFT
 62
7
 10
4460.668
 20
-8653.413
 30
-2251.200
 70
    32
  0
VERTEX
  8
E75LPLIFT
 62
7
 10
4460.357
 20
-8648.973
 30
-2251.200
 70
    32
  0
VERTEX
  8
E75LPLIFT
 62
7
 10
4455.306
 20
-8646.663
 30
-2251.200
 70
    32
  0
VERTEX
  8
E75LPLIFT
 62
7
 10
4448.850
 20
-8641.666
 30
-2251.200
 70
    32
  0
VERTEX
  8
E75LPLIFT
 62
7
 10
4448.116
 20
-8636.296
 30
-2251.200
 70
    32
  0
VERTEX
  8
E75LPLIFT
 62
7
 10
4451.092
 20
-8631.021
 30
-2251.200
 70
    32
  0
VERTEX
  8
E75LPLIFT
 62
7
 10
4456.156
 20
-8624.328
 30
-2251.200
 70
    32
  0
VERTEX
  8
E75LPLIFT
 62
7
 10
4454.610
 20
-8617.781
 30
-2251.200
 70
    32
  0
VERTEX
  8
E75LPLIFT
 62
7
 10
4450.716
 20
-8611.571
 30
-2251.200
 70
    32
  0
VERTEX
  8
E75LPLIFT
 62
7
 10
4445.189
 20
-8610.576
 30
-2251.200
 70
    32
  0
VERTEX
  8
E75LPLIFT
 62
7
 10
4440.639
 20
-8619.962
 30
-2251.200
 70
    32
  0
VERTEX
  8
E75LPLIFT
 62
7
 10
4434.982
 20
-8622.204
 30
-2251.200
 70
    32
  0
VERTEX
  8
E75LPLIFT
 62
7
 10
4435.889
 20
-8631.384
 30
-2251.200
 70
    32
  0
VERTEX
  8
E75LPLIFT
 62
7
 10
4433.881
 20
-8633.898
 30
-2251.200
 70
    32
  0
SEQEND
  8
E75LPLIFT
  0
POLYLINE
  8
E75LPLIFT
 62
7
 66
     1
 70
     9
  0
VERTEX
  8
E75LPLIFT
 62
7
 10
4277.792
 20
-8670.581
 30
-2143.000
 70
    32
  0
VERTEX
  8
E75LPLIFT
 62
7
 10
4257.544
 20
-8674.141
 30
-2143.000
 70
    32
  0
VERTEX
  8
E75LPLIFT
 62
7
 10
4250.875
 20
-8676.230
 30
-2143.000
 70
    32
  0
VERTEX
  8
E75LPLIFT
 62
7
 10
4239.209
 20
-8680.579
 30
-2143.000
 70
    32
  0
VERTEX
  8
E75LPLIFT
 62
7
 10
4232.446
 20
-8686.328
 30
-2143.000
 70
    32
  0
VERTEX
  8
E75LPLIFT
 62
7
 10
4238.535
 20
-8694.512
 30
-2143.000
 70
    32
  0
VERTEX
  8
E75LPLIFT
 62
7
 10
4236.998
 20
-8699.394
 30
-2143.000
 70
    32
  0
VERTEX
  8
E75LPLIFT
 62
7
 10
4235.312
 20
-8706.547
 30
-2143.000
 70
    32
  0
VERTEX
  8
E75LPLIFT
 62
7
 10
4239.119
 20
-8719.005
 30
-2143.000
 70
    32
  0
VERTEX
  8
E75LPLIFT
 62
7
 10
4239.071
 20
-8722.647
 30
-2143.000
 70
    32
  0
VERTEX
  8
E75LPLIFT
 62
7
 10
4242.017
 20
-8732.840
 30
-2143.000
 70
    32
  0
VERTEX
  8
E75LPLIFT
 62
7
 10
4241.539
 20
-8736.392
 30
-2143.000
 70
    32
  0
VERTEX
  8
E75LPLIFT
 62
7
 10
4244.376
 20
-8745.479
 30
-2143.000
 70
    32
  0
VERTEX
  8
E75LPLIFT
 62
7
 10
4251.515
 20
-8763.551
 30
-2143.000
 70
    32
  0
VERTEX
  8
E75LPLIFT
 62
7
 10
4261.059
 20
-8781.604
 30
-2143.000
 70
    32
  0
VERTEX
  8
E75LPLIFT
 62
7
 10
4269.610
 20
-8790.413
 30
-2143.000
 70
    32
  0
VERTEX
  8
E75LPLIFT
 62
7
 10
4271.995
 20
-8800.199
 30
-2143.000
 70
    32
  0
VERTEX
  8
E75LPLIFT
 62
7
 10
4264.987
 20
-8802.871
 30
-2143.000
 70
    32
  0
VERTEX
  8
E75LPLIFT
 62
7
 10
4256.986
 20
-8802.023
 30
-2143.000
 70
    32
  0
VERTEX
  8
E75LPLIFT
 62
7
 10
4254.429
 20
-8794.873
 30
-2143.000
 70
    32
  0
VERTEX
  8
E75LPLIFT
 62
7
 10
4250.097
 20
-8786.581
 30
-2143.000
 70
    32
  0
VERTEX
  8
E75LPLIFT
 62
7
 10
4245.454
 20
-8775.893
 30
-2143.000
 70
    32
  0
VERTEX
  8
E75LPLIFT
 62
7
 10
4241.471
 20
-8766.916
 30
-2143.000
 70
    32
  0
VERTEX
  8
E75LPLIFT
 62
7
 10
4238.468
 20
-8764.436
 30
-2143.000
 70
    32
  0
VERTEX
  8
E75LPLIFT
 62
7
 10
4237.835
 20
-8759.041
 30
-2143.000
 70
    32
  0
VERTEX
  8
E75LPLIFT
 62
7
 10
4234.601
 20
-8747.467
 30
-2143.000
 70
    32
  0
VERTEX
  8
E75LPLIFT
 62
7
 10
4228.448
 20
-8742.981
 30
-2143.000
 70
    32
  0
VERTEX
  8
E75LPLIFT
 62
7
 10
4228.273
 20
-8734.319
 30
-2143.000
 70
    32
  0
VERTEX
  8
E75LPLIFT
 62
7
 10
4228.356
 20
-8727.330
 30
-2143.000
 70
    32
  0
VERTEX
  8
E75LPLIFT
 62
7
 10
4225.587
 20
-8716.371
 30
-2143.000
 70
    32
  0
VERTEX
  8
E75LPLIFT
 62
7
 10
4222.742
 20
-8710.662
 30
-2143.000
 70
    32
  0
VERTEX
  8
E75LPLIFT
 62
7
 10
4215.596
 20
-8703.078
 30
-2143.000
 70
    32
  0
VERTEX
  8
E75LPLIFT
 62
7
 10
4216.977
 20
-8697.720
 30
-2143.000
 70
    32
  0
VERTEX
  8
E75LPLIFT
 62
7
 10
4216.530
 20
-8696.664
 30
-2143.000
 70
    32
  0
VERTEX
  8
E75LPLIFT
 62
7
 10
4213.343
 20
-8692.166
 30
-2143.000
 70
    32
  0
VERTEX
  8
E75LPLIFT
 62
7
 10
4206.015
 20
-8686.388
 30
-2143.000
 70
    32
  0
VERTEX
  8
E75LPLIFT
 62
7
 10
4201.270
 20
-8686.650
 30
-2143.000
 70
    32
  0
VERTEX
  8
E75LPLIFT
 62
7
 10
4198.349
 20
-8680.952
 30
-2143.000
 70
    32
  0
VERTEX
  8
E75LPLIFT
 62
7
 10
4198.673
 20
-8673.680
 30
-2143.000
 70
    32
  0
VERTEX
  8
E75LPLIFT
 62
7
 10
4203.734
 20
-8671.515
 30
-2143.000
 70
    32
  0
VERTEX
  8
E75LPLIFT
 62
7
 10
4209.734
 20
-8665.553
 30
-2143.000
 70
    32
  0
VERTEX
  8
E75LPLIFT
 62
7
 10
4210.693
 20
-8662.573
 30
-2143.000
 70
    32
  0
VERTEX
  8
E75LPLIFT
 62
7
 10
4208.090
 20
-8657.793
 30
-2143.000
 70
    32
  0
VERTEX
  8
E75LPLIFT
 62
7
 10
4194.150
 20
-8641.937
 30
-2143.000
 70
    32
  0
VERTEX
  8
E75LPLIFT
 62
7
 10
4186.649
 20
-8634.872
 30
-2143.000
 70
    32
  0
VERTEX
  8
E75LPLIFT
 62
7
 10
4175.132
 20
-8631.194
 30
-2143.000
 70
    32
  0
VERTEX
  8
E75LPLIFT
 62
7
 10
4165.578
 20
-8627.524
 30
-2143.000
 70
    32
  0
VERTEX
  8
E75LPLIFT
 62
7
 10
4162.180
 20
-8625.603
 30
-2143.000
 70
    32
  0
VERTEX
  8
E75LPLIFT
 62
7
 10
4169.958
 20
-8616.862
 30
-2143.000
 70
    32
  0
VERTEX
  8
E75LPLIFT
 62
7
 10
4171.832
 20
-8617.393
 30
-2143.000
 70
    32
  0
VERTEX
  8
E75LPLIFT
 62
7
 10
4181.963
 20
-8620.534
 30
-2143.000
 70
    32
  0
VERTEX
  8
E75LPLIFT
 62
7
 10
4188.267
 20
-8621.541
 30
-2143.000
 70
    32
  0
VERTEX
  8
E75LPLIFT
 62
7
 10
4196.046
 20
-8627.166
 30
-2143.000
 70
    32
  0
VERTEX
  8
E75LPLIFT
 62
7
 10
4203.846
 20
-8634.407
 30
-2143.000
 70
    32
  0
VERTEX
  8
E75LPLIFT
 62
7
 10
4210.009
 20
-8644.514
 30
-2143.000
 70
    32
  0
VERTEX
  8
E75LPLIFT
 62
7
 10
4213.118
 20
-8646.665
 30
-2143.000
 70
    32
  0
VERTEX
  8
E75LPLIFT
 62
7
 10
4216.130
 20
-8653.853
 30
-2143.000
 70
    32
  0
VERTEX
  8
E75LPLIFT
 62
7
 10
4220.563
 20
-8656.820
 30
-2143.000
 70
    32
  0
VERTEX
  8
E75LPLIFT
 62
7
 10
4222.050
 20
-8664.949
 30
-2143.000
 70
    32
  0
VERTEX
  8
E75LPLIFT
 62
7
 10
4224.211
 20
-8668.049
 30
-2143.000
 70
    32
  0
VERTEX
  8
E75LPLIFT
 62
7
 10
4224.219
 20
-8668.080
 30
-2143.000
 70
    32
  0
VERTEX
  8
E75LPLIFT
 62
7
 10
4225.518
 20
-8668.551
 30
-2143.000
 70
    32
  0
VERTEX
  8
E75LPLIFT
 62
7
 10
4228.085
 20
-8668.895
 30
-2143.000
 70
    32
  0
VERTEX
  8
E75LPLIFT
 62
7
 10
4237.855
 20
-8667.149
 30
-2143.000
 70
    32
  0
VERTEX
  8
E75LPLIFT
 62
7
 10
4237.789
 20
-8666.913
 30
-2143.000
 70
    32
  0
VERTEX
  8
E75LPLIFT
 62
7
 10
4255.062
 20
-8663.097
 30
-2143.000
 70
    32
  0
VERTEX
  8
E75LPLIFT
 62
7
 10
4268.586
 20
-8658.721
 30
-2143.000
 70
    32
  0
VERTEX
  8
E75LPLIFT
 62
7
 10
4274.755
 20
-8656.726
 30
-2143.000
 70
    32
  0
VERTEX
  8
E75LPLIFT
 62
7
 10
4274.845
 20
-8656.590
 30
-2143.000
 70
    32
  0
SEQEND
  8
E75LPLIFT
  0
POLYLINE
  8
E75LPLIFT
 62
22
 66
     1
 70
     9
  0
VERTEX
  8
E75LPLIFT
 62
22
 10
4359.137
 20
-8702.934
 30
-2243.500
 70
    32
  0
VERTEX
  8
E75LPLIFT
 62
22
 10
4358.211
 20
-8713.410
 30
-2243.500
 70
    32
  0
VERTEX
  8
E75LPLIFT
 62
22
 10
4354.795
 20
-8723.626
 30
-2243.500
 70
    32
  0
VERTEX
  8
E75LPLIFT
 62
22
 10
4360.210
 20
-8730.048
 30
-2243.500
 70
    32
  0
VERTEX
  8
E75LPLIFT
 62
22
 10
4369.258
 20
-8732.091
 30
-2243.500
 70
    32
  0
VERTEX
  8
E75LPLIFT
 62
22
 10
4379.280
 20
-8730.680
 30
-2243.500
 70
    32
  0
VERTEX
  8
E75LPLIFT
 62
22
 10
4384.379
 20
-8736.357
 30
-2243.500
 70
    32
  0
VERTEX
  8
E75LPLIFT
 62
22
 10
4397.181
 20
-8726.844
 30
-2243.500
 70
    32
  0
VERTEX
  8
E75LPLIFT
 62
22
 10
4392.361
 20
-8721.072
 30
-2243.500
 70
    32
  0
VERTEX
  8
E75LPLIFT
 62
22
 10
4390.227
 20
-8719.403
 30
-2243.500
 70
    32
  0
VERTEX
  8
E75LPLIFT
 62
22
 10
4378.445
 20
-8705.776
 30
-2243.500
 70
    32
  0
VERTEX
  8
E75LPLIFT
 62
22
 10
4376.879
 20
-8701.396
 30
-2243.500
 70
    32
  0
VERTEX
  8
E75LPLIFT
 62
22
 10
4370.678
 20
-8696.541
 30
-2243.500
 70
    32
  0
SEQEND
  8
E75LPLIFT
  0
POLYLINE
  8
E75LPLIFT
 62
11
 66
     1
 70
     9
  0
VERTEX
  8
E75LPLIFT
 62
11
 10
4275.571
 20
-8649.060
 30
-2143.000
 70
    32
  0
VERTEX
  8
E75LPLIFT
 62
11
 10
4277.888
 20
-8642.802
 30
-2143.000
 70
    32
  0
VERTEX
  8
E75LPLIFT
 62
11
 10
4274.314
 20
-8637.921
 30
-2143.000
 70
    32
  0
VERTEX
  8
E75LPLIFT
 62
11
 10
4280.876
 20
-8629.594
 30
-2143.000
 70
    32
  0
VERTEX
  8
E75LPLIFT
 62
11
 10
4284.709
 20
-8629.684
 30
-2143.000
 70
    32
  0
VERTEX
  8
E75LPLIFT
 62
11
 10
4289.734
 20
-8631.952
 30
-2142.985
 70
    32
  0
VERTEX
  8
E75LPLIFT
 62
11
 10
4302.610
 20
-8626.901
 30
-2142.010
 70
    32
  0
VERTEX
  8
E75LPLIFT
 62
11
 10
4303.564
 20
-8636.865
 30
-2141.067
 70
    32
  0
VERTEX
  8
E75LPLIFT
 62
11
 10
4304.035
 20
-8643.487
 30
-2141.000
 70
    32
  0
VERTEX
  8
E75LPLIFT
 62
11
 10
4306.404
 20
-8651.958
 30
-2141.019
 70
    32
  0
VERTEX
  8
E75LPLIFT
 62
11
 10
4311.758
 20
-8655.857
 30
-2142.000
 70
    32
  0
VERTEX
  8
E75LPLIFT
 62
11
 10
4314.904
 20
-8659.398
 30
-2142.000
 70
    32
  0
VERTEX
  8
E75LPLIFT
 62
11
 10
4321.112
 20
-8664.440
 30
-2142.000
 70
    32
  0
VERTEX
  8
E75LPLIFT
 62
11
 10
4319.420
 20
-8666.600
 30
-2141.985
 70
    32
  0
VERTEX
  8
E75LPLIFT
 62
11
 10
4322.457
 20
-8676.623
 30
-2141.027
 70
    32
  0
VERTEX
  8
E75LPLIFT
 62
11
 10
4317.186
 20
-8680.745
 30
-2142.972
 70
    32
  0
VERTEX
  8
E75LPLIFT
 62
11
 10
4309.103
 20
-8674.430
 30
-2142.006
 70
    32
  0
VERTEX
  8
E75LPLIFT
 62
11
 10
4304.461
 20
-8678.210
 30
-2143.000
 70
    32
  0
VERTEX
  8
E75LPLIFT
 62
11
 10
4303.709
 20
-8686.041
 30
-2143.000
 70
    32
  0
VERTEX
  8
E75LPLIFT
 62
11
 10
4300.363
 20
-8688.053
 30
-2143.000
 70
    32
  0
VERTEX
  8
E75LPLIFT
 62
11
 10
4304.190
 20
-8707.198
 30
-2143.000
 70
    32
  0
VERTEX
  8
E75LPLIFT
 62
11
 10
4301.321
 20
-8710.835
 30
-2143.000
 70
    32
  0
VERTEX
  8
E75LPLIFT
 62
11
 10
4305.700
 20
-8748.119
 30
-2143.000
 70
    32
  0
VERTEX
  8
E75LPLIFT
 62
11
 10
4298.613
 20
-8749.048
 30
-2143.000
 70
    32
  0
VERTEX
  8
E75LPLIFT
 62
11
 10
4295.875
 20
-8741.983
 30
-2143.000
 70
    32
  0
VERTEX
  8
E75LPLIFT
 62
11
 10
4292.409
 20
-8738.689
 30
-2143.000
 70
    32
  0
VERTEX
  8
E75LPLIFT
 62
11
 10
4292.411
 20
-8731.402
 30
-2143.000
 70
    32
  0
VERTEX
  8
E75LPLIFT
 62
11
 10
4290.355
 20
-8709.046
 30
-2143.000
 70
    32
  0
VERTEX
  8
E75LPLIFT
 62
11
 10
4286.576
 20
-8700.397
 30
-2143.000
 70
    32
  0
VERTEX
  8
E75LPLIFT
 62
11
 10
4285.814
 20
-8689.971
 30
-2143.000
 70
    32
  0
VERTEX
  8
E75LPLIFT
 62
11
 10
4280.976
 20
-8683.528
 30
-2143.000
 70
    32
  0
VERTEX
  8
E75LPLIFT
 62
11
 10
4283.660
 20
-8675.724
 30
-2143.000
 70
    32
  0
VERTEX
  8
E75LPLIFT
 62
11
 10
4280.268
 20
-8666.624
 30
-2143.000
 70
    32
  0
VERTEX
  8
E75LPLIFT
 62
11
 10
4276.359
 20
-8663.833
 30
-2143.000
 70
    32
  0
SEQEND
  8
E75LPLIFT
  0
POLYLINE
  8
E75LPLIFT
 62
3
 66
     1
 70
     9
  0
VERTEX
  8
E75LPLIFT
 62
3
 10
4241.252
 20
-8667.236
 30
-2131.000
 70
    32
  0
VERTEX
  8
E75LPLIFT
 62
3
 10
4226.911
 20
-8669.332
 30
-2131.000
 70
    32
  0
VERTEX
  8
E75LPLIFT
 62
3
 10
4210.772
 20
-8672.830
 30
-2131.000
 70
    32
  0
VERTEX
  8
E75LPLIFT
 62
3
 10
4208.494
 20
-8689.669
 30
-2131.000
 70
    32
  0
VERTEX
  8
E75LPLIFT
 62
3
 10
4206.991
 20
-8693.503
 30
-2131.000
 70
    32
  0
VERTEX
  8
E75LPLIFT
 62
3
 10
4204.160
 20
-8697.027
 30
-2131.000
 70
    32
  0
VERTEX
  8
E75LPLIFT
 62
3
 10
4211.387
 20
-8706.487
 30
-2131.000
 70
    32
  0
VERTEX
  8
E75LPLIFT
 62
3
 10
4215.668
 20
-8719.359
 30
-2131.000
 70
    32
  0
VERTEX
  8
E75LPLIFT
 62
3
 10
4219.054
 20
-8722.801
 30
-2131.000
 70
    32
  0
VERTEX
  8
E75LPLIFT
 62
3
 10
4220.991
 20
-8723.550
 30
-2130.000
 70
    32
  0
VERTEX
  8
E75LPLIFT
 62
3
 10
4224.618
 20
-8736.410
 30
-2130.000
 70
    32
  0
VERTEX
  8
E75LPLIFT
 62
3
 10
4223.993
 20
-8741.290
 30
-2130.000
 70
    32
  0
VERTEX
  8
E75LPLIFT
 62
3
 10
4226.581
 20
-8749.302
 30
-2130.000
 70
    32
  0
VERTEX
  8
E75LPLIFT
 62
3
 10
4226.538
 20
-8756.779
 30
-2130.000
 70
    32
  0
VERTEX
  8
E75LPLIFT
 62
3
 10
4233.435
 20
-8774.990
 30
-2130.000
 70
    32
  0
VERTEX
  8
E75LPLIFT
 62
3
 10
4237.442
 20
-8790.748
 30
-2130.000
 70
    32
  0
VERTEX
  8
E75LPLIFT
 62
3
 10
4250.975
 20
-8782.132
 30
-2130.000
 70
    32
  0
VERTEX
  8
E75LPLIFT
 62
3
 10
4245.726
 20
-8766.169
 30
-2130.000
 70
    32
  0
VERTEX
  8
E75LPLIFT
 62
3
 10
4244.119
 20
-8751.846
 30
-2130.000
 70
    32
  0
VERTEX
  8
E75LPLIFT
 62
3
 10
4242.201
 20
-8734.464
 30
-2130.000
 70
    32
  0
VERTEX
  8
E75LPLIFT
 62
3
 10
4237.067
 20
-8707.848
 30
-2130.000
 70
    32
  0
VERTEX
  8
E75LPLIFT
 62
3
 10
4235.832
 20
-8703.448
 30
-2131.000
 70
    32
  0
VERTEX
  8
E75LPLIFT
 62
3
 10
4234.072
 20
-8694.168
 30
-2131.000
 70
    32
  0
VERTEX
  8
E75LPLIFT
 62
3
 10
4239.735
 20
-8686.563
 30
-2131.000
 70
    32
  0
VERTEX
  8
E75LPLIFT
 62
3
 10
4240.132
 20
-8681.499
 30
-2131.000
 70
    32
  0
VERTEX
  8
E75LPLIFT
 62
3
 10
4277.720
 20
-8670.239
 30
-2143.000
 70
    32
  0
VERTEX
  8
E75LPLIFT
 62
3
 10
4274.929
 20
-8656.989
 30
-2143.000
 70
    32
  0
VERTEX
  8
E75LPLIFT
 62
3
 10
4241.252
 20
-8667.236
 30
-2131.000
 70
    32
  0
SEQEND
  8
E75LPLIFT
  0
POLYLINE
  8
E75LPLIFT
 62
27
 66
     1
 70
     9
  0
VERTEX
  8
E75LPLIFT
 62
27
 10
4500.025
 20
-8807.961
 30
-2402.873
 70
    32
  0
VERTEX
  8
E75LPLIFT
 62
27
 10
4495.301
 20
-8814.869
 30
-2403.204
 70
    32
  0
VERTEX
  8
E75LPLIFT
 62
27
 10
4495.776
 20
-8821.319
 30
-2403.665
 70
    32
  0
VERTEX
  8
E75LPLIFT
 62
27
 10
4497.641
 20
-8825.873
 30
-2404.039
 70
    32
  0
VERTEX
  8
E75LPLIFT
 62
27
 10
4503.060
 20
-8832.307
 30
-2404.654
 70
    32
  0
VERTEX
  8
E75LPLIFT
 62
27
 10
4514.940
 20
-8837.542
 30
-2405.343
 70
    32
  0
VERTEX
  8
E75LPLIFT
 62
27
 10
4525.598
 20
-8839.058
 30
-2403.668
 70
    32
  0
VERTEX
  8
E75LPLIFT
 62
27
 10
4524.867
 20
-8848.814
 30
-2401.566
 70
    32
  0
VERTEX
  8
E75LPLIFT
 62
27
 10
4526.166
 20
-8858.987
 30
-2401.386
 70
    32
  0
VERTEX
  8
E75LPLIFT
 62
27
 10
4527.782
 20
-8864.088
 30
-2401.308
 70
    32
  0
VERTEX
  8
E75LPLIFT
 62
27
 10
4527.670
 20
-8870.929
 30
-2401.222
 70
    32
  0
VERTEX
  8
E75LPLIFT
 62
27
 10
4531.746
 20
-8875.853
 30
-2401.126
 70
    32
  0
VERTEX
  8
E75LPLIFT
 62
27
 10
4537.398
 20
-8881.487
 30
-2401.089
 70
    32
  0
VERTEX
  8
E75LPLIFT
 62
27
 10
4543.621
 20
-8889.778
 30
-2401.069
 70
    32
  0
VERTEX
  8
E75LPLIFT
 62
27
 10
4544.754
 20
-8890.188
 30
-2401.069
 70
    32
  0
VERTEX
  8
E75LPLIFT
 62
27
 10
4553.635
 20
-8894.301
 30
-2401.051
 70
    32
  0
VERTEX
  8
E75LPLIFT
 62
27
 10
4552.519
 20
-8897.294
 30
-2401.047
 70
    32
  0
VERTEX
  8
E75LPLIFT
 62
27
 10
4551.651
 20
-8904.210
 30
-2401.036
 70
    32
  0
VERTEX
  8
E75LPLIFT
 62
27
 10
4557.045
 20
-8914.988
 30
-2401.013
 70
    32
  0
VERTEX
  8
E75LPLIFT
 62
27
 10
4557.155
 20
-8921.088
 30
-2401.002
 70
    32
  0
VERTEX
  8
E75LPLIFT
 62
27
 10
4538.901
 20
-8930.466
 30
-2401.005
 70
    32
  0
VERTEX
  8
E75LPLIFT
 62
27
 10
4532.103
 20
-8928.745
 30
-2401.014
 70
    32
  0
VERTEX
  8
E75LPLIFT
 62
27
 10
4529.329
 20
-8923.208
 30
-2401.026
 70
    32
  0
VERTEX
  8
E75LPLIFT
 62
27
 10
4531.554
 20
-8914.627
 30
-2401.039
 70
    32
  0
VERTEX
  8
E75LPLIFT
 62
27
 10
4531.089
 20
-8907.586
 30
-2401.053
 70
    32
  0
VERTEX
  8
E75LPLIFT
 62
27
 10
4531.016
 20
-8906.628
 30
-2401.053
 70
    32
  0
VERTEX
  8
E75LPLIFT
 62
27
 10
4527.354
 20
-8900.147
 30
-2401.067
 70
    32
  0
VERTEX
  8
E75LPLIFT
 62
27
 10
4521.472
 20
-8891.426
 30
-2401.088
 70
    32
  0
VERTEX
  8
E75LPLIFT
 62
27
 10
4512.949
 20
-8879.560
 30
-2401.235
 70
    32
  0
VERTEX
  8
E75LPLIFT
 62
27
 10
4507.917
 20
-8878.249
 30
-2402.568
 70
    32
  0
VERTEX
  8
E75LPLIFT
 62
27
 10
4506.868
 20
-8878.173
 30
-2403.371
 70
    32
  0
VERTEX
  8
E75LPLIFT
 62
27
 10
4499.066
 20
-8884.942
 30
-2403.163
 70
    32
  0
VERTEX
  8
E75LPLIFT
 62
27
 10
4496.763
 20
-8885.348
 30
-2403.122
 70
    32
  0
VERTEX
  8
E75LPLIFT
 62
27
 10
4489.957
 20
-8892.152
 30
-2402.930
 70
    32
  0
VERTEX
  8
E75LPLIFT
 62
27
 10
4486.860
 20
-8892.952
 30
-2402.871
 70
    32
  0
VERTEX
  8
E75LPLIFT
 62
27
 10
4475.058
 20
-8904.877
 30
-2402.537
 70
    32
  0
VERTEX
  8
E75LPLIFT
 62
27
 10
4468.437
 20
-8897.097
 30
-2401.529
 70
    32
  0
VERTEX
  8
E75LPLIFT
 62
27
 10
4465.739
 20
-8895.132
 30
-2402.066
 70
    32
  0
VERTEX
  8
E75LPLIFT
 62
27
 10
4463.556
 20
-8893.896
 30
-2402.020
 70
    32
  0
VERTEX
  8
E75LPLIFT
 62
27
 10
4440.670
 20
-8893.635
 30
-2402.133
 70
    32
  0
VERTEX
  8
E75LPLIFT
 62
27
 10
4433.029
 20
-8899.927
 30
-2401.498
 70
    32
  0
VERTEX
  8
E75LPLIFT
 62
27
 10
4423.067
 20
-8899.599
 30
-2400.600
 70
    32
  0
VERTEX
  8
E75LPLIFT
 62
27
 10
4418.223
 20
-8894.131
 30
-2401.103
 70
    32
  0
VERTEX
  8
E75LPLIFT
 62
27
 10
4413.705
 20
-8892.200
 30
-2401.375
 70
    32
  0
VERTEX
  8
E75LPLIFT
 62
27
 10
4409.240
 20
-8893.785
 30
-2401.969
 70
    32
  0
VERTEX
  8
E75LPLIFT
 62
27
 10
4407.640
 20
-8899.927
 30
-2402.095
 70
    32
  0
VERTEX
  8
E75LPLIFT
 62
27
 10
4387.715
 20
-8902.625
 30
-2402.003
 70
    32
  0
VERTEX
  8
E75LPLIFT
 62
27
 10
4381.955
 20
-8897.654
 30
-2402.473
 70
    32
  0
VERTEX
  8
E75LPLIFT
 62
27
 10
4372.015
 20
-8901.288
 30
-2402.571
 70
    32
  0
VERTEX
  8
E75LPLIFT
 62
27
 10
4369.687
 20
-8889.696
 30
-2402.193
 70
    32
  0
VERTEX
  8
E75LPLIFT
 62
27
 10
4376.858
 20
-8886.403
 30
-2402.173
 70
    32
  0
VERTEX
  8
E75LPLIFT
 62
27
 10
4381.227
 20
-8877.186
 30
-2402.055
 70
    32
  0
VERTEX
  8
E75LPLIFT
 62
27
 10
4389.943
 20
-8875.741
 30
-2401.096
 70
    32
  0
VERTEX
  8
E75LPLIFT
 62
27
 10
4391.901
 20
-8871.107
 30
-2402.076
 70
    32
  0
VERTEX
  8
E75LPLIFT
 62
27
 10
4399.752
 20
-8873.161
 30
-2401.475
 70
    32
  0
VERTEX
  8
E75LPLIFT
 62
27
 10
4412.643
 20
-8864.079
 30
-2400.643
 70
    32
  0
VERTEX
  8
E75LPLIFT
 62
27
 10
4417.707
 20
-8868.494
 30
-2400.105
 70
    32
  0
VERTEX
  8
E75LPLIFT
 62
27
 10
4429.260
 20
-8869.208
 30
-2400.728
 70
    32
  0
VERTEX
  8
E75LPLIFT
 62
27
 10
4437.618
 20
-8866.764
 30
-2401.772
 70
    32
  0
VERTEX
  8
E75LPLIFT
 62
27
 10
4441.738
 20
-8875.163
 30
-2401.159
 70
    32
  0
VERTEX
  8
E75LPLIFT
 62
27
 10
4450.295
 20
-8881.546
 30
-2401.110
 70
    32
  0
VERTEX
  8
E75LPLIFT
 62
27
 10
4467.976
 20
-8884.203
 30
-2401.017
 70
    32
  0
VERTEX
  8
E75LPLIFT
 62
27
 10
4472.343
 20
-8884.482
 30
-2401.485
 70
    32
  0
VERTEX
  8
E75LPLIFT
 62
27
 10
4477.126
 20
-8881.708
 30
-2401.042
 70
    32
  0
VERTEX
  8
E75LPLIFT
 62
27
 10
4484.463
 20
-8878.288
 30
-2402.203
 70
    32
  0
VERTEX
  8
E75LPLIFT
 62
27
 10
4490.342
 20
-8875.555
 30
-2403.132
 70
    32
  0
VERTEX
  8
E75LPLIFT
 62
27
 10
4495.673
 20
-8869.362
 30
-2403.305
 70
    32
  0
VERTEX
  8
E75LPLIFT
 62
27
 10
4498.471
 20
-8861.431
 30
-2403.448
 70
    32
  0
VERTEX
  8
E75LPLIFT
 62
27
 10
4498.441
 20
-8856.427
 30
-2402.869
 70
    32
  0
VERTEX
  8
E75LPLIFT
 62
27
 10
4494.321
 20
-8844.660
 30
-2405.194
 70
    32
  0
VERTEX
  8
E75LPLIFT
 62
27
 10
4491.716
 20
-8842.391
 30
-2405.532
 70
    32
  0
VERTEX
  8
E75LPLIFT
 62
27
 10
4486.210
 20
-8828.709
 30
-2403.878
 70
    32
  0
VERTEX
  8
E75LPLIFT
 62
27
 10
4483.136
 20
-8816.327
 30
-2402.925
 70
    32
  0
VERTEX
  8
E75LPLIFT
 62
27
 10
4477.931
 20
-8805.789
 30
-2402.032
 70
    32
  0
SEQEND
  8
E75LPLIFT
  0
POLYLINE
  8
E75LPLIFT
 62
1
 66
     1
 70
     9
  0
VERTEX
  8
E75LPLIFT
 62
1
 10
4385.454
 20
-8657.659
 30
-2377.423
 70
    32
  0
VERTEX
  8
E75LPLIFT
 62
1
 10
4389.693
 20
-8658.032
 30
-2377.152
 70
    32
  0
VERTEX
  8
E75LPLIFT
 62
1
 10
4403.513
 20
-8666.172
 30
-2376.118
 70
    32
  0
VERTEX
  8
E75LPLIFT
 62
1
 10
4408.838
 20
-8672.179
 30
-2376.179
 70
    32
  0
VERTEX
  8
E75LPLIFT
 62
1
 10
4414.803
 20
-8676.907
 30
-2376.179
 70
    32
  0
VERTEX
  8
E75LPLIFT
 62
1
 10
4430.096
 20
-8688.386
 30
-2373.729
 70
    32
  0
VERTEX
  8
E75LPLIFT
 62
1
 10
4428.699
 20
-8694.383
 30
-2373.539
 70
    32
  0
VERTEX
  8
E75LPLIFT
 62
1
 10
4421.427
 20
-8696.580
 30
-2373.845
 70
    32
  0
VERTEX
  8
E75LPLIFT
 62
1
 10
4422.636
 20
-8707.030
 30
-2373.312
 70
    32
  0
VERTEX
  8
E75LPLIFT
 62
1
 10
4427.245
 20
-8715.082
 30
-2372.696
 70
    32
  0
VERTEX
  8
E75LPLIFT
 62
1
 10
4437.171
 20
-8715.641
 30
-2372.678
 70
    32
  0
VERTEX
  8
E75LPLIFT
 62
1
 10
4441.204
 20
-8719.086
 30
-2372.584
 70
    32
  0
VERTEX
  8
E75LPLIFT
 62
1
 10
4457.534
 20
-8716.773
 30
-2372.287
 70
    32
  0
VERTEX
  8
E75LPLIFT
 62
1
 10
4465.916
 20
-8718.188
 30
-2372.121
 70
    32
  0
VERTEX
  8
E75LPLIFT
 62
1
 10
4469.779
 20
-8722.755
 30
-2372.025
 70
    32
  0
VERTEX
  8
E75LPLIFT
 62
1
 10
4474.917
 20
-8726.271
 30
-2371.910
 70
    32
  0
VERTEX
  8
E75LPLIFT
 62
1
 10
4486.525
 20
-8729.886
 30
-2371.672
 70
    32
  0
VERTEX
  8
E75LPLIFT
 62
1
 10
4493.110
 20
-8718.747
 30
-2371.603
 70
    32
  0
VERTEX
  8
E75LPLIFT
 62
1
 10
4500.938
 20
-8712.665
 30
-2372.554
 70
    32
  0
VERTEX
  8
E75LPLIFT
 62
1
 10
4507.455
 20
-8711.056
 30
-2372.554
 70
    32
  0
VERTEX
  8
E75LPLIFT
 62
1
 10
4520.935
 20
-8707.515
 30
-2372.554
 70
    32
  0
VERTEX
  8
E75LPLIFT
 62
1
 10
4524.543
 20
-8699.130
 30
-2372.554
 70
    32
  0
VERTEX
  8
E75LPLIFT
 62
1
 10
4529.352
 20
-8693.455
 30
-2372.554
 70
    32
  0
VERTEX
  8
E75LPLIFT
 62
1
 10
4527.992
 20
-8687.619
 30
-2372.554
 70
    32
  0
VERTEX
  8
E75LPLIFT
 62
1
 10
4523.160
 20
-8682.119
 30
-2372.554
 70
    32
  0
VERTEX
  8
E75LPLIFT
 62
1
 10
4512.652
 20
-8669.025
 30
-2372.554
 70
    32
  0
VERTEX
  8
E75LPLIFT
 62
1
 10
4501.919
 20
-8680.258
 30
-2372.554
 70
    32
  0
VERTEX
  8
E75LPLIFT
 62
1
 10
4493.896
 20
-8691.250
 30
-2372.554
 70
    32
  0
VERTEX
  8
E75LPLIFT
 62
1
 10
4483.655
 20
-8695.057
 30
-2372.554
 70
    32
  0
VERTEX
  8
E75LPLIFT
 62
1
 10
4480.524
 20
-8693.128
 30
-2372.554
 70
    32
  0
VERTEX
  8
E75LPLIFT
 62
1
 10
4470.276
 20
-8698.666
 30
-2372.554
 70
    32
  0
VERTEX
  8
E75LPLIFT
 62
1
 10
4462.219
 20
-8701.117
 30
-2372.554
 70
    32
  0
VERTEX
  8
E75LPLIFT
 62
1
 10
4456.105
 20
-8699.401
 30
-2372.401
 70
    32
  0
VERTEX
  8
E75LPLIFT
 62
1
 10
4449.318
 20
-8693.328
 30
-2372.560
 70
    32
  0
VERTEX
  8
E75LPLIFT
 62
1
 10
4450.282
 20
-8689.377
 30
-2372.562
 70
    32
  0
VERTEX
  8
E75LPLIFT
 62
1
 10
4439.889
 20
-8680.943
 30
-2373.516
 70
    32
  0
VERTEX
  8
E75LPLIFT
 62
1
 10
4429.338
 20
-8671.830
 30
-2374.509
 70
    32
  0
VERTEX
  8
E75LPLIFT
 62
1
 10
4422.292
 20
-8666.916
 30
-2376.117
 70
    32
  0
VERTEX
  8
E75LPLIFT
 62
1
 10
4417.307
 20
-8663.012
 30
-2376.179
 70
    32
  0
VERTEX
  8
E75LPLIFT
 62
1
 10
4417.777
 20
-8661.516
 30
-2376.179
 70
    32
  0
VERTEX
  8
E75LPLIFT
 62
1
 10
4412.742
 20
-8658.915
 30
-2376.179
 70
    32
  0
VERTEX
  8
E75LPLIFT
 62
1
 10
4412.743
 20
-8658.915
 30
-2376.110
 70
    32
  0
VERTEX
  8
E75LPLIFT
 62
1
 10
4405.994
 20
-8655.014
 30
-2376.171
 70
    32
  0
VERTEX
  8
E75LPLIFT
 62
1
 10
4405.612
 20
-8645.853
 30
-2376.784
 70
    32
  0
VERTEX
  8
E75LPLIFT
 62
1
 10
4395.760
 20
-8645.936
 30
-2377.779
 70
    32
  0
VERTEX
  8
E75LPLIFT
 62
1
 10
4389.937
 20
-8642.209
 30
-2377.317
 70
    32
  0
SEQEND
  8
E75LPLIFT
  0
POLYLINE
  8
E75LPLIFT
 62
6
 66
     1
 70
     9
  0
VERTEX
  8
E75LPLIFT
 62
6
 10
4512.099
 20
-8670.797
 30
-2354.500
 70
    32
  0
VERTEX
  8
E75LPLIFT
 62
6
 10
4508.076
 20
-8670.563
 30
-2354.500
 70
    32
  0
VERTEX
  8
E75LPLIFT
 62
6
 10
4504.581
 20
-8673.178
 30
-2354.500
 70
    32
  0
VERTEX
  8
E75LPLIFT
 62
6
 10
4501.432
 20
-8675.855
 30
-2354.500
 70
    32
  0
VERTEX
  8
E75LPLIFT
 62
6
 10
4498.520
 20
-8678.978
 30
-2354.500
 70
    32
  0
VERTEX
  8
E75LPLIFT
 62
6
 10
4495.021
 20
-8681.620
 30
-2354.500
 70
    32
  0
VERTEX
  8
E75LPLIFT
 62
6
 10
4491.327
 20
-8683.510
 30
-2354.500
 70
    32
  0
VERTEX
  8
E75LPLIFT
 62
6
 10
4488.334
 20
-8686.095
 30
-2354.500
 70
    32
  0
VERTEX
  8
E75LPLIFT
 62
6
 10
4484.921
 20
-8688.522
 30
-2354.500
 70
    32
  0
VERTEX
  8
E75LPLIFT
 62
6
 10
4481.373
 20
-8689.678
 30
-2354.500
 70
    32
  0
VERTEX
  8
E75LPLIFT
 62
6
 10
4476.296
 20
-8688.941
 30
-2354.500
 70
    32
  0
VERTEX
  8
E75LPLIFT
 62
6
 10
4473.212
 20
-8691.969
 30
-2354.500
 70
    32
  0
VERTEX
  8
E75LPLIFT
 62
6
 10
4469.042
 20
-8691.971
 30
-2354.500
 70
    32
  0
VERTEX
  8
E75LPLIFT
 62
6
 10
4465.774
 20
-8693.265
 30
-2354.500
 70
    32
  0
VERTEX
  8
E75LPLIFT
 62
6
 10
4462.012
 20
-8694.932
 30
-2354.500
 70
    32
  0
VERTEX
  8
E75LPLIFT
 62
6
 10
4457.818
 20
-8694.802
 30
-2354.500
 70
    32
  0
VERTEX
  8
E75LPLIFT
 62
6
 10
4453.577
 20
-8695.107
 30
-2354.500
 70
    32
  0
VERTEX
  8
E75LPLIFT
 62
6
 10
4448.701
 20
-8694.868
 30
-2354.500
 70
    32
  0
VERTEX
  8
E75LPLIFT
 62
6
 10
4445.614
 20
-8692.004
 30
-2354.500
 70
    32
  0
VERTEX
  8
E75LPLIFT
 62
6
 10
4442.086
 20
-8689.548
 30
-2354.500
 70
    32
  0
VERTEX
  8
E75LPLIFT
 62
6
 10
4438.847
 20
-8687.972
 30
-2354.500
 70
    32
  0
VERTEX
  8
E75LPLIFT
 62
6
 10
4435.090
 20
-8686.238
 30
-2354.500
 70
    32
  0
VERTEX
  8
E75LPLIFT
 62
6
 10
4431.314
 20
-8684.743
 30
-2354.500
 70
    32
  0
VERTEX
  8
E75LPLIFT
 62
6
 10
4420.597
 20
-8703.926
 30
-2354.500
 70
    32
  0
VERTEX
  8
E75LPLIFT
 62
6
 10
4422.849
 20
-8708.594
 30
-2354.500
 70
    32
  0
VERTEX
  8
E75LPLIFT
 62
6
 10
4426.661
 20
-8711.261
 30
-2354.500
 70
    32
  0
VERTEX
  8
E75LPLIFT
 62
6
 10
4430.004
 20
-8713.307
 30
-2354.500
 70
    32
  0
VERTEX
  8
E75LPLIFT
 62
6
 10
4432.973
 20
-8715.386
 30
-2354.500
 70
    32
  0
VERTEX
  8
E75LPLIFT
 62
6
 10
4436.345
 20
-8717.536
 30
-2354.500
 70
    32
  0
VERTEX
  8
E75LPLIFT
 62
6
 10
4439.700
 20
-8718.175
 30
-2354.500
 70
    32
  0
VERTEX
  8
E75LPLIFT
 62
6
 10
4445.279
 20
-8718.982
 30
-2354.500
 70
    32
  0
VERTEX
  8
E75LPLIFT
 62
6
 10
4449.326
 20
-8720.272
 30
-2354.500
 70
    32
  0
VERTEX
  8
E75LPLIFT
 62
6
 10
4455.459
 20
-8718.338
 30
-2354.500
 70
    32
  0
VERTEX
  8
E75LPLIFT
 62
6
 10
4462.320
 20
-8717.303
 30
-2354.500
 70
    32
  0
VERTEX
  8
E75LPLIFT
 62
6
 10
4465.733
 20
-8717.324
 30
-2354.500
 70
    32
  0
VERTEX
  8
E75LPLIFT
 62
6
 10
4469.986
 20
-8715.811
 30
-2354.500
 70
    32
  0
VERTEX
  8
E75LPLIFT
 62
6
 10
4474.484
 20
-8716.211
 30
-2354.500
 70
    32
  0
VERTEX
  8
E75LPLIFT
 62
6
 10
4478.044
 20
-8715.071
 30
-2354.500
 70
    32
  0
VERTEX
  8
E75LPLIFT
 62
6
 10
4481.964
 20
-8713.085
 30
-2354.500
 70
    32
  0
VERTEX
  8
E75LPLIFT
 62
6
 10
4485.290
 20
-8712.297
 30
-2354.500
 70
    32
  0
VERTEX
  8
E75LPLIFT
 62
6
 10
4489.659
 20
-8712.195
 30
-2354.500
 70
    32
  0
VERTEX
  8
E75LPLIFT
 62
6
 10
4491.962
 20
-8706.909
 30
-2354.500
 70
    32
  0
VERTEX
  8
E75LPLIFT
 62
6
 10
4495.438
 20
-8705.658
 30
-2354.500
 70
    32
  0
VERTEX
  8
E75LPLIFT
 62
6
 10
4498.962
 20
-8704.371
 30
-2354.500
 70
    32
  0
VERTEX
  8
E75LPLIFT
 62
6
 10
4503.150
 20
-8703.731
 30
-2354.500
 70
    32
  0
VERTEX
  8
E75LPLIFT
 62
6
 10
4507.406
 20
-8702.190
 30
-2354.500
 70
    32
  0
VERTEX
  8
E75LPLIFT
 62
6
 10
4510.383
 20
-8699.218
 30
-2354.500
 70
    32
  0
VERTEX
  8
E75LPLIFT
 62
6
 10
4512.025
 20
-8692.033
 30
-2354.500
 70
    32
  0
VERTEX
  8
E75LPLIFT
 62
6
 10
4514.496
 20
-8688.095
 30
-2354.500
 70
    32
  0
VERTEX
  8
E75LPLIFT
 62
6
 10
4517.441
 20
-8685.446
 30
-2354.500
 70
    32
  0
VERTEX
  8
E75LPLIFT
 62
6
 10
4512.480
 20
-8672.609
 30
-2354.500
 70
    32
  0
SEQEND
  8
E75LPLIFT
  0
POLYLINE
  8
E75LPLIFT
 62
27
 66
     1
 70
     8
  0
VERTEX
  8
E75LPLIFT
 62
27
 10
4432.075
 20
-8908.946
 30
-2384.000
 70
    32
  0
VERTEX
  8
E75LPLIFT
 62
27
 10
4410.224
 20
-8915.178
 30
-2384.000
 70
    32
  0
VERTEX
  8
E75LPLIFT
 62
27
 10
4398.727
 20
-8918.057
 30
-2384.000
 70
    32
  0
VERTEX
  8
E75LPLIFT
 62
27
 10
4385.101
 20
-8920.624
 30
-2384.000
 70
    32
  0
SEQEND
  8
E75LPLIFT
  0
POLYLINE
  8
E75LPLIFT
 62
27
 66
     1
 70
     8
  0
VERTEX
  8
E75LPLIFT
 62
27
 10
4431.517
 20
-8902.164
 30
-2384.000
 70
    32
  0
VERTEX
  8
E75LPLIFT
 62
27
 10
4432.410
 20
-8903.876
 30
-2384.000
 70
    32
  0
VERTEX
  8
E75LPLIFT
 62
27
 10
4432.894
 20
-8906.891
 30
-2384.000
 70
    32
  0
VERTEX
  8
E75LPLIFT
 62
27
 10
4433.044
 20
-8908.708
 30
-2384.000
 70
    32
  0
SEQEND
  8
E75LPLIFT
  0
POLYLINE
  8
E75LPLIFT
 62
27
 66
     1
 70
     8
  0
VERTEX
  8
E75LPLIFT
 62
27
 10
4384.301
 20
-8920.755
 30
-2384.000
 70
    32
  0
VERTEX
  8
E75LPLIFT
 62
27
 10
4383.960
 20
-8920.159
 30
-2384.000
 70
    32
  0
VERTEX
  8
E75LPLIFT
 62
27
 10
4382.748
 20
-8918.003
 30
-2384.000
 70
    32
  0
VERTEX
  8
E75LPLIFT
 62
27
 10
4382.964
 20
-8915.495
 30
-2384.000
 70
    32
  0
VERTEX
  8
E75LPLIFT
 62
27
 10
4383.055
 20
-8913.749
 30
-2384.000
 70
    32
  0
SEQEND
  8
E75LPLIFT
  0
POLYLINE
  8
E75LPLIFT
 62
13
 66
     1
 70
     9
  0
VERTEX
  8
E75LPLIFT
 62
13
 10
4108.336
 20
-8596.570
 30
-2102.011
 70
    32
  0
VERTEX
  8
E75LPLIFT
 62
13
 10
4140.995
 20
-8604.406
 30
-2102.011
 70
    32
  0
VERTEX
  8
E75LPLIFT
 62
13
 10
4158.284
 20
-8607.065
 30
-2102.011
 70
    32
  0
VERTEX
  8
E75LPLIFT
 62
13
 10
4161.430
 20
-8606.743
 30
-2102.011
 70
    32
  0
VERTEX
  8
E75LPLIFT
 62
13
 10
4163.324
 20
-8606.950
 30
-2102.290
 70
    32
  0
VERTEX
  8
E75LPLIFT
 62
13
 10
4170.722
 20
-8611.791
 30
-2102.000
 70
    32
  0
VERTEX
  8
E75LPLIFT
 62
13
 10
4181.990
 20
-8622.218
 30
-2102.000
 70
    32
  0
VERTEX
  8
E75LPLIFT
 62
13
 10
4196.162
 20
-8634.348
 30
-2102.000
 70
    32
  0
VERTEX
  8
E75LPLIFT
 62
13
 10
4207.758
 20
-8648.748
 30
-2102.000
 70
    32
  0
VERTEX
  8
E75LPLIFT
 62
13
 10
4218.632
 20
-8645.151
 30
-2101.700
 70
    32
  0
VERTEX
  8
E75LPLIFT
 62
13
 10
4242.679
 20
-8665.465
 30
-2102.290
 70
    32
  0
VERTEX
  8
E75LPLIFT
 62
13
 10
4253.850
 20
-8661.232
 30
-2102.290
 70
    32
  0
VERTEX
  8
E75LPLIFT
 62
13
 10
4284.840
 20
-8679.588
 30
-2102.290
 70
    32
  0
VERTEX
  8
E75LPLIFT
 62
13
 10
4290.292
 20
-8671.205
 30
-2102.290
 70
    32
  0
VERTEX
  8
E75LPLIFT
 62
13
 10
4291.982
 20
-8663.332
 30
-2102.290
 70
    32
  0
VERTEX
  8
E75LPLIFT
 62
13
 10
4290.056
 20
-8643.253
 30
-2102.290
 70
    32
  0
VERTEX
  8
E75LPLIFT
 62
13
 10
4276.323
 20
-8637.259
 30
-2102.290
 70
    32
  0
VERTEX
  8
E75LPLIFT
 62
13
 10
4263.879
 20
-8635.251
 30
-2102.290
 70
    32
  0
VERTEX
  8
E75LPLIFT
 62
13
 10
4253.602
 20
-8620.053
 30
-2103.081
 70
    32
  0
VERTEX
  8
E75LPLIFT
 62
13
 10
4239.715
 20
-8610.664
 30
-2103.081
 70
    32
  0
VERTEX
  8
E75LPLIFT
 62
13
 10
4226.610
 20
-8615.196
 30
-2102.290
 70
    32
  0
VERTEX
  8
E75LPLIFT
 62
13
 10
4217.828
 20
-8609.960
 30
-2102.290
 70
    32
  0
VERTEX
  8
E75LPLIFT
 62
13
 10
4202.529
 20
-8590.386
 30
-2102.290
 70
    32
  0
VERTEX
  8
E75LPLIFT
 62
13
 10
4184.232
 20
-8585.621
 30
-2102.290
 70
    32
  0
VERTEX
  8
E75LPLIFT
 62
13
 10
4171.272
 20
-8570.066
 30
-2102.290
 70
    32
  0
VERTEX
  8
E75LPLIFT
 62
13
 10
4169.048
 20
-8553.481
 30
-2102.290
 70
    32
  0
VERTEX
  8
E75LPLIFT
 62
13
 10
4159.727
 20
-8551.693
 30
-2102.290
 70
    32
  0
VERTEX
  8
E75LPLIFT
 62
13
 10
4150.381
 20
-8545.658
 30
-2102.290
 70
    32
  0
VERTEX
  8
E75LPLIFT
 62
13
 10
4143.328
 20
-8539.884
 30
-2102.290
 70
    32
  0
VERTEX
  8
E75LPLIFT
 62
13
 10
4135.635
 20
-8549.632
 30
-2102.290
 70
    32
  0
VERTEX
  8
E75LPLIFT
 62
13
 10
4131.229
 20
-8560.742
 30
-2102.290
 70
    32
  0
VERTEX
  8
E75LPLIFT
 62
13
 10
4136.783
 20
-8564.994
 30
-2102.290
 70
    32
  0
VERTEX
  8
E75LPLIFT
 62
13
 10
4147.636
 20
-8575.558
 30
-2102.290
 70
    32
  0
VERTEX
  8
E75LPLIFT
 62
13
 10
4144.792
 20
-8581.172
 30
-2102.290
 70
    32
  0
VERTEX
  8
E75LPLIFT
 62
13
 10
4137.910
 20
-8584.090
 30
-2102.290
 70
    32
  0
VERTEX
  8
E75LPLIFT
 62
13
 10
4133.964
 20
-8585.210
 30
-2102.011
 70
    32
  0
VERTEX
  8
E75LPLIFT
 62
13
 10
4128.478
 20
-8583.846
 30
-2102.011
 70
    32
  0
VERTEX
  8
E75LPLIFT
 62
13
 10
4123.015
 20
-8587.318
 30
-2102.011
 70
    32
  0
VERTEX
  8
E75LPLIFT
 62
13
 10
4106.962
 20
-8586.462
 30
-2102.011
 70
    32
  0
SEQEND
  8
E75LPLIFT
  0
POLYLINE
  8
E75LPLIFT
 62
1
 66
     1
 70
     9
  0
VERTEX
  8
E75LPLIFT
 62
1
 10
4499.535
 20
-8832.306
 30
-2403.377
 70
    32
  0
VERTEX
  8
E75LPLIFT
 62
1
 10
4503.100
 20
-8836.199
 30
-2401.159
 70
    32
  0
VERTEX
  8
E75LPLIFT
 62
1
 10
4509.675
 20
-8840.464
 30
-2398.661
 70
    32
  0
VERTEX
  8
E75LPLIFT
 62
1
 10
4514.175
 20
-8847.499
 30
-2395.972
 70
    32
  0
VERTEX
  8
E75LPLIFT
 62
1
 10
4519.636
 20
-8857.652
 30
-2393.555
 70
    32
  0
VERTEX
  8
E75LPLIFT
 62
1
 10
4522.110
 20
-8870.754
 30
-2391.463
 70
    32
  0
VERTEX
  8
E75LPLIFT
 62
1
 10
4527.240
 20
-8878.462
 30
-2389.468
 70
    32
  0
VERTEX
  8
E75LPLIFT
 62
1
 10
4532.855
 20
-8887.087
 30
-2388.041
 70
    32
  0
VERTEX
  8
E75LPLIFT
 62
1
 10
4528.910
 20
-8888.941
 30
-2388.195
 70
    32
  0
VERTEX
  8
E75LPLIFT
 62
1
 10
4519.739
 20
-8891.555
 30
-2389.456
 70
    32
  0
VERTEX
  8
E75LPLIFT
 62
1
 10
4514.161
 20
-8879.567
 30
-2390.955
 70
    32
  0
VERTEX
  8
E75LPLIFT
 62
1
 10
4509.411
 20
-8873.616
 30
-2391.813
 70
    32
  0
VERTEX
  8
E75LPLIFT
 62
1
 10
4493.229
 20
-8887.407
 30
-2391.509
 70
    32
  0
VERTEX
  8
E75LPLIFT
 62
1
 10
4486.810
 20
-8890.921
 30
-2390.111
 70
    32
  0
VERTEX
  8
E75LPLIFT
 62
1
 10
4477.869
 20
-8897.290
 30
-2389.564
 70
    32
  0
VERTEX
  8
E75LPLIFT
 62
1
 10
4466.317
 20
-8900.000
 30
-2389.082
 70
    32
  0
VERTEX
  8
E75LPLIFT
 62
1
 10
4461.974
 20
-8896.419
 30
-2389.813
 70
    32
  0
VERTEX
  8
E75LPLIFT
 62
1
 10
4461.252
 20
-8896.092
 30
-2389.000
 70
    32
  0
VERTEX
  8
E75LPLIFT
 62
1
 10
4451.483
 20
-8896.075
 30
-2389.000
 70
    32
  0
VERTEX
  8
E75LPLIFT
 62
1
 10
4432.771
 20
-8898.404
 30
-2389.000
 70
    32
  0
VERTEX
  8
E75LPLIFT
 62
1
 10
4409.112
 20
-8901.530
 30
-2389.000
 70
    32
  0
VERTEX
  8
E75LPLIFT
 62
1
 10
4394.981
 20
-8906.392
 30
-2389.000
 70
    32
  0
VERTEX
  8
E75LPLIFT
 62
1
 10
4385.282
 20
-8905.662
 30
-2389.000
 70
    32
  0
VERTEX
  8
E75LPLIFT
 62
1
 10
4380.202
 20
-8903.350
 30
-2389.000
 70
    32
  0
VERTEX
  8
E75LPLIFT
 62
1
 10
4373.084
 20
-8903.519
 30
-2389.000
 70
    32
  0
VERTEX
  8
E75LPLIFT
 62
1
 10
4371.227
 20
-8888.858
 30
-2389.000
 70
    32
  0
VERTEX
  8
E75LPLIFT
 62
1
 10
4378.358
 20
-8888.221
 30
-2389.000
 70
    32
  0
VERTEX
  8
E75LPLIFT
 62
1
 10
4380.261
 20
-8879.988
 30
-2389.000
 70
    32
  0
VERTEX
  8
E75LPLIFT
 62
1
 10
4402.136
 20
-8881.339
 30
-2389.000
 70
    32
  0
VERTEX
  8
E75LPLIFT
 62
1
 10
4431.728
 20
-8866.812
 30
-2389.000
 70
    32
  0
VERTEX
  8
E75LPLIFT
 62
1
 10
4436.026
 20
-8867.234
 30
-2389.000
 70
    32
  0
VERTEX
  8
E75LPLIFT
 62
1
 10
4441.375
 20
-8862.981
 30
-2389.000
 70
    32
  0
VERTEX
  8
E75LPLIFT
 62
1
 10
4456.108
 20
-8881.715
 30
-2389.000
 70
    32
  0
VERTEX
  8
E75LPLIFT
 62
1
 10
4466.635
 20
-8885.548
 30
-2389.000
 70
    32
  0
VERTEX
  8
E75LPLIFT
 62
1
 10
4467.161
 20
-8885.614
 30
-2389.188
 70
    32
  0
VERTEX
  8
E75LPLIFT
 62
1
 10
4475.653
 20
-8884.621
 30
-2389.795
 70
    32
  0
VERTEX
  8
E75LPLIFT
 62
1
 10
4480.806
 20
-8880.558
 30
-2390.093
 70
    32
  0
VERTEX
  8
E75LPLIFT
 62
1
 10
4489.773
 20
-8874.190
 30
-2391.599
 70
    32
  0
VERTEX
  8
E75LPLIFT
 62
1
 10
4499.769
 20
-8861.898
 30
-2394.695
 70
    32
  0
VERTEX
  8
E75LPLIFT
 62
1
 10
4501.075
 20
-8856.194
 30
-2396.377
 70
    32
  0
VERTEX
  8
E75LPLIFT
 62
1
 10
4496.803
 20
-8844.164
 30
-2399.363
 70
    32
  0
VERTEX
  8
E75LPLIFT
 62
1
 10
4488.747
 20
-8829.066
 30
-2405.420
 70
    32
  0
SEQEND
  8
E75LPLIFT
  0
POLYLINE
  8
E75LPLIFT
 62
2
 66
     1
 70
     9
  0
VERTEX
  8
E75LPLIFT
 62
2
 10
4367.679
 20
-8900.933
 30
-2380.750
 70
    32
  0
VERTEX
  8
E75LPLIFT
 62
2
 10
4383.390
 20
-8890.221
 30
-2380.750
 70
    32
  0
VERTEX
  8
E75LPLIFT
 62
2
 10
4392.582
 20
-8886.468
 30
-2380.750
 70
    32
  0
VERTEX
  8
E75LPLIFT
 62
2
 10
4407.485
 20
-8882.753
 30
-2380.750
 70
    32
  0
VERTEX
  8
E75LPLIFT
 62
2
 10
4421.872
 20
-8877.599
 30
-2380.750
 70
    32
  0
VERTEX
  8
E75LPLIFT
 62
2
 10
4432.133
 20
-8878.221
 30
-2380.750
 70
    32
  0
VERTEX
  8
E75LPLIFT
 62
2
 10
4438.963
 20
-8885.923
 30
-2380.750
 70
    32
  0
VERTEX
  8
E75LPLIFT
 62
2
 10
4439.851
 20
-8886.328
 30
-2380.750
 70
    32
  0
VERTEX
  8
E75LPLIFT
 62
2
 10
4449.107
 20
-8889.887
 30
-2380.750
 70
    32
  0
VERTEX
  8
E75LPLIFT
 62
2
 10
4450.656
 20
-8894.641
 30
-2380.750
 70
    32
  0
VERTEX
  8
E75LPLIFT
 62
2
 10
4433.157
 20
-8900.318
 30
-2380.750
 70
    32
  0
VERTEX
  8
E75LPLIFT
 62
2
 10
4408.155
 20
-8907.450
 30
-2380.750
 70
    32
  0
VERTEX
  8
E75LPLIFT
 62
2
 10
4397.014
 20
-8910.239
 30
-2380.750
 70
    32
  0
VERTEX
  8
E75LPLIFT
 62
2
 10
4383.223
 20
-8912.836
 30
-2380.750
 70
    32
  0
VERTEX
  8
E75LPLIFT
 62
2
 10
4365.755
 20
-8905.545
 30
-2380.750
 70
    32
  0
SEQEND
  8
E75LPLIFT
  0
ENDSEC
  0
EOF
