999
********************************
999
*   DXF File - Entities Only   *
999
*        3D Data Format        *
999
*     Output from ENVISAGE     *
999
*     31-Dec-2007 14:56:57     *
999
********************************
  0
SECTION 
  2
HEADER
  9
$ACADVER
  1
AC1009
  9
$EXTMIN
 10
-290000.000
 20
-250000.000
 30
-4000.000
  9
$EXTMAX
 10
320000.000
 20
160000.000
 30
6000.000
  0
ENDSEC
  0
SECTION
  2
ENTITIES
  0
POLYLINE
  8
M30LXLIFT
 62
3
 66
     1
 70
     9
  0
VERTEX
  8
M30LXLIFT
 62
3
 10
2913.604
 20
-4562.305
 30
2184.000
 70
    32
  0
VERTEX
  8
M30LXLIFT
 62
3
 10
2917.943
 20
-4573.336
 30
2184.000
 70
    32
  0
VERTEX
  8
M30LXLIFT
 62
3
 10
2920.625
 20
-4564.724
 30
2184.000
 70
    32
  0
VERTEX
  8
M30LXLIFT
 62
3
 10
2930.791
 20
-4578.920
 30
2184.000
 70
    32
  0
VERTEX
  8
M30LXLIFT
 62
3
 10
2937.643
 20
-4593.762
 30
2184.000
 70
    32
  0
VERTEX
  8
M30LXLIFT
 62
3
 10
2945.404
 20
-4608.817
 30
2184.000
 70
    32
  0
VERTEX
  8
M30LXLIFT
 62
3
 10
2950.004
 20
-4625.488
 30
2184.000
 70
    32
  0
VERTEX
  8
M30LXLIFT
 62
3
 10
2952.765
 20
-4639.591
 30
2184.000
 70
    32
  0
VERTEX
  8
M30LXLIFT
 62
3
 10
2944.744
 20
-4644.364
 30
2184.000
 70
    32
  0
VERTEX
  8
M30LXLIFT
 62
3
 10
2939.295
 20
-4650.317
 30
2184.000
 70
    32
  0
VERTEX
  8
M30LXLIFT
 62
3
 10
2937.957
 20
-4656.888
 30
2184.000
 70
    32
  0
VERTEX
  8
M30LXLIFT
 62
3
 10
2936.237
 20
-4668.048
 30
2184.000
 70
    32
  0
VERTEX
  8
M30LXLIFT
 62
3
 10
2928.187
 20
-4666.151
 30
2184.000
 70
    32
  0
VERTEX
  8
M30LXLIFT
 62
3
 10
2917.699
 20
-4656.178
 30
2184.000
 70
    32
  0
VERTEX
  8
M30LXLIFT
 62
3
 10
2907.157
 20
-4643.115
 30
2184.000
 70
    32
  0
VERTEX
  8
M30LXLIFT
 62
3
 10
2903.404
 20
-4627.025
 30
2184.000
 70
    32
  0
VERTEX
  8
M30LXLIFT
 62
3
 10
2901.282
 20
-4610.953
 30
2184.000
 70
    32
  0
VERTEX
  8
M30LXLIFT
 62
3
 10
2896.433
 20
-4599.209
 30
2184.000
 70
    32
  0
VERTEX
  8
M30LXLIFT
 62
3
 10
2896.142
 20
-4586.143
 30
2184.000
 70
    32
  0
VERTEX
  8
M30LXLIFT
 62
3
 10
2896.794
 20
-4569.272
 30
2184.000
 70
    32
  0
SEQEND
  8
M30LXLIFT
  0
POLYLINE
  8
M30LXLIFT
 62
3
 66
     1
 70
     9
  0
VERTEX
  8
M30LXLIFT
 62
3
 10
2902.584
 20
-4561.587
 30
2195.000
 70
    32
  0
VERTEX
  8
M30LXLIFT
 62
3
 10
2906.061
 20
-4566.550
 30
2195.000
 70
    32
  0
VERTEX
  8
M30LXLIFT
 62
3
 10
2913.369
 20
-4568.420
 30
2195.000
 70
    32
  0
VERTEX
  8
M30LXLIFT
 62
3
 10
2920.278
 20
-4564.188
 30
2195.000
 70
    32
  0
VERTEX
  8
M30LXLIFT
 62
3
 10
2920.978
 20
-4569.207
 30
2195.000
 70
    32
  0
VERTEX
  8
M30LXLIFT
 62
3
 10
2926.558
 20
-4570.484
 30
2195.000
 70
    32
  0
VERTEX
  8
M30LXLIFT
 62
3
 10
2929.367
 20
-4584.270
 30
2195.000
 70
    32
  0
VERTEX
  8
M30LXLIFT
 62
3
 10
2934.584
 20
-4599.891
 30
2195.000
 70
    32
  0
VERTEX
  8
M30LXLIFT
 62
3
 10
2937.083
 20
-4613.250
 30
2195.000
 70
    32
  0
VERTEX
  8
M30LXLIFT
 62
3
 10
2937.898
 20
-4626.527
 30
2195.000
 70
    32
  0
VERTEX
  8
M30LXLIFT
 62
3
 10
2940.177
 20
-4634.630
 30
2195.000
 70
    32
  0
VERTEX
  8
M30LXLIFT
 62
3
 10
2931.678
 20
-4643.259
 30
2195.000
 70
    32
  0
VERTEX
  8
M30LXLIFT
 62
3
 10
2920.858
 20
-4649.125
 30
2195.000
 70
    32
  0
VERTEX
  8
M30LXLIFT
 62
3
 10
2914.432
 20
-4651.925
 30
2195.000
 70
    32
  0
VERTEX
  8
M30LXLIFT
 62
3
 10
2904.869
 20
-4650.383
 30
2195.000
 70
    32
  0
VERTEX
  8
M30LXLIFT
 62
3
 10
2896.082
 20
-4648.714
 30
2195.000
 70
    32
  0
VERTEX
  8
M30LXLIFT
 62
3
 10
2889.635
 20
-4628.240
 30
2195.000
 70
    32
  0
VERTEX
  8
M30LXLIFT
 62
3
 10
2893.514
 20
-4618.614
 30
2195.000
 70
    32
  0
VERTEX
  8
M30LXLIFT
 62
3
 10
2902.032
 20
-4607.913
 30
2195.000
 70
    32
  0
VERTEX
  8
M30LXLIFT
 62
3
 10
2901.201
 20
-4595.514
 30
2195.000
 70
    32
  0
VERTEX
  8
M30LXLIFT
 62
3
 10
2893.857
 20
-4582.946
 30
2195.000
 70
    32
  0
VERTEX
  8
M30LXLIFT
 62
3
 10
2890.732
 20
-4575.021
 30
2195.000
 70
    32
  0
VERTEX
  8
M30LXLIFT
 62
3
 10
2892.405
 20
-4568.939
 30
2195.000
 70
    32
  0
SEQEND
  8
M30LXLIFT
  0
POLYLINE
  8
M30LXLIFT
 62
27
 66
     1
 70
     9
  0
VERTEX
  8
M30LXLIFT
 62
27
 10
3304.091
 20
-4437.968
 30
2193.000
 70
    32
  0
VERTEX
  8
M30LXLIFT
 62
27
 10
3288.332
 20
-4440.144
 30
2193.000
 70
    32
  0
VERTEX
  8
M30LXLIFT
 62
27
 10
3217.959
 20
-4500.179
 30
2193.000
 70
    32
  0
VERTEX
  8
M30LXLIFT
 62
27
 10
3226.949
 20
-4679.994
 30
2193.000
 70
    32
  0
VERTEX
  8
M30LXLIFT
 62
27
 10
3230.897
 20
-4691.007
 30
2193.000
 70
    32
  0
VERTEX
  8
M30LXLIFT
 62
27
 10
3224.985
 20
-4712.067
 30
2193.000
 70
    32
  0
VERTEX
  8
M30LXLIFT
 62
27
 10
3227.694
 20
-4728.416
 30
2193.000
 70
    32
  0
VERTEX
  8
M30LXLIFT
 62
27
 10
3214.790
 20
-4737.844
 30
2193.000
 70
    32
  0
VERTEX
  8
M30LXLIFT
 62
27
 10
3207.071
 20
-4733.455
 30
2193.000
 70
    32
  0
VERTEX
  8
M30LXLIFT
 62
27
 10
3198.635
 20
-4719.075
 30
2193.000
 70
    32
  0
VERTEX
  8
M30LXLIFT
 62
27
 10
3188.075
 20
-4706.555
 30
2193.000
 70
    32
  0
VERTEX
  8
M30LXLIFT
 62
27
 10
3136.738
 20
-4686.767
 30
2193.000
 70
    32
  0
VERTEX
  8
M30LXLIFT
 62
27
 10
3129.647
 20
-4683.548
 30
2193.000
 70
    32
  0
VERTEX
  8
M30LXLIFT
 62
27
 10
3115.215
 20
-4672.416
 30
2193.000
 70
    32
  0
VERTEX
  8
M30LXLIFT
 62
27
 10
3102.801
 20
-4660.477
 30
2193.000
 70
    32
  0
VERTEX
  8
M30LXLIFT
 62
27
 10
3113.170
 20
-4650.388
 30
2193.000
 70
    32
  0
VERTEX
  8
M30LXLIFT
 62
27
 10
3116.007
 20
-4570.783
 30
2193.000
 70
    32
  0
VERTEX
  8
M30LXLIFT
 62
27
 10
3107.160
 20
-4559.733
 30
2193.000
 70
    32
  0
VERTEX
  8
M30LXLIFT
 62
27
 10
3085.245
 20
-4519.344
 30
2193.000
 70
    32
  0
VERTEX
  8
M30LXLIFT
 62
27
 10
3072.150
 20
-4474.968
 30
2193.000
 70
    32
  0
VERTEX
  8
M30LXLIFT
 62
27
 10
3061.839
 20
-4463.243
 30
2193.000
 70
    32
  0
VERTEX
  8
M30LXLIFT
 62
27
 10
3034.491
 20
-4428.078
 30
2193.000
 70
    32
  0
VERTEX
  8
M30LXLIFT
 62
27
 10
3046.448
 20
-4370.698
 30
2193.000
 70
    32
  0
VERTEX
  8
M30LXLIFT
 62
27
 10
3031.463
 20
-4349.350
 30
2193.000
 70
    32
  0
VERTEX
  8
M30LXLIFT
 62
27
 10
3025.412
 20
-4330.324
 30
2193.000
 70
    32
  0
VERTEX
  8
M30LXLIFT
 62
27
 10
3023.952
 20
-4312.856
 30
2193.000
 70
    32
  0
VERTEX
  8
M30LXLIFT
 62
27
 10
3038.082
 20
-4303.625
 30
2193.000
 70
    32
  0
VERTEX
  8
M30LXLIFT
 62
27
 10
3058.654
 20
-4288.767
 30
2193.000
 70
    32
  0
VERTEX
  8
M30LXLIFT
 62
27
 10
3047.049
 20
-4240.606
 30
2193.000
 70
    32
  0
VERTEX
  8
M30LXLIFT
 62
27
 10
3039.417
 20
-4233.337
 30
2193.000
 70
    32
  0
VERTEX
  8
M30LXLIFT
 62
27
 10
3039.017
 20
-4225.285
 30
2193.000
 70
    32
  0
VERTEX
  8
M30LXLIFT
 62
27
 10
3047.373
 20
-4220.658
 30
2193.000
 70
    32
  0
VERTEX
  8
M30LXLIFT
 62
27
 10
3058.956
 20
-4214.350
 30
2193.000
 70
    32
  0
VERTEX
  8
M30LXLIFT
 62
27
 10
3093.880
 20
-4179.919
 30
2193.000
 70
    32
  0
VERTEX
  8
M30LXLIFT
 62
27
 10
3088.145
 20
-4162.830
 30
2193.000
 70
    32
  0
VERTEX
  8
M30LXLIFT
 62
27
 10
3090.106
 20
-4145.599
 30
2193.000
 70
    32
  0
VERTEX
  8
M30LXLIFT
 62
27
 10
3086.847
 20
-4137.338
 30
2193.000
 70
    32
  0
VERTEX
  8
M30LXLIFT
 62
27
 10
3067.863
 20
-4093.208
 30
2193.000
 70
    32
  0
VERTEX
  8
M30LXLIFT
 62
27
 10
3059.897
 20
-4079.030
 30
2193.000
 70
    32
  0
VERTEX
  8
M30LXLIFT
 62
27
 10
3054.637
 20
-4060.949
 30
2193.000
 70
    32
  0
VERTEX
  8
M30LXLIFT
 62
27
 10
3064.472
 20
-4052.221
 30
2193.000
 70
    32
  0
VERTEX
  8
M30LXLIFT
 62
27
 10
3096.632
 20
-4047.407
 30
2193.000
 70
    32
  0
VERTEX
  8
M30LXLIFT
 62
27
 10
3106.048
 20
-4044.397
 30
2193.000
 70
    32
  0
VERTEX
  8
M30LXLIFT
 62
27
 10
3108.148
 20
-4038.006
 30
2193.000
 70
    32
  0
VERTEX
  8
M30LXLIFT
 62
27
 10
3123.030
 20
-4039.714
 30
2193.000
 70
    32
  0
VERTEX
  8
M30LXLIFT
 62
27
 10
3132.961
 20
-4054.963
 30
2193.000
 70
    32
  0
VERTEX
  8
M30LXLIFT
 62
27
 10
3162.444
 20
-4088.585
 30
2193.000
 70
    32
  0
VERTEX
  8
M30LXLIFT
 62
27
 10
3179.712
 20
-4110.992
 30
2193.000
 70
    32
  0
VERTEX
  8
M30LXLIFT
 62
27
 10
3199.965
 20
-4134.384
 30
2193.000
 70
    32
  0
VERTEX
  8
M30LXLIFT
 62
27
 10
3198.021
 20
-4183.882
 30
2193.000
 70
    32
  0
VERTEX
  8
M30LXLIFT
 62
27
 10
3207.742
 20
-4196.141
 30
2193.000
 70
    32
  0
VERTEX
  8
M30LXLIFT
 62
27
 10
3221.525
 20
-4215.974
 30
2193.000
 70
    32
  0
VERTEX
  8
M30LXLIFT
 62
27
 10
3260.374
 20
-4271.862
 30
2193.000
 70
    32
  0
VERTEX
  8
M30LXLIFT
 62
27
 10
3270.566
 20
-4288.222
 30
2193.000
 70
    32
  0
VERTEX
  8
M30LXLIFT
 62
27
 10
3281.577
 20
-4304.966
 30
2193.000
 70
    32
  0
VERTEX
  8
M30LXLIFT
 62
27
 10
3285.599
 20
-4324.483
 30
2193.000
 70
    32
  0
VERTEX
  8
M30LXLIFT
 62
27
 10
3310.009
 20
-4361.878
 30
2193.000
 70
    32
  0
VERTEX
  8
M30LXLIFT
 62
27
 10
3321.063
 20
-4373.283
 30
2193.000
 70
    32
  0
VERTEX
  8
M30LXLIFT
 62
27
 10
3331.175
 20
-4370.637
 30
2193.000
 70
    32
  0
VERTEX
  8
M30LXLIFT
 62
27
 10
3342.363
 20
-4362.882
 30
2193.000
 70
    32
  0
VERTEX
  8
M30LXLIFT
 62
27
 10
3354.618
 20
-4352.405
 30
2193.000
 70
    32
  0
VERTEX
  8
M30LXLIFT
 62
27
 10
3358.364
 20
-4358.041
 30
2193.000
 70
    32
  0
VERTEX
  8
M30LXLIFT
 62
27
 10
3330.037
 20
-4379.259
 30
2193.000
 70
    32
  0
VERTEX
  8
M30LXLIFT
 62
27
 10
3328.285
 20
-4393.630
 30
2193.000
 70
    32
  0
VERTEX
  8
M30LXLIFT
 62
27
 10
3331.394
 20
-4406.333
 30
2193.000
 70
    32
  0
VERTEX
  8
M30LXLIFT
 62
27
 10
3325.719
 20
-4408.374
 30
2193.000
 70
    32
  0
VERTEX
  8
M30LXLIFT
 62
27
 10
3315.745
 20
-4400.413
 30
2193.000
 70
    32
  0
VERTEX
  8
M30LXLIFT
 62
27
 10
3307.942
 20
-4409.407
 30
2193.000
 70
    32
  0
VERTEX
  8
M30LXLIFT
 62
27
 10
3317.759
 20
-4428.096
 30
2193.000
 70
    32
  0
SEQEND
  8
M30LXLIFT
  0
POLYLINE
  8
M30LXLIFT
 62
13
 66
     1
 70
     9
  0
VERTEX
  8
M30LXLIFT
 62
13
 10
2886.348
 20
-4504.314
 30
2201.000
 70
    32
  0
VERTEX
  8
M30LXLIFT
 62
13
 10
2881.397
 20
-4502.258
 30
2201.000
 70
    32
  0
VERTEX
  8
M30LXLIFT
 62
13
 10
2880.076
 20
-4495.630
 30
2201.000
 70
    32
  0
VERTEX
  8
M30LXLIFT
 62
13
 10
2872.862
 20
-4484.592
 30
2201.000
 70
    32
  0
VERTEX
  8
M30LXLIFT
 62
13
 10
2864.968
 20
-4470.363
 30
2201.000
 70
    32
  0
VERTEX
  8
M30LXLIFT
 62
13
 10
2868.622
 20
-4462.525
 30
2201.000
 70
    32
  0
VERTEX
  8
M30LXLIFT
 62
13
 10
2876.081
 20
-4465.803
 30
2201.000
 70
    32
  0
VERTEX
  8
M30LXLIFT
 62
13
 10
2880.965
 20
-4474.515
 30
2201.000
 70
    32
  0
VERTEX
  8
M30LXLIFT
 62
13
 10
2889.769
 20
-4483.105
 30
2201.000
 70
    32
  0
VERTEX
  8
M30LXLIFT
 62
13
 10
2896.144
 20
-4486.083
 30
2201.000
 70
    32
  0
VERTEX
  8
M30LXLIFT
 62
13
 10
2901.258
 20
-4497.662
 30
2201.000
 70
    32
  0
VERTEX
  8
M30LXLIFT
 62
13
 10
2896.761
 20
-4502.534
 30
2201.000
 70
    32
  0
VERTEX
  8
M30LXLIFT
 62
13
 10
2897.058
 20
-4508.494
 30
2201.000
 70
    32
  0
SEQEND
  8
M30LXLIFT
  0
POLYLINE
  8
M30LXLIFT
 62
3
 66
     1
 70
     9
  0
VERTEX
  8
M30LXLIFT
 62
3
 10
2919.552
 20
-4572.899
 30
2205.000
 70
    32
  0
VERTEX
  8
M30LXLIFT
 62
3
 10
2908.666
 20
-4577.944
 30
2205.000
 70
    32
  0
VERTEX
  8
M30LXLIFT
 62
3
 10
2892.471
 20
-4577.765
 30
2205.000
 70
    32
  0
VERTEX
  8
M30LXLIFT
 62
3
 10
2900.572
 20
-4591.729
 30
2205.000
 70
    32
  0
VERTEX
  8
M30LXLIFT
 62
3
 10
2894.896
 20
-4600.981
 30
2205.000
 70
    32
  0
VERTEX
  8
M30LXLIFT
 62
3
 10
2889.320
 20
-4616.387
 30
2205.000
 70
    32
  0
VERTEX
  8
M30LXLIFT
 62
3
 10
2891.072
 20
-4631.800
 30
2205.000
 70
    32
  0
VERTEX
  8
M30LXLIFT
 62
3
 10
2898.945
 20
-4640.908
 30
2205.000
 70
    32
  0
VERTEX
  8
M30LXLIFT
 62
3
 10
2907.205
 20
-4639.675
 30
2205.000
 70
    32
  0
VERTEX
  8
M30LXLIFT
 62
3
 10
2907.614
 20
-4623.199
 30
2205.000
 70
    32
  0
VERTEX
  8
M30LXLIFT
 62
3
 10
2915.497
 20
-4619.406
 30
2205.000
 70
    32
  0
VERTEX
  8
M30LXLIFT
 62
3
 10
2918.086
 20
-4635.944
 30
2205.000
 70
    32
  0
VERTEX
  8
M30LXLIFT
 62
3
 10
2922.982
 20
-4639.292
 30
2205.000
 70
    32
  0
VERTEX
  8
M30LXLIFT
 62
3
 10
2930.129
 20
-4630.693
 30
2205.000
 70
    32
  0
VERTEX
  8
M30LXLIFT
 62
3
 10
2931.640
 20
-4614.817
 30
2205.000
 70
    32
  0
VERTEX
  8
M30LXLIFT
 62
3
 10
2931.258
 20
-4598.602
 30
2205.000
 70
    32
  0
SEQEND
  8
M30LXLIFT
  0
POLYLINE
  8
M30LXLIFT
 62
3
 66
     1
 70
     9
  0
VERTEX
  8
M30LXLIFT
 62
3
 10
2926.644
 20
-4623.229
 30
2214.000
 70
    32
  0
VERTEX
  8
M30LXLIFT
 62
3
 10
2921.607
 20
-4624.086
 30
2214.000
 70
    32
  0
VERTEX
  8
M30LXLIFT
 62
3
 10
2919.925
 20
-4617.476
 30
2214.000
 70
    32
  0
VERTEX
  8
M30LXLIFT
 62
3
 10
2913.215
 20
-4618.577
 30
2214.000
 70
    32
  0
VERTEX
  8
M30LXLIFT
 62
3
 10
2911.221
 20
-4611.542
 30
2214.000
 70
    32
  0
VERTEX
  8
M30LXLIFT
 62
3
 10
2903.726
 20
-4613.654
 30
2214.000
 70
    32
  0
VERTEX
  8
M30LXLIFT
 62
3
 10
2901.552
 20
-4616.336
 30
2214.000
 70
    32
  0
VERTEX
  8
M30LXLIFT
 62
3
 10
2901.039
 20
-4629.021
 30
2214.000
 70
    32
  0
VERTEX
  8
M30LXLIFT
 62
3
 10
2893.858
 20
-4628.289
 30
2214.000
 70
    32
  0
VERTEX
  8
M30LXLIFT
 62
3
 10
2893.119
 20
-4615.977
 30
2214.000
 70
    32
  0
VERTEX
  8
M30LXLIFT
 62
3
 10
2893.475
 20
-4604.714
 30
2214.000
 70
    32
  0
VERTEX
  8
M30LXLIFT
 62
3
 10
2902.164
 20
-4594.864
 30
2214.000
 70
    32
  0
VERTEX
  8
M30LXLIFT
 62
3
 10
2912.567
 20
-4587.353
 30
2214.000
 70
    32
  0
VERTEX
  8
M30LXLIFT
 62
3
 10
2920.826
 20
-4585.988
 30
2214.000
 70
    32
  0
VERTEX
  8
M30LXLIFT
 62
3
 10
2920.641
 20
-4596.145
 30
2214.000
 70
    32
  0
VERTEX
  8
M30LXLIFT
 62
3
 10
2925.405
 20
-4600.716
 30
2214.000
 70
    32
  0
SEQEND
  8
M30LXLIFT
  0
POLYLINE
  8
M30LXLIFT
 62
7
 66
     1
 70
     9
  0
VERTEX
  8
M30LXLIFT
 62
7
 10
2884.071
 20
-4466.504
 30
2213.000
 70
    32
  0
VERTEX
  8
M30LXLIFT
 62
7
 10
2875.875
 20
-4465.427
 30
2213.000
 70
    32
  0
VERTEX
  8
M30LXLIFT
 62
7
 10
2866.255
 20
-4467.462
 30
2213.000
 70
    32
  0
VERTEX
  8
M30LXLIFT
 62
7
 10
2864.445
 20
-4476.740
 30
2213.000
 70
    32
  0
VERTEX
  8
M30LXLIFT
 62
7
 10
2858.513
 20
-4489.909
 30
2213.000
 70
    32
  0
VERTEX
  8
M30LXLIFT
 62
7
 10
2866.353
 20
-4502.249
 30
2213.000
 70
    32
  0
VERTEX
  8
M30LXLIFT
 62
7
 10
2877.098
 20
-4515.729
 30
2213.000
 70
    32
  0
VERTEX
  8
M30LXLIFT
 62
7
 10
2887.486
 20
-4526.639
 30
2213.000
 70
    32
  0
VERTEX
  8
M30LXLIFT
 62
7
 10
2894.255
 20
-4545.101
 30
2213.000
 70
    32
  0
VERTEX
  8
M30LXLIFT
 62
7
 10
2902.561
 20
-4561.349
 30
2213.000
 70
    32
  0
VERTEX
  8
M30LXLIFT
 62
7
 10
2900.042
 20
-4571.146
 30
2213.000
 70
    32
  0
VERTEX
  8
M30LXLIFT
 62
7
 10
2889.678
 20
-4569.042
 30
2213.000
 70
    32
  0
VERTEX
  8
M30LXLIFT
 62
7
 10
2886.886
 20
-4551.697
 30
2213.000
 70
    32
  0
VERTEX
  8
M30LXLIFT
 62
7
 10
2885.120
 20
-4533.819
 30
2213.000
 70
    32
  0
VERTEX
  8
M30LXLIFT
 62
7
 10
2876.403
 20
-4525.933
 30
2213.000
 70
    32
  0
VERTEX
  8
M30LXLIFT
 62
7
 10
2862.142
 20
-4512.413
 30
2213.000
 70
    32
  0
VERTEX
  8
M30LXLIFT
 62
7
 10
2848.658
 20
-4497.127
 30
2213.000
 70
    32
  0
VERTEX
  8
M30LXLIFT
 62
7
 10
2848.351
 20
-4505.631
 30
2213.000
 70
    32
  0
VERTEX
  8
M30LXLIFT
 62
7
 10
2852.451
 20
-4514.501
 30
2213.000
 70
    32
  0
VERTEX
  8
M30LXLIFT
 62
7
 10
2862.445
 20
-4536.919
 30
2213.000
 70
    32
  0
VERTEX
  8
M30LXLIFT
 62
7
 10
2872.198
 20
-4558.861
 30
2213.000
 70
    32
  0
VERTEX
  8
M30LXLIFT
 62
7
 10
2876.100
 20
-4575.937
 30
2213.000
 70
    32
  0
VERTEX
  8
M30LXLIFT
 62
7
 10
2868.234
 20
-4576.797
 30
2213.000
 70
    32
  0
VERTEX
  8
M30LXLIFT
 62
7
 10
2862.112
 20
-4556.989
 30
2213.000
 70
    32
  0
VERTEX
  8
M30LXLIFT
 62
7
 10
2852.934
 20
-4538.657
 30
2213.000
 70
    32
  0
VERTEX
  8
M30LXLIFT
 62
7
 10
2849.231
 20
-4528.842
 30
2213.000
 70
    32
  0
VERTEX
  8
M30LXLIFT
 62
7
 10
2847.020
 20
-4519.132
 30
2213.000
 70
    32
  0
VERTEX
  8
M30LXLIFT
 62
7
 10
2841.439
 20
-4496.641
 30
2213.000
 70
    32
  0
VERTEX
  8
M30LXLIFT
 62
7
 10
2844.485
 20
-4491.578
 30
2213.000
 70
    32
  0
VERTEX
  8
M30LXLIFT
 62
7
 10
2840.796
 20
-4472.711
 30
2213.000
 70
    32
  0
VERTEX
  8
M30LXLIFT
 62
7
 10
2845.207
 20
-4458.805
 30
2213.000
 70
    32
  0
VERTEX
  8
M30LXLIFT
 62
7
 10
2851.764
 20
-4452.586
 30
2213.000
 70
    32
  0
VERTEX
  8
M30LXLIFT
 62
7
 10
2863.289
 20
-4456.127
 30
2213.000
 70
    32
  0
VERTEX
  8
M30LXLIFT
 62
7
 10
2866.248
 20
-4454.068
 30
2213.000
 70
    32
  0
VERTEX
  8
M30LXLIFT
 62
7
 10
2872.923
 20
-4446.674
 30
2213.000
 70
    32
  0
VERTEX
  8
M30LXLIFT
 62
7
 10
2881.786
 20
-4438.548
 30
2213.000
 70
    32
  0
VERTEX
  8
M30LXLIFT
 62
7
 10
2879.382
 20
-4436.605
 30
2213.000
 70
    32
  0
VERTEX
  8
M30LXLIFT
 62
7
 10
2889.414
 20
-4433.941
 30
2213.000
 70
    32
  0
VERTEX
  8
M30LXLIFT
 62
7
 10
2896.466
 20
-4444.462
 30
2213.000
 70
    32
  0
VERTEX
  8
M30LXLIFT
 62
7
 10
2900.332
 20
-4458.515
 30
2213.000
 70
    32
  0
SEQEND
  8
M30LXLIFT
  0
POLYLINE
  8
M30LXLIFT
 62
27
 66
     1
 70
     9
  0
VERTEX
  8
M30LXLIFT
 62
27
 10
3040.270
 20
-4043.379
 30
2213.000
 70
    32
  0
VERTEX
  8
M30LXLIFT
 62
27
 10
3069.394
 20
-4023.355
 30
2213.000
 70
    32
  0
VERTEX
  8
M30LXLIFT
 62
27
 10
3103.368
 20
-4006.531
 30
2213.000
 70
    32
  0
VERTEX
  8
M30LXLIFT
 62
27
 10
3116.785
 20
-4023.065
 30
2213.000
 70
    32
  0
VERTEX
  8
M30LXLIFT
 62
27
 10
3124.101
 20
-4027.401
 30
2213.000
 70
    32
  0
VERTEX
  8
M30LXLIFT
 62
27
 10
3126.839
 20
-4047.945
 30
2213.000
 70
    32
  0
VERTEX
  8
M30LXLIFT
 62
27
 10
3159.961
 20
-4092.421
 30
2213.000
 70
    32
  0
VERTEX
  8
M30LXLIFT
 62
27
 10
3174.470
 20
-4108.809
 30
2213.000
 70
    32
  0
VERTEX
  8
M30LXLIFT
 62
27
 10
3193.370
 20
-4095.945
 30
2213.000
 70
    32
  0
VERTEX
  8
M30LXLIFT
 62
27
 10
3195.313
 20
-4102.910
 30
2213.000
 70
    32
  0
VERTEX
  8
M30LXLIFT
 62
27
 10
3171.930
 20
-4121.998
 30
2213.000
 70
    32
  0
VERTEX
  8
M30LXLIFT
 62
27
 10
3163.984
 20
-4128.254
 30
2213.000
 70
    32
  0
VERTEX
  8
M30LXLIFT
 62
27
 10
3165.927
 20
-4152.321
 30
2213.000
 70
    32
  0
VERTEX
  8
M30LXLIFT
 62
27
 10
3198.839
 20
-4182.680
 30
2213.000
 70
    32
  0
VERTEX
  8
M30LXLIFT
 62
27
 10
3220.780
 20
-4207.132
 30
2213.000
 70
    32
  0
VERTEX
  8
M30LXLIFT
 62
27
 10
3250.686
 20
-4198.735
 30
2213.000
 70
    32
  0
VERTEX
  8
M30LXLIFT
 62
27
 10
3254.245
 20
-4204.189
 30
2213.000
 70
    32
  0
VERTEX
  8
M30LXLIFT
 62
27
 10
3220.076
 20
-4214.946
 30
2213.000
 70
    32
  0
VERTEX
  8
M30LXLIFT
 62
27
 10
3255.783
 20
-4265.481
 30
2213.000
 70
    32
  0
VERTEX
  8
M30LXLIFT
 62
27
 10
3274.276
 20
-4296.380
 30
2213.000
 70
    32
  0
VERTEX
  8
M30LXLIFT
 62
27
 10
3281.319
 20
-4324.882
 30
2213.000
 70
    32
  0
VERTEX
  8
M30LXLIFT
 62
27
 10
3305.011
 20
-4359.162
 30
2213.000
 70
    32
  0
VERTEX
  8
M30LXLIFT
 62
27
 10
3332.276
 20
-4383.744
 30
2213.000
 70
    32
  0
VERTEX
  8
M30LXLIFT
 62
27
 10
3345.287
 20
-4402.102
 30
2213.000
 70
    32
  0
VERTEX
  8
M30LXLIFT
 62
27
 10
3333.237
 20
-4413.759
 30
2213.000
 70
    32
  0
VERTEX
  8
M30LXLIFT
 62
27
 10
3316.792
 20
-4420.903
 30
2213.000
 70
    32
  0
VERTEX
  8
M30LXLIFT
 62
27
 10
3303.272
 20
-4410.327
 30
2213.000
 70
    32
  0
VERTEX
  8
M30LXLIFT
 62
27
 10
3297.302
 20
-4406.638
 30
2213.000
 70
    32
  0
VERTEX
  8
M30LXLIFT
 62
27
 10
3296.138
 20
-4419.474
 30
2213.000
 70
    32
  0
VERTEX
  8
M30LXLIFT
 62
27
 10
3305.645
 20
-4433.643
 30
2213.000
 70
    32
  0
VERTEX
  8
M30LXLIFT
 62
27
 10
3287.592
 20
-4443.054
 30
2213.000
 70
    32
  0
VERTEX
  8
M30LXLIFT
 62
27
 10
3219.340
 20
-4488.034
 30
2213.000
 70
    32
  0
VERTEX
  8
M30LXLIFT
 62
27
 10
3212.007
 20
-4489.920
 30
2213.000
 70
    32
  0
VERTEX
  8
M30LXLIFT
 62
27
 10
3216.349
 20
-4497.633
 30
2213.000
 70
    32
  0
VERTEX
  8
M30LXLIFT
 62
27
 10
3183.212
 20
-4521.251
 30
2213.000
 70
    32
  0
VERTEX
  8
M30LXLIFT
 62
27
 10
3111.111
 20
-4574.062
 30
2213.000
 70
    32
  0
VERTEX
  8
M30LXLIFT
 62
27
 10
3133.553
 20
-4605.446
 30
2213.000
 70
    32
  0
VERTEX
  8
M30LXLIFT
 62
27
 10
3211.894
 20
-4689.349
 30
2213.000
 70
    32
  0
VERTEX
  8
M30LXLIFT
 62
27
 10
3203.417
 20
-4708.412
 30
2213.000
 70
    32
  0
VERTEX
  8
M30LXLIFT
 62
27
 10
3188.588
 20
-4706.311
 30
2213.000
 70
    32
  0
VERTEX
  8
M30LXLIFT
 62
27
 10
3132.409
 20
-4681.665
 30
2213.000
 70
    32
  0
VERTEX
  8
M30LXLIFT
 62
27
 10
3113.967
 20
-4660.205
 30
2213.000
 70
    32
  0
VERTEX
  8
M30LXLIFT
 62
27
 10
3098.021
 20
-4637.245
 30
2213.000
 70
    32
  0
VERTEX
  8
M30LXLIFT
 62
27
 10
3004.528
 20
-4513.023
 30
2213.000
 70
    32
  0
VERTEX
  8
M30LXLIFT
 62
27
 10
3000.336
 20
-4507.597
 30
2213.000
 70
    32
  0
VERTEX
  8
M30LXLIFT
 62
27
 10
3004.136
 20
-4504.160
 30
2213.000
 70
    32
  0
VERTEX
  8
M30LXLIFT
 62
27
 10
3000.049
 20
-4497.241
 30
2213.000
 70
    32
  0
VERTEX
  8
M30LXLIFT
 62
27
 10
3010.509
 20
-4489.362
 30
2213.000
 70
    32
  0
VERTEX
  8
M30LXLIFT
 62
27
 10
3037.120
 20
-4475.425
 30
2213.000
 70
    32
  0
VERTEX
  8
M30LXLIFT
 62
27
 10
3040.533
 20
-4472.054
 30
2213.000
 70
    32
  0
VERTEX
  8
M30LXLIFT
 62
27
 10
3045.761
 20
-4476.068
 30
2213.000
 70
    32
  0
VERTEX
  8
M30LXLIFT
 62
27
 10
3055.529
 20
-4462.486
 30
2213.000
 70
    32
  0
VERTEX
  8
M30LXLIFT
 62
27
 10
3057.071
 20
-4425.627
 30
2213.000
 70
    32
  0
VERTEX
  8
M30LXLIFT
 62
27
 10
3044.197
 20
-4416.974
 30
2213.000
 70
    32
  0
VERTEX
  8
M30LXLIFT
 62
27
 10
3045.785
 20
-4366.791
 30
2213.000
 70
    32
  0
VERTEX
  8
M30LXLIFT
 62
27
 10
3032.562
 20
-4348.590
 30
2213.000
 70
    32
  0
VERTEX
  8
M30LXLIFT
 62
27
 10
3021.503
 20
-4330.220
 30
2213.000
 70
    32
  0
VERTEX
  8
M30LXLIFT
 62
27
 10
3021.398
 20
-4314.610
 30
2213.000
 70
    32
  0
VERTEX
  8
M30LXLIFT
 62
27
 10
3018.642
 20
-4259.984
 30
2213.000
 70
    32
  0
VERTEX
  8
M30LXLIFT
 62
27
 10
3013.317
 20
-4227.283
 30
2213.000
 70
    32
  0
VERTEX
  8
M30LXLIFT
 62
27
 10
3013.339
 20
-4205.153
 30
2213.000
 70
    32
  0
VERTEX
  8
M30LXLIFT
 62
27
 10
3052.285
 20
-4176.082
 30
2213.000
 70
    32
  0
VERTEX
  8
M30LXLIFT
 62
27
 10
3022.533
 20
-4121.186
 30
2213.000
 70
    32
  0
VERTEX
  8
M30LXLIFT
 62
27
 10
3018.951
 20
-4114.659
 30
2213.000
 70
    32
  0
VERTEX
  8
M30LXLIFT
 62
27
 10
3051.152
 20
-4091.400
 30
2213.000
 70
    32
  0
VERTEX
  8
M30LXLIFT
 62
27
 10
3046.559
 20
-4066.986
 30
2213.000
 70
    32
  0
SEQEND
  8
M30LXLIFT
  0
POLYLINE
  8
M30LXLIFT
 62
3
 66
     1
 70
     9
  0
VERTEX
  8
M30LXLIFT
 62
3
 10
2914.542
 20
-4588.905
 30
2222.000
 70
    32
  0
VERTEX
  8
M30LXLIFT
 62
3
 10
2919.745
 20
-4604.663
 30
2222.000
 70
    32
  0
VERTEX
  8
M30LXLIFT
 62
3
 10
2919.300
 20
-4625.631
 30
2222.000
 70
    32
  0
VERTEX
  8
M30LXLIFT
 62
3
 10
2915.160
 20
-4626.806
 30
2222.000
 70
    32
  0
VERTEX
  8
M30LXLIFT
 62
3
 10
2908.343
 20
-4613.748
 30
2222.000
 70
    32
  0
VERTEX
  8
M30LXLIFT
 62
3
 10
2896.185
 20
-4618.822
 30
2222.000
 70
    32
  0
VERTEX
  8
M30LXLIFT
 62
3
 10
2891.269
 20
-4632.624
 30
2222.000
 70
    32
  0
VERTEX
  8
M30LXLIFT
 62
3
 10
2884.338
 20
-4628.341
 30
2222.000
 70
    32
  0
VERTEX
  8
M30LXLIFT
 62
3
 10
2877.062
 20
-4618.225
 30
2222.000
 70
    32
  0
VERTEX
  8
M30LXLIFT
 62
3
 10
2872.345
 20
-4611.021
 30
2222.000
 70
    32
  0
VERTEX
  8
M30LXLIFT
 62
3
 10
2885.061
 20
-4607.604
 30
2222.000
 70
    32
  0
VERTEX
  8
M30LXLIFT
 62
3
 10
2896.699
 20
-4600.628
 30
2222.000
 70
    32
  0
SEQEND
  8
M30LXLIFT
  0
POLYLINE
  8
M30LXLIFT
 62
3
 66
     1
 70
     9
  0
VERTEX
  8
M30LXLIFT
 62
3
 10
2907.348
 20
-4592.700
 30
2230.000
 70
    32
  0
VERTEX
  8
M30LXLIFT
 62
3
 10
2913.214
 20
-4596.920
 30
2230.000
 70
    32
  0
VERTEX
  8
M30LXLIFT
 62
3
 10
2914.492
 20
-4604.996
 30
2230.000
 70
    32
  0
VERTEX
  8
M30LXLIFT
 62
3
 10
2909.634
 20
-4614.033
 30
2230.000
 70
    32
  0
VERTEX
  8
M30LXLIFT
 62
3
 10
2902.317
 20
-4619.966
 30
2230.000
 70
    32
  0
VERTEX
  8
M30LXLIFT
 62
3
 10
2892.963
 20
-4619.023
 30
2230.000
 70
    32
  0
VERTEX
  8
M30LXLIFT
 62
3
 10
2887.531
 20
-4623.812
 30
2230.000
 70
    32
  0
VERTEX
  8
M30LXLIFT
 62
3
 10
2879.207
 20
-4618.439
 30
2230.000
 70
    32
  0
VERTEX
  8
M30LXLIFT
 62
3
 10
2871.860
 20
-4614.420
 30
2230.000
 70
    32
  0
VERTEX
  8
M30LXLIFT
 62
3
 10
2881.995
 20
-4608.187
 30
2230.000
 70
    32
  0
VERTEX
  8
M30LXLIFT
 62
3
 10
2881.536
 20
-4604.398
 30
2230.000
 70
    32
  0
VERTEX
  8
M30LXLIFT
 62
3
 10
2884.672
 20
-4602.134
 30
2230.000
 70
    32
  0
VERTEX
  8
M30LXLIFT
 62
3
 10
2883.655
 20
-4599.074
 30
2230.000
 70
    32
  0
VERTEX
  8
M30LXLIFT
 62
3
 10
2893.956
 20
-4595.322
 30
2230.000
 70
    32
  0
VERTEX
  8
M30LXLIFT
 62
3
 10
2896.565
 20
-4592.029
 30
2230.000
 70
    32
  0
SEQEND
  8
M30LXLIFT
  0
POLYLINE
  8
M30LXLIFT
 62
7
 66
     1
 70
     9
  0
VERTEX
  8
M30LXLIFT
 62
7
 10
2900.184
 20
-4460.405
 30
2233.000
 70
    32
  0
VERTEX
  8
M30LXLIFT
 62
7
 10
2889.008
 20
-4464.897
 30
2233.000
 70
    32
  0
VERTEX
  8
M30LXLIFT
 62
7
 10
2881.894
 20
-4466.455
 30
2233.000
 70
    32
  0
VERTEX
  8
M30LXLIFT
 62
7
 10
2874.614
 20
-4465.532
 30
2233.000
 70
    32
  0
VERTEX
  8
M30LXLIFT
 62
7
 10
2866.836
 20
-4466.921
 30
2233.000
 70
    32
  0
VERTEX
  8
M30LXLIFT
 62
7
 10
2864.622
 20
-4475.566
 30
2233.000
 70
    32
  0
VERTEX
  8
M30LXLIFT
 62
7
 10
2858.979
 20
-4487.121
 30
2233.000
 70
    32
  0
VERTEX
  8
M30LXLIFT
 62
7
 10
2862.671
 20
-4501.693
 30
2233.000
 70
    32
  0
VERTEX
  8
M30LXLIFT
 62
7
 10
2872.256
 20
-4517.972
 30
2233.000
 70
    32
  0
VERTEX
  8
M30LXLIFT
 62
7
 10
2882.551
 20
-4534.932
 30
2233.000
 70
    32
  0
VERTEX
  8
M30LXLIFT
 62
7
 10
2891.381
 20
-4547.312
 30
2233.000
 70
    32
  0
VERTEX
  8
M30LXLIFT
 62
7
 10
2892.942
 20
-4564.940
 30
2233.000
 70
    32
  0
VERTEX
  8
M30LXLIFT
 62
7
 10
2903.423
 20
-4582.308
 30
2233.000
 70
    32
  0
VERTEX
  8
M30LXLIFT
 62
7
 10
2895.825
 20
-4587.251
 30
2233.000
 70
    32
  0
VERTEX
  8
M30LXLIFT
 62
7
 10
2883.519
 20
-4576.514
 30
2233.000
 70
    32
  0
VERTEX
  8
M30LXLIFT
 62
7
 10
2876.118
 20
-4561.909
 30
2233.000
 70
    32
  0
VERTEX
  8
M30LXLIFT
 62
7
 10
2873.971
 20
-4543.620
 30
2233.000
 70
    32
  0
VERTEX
  8
M30LXLIFT
 62
7
 10
2861.903
 20
-4531.410
 30
2233.000
 70
    32
  0
VERTEX
  8
M30LXLIFT
 62
7
 10
2855.654
 20
-4516.299
 30
2233.000
 70
    32
  0
VERTEX
  8
M30LXLIFT
 62
7
 10
2847.513
 20
-4498.868
 30
2233.000
 70
    32
  0
VERTEX
  8
M30LXLIFT
 62
7
 10
2843.758
 20
-4485.860
 30
2233.000
 70
    32
  0
VERTEX
  8
M30LXLIFT
 62
7
 10
2841.761
 20
-4468.980
 30
2233.000
 70
    32
  0
VERTEX
  8
M30LXLIFT
 62
7
 10
2847.396
 20
-4455.913
 30
2233.000
 70
    32
  0
VERTEX
  8
M30LXLIFT
 62
7
 10
2855.622
 20
-4454.093
 30
2233.000
 70
    32
  0
VERTEX
  8
M30LXLIFT
 62
7
 10
2867.130
 20
-4458.469
 30
2233.000
 70
    32
  0
VERTEX
  8
M30LXLIFT
 62
7
 10
2866.240
 20
-4452.281
 30
2233.000
 70
    32
  0
VERTEX
  8
M30LXLIFT
 62
7
 10
2874.866
 20
-4446.812
 30
2233.000
 70
    32
  0
VERTEX
  8
M30LXLIFT
 62
7
 10
2881.997
 20
-4440.471
 30
2233.000
 70
    32
  0
VERTEX
  8
M30LXLIFT
 62
7
 10
2881.629
 20
-4436.508
 30
2233.000
 70
    32
  0
VERTEX
  8
M30LXLIFT
 62
7
 10
2889.839
 20
-4435.567
 30
2233.000
 70
    32
  0
VERTEX
  8
M30LXLIFT
 62
7
 10
2897.280
 20
-4447.974
 30
2233.000
 70
    32
  0
SEQEND
  8
M30LXLIFT
  0
POLYLINE
  8
M30LXLIFT
 62
27
 66
     1
 70
     9
  0
VERTEX
  8
M30LXLIFT
 62
27
 10
3099.547
 20
-4006.470
 30
2248.000
 70
    32
  0
VERTEX
  8
M30LXLIFT
 62
27
 10
3122.977
 20
-4035.099
 30
2248.000
 70
    32
  0
VERTEX
  8
M30LXLIFT
 62
27
 10
3132.836
 20
-4050.963
 30
2248.000
 70
    32
  0
VERTEX
  8
M30LXLIFT
 62
27
 10
3124.495
 20
-4057.839
 30
2248.000
 70
    32
  0
VERTEX
  8
M30LXLIFT
 62
27
 10
3115.527
 20
-4069.455
 30
2248.000
 70
    32
  0
VERTEX
  8
M30LXLIFT
 62
27
 10
3107.314
 20
-4068.133
 30
2248.000
 70
    32
  0
VERTEX
  8
M30LXLIFT
 62
27
 10
3101.610
 20
-4067.240
 30
2248.000
 70
    32
  0
VERTEX
  8
M30LXLIFT
 62
27
 10
3098.767
 20
-4073.412
 30
2248.000
 70
    32
  0
VERTEX
  8
M30LXLIFT
 62
27
 10
3097.928
 20
-4078.308
 30
2248.000
 70
    32
  0
VERTEX
  8
M30LXLIFT
 62
27
 10
3124.525
 20
-4111.037
 30
2248.000
 70
    32
  0
VERTEX
  8
M30LXLIFT
 62
27
 10
3138.528
 20
-4126.437
 30
2248.000
 70
    32
  0
VERTEX
  8
M30LXLIFT
 62
27
 10
3147.603
 20
-4133.467
 30
2248.000
 70
    32
  0
VERTEX
  8
M30LXLIFT
 62
27
 10
3161.954
 20
-4143.900
 30
2248.000
 70
    32
  0
VERTEX
  8
M30LXLIFT
 62
27
 10
3169.058
 20
-4152.400
 30
2248.000
 70
    32
  0
VERTEX
  8
M30LXLIFT
 62
27
 10
3183.289
 20
-4193.802
 30
2248.000
 70
    32
  0
VERTEX
  8
M30LXLIFT
 62
27
 10
3187.833
 20
-4201.364
 30
2248.000
 70
    32
  0
VERTEX
  8
M30LXLIFT
 62
27
 10
3200.943
 20
-4216.007
 30
2248.000
 70
    32
  0
VERTEX
  8
M30LXLIFT
 62
27
 10
3208.201
 20
-4213.552
 30
2248.000
 70
    32
  0
VERTEX
  8
M30LXLIFT
 62
27
 10
3206.400
 20
-4204.382
 30
2248.000
 70
    32
  0
VERTEX
  8
M30LXLIFT
 62
27
 10
3213.898
 20
-4203.718
 30
2248.000
 70
    32
  0
VERTEX
  8
M30LXLIFT
 62
27
 10
3217.633
 20
-4212.103
 30
2248.000
 70
    32
  0
VERTEX
  8
M30LXLIFT
 62
27
 10
3220.723
 20
-4218.449
 30
2248.000
 70
    32
  0
VERTEX
  8
M30LXLIFT
 62
27
 10
3217.693
 20
-4241.405
 30
2248.000
 70
    32
  0
VERTEX
  8
M30LXLIFT
 62
27
 10
3261.093
 20
-4273.319
 30
2248.000
 70
    32
  0
VERTEX
  8
M30LXLIFT
 62
27
 10
3271.453
 20
-4298.665
 30
2248.000
 70
    32
  0
VERTEX
  8
M30LXLIFT
 62
27
 10
3281.796
 20
-4329.716
 30
2248.000
 70
    32
  0
VERTEX
  8
M30LXLIFT
 62
27
 10
3307.104
 20
-4352.346
 30
2248.000
 70
    32
  0
VERTEX
  8
M30LXLIFT
 62
27
 10
3319.410
 20
-4359.156
 30
2248.000
 70
    32
  0
VERTEX
  8
M30LXLIFT
 62
27
 10
3323.864
 20
-4374.232
 30
2248.000
 70
    32
  0
VERTEX
  8
M30LXLIFT
 62
27
 10
3326.021
 20
-4387.845
 30
2248.000
 70
    32
  0
VERTEX
  8
M30LXLIFT
 62
27
 10
3323.772
 20
-4394.668
 30
2248.000
 70
    32
  0
VERTEX
  8
M30LXLIFT
 62
27
 10
3329.286
 20
-4413.662
 30
2248.000
 70
    32
  0
VERTEX
  8
M30LXLIFT
 62
27
 10
3321.048
 20
-4415.097
 30
2248.000
 70
    32
  0
VERTEX
  8
M30LXLIFT
 62
27
 10
3314.811
 20
-4403.650
 30
2248.000
 70
    32
  0
VERTEX
  8
M30LXLIFT
 62
27
 10
3309.865
 20
-4395.403
 30
2248.000
 70
    32
  0
VERTEX
  8
M30LXLIFT
 62
27
 10
3300.824
 20
-4395.466
 30
2248.000
 70
    32
  0
VERTEX
  8
M30LXLIFT
 62
27
 10
3298.792
 20
-4412.859
 30
2248.000
 70
    32
  0
VERTEX
  8
M30LXLIFT
 62
27
 10
3300.138
 20
-4427.733
 30
2248.000
 70
    32
  0
VERTEX
  8
M30LXLIFT
 62
27
 10
3304.570
 20
-4431.327
 30
2248.000
 70
    32
  0
VERTEX
  8
M30LXLIFT
 62
27
 10
3292.920
 20
-4435.087
 30
2248.000
 70
    32
  0
VERTEX
  8
M30LXLIFT
 62
27
 10
3287.762
 20
-4427.436
 30
2248.000
 70
    32
  0
VERTEX
  8
M30LXLIFT
 62
27
 10
3278.539
 20
-4429.166
 30
2248.000
 70
    32
  0
VERTEX
  8
M30LXLIFT
 62
27
 10
3270.425
 20
-4436.641
 30
2248.000
 70
    32
  0
VERTEX
  8
M30LXLIFT
 62
27
 10
3198.346
 20
-4510.322
 30
2248.000
 70
    32
  0
VERTEX
  8
M30LXLIFT
 62
27
 10
3179.255
 20
-4525.545
 30
2248.000
 70
    32
  0
VERTEX
  8
M30LXLIFT
 62
27
 10
3187.854
 20
-4539.719
 30
2248.000
 70
    32
  0
VERTEX
  8
M30LXLIFT
 62
27
 10
3182.840
 20
-4543.568
 30
2248.000
 70
    32
  0
VERTEX
  8
M30LXLIFT
 62
27
 10
3186.658
 20
-4547.072
 30
2248.000
 70
    32
  0
VERTEX
  8
M30LXLIFT
 62
27
 10
3181.326
 20
-4551.376
 30
2248.000
 70
    32
  0
VERTEX
  8
M30LXLIFT
 62
27
 10
3184.792
 20
-4555.143
 30
2248.000
 70
    32
  0
VERTEX
  8
M30LXLIFT
 62
27
 10
3165.896
 20
-4569.891
 30
2248.000
 70
    32
  0
VERTEX
  8
M30LXLIFT
 62
27
 10
3162.363
 20
-4564.861
 30
2248.000
 70
    32
  0
VERTEX
  8
M30LXLIFT
 62
27
 10
3158.740
 20
-4567.344
 30
2248.000
 70
    32
  0
VERTEX
  8
M30LXLIFT
 62
27
 10
3154.553
 20
-4563.786
 30
2248.000
 70
    32
  0
VERTEX
  8
M30LXLIFT
 62
27
 10
3117.506
 20
-4590.318
 30
2248.000
 70
    32
  0
VERTEX
  8
M30LXLIFT
 62
27
 10
3128.662
 20
-4606.747
 30
2248.000
 70
    32
  0
VERTEX
  8
M30LXLIFT
 62
27
 10
3125.356
 20
-4615.235
 30
2248.000
 70
    32
  0
VERTEX
  8
M30LXLIFT
 62
27
 10
3114.481
 20
-4624.440
 30
2248.000
 70
    32
  0
VERTEX
  8
M30LXLIFT
 62
27
 10
3124.615
 20
-4635.827
 30
2248.000
 70
    32
  0
VERTEX
  8
M30LXLIFT
 62
27
 10
3144.344
 20
-4643.782
 30
2248.000
 70
    32
  0
VERTEX
  8
M30LXLIFT
 62
27
 10
3162.266
 20
-4651.661
 30
2248.000
 70
    32
  0
VERTEX
  8
M30LXLIFT
 62
27
 10
3142.518
 20
-4669.673
 30
2248.000
 70
    32
  0
VERTEX
  8
M30LXLIFT
 62
27
 10
3124.165
 20
-4646.237
 30
2248.000
 70
    32
  0
VERTEX
  8
M30LXLIFT
 62
27
 10
3114.455
 20
-4653.040
 30
2248.000
 70
    32
  0
VERTEX
  8
M30LXLIFT
 62
27
 10
3105.672
 20
-4641.850
 30
2248.000
 70
    32
  0
VERTEX
  8
M30LXLIFT
 62
27
 10
3096.481
 20
-4632.168
 30
2248.000
 70
    32
  0
VERTEX
  8
M30LXLIFT
 62
27
 10
3084.735
 20
-4638.738
 30
2248.000
 70
    32
  0
VERTEX
  8
M30LXLIFT
 62
27
 10
3079.339
 20
-4628.417
 30
2248.000
 70
    32
  0
VERTEX
  8
M30LXLIFT
 62
27
 10
3084.070
 20
-4625.217
 30
2248.000
 70
    32
  0
VERTEX
  8
M30LXLIFT
 62
27
 10
3080.468
 20
-4619.800
 30
2248.000
 70
    32
  0
VERTEX
  8
M30LXLIFT
 62
27
 10
3057.035
 20
-4573.105
 30
2248.000
 70
    32
  0
VERTEX
  8
M30LXLIFT
 62
27
 10
3053.347
 20
-4566.985
 30
2248.000
 70
    32
  0
VERTEX
  8
M30LXLIFT
 62
27
 10
3063.126
 20
-4560.568
 30
2248.000
 70
    32
  0
VERTEX
  8
M30LXLIFT
 62
27
 10
3082.247
 20
-4547.295
 30
2248.000
 70
    32
  0
VERTEX
  8
M30LXLIFT
 62
27
 10
3071.347
 20
-4533.413
 30
2248.000
 70
    32
  0
VERTEX
  8
M30LXLIFT
 62
27
 10
3070.029
 20
-4527.387
 30
2248.000
 70
    32
  0
VERTEX
  8
M30LXLIFT
 62
27
 10
3045.101
 20
-4487.939
 30
2248.000
 70
    32
  0
VERTEX
  8
M30LXLIFT
 62
27
 10
3040.613
 20
-4479.131
 30
2248.000
 70
    32
  0
VERTEX
  8
M30LXLIFT
 62
27
 10
3032.925
 20
-4465.591
 30
2248.000
 70
    32
  0
VERTEX
  8
M30LXLIFT
 62
27
 10
3028.795
 20
-4447.865
 30
2248.000
 70
    32
  0
VERTEX
  8
M30LXLIFT
 62
27
 10
3024.335
 20
-4435.423
 30
2248.000
 70
    32
  0
VERTEX
  8
M30LXLIFT
 62
27
 10
3009.755
 20
-4374.022
 30
2248.000
 70
    32
  0
VERTEX
  8
M30LXLIFT
 62
27
 10
2998.169
 20
-4341.598
 30
2248.000
 70
    32
  0
VERTEX
  8
M30LXLIFT
 62
27
 10
2998.061
 20
-4323.391
 30
2248.000
 70
    32
  0
VERTEX
  8
M30LXLIFT
 62
27
 10
3030.937
 20
-4300.517
 30
2248.000
 70
    32
  0
VERTEX
  8
M30LXLIFT
 62
27
 10
3013.140
 20
-4240.968
 30
2248.000
 70
    32
  0
VERTEX
  8
M30LXLIFT
 62
27
 10
3008.331
 20
-4214.549
 30
2248.000
 70
    32
  0
VERTEX
  8
M30LXLIFT
 62
27
 10
3019.388
 20
-4196.777
 30
2248.000
 70
    32
  0
VERTEX
  8
M30LXLIFT
 62
27
 10
3038.613
 20
-4177.623
 30
2248.000
 70
    32
  0
VERTEX
  8
M30LXLIFT
 62
27
 10
3050.895
 20
-4160.907
 30
2248.000
 70
    32
  0
VERTEX
  8
M30LXLIFT
 62
27
 10
3047.347
 20
-4116.795
 30
2248.000
 70
    32
  0
VERTEX
  8
M30LXLIFT
 62
27
 10
3038.121
 20
-4094.437
 30
2248.000
 70
    32
  0
VERTEX
  8
M30LXLIFT
 62
27
 10
3033.829
 20
-4065.334
 30
2248.000
 70
    32
  0
VERTEX
  8
M30LXLIFT
 62
27
 10
3030.653
 20
-4051.824
 30
2248.000
 70
    32
  0
VERTEX
  8
M30LXLIFT
 62
27
 10
3071.265
 20
-4024.933
 30
2248.000
 70
    32
  0
SEQEND
  8
M30LXLIFT
  0
POLYLINE
  8
M30LXLIFT
 62
8
 66
     1
 70
     9
  0
VERTEX
  8
M30LXLIFT
 62
8
 10
3047.477
 20
-4027.135
 30
2277.000
 70
    32
  0
VERTEX
  8
M30LXLIFT
 62
8
 10
3039.162
 20
-4034.655
 30
2277.000
 70
    32
  0
VERTEX
  8
M30LXLIFT
 62
8
 10
3036.800
 20
-4042.271
 30
2277.000
 70
    32
  0
VERTEX
  8
M30LXLIFT
 62
8
 10
3033.526
 20
-4049.684
 30
2277.000
 70
    32
  0
VERTEX
  8
M30LXLIFT
 62
8
 10
3027.433
 20
-4052.958
 30
2277.000
 70
    32
  0
VERTEX
  8
M30LXLIFT
 62
8
 10
3023.389
 20
-4046.558
 30
2277.000
 70
    32
  0
VERTEX
  8
M30LXLIFT
 62
8
 10
3027.624
 20
-4036.151
 30
2277.000
 70
    32
  0
VERTEX
  8
M30LXLIFT
 62
8
 10
3024.760
 20
-4029.430
 30
2277.000
 70
    32
  0
VERTEX
  8
M30LXLIFT
 62
8
 10
3033.646
 20
-4021.056
 30
2277.000
 70
    32
  0
VERTEX
  8
M30LXLIFT
 62
8
 10
3041.766
 20
-4018.909
 30
2277.000
 70
    32
  0
SEQEND
  8
M30LXLIFT
  0
POLYLINE
  8
M30LXLIFT
 62
6
 66
     1
 70
     9
  0
VERTEX
  8
M30LXLIFT
 62
6
 10
2829.632
 20
-4467.205
 30
2273.000
 70
    32
  0
VERTEX
  8
M30LXLIFT
 62
6
 10
2824.640
 20
-4450.608
 30
2273.000
 70
    32
  0
VERTEX
  8
M30LXLIFT
 62
6
 10
2816.936
 20
-4429.574
 30
2273.000
 70
    32
  0
VERTEX
  8
M30LXLIFT
 62
6
 10
2810.867
 20
-4413.440
 30
2273.000
 70
    32
  0
VERTEX
  8
M30LXLIFT
 62
6
 10
2816.407
 20
-4407.631
 30
2273.000
 70
    32
  0
VERTEX
  8
M30LXLIFT
 62
6
 10
2807.836
 20
-4392.244
 30
2273.000
 70
    32
  0
VERTEX
  8
M30LXLIFT
 62
6
 10
2798.122
 20
-4385.539
 30
2273.000
 70
    32
  0
VERTEX
  8
M30LXLIFT
 62
6
 10
2801.128
 20
-4380.284
 30
2273.000
 70
    32
  0
VERTEX
  8
M30LXLIFT
 62
6
 10
2805.718
 20
-4384.757
 30
2273.000
 70
    32
  0
VERTEX
  8
M30LXLIFT
 62
6
 10
2808.612
 20
-4383.505
 30
2273.000
 70
    32
  0
VERTEX
  8
M30LXLIFT
 62
6
 10
2816.047
 20
-4393.189
 30
2273.000
 70
    32
  0
VERTEX
  8
M30LXLIFT
 62
6
 10
2822.556
 20
-4400.721
 30
2273.000
 70
    32
  0
VERTEX
  8
M30LXLIFT
 62
6
 10
2828.785
 20
-4418.262
 30
2273.000
 70
    32
  0
VERTEX
  8
M30LXLIFT
 62
6
 10
2835.361
 20
-4417.575
 30
2273.000
 70
    32
  0
VERTEX
  8
M30LXLIFT
 62
6
 10
2845.246
 20
-4414.568
 30
2273.000
 70
    32
  0
VERTEX
  8
M30LXLIFT
 62
6
 10
2855.436
 20
-4407.524
 30
2273.000
 70
    32
  0
VERTEX
  8
M30LXLIFT
 62
6
 10
2861.929
 20
-4413.107
 30
2273.000
 70
    32
  0
VERTEX
  8
M30LXLIFT
 62
6
 10
2868.667
 20
-4425.700
 30
2273.000
 70
    32
  0
VERTEX
  8
M30LXLIFT
 62
6
 10
2859.718
 20
-4431.614
 30
2273.000
 70
    32
  0
VERTEX
  8
M30LXLIFT
 62
6
 10
2860.041
 20
-4436.061
 30
2273.000
 70
    32
  0
VERTEX
  8
M30LXLIFT
 62
6
 10
2856.228
 20
-4437.989
 30
2273.000
 70
    32
  0
VERTEX
  8
M30LXLIFT
 62
6
 10
2849.210
 20
-4433.771
 30
2273.000
 70
    32
  0
VERTEX
  8
M30LXLIFT
 62
6
 10
2848.426
 20
-4433.148
 30
2273.000
 70
    32
  0
VERTEX
  8
M30LXLIFT
 62
6
 10
2839.446
 20
-4431.896
 30
2273.000
 70
    32
  0
VERTEX
  8
M30LXLIFT
 62
6
 10
2836.616
 20
-4427.002
 30
2273.000
 70
    32
  0
VERTEX
  8
M30LXLIFT
 62
6
 10
2830.555
 20
-4428.836
 30
2273.000
 70
    32
  0
VERTEX
  8
M30LXLIFT
 62
6
 10
2831.113
 20
-4441.172
 30
2273.000
 70
    32
  0
VERTEX
  8
M30LXLIFT
 62
6
 10
2833.216
 20
-4456.949
 30
2273.000
 70
    32
  0
VERTEX
  8
M30LXLIFT
 62
6
 10
2837.645
 20
-4470.256
 30
2273.000
 70
    32
  0
VERTEX
  8
M30LXLIFT
 62
6
 10
2840.048
 20
-4480.801
 30
2273.000
 70
    32
  0
VERTEX
  8
M30LXLIFT
 62
6
 10
2837.736
 20
-4483.588
 30
2273.000
 70
    32
  0
SEQEND
  8
M30LXLIFT
  0
POLYLINE
  8
M30LXLIFT
 62
27
 66
     1
 70
     9
  0
VERTEX
  8
M30LXLIFT
 62
27
 10
3093.103
 20
-4010.639
 30
2273.000
 70
    32
  0
VERTEX
  8
M30LXLIFT
 62
27
 10
3108.209
 20
-4029.291
 30
2273.000
 70
    32
  0
VERTEX
  8
M30LXLIFT
 62
27
 10
3118.551
 20
-4046.645
 30
2273.000
 70
    32
  0
VERTEX
  8
M30LXLIFT
 62
27
 10
3127.049
 20
-4058.817
 30
2273.000
 70
    32
  0
VERTEX
  8
M30LXLIFT
 62
27
 10
3103.376
 20
-4077.173
 30
2273.000
 70
    32
  0
VERTEX
  8
M30LXLIFT
 62
27
 10
3121.488
 20
-4115.949
 30
2273.000
 70
    32
  0
VERTEX
  8
M30LXLIFT
 62
27
 10
3144.471
 20
-4140.583
 30
2273.000
 70
    32
  0
VERTEX
  8
M30LXLIFT
 62
27
 10
3162.948
 20
-4159.374
 30
2273.000
 70
    32
  0
VERTEX
  8
M30LXLIFT
 62
27
 10
3191.746
 20
-4202.616
 30
2273.000
 70
    32
  0
VERTEX
  8
M30LXLIFT
 62
27
 10
3193.742
 20
-4211.717
 30
2273.000
 70
    32
  0
VERTEX
  8
M30LXLIFT
 62
27
 10
3266.572
 20
-4319.699
 30
2273.000
 70
    32
  0
VERTEX
  8
M30LXLIFT
 62
27
 10
3274.117
 20
-4332.353
 30
2273.000
 70
    32
  0
VERTEX
  8
M30LXLIFT
 62
27
 10
3299.117
 20
-4358.993
 30
2273.000
 70
    32
  0
VERTEX
  8
M30LXLIFT
 62
27
 10
3306.053
 20
-4360.873
 30
2273.000
 70
    32
  0
VERTEX
  8
M30LXLIFT
 62
27
 10
3313.768
 20
-4374.056
 30
2273.000
 70
    32
  0
VERTEX
  8
M30LXLIFT
 62
27
 10
3318.583
 20
-4384.029
 30
2273.000
 70
    32
  0
VERTEX
  8
M30LXLIFT
 62
27
 10
3312.712
 20
-4389.537
 30
2273.000
 70
    32
  0
VERTEX
  8
M30LXLIFT
 62
27
 10
3304.830
 20
-4394.233
 30
2273.000
 70
    32
  0
VERTEX
  8
M30LXLIFT
 62
27
 10
3294.639
 20
-4386.136
 30
2273.000
 70
    32
  0
VERTEX
  8
M30LXLIFT
 62
27
 10
3287.116
 20
-4391.766
 30
2273.000
 70
    32
  0
VERTEX
  8
M30LXLIFT
 62
27
 10
3290.346
 20
-4405.517
 30
2273.000
 70
    32
  0
VERTEX
  8
M30LXLIFT
 62
27
 10
3287.783
 20
-4417.312
 30
2273.000
 70
    32
  0
VERTEX
  8
M30LXLIFT
 62
27
 10
3279.752
 20
-4416.017
 30
2273.000
 70
    32
  0
VERTEX
  8
M30LXLIFT
 62
27
 10
3268.894
 20
-4417.995
 30
2273.000
 70
    32
  0
VERTEX
  8
M30LXLIFT
 62
27
 10
3256.919
 20
-4422.754
 30
2273.000
 70
    32
  0
VERTEX
  8
M30LXLIFT
 62
27
 10
3183.391
 20
-4494.587
 30
2273.000
 70
    32
  0
VERTEX
  8
M30LXLIFT
 62
27
 10
3175.896
 20
-4509.457
 30
2273.000
 70
    32
  0
VERTEX
  8
M30LXLIFT
 62
27
 10
3171.102
 20
-4504.261
 30
2273.000
 70
    32
  0
VERTEX
  8
M30LXLIFT
 62
27
 10
3163.684
 20
-4491.187
 30
2273.000
 70
    32
  0
VERTEX
  8
M30LXLIFT
 62
27
 10
3154.781
 20
-4482.471
 30
2273.000
 70
    32
  0
VERTEX
  8
M30LXLIFT
 62
27
 10
3144.251
 20
-4488.457
 30
2273.000
 70
    32
  0
VERTEX
  8
M30LXLIFT
 62
27
 10
3145.839
 20
-4504.720
 30
2273.000
 70
    32
  0
VERTEX
  8
M30LXLIFT
 62
27
 10
3155.477
 20
-4520.522
 30
2273.000
 70
    32
  0
VERTEX
  8
M30LXLIFT
 62
27
 10
3160.792
 20
-4529.693
 30
2273.000
 70
    32
  0
VERTEX
  8
M30LXLIFT
 62
27
 10
3166.078
 20
-4524.724
 30
2273.000
 70
    32
  0
VERTEX
  8
M30LXLIFT
 62
27
 10
3163.559
 20
-4520.255
 30
2273.000
 70
    32
  0
VERTEX
  8
M30LXLIFT
 62
27
 10
3168.077
 20
-4518.246
 30
2273.000
 70
    32
  0
VERTEX
  8
M30LXLIFT
 62
27
 10
3171.194
 20
-4522.494
 30
2273.000
 70
    32
  0
VERTEX
  8
M30LXLIFT
 62
27
 10
3167.650
 20
-4525.531
 30
2273.000
 70
    32
  0
VERTEX
  8
M30LXLIFT
 62
27
 10
3174.311
 20
-4535.348
 30
2273.000
 70
    32
  0
VERTEX
  8
M30LXLIFT
 62
27
 10
3170.271
 20
-4538.749
 30
2273.000
 70
    32
  0
VERTEX
  8
M30LXLIFT
 62
27
 10
3176.932
 20
-4548.566
 30
2273.000
 70
    32
  0
VERTEX
  8
M30LXLIFT
 62
27
 10
3171.330
 20
-4551.915
 30
2273.000
 70
    32
  0
VERTEX
  8
M30LXLIFT
 62
27
 10
3175.406
 20
-4556.875
 30
2273.000
 70
    32
  0
VERTEX
  8
M30LXLIFT
 62
27
 10
3161.648
 20
-4565.884
 30
2273.000
 70
    32
  0
VERTEX
  8
M30LXLIFT
 62
27
 10
3158.676
 20
-4561.094
 30
2273.000
 70
    32
  0
VERTEX
  8
M30LXLIFT
 62
27
 10
3153.088
 20
-4564.759
 30
2273.000
 70
    32
  0
VERTEX
  8
M30LXLIFT
 62
27
 10
3139.285
 20
-4545.806
 30
2273.000
 70
    32
  0
VERTEX
  8
M30LXLIFT
 62
27
 10
3150.508
 20
-4535.717
 30
2273.000
 70
    32
  0
VERTEX
  8
M30LXLIFT
 62
27
 10
3140.390
 20
-4523.862
 30
2273.000
 70
    32
  0
VERTEX
  8
M30LXLIFT
 62
27
 10
3133.222
 20
-4520.626
 30
2273.000
 70
    32
  0
VERTEX
  8
M30LXLIFT
 62
27
 10
3126.595
 20
-4522.876
 30
2273.000
 70
    32
  0
VERTEX
  8
M30LXLIFT
 62
27
 10
3134.668
 20
-4533.727
 30
2273.000
 70
    32
  0
VERTEX
  8
M30LXLIFT
 62
27
 10
3132.922
 20
-4546.337
 30
2273.000
 70
    32
  0
VERTEX
  8
M30LXLIFT
 62
27
 10
3130.707
 20
-4556.677
 30
2273.000
 70
    32
  0
VERTEX
  8
M30LXLIFT
 62
27
 10
3125.071
 20
-4558.200
 30
2273.000
 70
    32
  0
VERTEX
  8
M30LXLIFT
 62
27
 10
3116.576
 20
-4554.195
 30
2273.000
 70
    32
  0
VERTEX
  8
M30LXLIFT
 62
27
 10
3107.074
 20
-4545.701
 30
2273.000
 70
    32
  0
VERTEX
  8
M30LXLIFT
 62
27
 10
3103.937
 20
-4553.450
 30
2273.000
 70
    32
  0
VERTEX
  8
M30LXLIFT
 62
27
 10
3094.011
 20
-4557.141
 30
2273.000
 70
    32
  0
VERTEX
  8
M30LXLIFT
 62
27
 10
3119.445
 20
-4618.211
 30
2273.000
 70
    32
  0
VERTEX
  8
M30LXLIFT
 62
27
 10
3129.844
 20
-4626.591
 30
2273.000
 70
    32
  0
VERTEX
  8
M30LXLIFT
 62
27
 10
3140.402
 20
-4640.084
 30
2273.000
 70
    32
  0
VERTEX
  8
M30LXLIFT
 62
27
 10
3148.303
 20
-4647.139
 30
2273.000
 70
    32
  0
VERTEX
  8
M30LXLIFT
 62
27
 10
3141.838
 20
-4654.063
 30
2273.000
 70
    32
  0
VERTEX
  8
M30LXLIFT
 62
27
 10
3132.171
 20
-4658.108
 30
2273.000
 70
    32
  0
VERTEX
  8
M30LXLIFT
 62
27
 10
3121.276
 20
-4648.458
 30
2273.000
 70
    32
  0
VERTEX
  8
M30LXLIFT
 62
27
 10
3112.982
 20
-4650.515
 30
2273.000
 70
    32
  0
VERTEX
  8
M30LXLIFT
 62
27
 10
3100.563
 20
-4633.596
 30
2273.000
 70
    32
  0
VERTEX
  8
M30LXLIFT
 62
27
 10
3095.784
 20
-4631.983
 30
2273.000
 70
    32
  0
VERTEX
  8
M30LXLIFT
 62
27
 10
3086.378
 20
-4638.016
 30
2273.000
 70
    32
  0
VERTEX
  8
M30LXLIFT
 62
27
 10
3079.046
 20
-4626.839
 30
2273.000
 70
    32
  0
VERTEX
  8
M30LXLIFT
 62
27
 10
3073.411
 20
-4631.629
 30
2273.000
 70
    32
  0
VERTEX
  8
M30LXLIFT
 62
27
 10
3067.251
 20
-4621.009
 30
2273.000
 70
    32
  0
VERTEX
  8
M30LXLIFT
 62
27
 10
2994.972
 20
-4520.902
 30
2273.000
 70
    32
  0
VERTEX
  8
M30LXLIFT
 62
27
 10
2973.399
 20
-4494.034
 30
2273.000
 70
    32
  0
VERTEX
  8
M30LXLIFT
 62
27
 10
2978.207
 20
-4487.673
 30
2273.000
 70
    32
  0
VERTEX
  8
M30LXLIFT
 62
27
 10
3016.103
 20
-4442.538
 30
2273.000
 70
    32
  0
VERTEX
  8
M30LXLIFT
 62
27
 10
3007.179
 20
-4395.058
 30
2273.000
 70
    32
  0
VERTEX
  8
M30LXLIFT
 62
27
 10
2998.704
 20
-4382.324
 30
2273.000
 70
    32
  0
VERTEX
  8
M30LXLIFT
 62
27
 10
2990.997
 20
-4366.630
 30
2273.000
 70
    32
  0
VERTEX
  8
M30LXLIFT
 62
27
 10
2987.900
 20
-4345.047
 30
2273.000
 70
    32
  0
VERTEX
  8
M30LXLIFT
 62
27
 10
2986.980
 20
-4333.849
 30
2273.000
 70
    32
  0
VERTEX
  8
M30LXLIFT
 62
27
 10
2984.438
 20
-4285.714
 30
2273.000
 70
    32
  0
VERTEX
  8
M30LXLIFT
 62
27
 10
2975.523
 20
-4269.709
 30
2273.000
 70
    32
  0
VERTEX
  8
M30LXLIFT
 62
27
 10
2975.021
 20
-4267.245
 30
2273.000
 70
    32
  0
VERTEX
  8
M30LXLIFT
 62
27
 10
2972.519
 20
-4256.118
 30
2273.000
 70
    32
  0
VERTEX
  8
M30LXLIFT
 62
27
 10
2980.661
 20
-4229.663
 30
2273.000
 70
    32
  0
VERTEX
  8
M30LXLIFT
 62
27
 10
2992.736
 20
-4205.005
 30
2273.000
 70
    32
  0
VERTEX
  8
M30LXLIFT
 62
27
 10
3027.105
 20
-4181.630
 30
2273.000
 70
    32
  0
VERTEX
  8
M30LXLIFT
 62
27
 10
3038.755
 20
-4123.297
 30
2273.000
 70
    32
  0
VERTEX
  8
M30LXLIFT
 62
27
 10
3029.513
 20
-4104.917
 30
2273.000
 70
    32
  0
VERTEX
  8
M30LXLIFT
 62
27
 10
3022.587
 20
-4081.678
 30
2273.000
 70
    32
  0
VERTEX
  8
M30LXLIFT
 62
27
 10
3024.739
 20
-4057.005
 30
2273.000
 70
    32
  0
VERTEX
  8
M30LXLIFT
 62
27
 10
3048.899
 20
-4040.797
 30
2273.000
 70
    32
  0
SEQEND
  8
M30LXLIFT
  0
POLYLINE
  8
M30LXLIFT
 62
2
 66
     1
 70
     9
  0
VERTEX
  8
M30LXLIFT
 62
2
 10
2446.241
 20
-3968.455
 30
2288.000
 70
    32
  0
VERTEX
  8
M30LXLIFT
 62
2
 10
2442.136
 20
-3972.997
 30
2288.000
 70
    32
  0
VERTEX
  8
M30LXLIFT
 62
2
 10
2431.491
 20
-3977.447
 30
2288.000
 70
    32
  0
VERTEX
  8
M30LXLIFT
 62
2
 10
2423.611
 20
-3978.202
 30
2288.000
 70
    32
  0
VERTEX
  8
M30LXLIFT
 62
2
 10
2412.530
 20
-3966.126
 30
2288.000
 70
    32
  0
VERTEX
  8
M30LXLIFT
 62
2
 10
2401.908
 20
-3961.819
 30
2288.000
 70
    32
  0
VERTEX
  8
M30LXLIFT
 62
2
 10
2394.011
 20
-3953.304
 30
2288.000
 70
    32
  0
VERTEX
  8
M30LXLIFT
 62
2
 10
2397.247
 20
-3948.302
 30
2288.000
 70
    32
  0
VERTEX
  8
M30LXLIFT
 62
2
 10
2393.604
 20
-3937.729
 30
2288.000
 70
    32
  0
VERTEX
  8
M30LXLIFT
 62
2
 10
2405.594
 20
-3929.408
 30
2288.000
 70
    32
  0
VERTEX
  8
M30LXLIFT
 62
2
 10
2409.564
 20
-3933.164
 30
2288.000
 70
    32
  0
VERTEX
  8
M30LXLIFT
 62
2
 10
2408.538
 20
-3942.636
 30
2288.000
 70
    32
  0
VERTEX
  8
M30LXLIFT
 62
2
 10
2412.318
 20
-3950.521
 30
2288.000
 70
    32
  0
VERTEX
  8
M30LXLIFT
 62
2
 10
2419.048
 20
-3953.607
 30
2288.000
 70
    32
  0
VERTEX
  8
M30LXLIFT
 62
2
 10
2428.455
 20
-3957.269
 30
2288.000
 70
    32
  0
SEQEND
  8
M30LXLIFT
  0
POLYLINE
  8
M30LXLIFT
 62
2
 66
     1
 70
     9
  0
VERTEX
  8
M30LXLIFT
 62
2
 10
2386.022
 20
-3934.981
 30
2296.000
 70
    32
  0
VERTEX
  8
M30LXLIFT
 62
2
 10
2402.619
 20
-3936.523
 30
2296.000
 70
    32
  0
VERTEX
  8
M30LXLIFT
 62
2
 10
2416.121
 20
-3944.644
 30
2296.000
 70
    32
  0
VERTEX
  8
M30LXLIFT
 62
2
 10
2422.332
 20
-3953.270
 30
2296.000
 70
    32
  0
VERTEX
  8
M30LXLIFT
 62
2
 10
2436.118
 20
-3960.742
 30
2296.000
 70
    32
  0
VERTEX
  8
M30LXLIFT
 62
2
 10
2441.905
 20
-3976.148
 30
2296.000
 70
    32
  0
VERTEX
  8
M30LXLIFT
 62
2
 10
2451.609
 20
-3991.811
 30
2296.000
 70
    32
  0
VERTEX
  8
M30LXLIFT
 62
2
 10
2453.615
 20
-4002.586
 30
2296.000
 70
    32
  0
VERTEX
  8
M30LXLIFT
 62
2
 10
2448.114
 20
-4003.290
 30
2296.000
 70
    32
  0
VERTEX
  8
M30LXLIFT
 62
2
 10
2440.271
 20
-3988.212
 30
2296.000
 70
    32
  0
VERTEX
  8
M30LXLIFT
 62
2
 10
2428.579
 20
-3973.702
 30
2296.000
 70
    32
  0
VERTEX
  8
M30LXLIFT
 62
2
 10
2412.433
 20
-3968.208
 30
2296.000
 70
    32
  0
VERTEX
  8
M30LXLIFT
 62
2
 10
2395.500
 20
-3961.658
 30
2296.000
 70
    32
  0
VERTEX
  8
M30LXLIFT
 62
2
 10
2382.267
 20
-3957.280
 30
2296.000
 70
    32
  0
VERTEX
  8
M30LXLIFT
 62
2
 10
2373.556
 20
-3944.711
 30
2296.000
 70
    32
  0
SEQEND
  8
M30LXLIFT
  0
POLYLINE
  8
M30LXLIFT
 62
27
 66
     1
 70
     9
  0
VERTEX
  8
M30LXLIFT
 62
27
 10
3017.651
 20
-4061.011
 30
2298.000
 70
    32
  0
VERTEX
  8
M30LXLIFT
 62
27
 10
3032.882
 20
-4049.110
 30
2298.000
 70
    32
  0
VERTEX
  8
M30LXLIFT
 62
27
 10
3050.184
 20
-4043.662
 30
2298.000
 70
    32
  0
VERTEX
  8
M30LXLIFT
 62
27
 10
3063.690
 20
-4038.854
 30
2298.000
 70
    32
  0
VERTEX
  8
M30LXLIFT
 62
27
 10
3078.616
 20
-4029.042
 30
2298.000
 70
    32
  0
VERTEX
  8
M30LXLIFT
 62
27
 10
3088.631
 20
-4016.318
 30
2298.000
 70
    32
  0
VERTEX
  8
M30LXLIFT
 62
27
 10
3097.401
 20
-4015.149
 30
2298.000
 70
    32
  0
VERTEX
  8
M30LXLIFT
 62
27
 10
3108.621
 20
-4029.026
 30
2298.000
 70
    32
  0
VERTEX
  8
M30LXLIFT
 62
27
 10
3119.385
 20
-4042.584
 30
2298.000
 70
    32
  0
VERTEX
  8
M30LXLIFT
 62
27
 10
3125.959
 20
-4059.046
 30
2298.000
 70
    32
  0
VERTEX
  8
M30LXLIFT
 62
27
 10
3104.286
 20
-4075.092
 30
2298.000
 70
    32
  0
VERTEX
  8
M30LXLIFT
 62
27
 10
3121.898
 20
-4113.563
 30
2298.000
 70
    32
  0
VERTEX
  8
M30LXLIFT
 62
27
 10
3144.787
 20
-4137.803
 30
2298.000
 70
    32
  0
VERTEX
  8
M30LXLIFT
 62
27
 10
3152.743
 20
-4150.388
 30
2298.000
 70
    32
  0
VERTEX
  8
M30LXLIFT
 62
27
 10
3157.047
 20
-4162.188
 30
2298.000
 70
    32
  0
VERTEX
  8
M30LXLIFT
 62
27
 10
3190.887
 20
-4202.148
 30
2298.000
 70
    32
  0
VERTEX
  8
M30LXLIFT
 62
27
 10
3186.640
 20
-4224.376
 30
2298.000
 70
    32
  0
VERTEX
  8
M30LXLIFT
 62
27
 10
3186.204
 20
-4241.133
 30
2298.000
 70
    32
  0
VERTEX
  8
M30LXLIFT
 62
27
 10
3190.748
 20
-4249.140
 30
2298.000
 70
    32
  0
VERTEX
  8
M30LXLIFT
 62
27
 10
3249.196
 20
-4314.030
 30
2298.000
 70
    32
  0
VERTEX
  8
M30LXLIFT
 62
27
 10
3261.288
 20
-4312.028
 30
2298.000
 70
    32
  0
VERTEX
  8
M30LXLIFT
 62
27
 10
3269.523
 20
-4325.281
 30
2298.000
 70
    32
  0
VERTEX
  8
M30LXLIFT
 62
27
 10
3277.772
 20
-4328.116
 30
2298.000
 70
    32
  0
VERTEX
  8
M30LXLIFT
 62
27
 10
3247.880
 20
-4349.302
 30
2298.000
 70
    32
  0
VERTEX
  8
M30LXLIFT
 62
27
 10
3198.682
 20
-4382.359
 30
2298.000
 70
    32
  0
VERTEX
  8
M30LXLIFT
 62
27
 10
3133.237
 20
-4432.127
 30
2298.000
 70
    32
  0
VERTEX
  8
M30LXLIFT
 62
27
 10
3162.572
 20
-4486.619
 30
2298.000
 70
    32
  0
VERTEX
  8
M30LXLIFT
 62
27
 10
3172.969
 20
-4493.659
 30
2298.000
 70
    32
  0
VERTEX
  8
M30LXLIFT
 62
27
 10
3180.011
 20
-4512.073
 30
2298.000
 70
    32
  0
VERTEX
  8
M30LXLIFT
 62
27
 10
3177.980
 20
-4527.719
 30
2298.000
 70
    32
  0
VERTEX
  8
M30LXLIFT
 62
27
 10
3169.733
 20
-4524.445
 30
2298.000
 70
    32
  0
VERTEX
  8
M30LXLIFT
 62
27
 10
3167.824
 20
-4516.446
 30
2298.000
 70
    32
  0
VERTEX
  8
M30LXLIFT
 62
27
 10
3160.323
 20
-4516.670
 30
2298.000
 70
    32
  0
VERTEX
  8
M30LXLIFT
 62
27
 10
3155.948
 20
-4510.948
 30
2298.000
 70
    32
  0
VERTEX
  8
M30LXLIFT
 62
27
 10
3151.312
 20
-4516.046
 30
2298.000
 70
    32
  0
VERTEX
  8
M30LXLIFT
 62
27
 10
3153.131
 20
-4524.660
 30
2298.000
 70
    32
  0
VERTEX
  8
M30LXLIFT
 62
27
 10
3148.489
 20
-4544.005
 30
2298.000
 70
    32
  0
VERTEX
  8
M30LXLIFT
 62
27
 10
3140.625
 20
-4548.005
 30
2298.000
 70
    32
  0
VERTEX
  8
M30LXLIFT
 62
27
 10
3133.943
 20
-4609.734
 30
2298.000
 70
    32
  0
VERTEX
  8
M30LXLIFT
 62
27
 10
3143.585
 20
-4628.401
 30
2298.000
 70
    32
  0
VERTEX
  8
M30LXLIFT
 62
27
 10
3135.431
 20
-4641.272
 30
2298.000
 70
    32
  0
VERTEX
  8
M30LXLIFT
 62
27
 10
3120.041
 20
-4653.400
 30
2298.000
 70
    32
  0
VERTEX
  8
M30LXLIFT
 62
27
 10
3107.322
 20
-4641.628
 30
2298.000
 70
    32
  0
VERTEX
  8
M30LXLIFT
 62
27
 10
3099.511
 20
-4633.647
 30
2298.000
 70
    32
  0
VERTEX
  8
M30LXLIFT
 62
27
 10
3099.965
 20
-4628.378
 30
2298.000
 70
    32
  0
VERTEX
  8
M30LXLIFT
 62
27
 10
3091.758
 20
-4623.540
 30
2298.000
 70
    32
  0
VERTEX
  8
M30LXLIFT
 62
27
 10
3084.675
 20
-4618.741
 30
2298.000
 70
    32
  0
VERTEX
  8
M30LXLIFT
 62
27
 10
3076.725
 20
-4616.012
 30
2298.000
 70
    32
  0
VERTEX
  8
M30LXLIFT
 62
27
 10
3069.523
 20
-4603.852
 30
2298.000
 70
    32
  0
VERTEX
  8
M30LXLIFT
 62
27
 10
3054.645
 20
-4585.802
 30
2298.000
 70
    32
  0
VERTEX
  8
M30LXLIFT
 62
27
 10
3038.694
 20
-4567.783
 30
2298.000
 70
    32
  0
VERTEX
  8
M30LXLIFT
 62
27
 10
3026.382
 20
-4554.940
 30
2298.000
 70
    32
  0
VERTEX
  8
M30LXLIFT
 62
27
 10
3013.737
 20
-4541.798
 30
2298.000
 70
    32
  0
VERTEX
  8
M30LXLIFT
 62
27
 10
3000.114
 20
-4526.755
 30
2298.000
 70
    32
  0
VERTEX
  8
M30LXLIFT
 62
27
 10
3006.143
 20
-4519.852
 30
2298.000
 70
    32
  0
VERTEX
  8
M30LXLIFT
 62
27
 10
3004.671
 20
-4452.916
 30
2298.000
 70
    32
  0
VERTEX
  8
M30LXLIFT
 62
27
 10
2989.992
 20
-4396.921
 30
2298.000
 70
    32
  0
VERTEX
  8
M30LXLIFT
 62
27
 10
2983.549
 20
-4359.765
 30
2298.000
 70
    32
  0
VERTEX
  8
M30LXLIFT
 62
27
 10
2980.448
 20
-4350.901
 30
2298.000
 70
    32
  0
VERTEX
  8
M30LXLIFT
 62
27
 10
2981.362
 20
-4339.046
 30
2298.000
 70
    32
  0
VERTEX
  8
M30LXLIFT
 62
27
 10
2976.924
 20
-4289.002
 30
2298.000
 70
    32
  0
VERTEX
  8
M30LXLIFT
 62
27
 10
2968.708
 20
-4269.601
 30
2298.000
 70
    32
  0
VERTEX
  8
M30LXLIFT
 62
27
 10
2968.843
 20
-4247.589
 30
2298.000
 70
    32
  0
VERTEX
  8
M30LXLIFT
 62
27
 10
2967.768
 20
-4236.888
 30
2298.000
 70
    32
  0
VERTEX
  8
M30LXLIFT
 62
27
 10
2966.722
 20
-4222.110
 30
2298.000
 70
    32
  0
VERTEX
  8
M30LXLIFT
 62
27
 10
2962.218
 20
-4176.826
 30
2298.000
 70
    32
  0
VERTEX
  8
M30LXLIFT
 62
27
 10
2954.657
 20
-4167.124
 30
2298.000
 70
    32
  0
VERTEX
  8
M30LXLIFT
 62
27
 10
2964.694
 20
-4159.424
 30
2298.000
 70
    32
  0
VERTEX
  8
M30LXLIFT
 62
27
 10
2959.421
 20
-4154.262
 30
2298.000
 70
    32
  0
VERTEX
  8
M30LXLIFT
 62
27
 10
2984.063
 20
-4138.085
 30
2298.000
 70
    32
  0
VERTEX
  8
M30LXLIFT
 62
27
 10
2979.301
 20
-4132.431
 30
2298.000
 70
    32
  0
VERTEX
  8
M30LXLIFT
 62
27
 10
2983.618
 20
-4128.228
 30
2298.000
 70
    32
  0
VERTEX
  8
M30LXLIFT
 62
27
 10
2977.197
 20
-4119.320
 30
2298.000
 70
    32
  0
VERTEX
  8
M30LXLIFT
 62
27
 10
2987.972
 20
-4111.288
 30
2298.000
 70
    32
  0
VERTEX
  8
M30LXLIFT
 62
27
 10
2991.806
 20
-4115.551
 30
2298.000
 70
    32
  0
VERTEX
  8
M30LXLIFT
 62
27
 10
3006.270
 20
-4107.618
 30
2298.000
 70
    32
  0
VERTEX
  8
M30LXLIFT
 62
27
 10
3008.860
 20
-4110.946
 30
2298.000
 70
    32
  0
VERTEX
  8
M30LXLIFT
 62
27
 10
3005.546
 20
-4114.731
 30
2298.000
 70
    32
  0
VERTEX
  8
M30LXLIFT
 62
27
 10
3013.773
 20
-4125.032
 30
2298.000
 70
    32
  0
VERTEX
  8
M30LXLIFT
 62
27
 10
3025.745
 20
-4116.108
 30
2298.000
 70
    32
  0
VERTEX
  8
M30LXLIFT
 62
27
 10
3039.362
 20
-4103.219
 30
2298.000
 70
    32
  0
VERTEX
  8
M30LXLIFT
 62
27
 10
3029.747
 20
-4081.354
 30
2298.000
 70
    32
  0
SEQEND
  8
M30LXLIFT
  0
POLYLINE
  8
M30LXLIFT
 62
1
 66
     1
 70
     9
  0
VERTEX
  8
M30LXLIFT
 62
1
 10
2388.022
 20
-3932.981
 30
2306.000
 70
    32
  0
VERTEX
  8
M30LXLIFT
 62
1
 10
2404.619
 20
-3934.523
 30
2306.000
 70
    32
  0
VERTEX
  8
M30LXLIFT
 62
1
 10
2418.121
 20
-3942.644
 30
2306.000
 70
    32
  0
VERTEX
  8
M30LXLIFT
 62
1
 10
2424.332
 20
-3951.270
 30
2306.000
 70
    32
  0
VERTEX
  8
M30LXLIFT
 62
1
 10
2438.118
 20
-3958.742
 30
2306.000
 70
    32
  0
VERTEX
  8
M30LXLIFT
 62
1
 10
2443.905
 20
-3974.148
 30
2306.000
 70
    32
  0
VERTEX
  8
M30LXLIFT
 62
1
 10
2453.609
 20
-3989.811
 30
2306.000
 70
    32
  0
VERTEX
  8
M30LXLIFT
 62
1
 10
2455.615
 20
-4000.586
 30
2306.000
 70
    32
  0
VERTEX
  8
M30LXLIFT
 62
1
 10
2450.114
 20
-4001.290
 30
2306.000
 70
    32
  0
VERTEX
  8
M30LXLIFT
 62
1
 10
2442.271
 20
-3986.212
 30
2306.000
 70
    32
  0
VERTEX
  8
M30LXLIFT
 62
1
 10
2430.579
 20
-3971.702
 30
2306.000
 70
    32
  0
VERTEX
  8
M30LXLIFT
 62
1
 10
2414.433
 20
-3966.208
 30
2306.000
 70
    32
  0
VERTEX
  8
M30LXLIFT
 62
1
 10
2397.500
 20
-3959.658
 30
2306.000
 70
    32
  0
VERTEX
  8
M30LXLIFT
 62
1
 10
2384.267
 20
-3955.280
 30
2306.000
 70
    32
  0
VERTEX
  8
M30LXLIFT
 62
1
 10
2375.556
 20
-3942.711
 30
2306.000
 70
    32
  0
SEQEND
  8
M30LXLIFT
  0
POLYLINE
  8
M30LXLIFT
 62
1
 66
     1
 70
     9
  0
VERTEX
  8
M30LXLIFT
 62
1
 10
2831.632
 20
-4465.205
 30
2283.000
 70
    32
  0
VERTEX
  8
M30LXLIFT
 62
1
 10
2826.640
 20
-4448.608
 30
2283.000
 70
    32
  0
VERTEX
  8
M30LXLIFT
 62
1
 10
2818.936
 20
-4427.574
 30
2283.000
 70
    32
  0
VERTEX
  8
M30LXLIFT
 62
1
 10
2812.867
 20
-4411.440
 30
2283.000
 70
    32
  0
VERTEX
  8
M30LXLIFT
 62
1
 10
2818.407
 20
-4405.631
 30
2283.000
 70
    32
  0
VERTEX
  8
M30LXLIFT
 62
1
 10
2809.836
 20
-4390.244
 30
2283.000
 70
    32
  0
VERTEX
  8
M30LXLIFT
 62
1
 10
2800.122
 20
-4383.539
 30
2283.000
 70
    32
  0
VERTEX
  8
M30LXLIFT
 62
1
 10
2803.128
 20
-4378.284
 30
2283.000
 70
    32
  0
VERTEX
  8
M30LXLIFT
 62
1
 10
2807.718
 20
-4382.757
 30
2283.000
 70
    32
  0
VERTEX
  8
M30LXLIFT
 62
1
 10
2810.612
 20
-4381.505
 30
2283.000
 70
    32
  0
VERTEX
  8
M30LXLIFT
 62
1
 10
2818.047
 20
-4391.189
 30
2283.000
 70
    32
  0
VERTEX
  8
M30LXLIFT
 62
1
 10
2824.556
 20
-4398.721
 30
2283.000
 70
    32
  0
VERTEX
  8
M30LXLIFT
 62
1
 10
2830.785
 20
-4416.262
 30
2283.000
 70
    32
  0
VERTEX
  8
M30LXLIFT
 62
1
 10
2837.361
 20
-4415.575
 30
2283.000
 70
    32
  0
VERTEX
  8
M30LXLIFT
 62
1
 10
2847.246
 20
-4412.568
 30
2283.000
 70
    32
  0
VERTEX
  8
M30LXLIFT
 62
1
 10
2857.436
 20
-4405.524
 30
2283.000
 70
    32
  0
VERTEX
  8
M30LXLIFT
 62
1
 10
2863.929
 20
-4411.107
 30
2283.000
 70
    32
  0
VERTEX
  8
M30LXLIFT
 62
1
 10
2870.667
 20
-4423.700
 30
2283.000
 70
    32
  0
VERTEX
  8
M30LXLIFT
 62
1
 10
2861.718
 20
-4429.614
 30
2283.000
 70
    32
  0
VERTEX
  8
M30LXLIFT
 62
1
 10
2862.041
 20
-4434.061
 30
2283.000
 70
    32
  0
VERTEX
  8
M30LXLIFT
 62
1
 10
2858.228
 20
-4435.989
 30
2283.000
 70
    32
  0
VERTEX
  8
M30LXLIFT
 62
1
 10
2851.210
 20
-4431.771
 30
2283.000
 70
    32
  0
VERTEX
  8
M30LXLIFT
 62
1
 10
2850.426
 20
-4431.148
 30
2283.000
 70
    32
  0
VERTEX
  8
M30LXLIFT
 62
1
 10
2841.446
 20
-4429.896
 30
2283.000
 70
    32
  0
VERTEX
  8
M30LXLIFT
 62
1
 10
2838.616
 20
-4425.002
 30
2283.000
 70
    32
  0
VERTEX
  8
M30LXLIFT
 62
1
 10
2832.555
 20
-4426.836
 30
2283.000
 70
    32
  0
VERTEX
  8
M30LXLIFT
 62
1
 10
2833.113
 20
-4439.172
 30
2283.000
 70
    32
  0
VERTEX
  8
M30LXLIFT
 62
1
 10
2835.216
 20
-4454.949
 30
2283.000
 70
    32
  0
VERTEX
  8
M30LXLIFT
 62
1
 10
2839.645
 20
-4468.256
 30
2283.000
 70
    32
  0
VERTEX
  8
M30LXLIFT
 62
1
 10
2842.048
 20
-4478.801
 30
2283.000
 70
    32
  0
VERTEX
  8
M30LXLIFT
 62
1
 10
2839.736
 20
-4481.588
 30
2283.000
 70
    32
  0
SEQEND
  8
M30LXLIFT
  0
POLYLINE
  8
M30LXLIFT
 62
1
 66
     1
 70
     9
  0
VERTEX
  8
M30LXLIFT
 62
1
 10
2902.184
 20
-4458.405
 30
2243.000
 70
    32
  0
VERTEX
  8
M30LXLIFT
 62
1
 10
2891.008
 20
-4462.897
 30
2243.000
 70
    32
  0
VERTEX
  8
M30LXLIFT
 62
1
 10
2883.894
 20
-4464.455
 30
2243.000
 70
    32
  0
VERTEX
  8
M30LXLIFT
 62
1
 10
2876.614
 20
-4463.532
 30
2243.000
 70
    32
  0
VERTEX
  8
M30LXLIFT
 62
1
 10
2868.836
 20
-4464.921
 30
2243.000
 70
    32
  0
VERTEX
  8
M30LXLIFT
 62
1
 10
2866.622
 20
-4473.566
 30
2243.000
 70
    32
  0
VERTEX
  8
M30LXLIFT
 62
1
 10
2860.979
 20
-4485.121
 30
2243.000
 70
    32
  0
VERTEX
  8
M30LXLIFT
 62
1
 10
2864.671
 20
-4499.693
 30
2243.000
 70
    32
  0
VERTEX
  8
M30LXLIFT
 62
1
 10
2874.256
 20
-4515.972
 30
2243.000
 70
    32
  0
VERTEX
  8
M30LXLIFT
 62
1
 10
2884.551
 20
-4532.932
 30
2243.000
 70
    32
  0
VERTEX
  8
M30LXLIFT
 62
1
 10
2893.381
 20
-4545.312
 30
2243.000
 70
    32
  0
VERTEX
  8
M30LXLIFT
 62
1
 10
2894.942
 20
-4562.940
 30
2243.000
 70
    32
  0
VERTEX
  8
M30LXLIFT
 62
1
 10
2905.423
 20
-4580.308
 30
2243.000
 70
    32
  0
VERTEX
  8
M30LXLIFT
 62
1
 10
2897.825
 20
-4585.251
 30
2243.000
 70
    32
  0
VERTEX
  8
M30LXLIFT
 62
1
 10
2885.519
 20
-4574.514
 30
2243.000
 70
    32
  0
VERTEX
  8
M30LXLIFT
 62
1
 10
2878.118
 20
-4559.909
 30
2243.000
 70
    32
  0
VERTEX
  8
M30LXLIFT
 62
1
 10
2875.971
 20
-4541.620
 30
2243.000
 70
    32
  0
VERTEX
  8
M30LXLIFT
 62
1
 10
2863.903
 20
-4529.410
 30
2243.000
 70
    32
  0
VERTEX
  8
M30LXLIFT
 62
1
 10
2857.654
 20
-4514.299
 30
2243.000
 70
    32
  0
VERTEX
  8
M30LXLIFT
 62
1
 10
2849.513
 20
-4496.868
 30
2243.000
 70
    32
  0
VERTEX
  8
M30LXLIFT
 62
1
 10
2845.758
 20
-4483.860
 30
2243.000
 70
    32
  0
VERTEX
  8
M30LXLIFT
 62
1
 10
2843.761
 20
-4466.980
 30
2243.000
 70
    32
  0
VERTEX
  8
M30LXLIFT
 62
1
 10
2849.396
 20
-4453.913
 30
2243.000
 70
    32
  0
VERTEX
  8
M30LXLIFT
 62
1
 10
2857.622
 20
-4452.093
 30
2243.000
 70
    32
  0
VERTEX
  8
M30LXLIFT
 62
1
 10
2869.130
 20
-4456.469
 30
2243.000
 70
    32
  0
VERTEX
  8
M30LXLIFT
 62
1
 10
2868.240
 20
-4450.281
 30
2243.000
 70
    32
  0
VERTEX
  8
M30LXLIFT
 62
1
 10
2876.866
 20
-4444.812
 30
2243.000
 70
    32
  0
VERTEX
  8
M30LXLIFT
 62
1
 10
2883.997
 20
-4438.471
 30
2243.000
 70
    32
  0
VERTEX
  8
M30LXLIFT
 62
1
 10
2883.629
 20
-4434.508
 30
2243.000
 70
    32
  0
VERTEX
  8
M30LXLIFT
 62
1
 10
2891.839
 20
-4433.567
 30
2243.000
 70
    32
  0
VERTEX
  8
M30LXLIFT
 62
1
 10
2899.280
 20
-4445.974
 30
2243.000
 70
    32
  0
SEQEND
  8
M30LXLIFT
  0
POLYLINE
  8
M30LXLIFT
 62
1
 66
     1
 70
     9
  0
VERTEX
  8
M30LXLIFT
 62
1
 10
2909.348
 20
-4590.700
 30
2240.000
 70
    32
  0
VERTEX
  8
M30LXLIFT
 62
1
 10
2915.214
 20
-4594.920
 30
2240.000
 70
    32
  0
VERTEX
  8
M30LXLIFT
 62
1
 10
2916.492
 20
-4602.996
 30
2240.000
 70
    32
  0
VERTEX
  8
M30LXLIFT
 62
1
 10
2911.634
 20
-4612.033
 30
2240.000
 70
    32
  0
VERTEX
  8
M30LXLIFT
 62
1
 10
2904.317
 20
-4617.966
 30
2240.000
 70
    32
  0
VERTEX
  8
M30LXLIFT
 62
1
 10
2894.963
 20
-4617.023
 30
2240.000
 70
    32
  0
VERTEX
  8
M30LXLIFT
 62
1
 10
2889.531
 20
-4621.812
 30
2240.000
 70
    32
  0
VERTEX
  8
M30LXLIFT
 62
1
 10
2881.207
 20
-4616.439
 30
2240.000
 70
    32
  0
VERTEX
  8
M30LXLIFT
 62
1
 10
2873.860
 20
-4612.420
 30
2240.000
 70
    32
  0
VERTEX
  8
M30LXLIFT
 62
1
 10
2883.995
 20
-4606.187
 30
2240.000
 70
    32
  0
VERTEX
  8
M30LXLIFT
 62
1
 10
2883.536
 20
-4602.398
 30
2240.000
 70
    32
  0
VERTEX
  8
M30LXLIFT
 62
1
 10
2886.672
 20
-4600.134
 30
2240.000
 70
    32
  0
VERTEX
  8
M30LXLIFT
 62
1
 10
2885.655
 20
-4597.074
 30
2240.000
 70
    32
  0
VERTEX
  8
M30LXLIFT
 62
1
 10
2895.956
 20
-4593.322
 30
2240.000
 70
    32
  0
VERTEX
  8
M30LXLIFT
 62
1
 10
2898.565
 20
-4590.029
 30
2240.000
 70
    32
  0
SEQEND
  8
M30LXLIFT
  0
POLYLINE
  8
M30LXLIFT
 62
1
 66
     1
 70
     9
  0
VERTEX
  8
M30LXLIFT
 62
1
 10
2888.348
 20
-4502.314
 30
2211.000
 70
    32
  0
VERTEX
  8
M30LXLIFT
 62
1
 10
2883.397
 20
-4500.258
 30
2211.000
 70
    32
  0
VERTEX
  8
M30LXLIFT
 62
1
 10
2882.076
 20
-4493.630
 30
2211.000
 70
    32
  0
VERTEX
  8
M30LXLIFT
 62
1
 10
2874.862
 20
-4482.592
 30
2211.000
 70
    32
  0
VERTEX
  8
M30LXLIFT
 62
1
 10
2866.968
 20
-4468.363
 30
2211.000
 70
    32
  0
VERTEX
  8
M30LXLIFT
 62
1
 10
2870.622
 20
-4460.525
 30
2211.000
 70
    32
  0
VERTEX
  8
M30LXLIFT
 62
1
 10
2878.081
 20
-4463.803
 30
2211.000
 70
    32
  0
VERTEX
  8
M30LXLIFT
 62
1
 10
2882.965
 20
-4472.515
 30
2211.000
 70
    32
  0
VERTEX
  8
M30LXLIFT
 62
1
 10
2891.769
 20
-4481.105
 30
2211.000
 70
    32
  0
VERTEX
  8
M30LXLIFT
 62
1
 10
2898.144
 20
-4484.083
 30
2211.000
 70
    32
  0
VERTEX
  8
M30LXLIFT
 62
1
 10
2903.258
 20
-4495.662
 30
2211.000
 70
    32
  0
VERTEX
  8
M30LXLIFT
 62
1
 10
2898.761
 20
-4500.534
 30
2211.000
 70
    32
  0
VERTEX
  8
M30LXLIFT
 62
1
 10
2899.058
 20
-4506.494
 30
2211.000
 70
    32
  0
SEQEND
  8
M30LXLIFT
  0
POLYLINE
  8
M30LXLIFT
 62
1
 66
     1
 70
     9
  0
VERTEX
  8
M30LXLIFT
 62
1
 10
3019.651
 20
-4059.011
 30
2308.000
 70
    32
  0
VERTEX
  8
M30LXLIFT
 62
1
 10
3034.882
 20
-4047.110
 30
2308.000
 70
    32
  0
VERTEX
  8
M30LXLIFT
 62
1
 10
3052.184
 20
-4041.662
 30
2308.000
 70
    32
  0
VERTEX
  8
M30LXLIFT
 62
1
 10
3065.690
 20
-4036.854
 30
2308.000
 70
    32
  0
VERTEX
  8
M30LXLIFT
 62
1
 10
3080.616
 20
-4027.042
 30
2308.000
 70
    32
  0
VERTEX
  8
M30LXLIFT
 62
1
 10
3090.631
 20
-4014.318
 30
2308.000
 70
    32
  0
VERTEX
  8
M30LXLIFT
 62
1
 10
3099.401
 20
-4013.149
 30
2308.000
 70
    32
  0
VERTEX
  8
M30LXLIFT
 62
1
 10
3110.621
 20
-4027.026
 30
2308.000
 70
    32
  0
VERTEX
  8
M30LXLIFT
 62
1
 10
3121.385
 20
-4040.584
 30
2308.000
 70
    32
  0
VERTEX
  8
M30LXLIFT
 62
1
 10
3127.959
 20
-4057.046
 30
2308.000
 70
    32
  0
VERTEX
  8
M30LXLIFT
 62
1
 10
3106.286
 20
-4073.092
 30
2308.000
 70
    32
  0
VERTEX
  8
M30LXLIFT
 62
1
 10
3123.898
 20
-4111.563
 30
2308.000
 70
    32
  0
VERTEX
  8
M30LXLIFT
 62
1
 10
3146.787
 20
-4135.803
 30
2308.000
 70
    32
  0
VERTEX
  8
M30LXLIFT
 62
1
 10
3154.743
 20
-4148.388
 30
2308.000
 70
    32
  0
VERTEX
  8
M30LXLIFT
 62
1
 10
3159.047
 20
-4160.188
 30
2308.000
 70
    32
  0
VERTEX
  8
M30LXLIFT
 62
1
 10
3192.887
 20
-4200.148
 30
2308.000
 70
    32
  0
VERTEX
  8
M30LXLIFT
 62
1
 10
3188.640
 20
-4222.376
 30
2308.000
 70
    32
  0
VERTEX
  8
M30LXLIFT
 62
1
 10
3188.204
 20
-4239.133
 30
2308.000
 70
    32
  0
VERTEX
  8
M30LXLIFT
 62
1
 10
3192.748
 20
-4247.140
 30
2308.000
 70
    32
  0
VERTEX
  8
M30LXLIFT
 62
1
 10
3251.196
 20
-4312.030
 30
2308.000
 70
    32
  0
VERTEX
  8
M30LXLIFT
 62
1
 10
3263.288
 20
-4310.028
 30
2308.000
 70
    32
  0
VERTEX
  8
M30LXLIFT
 62
1
 10
3271.523
 20
-4323.281
 30
2308.000
 70
    32
  0
VERTEX
  8
M30LXLIFT
 62
1
 10
3279.772
 20
-4326.116
 30
2308.000
 70
    32
  0
VERTEX
  8
M30LXLIFT
 62
1
 10
3249.880
 20
-4347.302
 30
2308.000
 70
    32
  0
VERTEX
  8
M30LXLIFT
 62
1
 10
3200.682
 20
-4380.359
 30
2308.000
 70
    32
  0
VERTEX
  8
M30LXLIFT
 62
1
 10
3135.237
 20
-4430.127
 30
2308.000
 70
    32
  0
VERTEX
  8
M30LXLIFT
 62
1
 10
3164.572
 20
-4484.619
 30
2308.000
 70
    32
  0
VERTEX
  8
M30LXLIFT
 62
1
 10
3174.969
 20
-4491.659
 30
2308.000
 70
    32
  0
VERTEX
  8
M30LXLIFT
 62
1
 10
3182.011
 20
-4510.073
 30
2308.000
 70
    32
  0
VERTEX
  8
M30LXLIFT
 62
1
 10
3179.980
 20
-4525.719
 30
2308.000
 70
    32
  0
VERTEX
  8
M30LXLIFT
 62
1
 10
3171.733
 20
-4522.445
 30
2308.000
 70
    32
  0
VERTEX
  8
M30LXLIFT
 62
1
 10
3169.824
 20
-4514.446
 30
2308.000
 70
    32
  0
VERTEX
  8
M30LXLIFT
 62
1
 10
3162.323
 20
-4514.670
 30
2308.000
 70
    32
  0
VERTEX
  8
M30LXLIFT
 62
1
 10
3157.948
 20
-4508.948
 30
2308.000
 70
    32
  0
VERTEX
  8
M30LXLIFT
 62
1
 10
3153.312
 20
-4514.046
 30
2308.000
 70
    32
  0
VERTEX
  8
M30LXLIFT
 62
1
 10
3155.131
 20
-4522.660
 30
2308.000
 70
    32
  0
VERTEX
  8
M30LXLIFT
 62
1
 10
3150.489
 20
-4542.005
 30
2308.000
 70
    32
  0
VERTEX
  8
M30LXLIFT
 62
1
 10
3142.625
 20
-4546.005
 30
2308.000
 70
    32
  0
VERTEX
  8
M30LXLIFT
 62
1
 10
3135.943
 20
-4607.734
 30
2308.000
 70
    32
  0
VERTEX
  8
M30LXLIFT
 62
1
 10
3145.585
 20
-4626.401
 30
2308.000
 70
    32
  0
VERTEX
  8
M30LXLIFT
 62
1
 10
3137.431
 20
-4639.272
 30
2308.000
 70
    32
  0
VERTEX
  8
M30LXLIFT
 62
1
 10
3122.041
 20
-4651.400
 30
2308.000
 70
    32
  0
VERTEX
  8
M30LXLIFT
 62
1
 10
3109.322
 20
-4639.628
 30
2308.000
 70
    32
  0
VERTEX
  8
M30LXLIFT
 62
1
 10
3101.511
 20
-4631.647
 30
2308.000
 70
    32
  0
VERTEX
  8
M30LXLIFT
 62
1
 10
3101.965
 20
-4626.378
 30
2308.000
 70
    32
  0
VERTEX
  8
M30LXLIFT
 62
1
 10
3093.758
 20
-4621.540
 30
2308.000
 70
    32
  0
VERTEX
  8
M30LXLIFT
 62
1
 10
3086.675
 20
-4616.741
 30
2308.000
 70
    32
  0
VERTEX
  8
M30LXLIFT
 62
1
 10
3078.725
 20
-4614.012
 30
2308.000
 70
    32
  0
VERTEX
  8
M30LXLIFT
 62
1
 10
3071.523
 20
-4601.852
 30
2308.000
 70
    32
  0
VERTEX
  8
M30LXLIFT
 62
1
 10
3056.645
 20
-4583.802
 30
2308.000
 70
    32
  0
VERTEX
  8
M30LXLIFT
 62
1
 10
3040.694
 20
-4565.783
 30
2308.000
 70
    32
  0
VERTEX
  8
M30LXLIFT
 62
1
 10
3028.382
 20
-4552.940
 30
2308.000
 70
    32
  0
VERTEX
  8
M30LXLIFT
 62
1
 10
3015.737
 20
-4539.798
 30
2308.000
 70
    32
  0
VERTEX
  8
M30LXLIFT
 62
1
 10
3002.114
 20
-4524.755
 30
2308.000
 70
    32
  0
VERTEX
  8
M30LXLIFT
 62
1
 10
3008.143
 20
-4517.852
 30
2308.000
 70
    32
  0
VERTEX
  8
M30LXLIFT
 62
1
 10
3006.671
 20
-4450.916
 30
2308.000
 70
    32
  0
VERTEX
  8
M30LXLIFT
 62
1
 10
2991.992
 20
-4394.921
 30
2308.000
 70
    32
  0
VERTEX
  8
M30LXLIFT
 62
1
 10
2985.549
 20
-4357.765
 30
2308.000
 70
    32
  0
VERTEX
  8
M30LXLIFT
 62
1
 10
2982.448
 20
-4348.901
 30
2308.000
 70
    32
  0
VERTEX
  8
M30LXLIFT
 62
1
 10
2983.362
 20
-4337.046
 30
2308.000
 70
    32
  0
VERTEX
  8
M30LXLIFT
 62
1
 10
2978.924
 20
-4287.002
 30
2308.000
 70
    32
  0
VERTEX
  8
M30LXLIFT
 62
1
 10
2970.708
 20
-4267.601
 30
2308.000
 70
    32
  0
VERTEX
  8
M30LXLIFT
 62
1
 10
2970.843
 20
-4245.589
 30
2308.000
 70
    32
  0
VERTEX
  8
M30LXLIFT
 62
1
 10
2969.768
 20
-4234.888
 30
2308.000
 70
    32
  0
VERTEX
  8
M30LXLIFT
 62
1
 10
2968.722
 20
-4220.110
 30
2308.000
 70
    32
  0
VERTEX
  8
M30LXLIFT
 62
1
 10
2964.218
 20
-4174.826
 30
2308.000
 70
    32
  0
VERTEX
  8
M30LXLIFT
 62
1
 10
2956.657
 20
-4165.124
 30
2308.000
 70
    32
  0
VERTEX
  8
M30LXLIFT
 62
1
 10
2966.694
 20
-4157.424
 30
2308.000
 70
    32
  0
VERTEX
  8
M30LXLIFT
 62
1
 10
2961.421
 20
-4152.262
 30
2308.000
 70
    32
  0
VERTEX
  8
M30LXLIFT
 62
1
 10
2986.063
 20
-4136.085
 30
2308.000
 70
    32
  0
VERTEX
  8
M30LXLIFT
 62
1
 10
2981.301
 20
-4130.431
 30
2308.000
 70
    32
  0
VERTEX
  8
M30LXLIFT
 62
1
 10
2985.618
 20
-4126.228
 30
2308.000
 70
    32
  0
VERTEX
  8
M30LXLIFT
 62
1
 10
2979.197
 20
-4117.320
 30
2308.000
 70
    32
  0
VERTEX
  8
M30LXLIFT
 62
1
 10
2989.972
 20
-4109.288
 30
2308.000
 70
    32
  0
VERTEX
  8
M30LXLIFT
 62
1
 10
2993.806
 20
-4113.551
 30
2308.000
 70
    32
  0
VERTEX
  8
M30LXLIFT
 62
1
 10
3008.270
 20
-4105.618
 30
2308.000
 70
    32
  0
VERTEX
  8
M30LXLIFT
 62
1
 10
3010.860
 20
-4108.946
 30
2308.000
 70
    32
  0
VERTEX
  8
M30LXLIFT
 62
1
 10
3007.546
 20
-4112.731
 30
2308.000
 70
    32
  0
VERTEX
  8
M30LXLIFT
 62
1
 10
3015.773
 20
-4123.032
 30
2308.000
 70
    32
  0
VERTEX
  8
M30LXLIFT
 62
1
 10
3027.745
 20
-4114.108
 30
2308.000
 70
    32
  0
VERTEX
  8
M30LXLIFT
 62
1
 10
3041.362
 20
-4101.219
 30
2308.000
 70
    32
  0
VERTEX
  8
M30LXLIFT
 62
1
 10
3031.747
 20
-4079.354
 30
2308.000
 70
    32
  0
SEQEND
  8
M30LXLIFT
  0
POLYLINE
  8
M30LXLIFT
 62
1
 66
     1
 70
     9
  0
VERTEX
  8
M30LXLIFT
 62
1
 10
3049.477
 20
-4025.135
 30
2287.000
 70
    32
  0
VERTEX
  8
M30LXLIFT
 62
1
 10
3041.162
 20
-4032.655
 30
2287.000
 70
    32
  0
VERTEX
  8
M30LXLIFT
 62
1
 10
3038.800
 20
-4040.271
 30
2287.000
 70
    32
  0
VERTEX
  8
M30LXLIFT
 62
1
 10
3035.526
 20
-4047.684
 30
2287.000
 70
    32
  0
VERTEX
  8
M30LXLIFT
 62
1
 10
3029.433
 20
-4050.958
 30
2287.000
 70
    32
  0
VERTEX
  8
M30LXLIFT
 62
1
 10
3025.389
 20
-4044.558
 30
2287.000
 70
    32
  0
VERTEX
  8
M30LXLIFT
 62
1
 10
3029.624
 20
-4034.151
 30
2287.000
 70
    32
  0
VERTEX
  8
M30LXLIFT
 62
1
 10
3026.760
 20
-4027.430
 30
2287.000
 70
    32
  0
VERTEX
  8
M30LXLIFT
 62
1
 10
3035.646
 20
-4019.056
 30
2287.000
 70
    32
  0
VERTEX
  8
M30LXLIFT
 62
1
 10
3043.766
 20
-4016.909
 30
2287.000
 70
    32
  0
SEQEND
  8
M30LXLIFT
  0
POLYLINE
  8
M30LXLIFT
 62
3
 66
     1
 70
     9
  0
VERTEX
  8
M30LXLIFT
 62
3
 10
2936.103
 20
-4593.357
 30
2172.876
 70
    32
  0
VERTEX
  8
M30LXLIFT
 62
3
 10
2936.427
 20
-4595.523
 30
2172.878
 70
    32
  0
VERTEX
  8
M30LXLIFT
 62
3
 10
2942.916
 20
-4601.113
 30
2172.879
 70
    32
  0
VERTEX
  8
M30LXLIFT
 62
3
 10
2947.282
 20
-4608.102
 30
2172.857
 70
    32
  0
VERTEX
  8
M30LXLIFT
 62
3
 10
2952.169
 20
-4631.751
 30
2172.816
 70
    32
  0
VERTEX
  8
M30LXLIFT
 62
3
 10
2951.948
 20
-4639.329
 30
2172.816
 70
    32
  0
VERTEX
  8
M30LXLIFT
 62
3
 10
2949.356
 20
-4645.484
 30
2172.816
 70
    32
  0
VERTEX
  8
M30LXLIFT
 62
3
 10
2947.490
 20
-4648.205
 30
2172.816
 70
    32
  0
VERTEX
  8
M30LXLIFT
 62
3
 10
2941.839
 20
-4649.935
 30
2172.815
 70
    32
  0
VERTEX
  8
M30LXLIFT
 62
3
 10
2937.605
 20
-4650.527
 30
2172.814
 70
    32
  0
VERTEX
  8
M30LXLIFT
 62
3
 10
2930.743
 20
-4648.284
 30
2172.813
 70
    32
  0
VERTEX
  8
M30LXLIFT
 62
3
 10
2927.847
 20
-4646.152
 30
2172.813
 70
    32
  0
VERTEX
  8
M30LXLIFT
 62
3
 10
2924.532
 20
-4640.315
 30
2172.813
 70
    32
  0
VERTEX
  8
M30LXLIFT
 62
3
 10
2923.127
 20
-4639.338
 30
2172.812
 70
    32
  0
VERTEX
  8
M30LXLIFT
 62
3
 10
2918.081
 20
-4628.115
 30
2172.812
 70
    32
  0
VERTEX
  8
M30LXLIFT
 62
3
 10
2914.728
 20
-4604.226
 30
2172.867
 70
    32
  0
VERTEX
  8
M30LXLIFT
 62
3
 10
2906.138
 20
-4605.483
 30
2172.862
 70
    32
  0
VERTEX
  8
M30LXLIFT
 62
3
 10
2905.096
 20
-4598.581
 30
2172.887
 70
    32
  0
VERTEX
  8
M30LXLIFT
 62
3
 10
2908.502
 20
-4590.445
 30
2172.889
 70
    32
  0
VERTEX
  8
M30LXLIFT
 62
3
 10
2906.368
 20
-4581.070
 30
2172.881
 70
    32
  0
VERTEX
  8
M30LXLIFT
 62
3
 10
2903.155
 20
-4572.855
 30
2172.875
 70
    32
  0
VERTEX
  8
M30LXLIFT
 62
3
 10
2911.011
 20
-4570.785
 30
2172.868
 70
    32
  0
VERTEX
  8
M30LXLIFT
 62
3
 10
2916.467
 20
-4572.227
 30
2172.867
 70
    32
  0
VERTEX
  8
M30LXLIFT
 62
3
 10
2918.641
 20
-4577.263
 30
2172.870
 70
    32
  0
VERTEX
  8
M30LXLIFT
 62
3
 10
2919.323
 20
-4581.234
 30
2172.874
 70
    32
  0
VERTEX
  8
M30LXLIFT
 62
3
 10
2921.329
 20
-4584.859
 30
2172.876
 70
    32
  0
VERTEX
  8
M30LXLIFT
 62
3
 10
2926.608
 20
-4586.476
 30
2172.874
 70
    32
  0
VERTEX
  8
M30LXLIFT
 62
3
 10
2931.231
 20
-4586.536
 30
2172.872
 70
    32
  0
SEQEND
  8
M30LXLIFT
  0
ENDSEC
  0
EOF
