999
********************************
999
*   DXF File - Entities Only   *
999
*        3D Data Format        *
999
*     Output from ENVISAGE     *
999
*     31-Dec-2007 14:57:16     *
999
********************************
  0
SECTION 
  2
HEADER
  9
$ACADVER
  1
AC1009
  9
$EXTMIN
 10
-290000.000
 20
-250000.000
 30
-4000.000
  9
$EXTMAX
 10
320000.000
 20
160000.000
 30
6000.000
  0
ENDSEC
  0
SECTION
  2
ENTITIES
  0
POLYLINE
  8
M32LXLIFT
 62
13
 66
     1
 70
     9
  0
VERTEX
  8
M32LXLIFT
 62
13
 10
3253.336
 20
-4170.430
 30
2047.000
 70
    32
  0
VERTEX
  8
M32LXLIFT
 62
13
 10
3257.793
 20
-4187.734
 30
2047.000
 70
    32
  0
VERTEX
  8
M32LXLIFT
 62
13
 10
3262.723
 20
-4204.489
 30
2047.000
 70
    32
  0
VERTEX
  8
M32LXLIFT
 62
13
 10
3294.374
 20
-4238.988
 30
2047.000
 70
    32
  0
VERTEX
  8
M32LXLIFT
 62
13
 10
3311.357
 20
-4259.403
 30
2047.000
 70
    32
  0
VERTEX
  8
M32LXLIFT
 62
13
 10
3330.712
 20
-4286.538
 30
2047.000
 70
    32
  0
VERTEX
  8
M32LXLIFT
 62
13
 10
3311.183
 20
-4295.470
 30
2047.000
 70
    32
  0
VERTEX
  8
M32LXLIFT
 62
13
 10
3304.628
 20
-4306.012
 30
2047.000
 70
    32
  0
VERTEX
  8
M32LXLIFT
 62
13
 10
3272.453
 20
-4330.429
 30
2047.000
 70
    32
  0
VERTEX
  8
M32LXLIFT
 62
13
 10
3239.836
 20
-4406.706
 30
2047.000
 70
    32
  0
VERTEX
  8
M32LXLIFT
 62
13
 10
3251.102
 20
-4422.221
 30
2047.000
 70
    32
  0
VERTEX
  8
M32LXLIFT
 62
13
 10
3266.276
 20
-4440.683
 30
2047.000
 70
    32
  0
VERTEX
  8
M32LXLIFT
 62
13
 10
3272.776
 20
-4453.102
 30
2047.000
 70
    32
  0
VERTEX
  8
M32LXLIFT
 62
13
 10
3256.668
 20
-4467.800
 30
2047.000
 70
    32
  0
VERTEX
  8
M32LXLIFT
 62
13
 10
3273.298
 20
-4494.275
 30
2047.000
 70
    32
  0
VERTEX
  8
M32LXLIFT
 62
13
 10
3280.601
 20
-4503.868
 30
2047.000
 70
    32
  0
VERTEX
  8
M32LXLIFT
 62
13
 10
3306.976
 20
-4487.094
 30
2047.000
 70
    32
  0
VERTEX
  8
M32LXLIFT
 62
13
 10
3309.543
 20
-4505.839
 30
2047.000
 70
    32
  0
VERTEX
  8
M32LXLIFT
 62
13
 10
3313.151
 20
-4519.652
 30
2047.000
 70
    32
  0
VERTEX
  8
M32LXLIFT
 62
13
 10
3305.990
 20
-4523.842
 30
2047.000
 70
    32
  0
VERTEX
  8
M32LXLIFT
 62
13
 10
3305.014
 20
-4534.970
 30
2047.000
 70
    32
  0
VERTEX
  8
M32LXLIFT
 62
13
 10
3312.279
 20
-4547.710
 30
2047.000
 70
    32
  0
VERTEX
  8
M32LXLIFT
 62
13
 10
3311.549
 20
-4555.220
 30
2047.000
 70
    32
  0
VERTEX
  8
M32LXLIFT
 62
13
 10
3280.499
 20
-4576.045
 30
2047.000
 70
    32
  0
VERTEX
  8
M32LXLIFT
 62
13
 10
3234.154
 20
-4609.057
 30
2047.000
 70
    32
  0
VERTEX
  8
M32LXLIFT
 62
13
 10
3295.190
 20
-4761.658
 30
2047.000
 70
    32
  0
VERTEX
  8
M32LXLIFT
 62
13
 10
3306.128
 20
-4784.184
 30
2047.000
 70
    32
  0
VERTEX
  8
M32LXLIFT
 62
13
 10
3319.479
 20
-4796.399
 30
2047.000
 70
    32
  0
VERTEX
  8
M32LXLIFT
 62
13
 10
3320.418
 20
-4805.207
 30
2047.000
 70
    32
  0
VERTEX
  8
M32LXLIFT
 62
13
 10
3309.763
 20
-4807.341
 30
2047.000
 70
    32
  0
VERTEX
  8
M32LXLIFT
 62
13
 10
3300.566
 20
-4806.510
 30
2047.000
 70
    32
  0
VERTEX
  8
M32LXLIFT
 62
13
 10
3297.957
 20
-4812.117
 30
2047.000
 70
    32
  0
VERTEX
  8
M32LXLIFT
 62
13
 10
3291.273
 20
-4804.778
 30
2047.000
 70
    32
  0
VERTEX
  8
M32LXLIFT
 62
13
 10
3284.709
 20
-4808.439
 30
2047.000
 70
    32
  0
VERTEX
  8
M32LXLIFT
 62
13
 10
3276.901
 20
-4823.309
 30
2047.000
 70
    32
  0
VERTEX
  8
M32LXLIFT
 62
13
 10
3269.578
 20
-4820.403
 30
2047.000
 70
    32
  0
VERTEX
  8
M32LXLIFT
 62
13
 10
3265.385
 20
-4810.339
 30
2047.000
 70
    32
  0
VERTEX
  8
M32LXLIFT
 62
13
 10
3265.728
 20
-4797.398
 30
2047.000
 70
    32
  0
VERTEX
  8
M32LXLIFT
 62
13
 10
3274.714
 20
-4793.965
 30
2047.000
 70
    32
  0
VERTEX
  8
M32LXLIFT
 62
13
 10
3286.170
 20
-4787.930
 30
2047.000
 70
    32
  0
VERTEX
  8
M32LXLIFT
 62
13
 10
3294.369
 20
-4800.011
 30
2047.000
 70
    32
  0
VERTEX
  8
M32LXLIFT
 62
13
 10
3302.353
 20
-4798.362
 30
2047.000
 70
    32
  0
VERTEX
  8
M32LXLIFT
 62
13
 10
3297.681
 20
-4781.210
 30
2047.000
 70
    32
  0
VERTEX
  8
M32LXLIFT
 62
13
 10
3289.501
 20
-4762.442
 30
2047.000
 70
    32
  0
VERTEX
  8
M32LXLIFT
 62
13
 10
3210.084
 20
-4623.451
 30
2047.000
 70
    32
  0
VERTEX
  8
M32LXLIFT
 62
13
 10
3199.575
 20
-4606.111
 30
2047.000
 70
    32
  0
VERTEX
  8
M32LXLIFT
 62
13
 10
3185.789
 20
-4582.904
 30
2047.000
 70
    32
  0
VERTEX
  8
M32LXLIFT
 62
13
 10
3180.776
 20
-4573.202
 30
2047.000
 70
    32
  0
VERTEX
  8
M32LXLIFT
 62
13
 10
3187.844
 20
-4567.356
 30
2047.000
 70
    32
  0
VERTEX
  8
M32LXLIFT
 62
13
 10
3169.297
 20
-4526.413
 30
2047.000
 70
    32
  0
VERTEX
  8
M32LXLIFT
 62
13
 10
3161.331
 20
-4512.983
 30
2047.000
 70
    32
  0
VERTEX
  8
M32LXLIFT
 62
13
 10
3160.755
 20
-4494.771
 30
2047.000
 70
    32
  0
VERTEX
  8
M32LXLIFT
 62
13
 10
3157.612
 20
-4478.262
 30
2047.000
 70
    32
  0
VERTEX
  8
M32LXLIFT
 62
13
 10
3164.476
 20
-4465.564
 30
2047.000
 70
    32
  0
VERTEX
  8
M32LXLIFT
 62
13
 10
3164.018
 20
-4458.354
 30
2047.000
 70
    32
  0
VERTEX
  8
M32LXLIFT
 62
13
 10
3202.881
 20
-4428.467
 30
2047.000
 70
    32
  0
VERTEX
  8
M32LXLIFT
 62
13
 10
3211.312
 20
-4338.039
 30
2047.000
 70
    32
  0
VERTEX
  8
M32LXLIFT
 62
13
 10
3233.321
 20
-4224.904
 30
2047.000
 70
    32
  0
VERTEX
  8
M32LXLIFT
 62
13
 10
3223.142
 20
-4207.116
 30
2047.000
 70
    32
  0
VERTEX
  8
M32LXLIFT
 62
13
 10
3219.208
 20
-4194.825
 30
2047.000
 70
    32
  0
VERTEX
  8
M32LXLIFT
 62
13
 10
3226.717
 20
-4187.161
 30
2047.000
 70
    32
  0
SEQEND
  8
M32LXLIFT
  0
POLYLINE
  8
M32LXLIFT
 62
13
 66
     1
 70
     9
  0
VERTEX
  8
M32LXLIFT
 62
13
 10
3256.030
 20
-4139.853
 30
2072.000
 70
    32
  0
VERTEX
  8
M32LXLIFT
 62
13
 10
3262.195
 20
-4165.256
 30
2072.000
 70
    32
  0
VERTEX
  8
M32LXLIFT
 62
13
 10
3267.729
 20
-4179.165
 30
2072.000
 70
    32
  0
VERTEX
  8
M32LXLIFT
 62
13
 10
3268.082
 20
-4190.426
 30
2072.000
 70
    32
  0
VERTEX
  8
M32LXLIFT
 62
13
 10
3272.217
 20
-4200.461
 30
2072.000
 70
    32
  0
VERTEX
  8
M32LXLIFT
 62
13
 10
3308.571
 20
-4354.099
 30
2072.000
 70
    32
  0
VERTEX
  8
M32LXLIFT
 62
13
 10
3321.238
 20
-4380.975
 30
2072.000
 70
    32
  0
VERTEX
  8
M32LXLIFT
 62
13
 10
3335.081
 20
-4407.974
 30
2072.000
 70
    32
  0
VERTEX
  8
M32LXLIFT
 62
13
 10
3327.575
 20
-4416.791
 30
2072.000
 70
    32
  0
VERTEX
  8
M32LXLIFT
 62
13
 10
3320.293
 20
-4420.230
 30
2072.000
 70
    32
  0
VERTEX
  8
M32LXLIFT
 62
13
 10
3273.755
 20
-4454.451
 30
2072.000
 70
    32
  0
VERTEX
  8
M32LXLIFT
 62
13
 10
3277.075
 20
-4503.323
 30
2072.000
 70
    32
  0
VERTEX
  8
M32LXLIFT
 62
13
 10
3287.112
 20
-4528.522
 30
2072.000
 70
    32
  0
VERTEX
  8
M32LXLIFT
 62
13
 10
3289.199
 20
-4552.648
 30
2072.000
 70
    32
  0
VERTEX
  8
M32LXLIFT
 62
13
 10
3292.600
 20
-4568.106
 30
2072.000
 70
    32
  0
VERTEX
  8
M32LXLIFT
 62
13
 10
3267.248
 20
-4582.274
 30
2072.000
 70
    32
  0
VERTEX
  8
M32LXLIFT
 62
13
 10
3256.873
 20
-4590.132
 30
2072.000
 70
    32
  0
VERTEX
  8
M32LXLIFT
 62
13
 10
3273.884
 20
-4739.125
 30
2072.000
 70
    32
  0
VERTEX
  8
M32LXLIFT
 62
13
 10
3287.921
 20
-4758.161
 30
2072.000
 70
    32
  0
VERTEX
  8
M32LXLIFT
 62
13
 10
3293.987
 20
-4778.637
 30
2072.000
 70
    32
  0
VERTEX
  8
M32LXLIFT
 62
13
 10
3300.363
 20
-4791.610
 30
2072.000
 70
    32
  0
VERTEX
  8
M32LXLIFT
 62
13
 10
3310.722
 20
-4802.886
 30
2072.000
 70
    32
  0
VERTEX
  8
M32LXLIFT
 62
13
 10
3304.268
 20
-4806.267
 30
2072.000
 70
    32
  0
VERTEX
  8
M32LXLIFT
 62
13
 10
3295.686
 20
-4794.896
 30
2072.000
 70
    32
  0
VERTEX
  8
M32LXLIFT
 62
13
 10
3288.927
 20
-4799.803
 30
2072.000
 70
    32
  0
VERTEX
  8
M32LXLIFT
 62
13
 10
3281.604
 20
-4799.144
 30
2072.000
 70
    32
  0
VERTEX
  8
M32LXLIFT
 62
13
 10
3273.218
 20
-4786.545
 30
2072.000
 70
    32
  0
VERTEX
  8
M32LXLIFT
 62
13
 10
3266.427
 20
-4790.062
 30
2072.000
 70
    32
  0
VERTEX
  8
M32LXLIFT
 62
13
 10
3269.931
 20
-4805.663
 30
2072.000
 70
    32
  0
VERTEX
  8
M32LXLIFT
 62
13
 10
3262.467
 20
-4810.647
 30
2072.000
 70
    32
  0
VERTEX
  8
M32LXLIFT
 62
13
 10
3252.031
 20
-4798.667
 30
2072.000
 70
    32
  0
VERTEX
  8
M32LXLIFT
 62
13
 10
3246.324
 20
-4790.207
 30
2072.000
 70
    32
  0
VERTEX
  8
M32LXLIFT
 62
13
 10
3251.537
 20
-4778.382
 30
2072.000
 70
    32
  0
VERTEX
  8
M32LXLIFT
 62
13
 10
3261.416
 20
-4776.425
 30
2072.000
 70
    32
  0
VERTEX
  8
M32LXLIFT
 62
13
 10
3269.751
 20
-4765.159
 30
2072.000
 70
    32
  0
VERTEX
  8
M32LXLIFT
 62
13
 10
3195.572
 20
-4630.507
 30
2072.000
 70
    32
  0
VERTEX
  8
M32LXLIFT
 62
13
 10
3183.639
 20
-4615.267
 30
2072.000
 70
    32
  0
VERTEX
  8
M32LXLIFT
 62
13
 10
3179.577
 20
-4602.788
 30
2072.000
 70
    32
  0
VERTEX
  8
M32LXLIFT
 62
13
 10
3171.063
 20
-4589.413
 30
2072.000
 70
    32
  0
VERTEX
  8
M32LXLIFT
 62
13
 10
3168.218
 20
-4582.352
 30
2072.000
 70
    32
  0
VERTEX
  8
M32LXLIFT
 62
13
 10
3143.744
 20
-4522.002
 30
2072.000
 70
    32
  0
VERTEX
  8
M32LXLIFT
 62
13
 10
3136.319
 20
-4502.946
 30
2072.000
 70
    32
  0
VERTEX
  8
M32LXLIFT
 62
13
 10
3134.414
 20
-4478.471
 30
2072.000
 70
    32
  0
VERTEX
  8
M32LXLIFT
 62
13
 10
3143.410
 20
-4403.165
 30
2072.000
 70
    32
  0
VERTEX
  8
M32LXLIFT
 62
13
 10
3134.417
 20
-4390.029
 30
2072.000
 70
    32
  0
VERTEX
  8
M32LXLIFT
 62
13
 10
3133.477
 20
-4370.177
 30
2072.000
 70
    32
  0
VERTEX
  8
M32LXLIFT
 62
13
 10
3133.342
 20
-4353.978
 30
2072.000
 70
    32
  0
VERTEX
  8
M32LXLIFT
 62
13
 10
3172.339
 20
-4324.036
 30
2072.000
 70
    32
  0
VERTEX
  8
M32LXLIFT
 62
13
 10
3215.733
 20
-4239.839
 30
2072.000
 70
    32
  0
VERTEX
  8
M32LXLIFT
 62
13
 10
3205.586
 20
-4229.604
 30
2072.000
 70
    32
  0
VERTEX
  8
M32LXLIFT
 62
13
 10
3199.567
 20
-4215.177
 30
2072.000
 70
    32
  0
VERTEX
  8
M32LXLIFT
 62
13
 10
3204.710
 20
-4195.473
 30
2072.000
 70
    32
  0
VERTEX
  8
M32LXLIFT
 62
13
 10
3211.570
 20
-4170.501
 30
2072.000
 70
    32
  0
SEQEND
  8
M32LXLIFT
  0
POLYLINE
  8
M32LXLIFT
 62
13
 66
     1
 70
     9
  0
VERTEX
  8
M32LXLIFT
 62
13
 10
3255.381
 20
-4139.914
 30
2080.000
 70
    32
  0
VERTEX
  8
M32LXLIFT
 62
13
 10
3262.670
 20
-4165.999
 30
2080.000
 70
    32
  0
VERTEX
  8
M32LXLIFT
 62
13
 10
3267.162
 20
-4179.620
 30
2080.000
 70
    32
  0
VERTEX
  8
M32LXLIFT
 62
13
 10
3269.104
 20
-4192.698
 30
2080.000
 70
    32
  0
VERTEX
  8
M32LXLIFT
 62
13
 10
3273.354
 20
-4199.366
 30
2080.000
 70
    32
  0
VERTEX
  8
M32LXLIFT
 62
13
 10
3249.087
 20
-4215.501
 30
2080.000
 70
    32
  0
VERTEX
  8
M32LXLIFT
 62
13
 10
3214.828
 20
-4239.678
 30
2080.000
 70
    32
  0
VERTEX
  8
M32LXLIFT
 62
13
 10
3206.028
 20
-4228.179
 30
2080.000
 70
    32
  0
VERTEX
  8
M32LXLIFT
 62
13
 10
3199.630
 20
-4215.062
 30
2080.000
 70
    32
  0
VERTEX
  8
M32LXLIFT
 62
13
 10
3203.424
 20
-4196.136
 30
2080.000
 70
    32
  0
VERTEX
  8
M32LXLIFT
 62
13
 10
3211.870
 20
-4177.973
 30
2080.000
 70
    32
  0
VERTEX
  8
M32LXLIFT
 62
13
 10
3214.877
 20
-4169.981
 30
2080.000
 70
    32
  0
VERTEX
  8
M32LXLIFT
 62
13
 10
3229.582
 20
-4158.878
 30
2080.000
 70
    32
  0
SEQEND
  8
M32LXLIFT
  0
POLYLINE
  8
M32LXLIFT
 62
3
 66
     1
 70
     9
  0
VERTEX
  8
M32LXLIFT
 62
3
 10
3249.400
 20
-4122.717
 30
2087.000
 70
    32
  0
VERTEX
  8
M32LXLIFT
 62
3
 10
3228.053
 20
-4140.211
 30
2087.000
 70
    32
  0
VERTEX
  8
M32LXLIFT
 62
3
 10
3228.478
 20
-4150.275
 30
2087.000
 70
    32
  0
VERTEX
  8
M32LXLIFT
 62
3
 10
3208.626
 20
-4162.483
 30
2087.000
 70
    32
  0
VERTEX
  8
M32LXLIFT
 62
3
 10
3199.637
 20
-4152.524
 30
2087.000
 70
    32
  0
VERTEX
  8
M32LXLIFT
 62
3
 10
3210.061
 20
-4142.227
 30
2087.000
 70
    32
  0
VERTEX
  8
M32LXLIFT
 62
3
 10
3204.810
 20
-4127.099
 30
2087.000
 70
    32
  0
VERTEX
  8
M32LXLIFT
 62
3
 10
3201.994
 20
-4111.301
 30
2087.000
 70
    32
  0
VERTEX
  8
M32LXLIFT
 62
3
 10
3212.824
 20
-4100.066
 30
2087.000
 70
    32
  0
VERTEX
  8
M32LXLIFT
 62
3
 10
3219.841
 20
-4096.753
 30
2087.000
 70
    32
  0
VERTEX
  8
M32LXLIFT
 62
3
 10
3228.280
 20
-4102.788
 30
2087.000
 70
    32
  0
VERTEX
  8
M32LXLIFT
 62
3
 10
3238.169
 20
-4102.272
 30
2087.000
 70
    32
  0
SEQEND
  8
M32LXLIFT
  0
POLYLINE
  8
M32LXLIFT
 62
13
 66
     1
 70
     9
  0
VERTEX
  8
M32LXLIFT
 62
13
 10
3246.237
 20
-4144.326
 30
2097.000
 70
    32
  0
VERTEX
  8
M32LXLIFT
 62
13
 10
3267.695
 20
-4187.072
 30
2097.000
 70
    32
  0
VERTEX
  8
M32LXLIFT
 62
13
 10
3269.804
 20
-4201.240
 30
2097.000
 70
    32
  0
VERTEX
  8
M32LXLIFT
 62
13
 10
3233.272
 20
-4229.376
 30
2097.000
 70
    32
  0
VERTEX
  8
M32LXLIFT
 62
13
 10
3201.779
 20
-4251.739
 30
2097.000
 70
    32
  0
VERTEX
  8
M32LXLIFT
 62
13
 10
3234.727
 20
-4320.537
 30
2097.000
 70
    32
  0
VERTEX
  8
M32LXLIFT
 62
13
 10
3239.673
 20
-4325.636
 30
2097.000
 70
    32
  0
VERTEX
  8
M32LXLIFT
 62
13
 10
3292.604
 20
-4374.084
 30
2097.000
 70
    32
  0
VERTEX
  8
M32LXLIFT
 62
13
 10
3309.237
 20
-4364.926
 30
2097.000
 70
    32
  0
VERTEX
  8
M32LXLIFT
 62
13
 10
3316.287
 20
-4384.635
 30
2097.000
 70
    32
  0
VERTEX
  8
M32LXLIFT
 62
13
 10
3320.191
 20
-4402.287
 30
2097.000
 70
    32
  0
VERTEX
  8
M32LXLIFT
 62
13
 10
3321.339
 20
-4415.742
 30
2097.000
 70
    32
  0
VERTEX
  8
M32LXLIFT
 62
13
 10
3317.415
 20
-4417.532
 30
2097.000
 70
    32
  0
VERTEX
  8
M32LXLIFT
 62
13
 10
3304.182
 20
-4403.674
 30
2097.000
 70
    32
  0
VERTEX
  8
M32LXLIFT
 62
13
 10
3302.387
 20
-4407.175
 30
2097.000
 70
    32
  0
VERTEX
  8
M32LXLIFT
 62
13
 10
3307.161
 20
-4417.094
 30
2097.000
 70
    32
  0
VERTEX
  8
M32LXLIFT
 62
13
 10
3304.174
 20
-4420.161
 30
2097.000
 70
    32
  0
VERTEX
  8
M32LXLIFT
 62
13
 10
3296.592
 20
-4411.322
 30
2097.000
 70
    32
  0
VERTEX
  8
M32LXLIFT
 62
13
 10
3291.679
 20
-4413.401
 30
2097.000
 70
    32
  0
VERTEX
  8
M32LXLIFT
 62
13
 10
3285.501
 20
-4425.797
 30
2097.000
 70
    32
  0
VERTEX
  8
M32LXLIFT
 62
13
 10
3270.640
 20
-4432.016
 30
2097.000
 70
    32
  0
VERTEX
  8
M32LXLIFT
 62
13
 10
3263.525
 20
-4479.699
 30
2097.000
 70
    32
  0
VERTEX
  8
M32LXLIFT
 62
13
 10
3256.310
 20
-4519.815
 30
2097.000
 70
    32
  0
VERTEX
  8
M32LXLIFT
 62
13
 10
3262.920
 20
-4516.926
 30
2097.000
 70
    32
  0
VERTEX
  8
M32LXLIFT
 62
13
 10
3268.317
 20
-4524.423
 30
2097.000
 70
    32
  0
VERTEX
  8
M32LXLIFT
 62
13
 10
3272.363
 20
-4541.972
 30
2097.000
 70
    32
  0
VERTEX
  8
M32LXLIFT
 62
13
 10
3273.221
 20
-4559.787
 30
2097.000
 70
    32
  0
VERTEX
  8
M32LXLIFT
 62
13
 10
3268.703
 20
-4580.241
 30
2097.000
 70
    32
  0
VERTEX
  8
M32LXLIFT
 62
13
 10
3264.097
 20
-4588.534
 30
2097.000
 70
    32
  0
VERTEX
  8
M32LXLIFT
 62
13
 10
3293.777
 20
-4620.331
 30
2097.000
 70
    32
  0
VERTEX
  8
M32LXLIFT
 62
13
 10
3297.981
 20
-4627.394
 30
2097.000
 70
    32
  0
VERTEX
  8
M32LXLIFT
 62
13
 10
3291.517
 20
-4636.725
 30
2097.000
 70
    32
  0
VERTEX
  8
M32LXLIFT
 62
13
 10
3303.137
 20
-4650.021
 30
2097.000
 70
    32
  0
VERTEX
  8
M32LXLIFT
 62
13
 10
3307.470
 20
-4658.300
 30
2097.000
 70
    32
  0
VERTEX
  8
M32LXLIFT
 62
13
 10
3305.488
 20
-4664.667
 30
2097.000
 70
    32
  0
VERTEX
  8
M32LXLIFT
 62
13
 10
3292.825
 20
-4662.287
 30
2097.000
 70
    32
  0
VERTEX
  8
M32LXLIFT
 62
13
 10
3285.760
 20
-4656.233
 30
2097.000
 70
    32
  0
VERTEX
  8
M32LXLIFT
 62
13
 10
3240.762
 20
-4689.932
 30
2097.000
 70
    32
  0
VERTEX
  8
M32LXLIFT
 62
13
 10
3184.825
 20
-4630.703
 30
2097.000
 70
    32
  0
VERTEX
  8
M32LXLIFT
 62
13
 10
3179.176
 20
-4620.334
 30
2097.000
 70
    32
  0
VERTEX
  8
M32LXLIFT
 62
13
 10
3173.403
 20
-4615.297
 30
2097.000
 70
    32
  0
VERTEX
  8
M32LXLIFT
 62
13
 10
3162.974
 20
-4593.812
 30
2097.000
 70
    32
  0
VERTEX
  8
M32LXLIFT
 62
13
 10
3157.305
 20
-4581.931
 30
2097.000
 70
    32
  0
VERTEX
  8
M32LXLIFT
 62
13
 10
3144.218
 20
-4544.936
 30
2097.000
 70
    32
  0
VERTEX
  8
M32LXLIFT
 62
13
 10
3133.321
 20
-4529.799
 30
2097.000
 70
    32
  0
VERTEX
  8
M32LXLIFT
 62
13
 10
3127.454
 20
-4511.405
 30
2097.000
 70
    32
  0
VERTEX
  8
M32LXLIFT
 62
13
 10
3117.896
 20
-4490.809
 30
2097.000
 70
    32
  0
VERTEX
  8
M32LXLIFT
 62
13
 10
3084.528
 20
-4437.492
 30
2097.000
 70
    32
  0
VERTEX
  8
M32LXLIFT
 62
13
 10
3080.679
 20
-4431.804
 30
2097.000
 70
    32
  0
VERTEX
  8
M32LXLIFT
 62
13
 10
3130.953
 20
-4394.886
 30
2097.000
 70
    32
  0
VERTEX
  8
M32LXLIFT
 62
13
 10
3112.950
 20
-4369.032
 30
2097.000
 70
    32
  0
VERTEX
  8
M32LXLIFT
 62
13
 10
3157.880
 20
-4338.658
 30
2097.000
 70
    32
  0
VERTEX
  8
M32LXLIFT
 62
13
 10
3162.826
 20
-4207.761
 30
2097.000
 70
    32
  0
VERTEX
  8
M32LXLIFT
 62
13
 10
3179.286
 20
-4194.801
 30
2097.000
 70
    32
  0
VERTEX
  8
M32LXLIFT
 62
13
 10
3203.371
 20
-4176.023
 30
2097.000
 70
    32
  0
SEQEND
  8
M32LXLIFT
  0
POLYLINE
  8
M32LXLIFT
 62
3
 66
     1
 70
     9
  0
VERTEX
  8
M32LXLIFT
 62
3
 10
3243.909
 20
-4120.496
 30
2103.000
 70
    32
  0
VERTEX
  8
M32LXLIFT
 62
3
 10
3228.394
 20
-4132.216
 30
2103.000
 70
    32
  0
VERTEX
  8
M32LXLIFT
 62
3
 10
3215.067
 20
-4139.929
 30
2103.000
 70
    32
  0
VERTEX
  8
M32LXLIFT
 62
3
 10
3208.968
 20
-4135.785
 30
2103.000
 70
    32
  0
VERTEX
  8
M32LXLIFT
 62
3
 10
3201.707
 20
-4112.521
 30
2103.000
 70
    32
  0
VERTEX
  8
M32LXLIFT
 62
3
 10
3195.975
 20
-4091.190
 30
2103.000
 70
    32
  0
VERTEX
  8
M32LXLIFT
 62
3
 10
3204.108
 20
-4080.415
 30
2103.000
 70
    32
  0
VERTEX
  8
M32LXLIFT
 62
3
 10
3213.743
 20
-4075.850
 30
2103.000
 70
    32
  0
VERTEX
  8
M32LXLIFT
 62
3
 10
3223.926
 20
-4083.325
 30
2103.000
 70
    32
  0
VERTEX
  8
M32LXLIFT
 62
3
 10
3231.052
 20
-4088.570
 30
2103.000
 70
    32
  0
VERTEX
  8
M32LXLIFT
 62
3
 10
3236.063
 20
-4106.393
 30
2103.000
 70
    32
  0
SEQEND
  8
M32LXLIFT
  0
POLYLINE
  8
M32LXLIFT
 62
13
 66
     1
 70
     9
  0
VERTEX
  8
M32LXLIFT
 62
13
 10
3222.246
 20
-4137.686
 30
2102.000
 70
    32
  0
VERTEX
  8
M32LXLIFT
 62
13
 10
3235.874
 20
-4156.175
 30
2102.000
 70
    32
  0
VERTEX
  8
M32LXLIFT
 62
13
 10
3243.742
 20
-4182.848
 30
2102.000
 70
    32
  0
VERTEX
  8
M32LXLIFT
 62
13
 10
3252.661
 20
-4219.480
 30
2102.000
 70
    32
  0
VERTEX
  8
M32LXLIFT
 62
13
 10
3216.181
 20
-4246.374
 30
2102.000
 70
    32
  0
VERTEX
  8
M32LXLIFT
 62
13
 10
3204.646
 20
-4254.958
 30
2102.000
 70
    32
  0
VERTEX
  8
M32LXLIFT
 62
13
 10
3190.340
 20
-4253.747
 30
2102.000
 70
    32
  0
VERTEX
  8
M32LXLIFT
 62
13
 10
3179.917
 20
-4244.305
 30
2102.000
 70
    32
  0
VERTEX
  8
M32LXLIFT
 62
13
 10
3172.927
 20
-4231.832
 30
2102.000
 70
    32
  0
VERTEX
  8
M32LXLIFT
 62
13
 10
3168.776
 20
-4242.532
 30
2102.000
 70
    32
  0
VERTEX
  8
M32LXLIFT
 62
13
 10
3168.213
 20
-4254.744
 30
2102.000
 70
    32
  0
VERTEX
  8
M32LXLIFT
 62
13
 10
3157.364
 20
-4272.036
 30
2102.000
 70
    32
  0
VERTEX
  8
M32LXLIFT
 62
13
 10
3140.082
 20
-4289.119
 30
2102.000
 70
    32
  0
VERTEX
  8
M32LXLIFT
 62
13
 10
3122.566
 20
-4303.341
 30
2102.000
 70
    32
  0
VERTEX
  8
M32LXLIFT
 62
13
 10
3123.982
 20
-4310.220
 30
2102.000
 70
    32
  0
VERTEX
  8
M32LXLIFT
 62
13
 10
3109.687
 20
-4320.372
 30
2102.000
 70
    32
  0
VERTEX
  8
M32LXLIFT
 62
13
 10
3095.426
 20
-4329.525
 30
2102.000
 70
    32
  0
VERTEX
  8
M32LXLIFT
 62
13
 10
3084.824
 20
-4329.093
 30
2102.000
 70
    32
  0
VERTEX
  8
M32LXLIFT
 62
13
 10
3086.656
 20
-4338.486
 30
2102.000
 70
    32
  0
VERTEX
  8
M32LXLIFT
 62
13
 10
3069.783
 20
-4343.144
 30
2102.000
 70
    32
  0
VERTEX
  8
M32LXLIFT
 62
13
 10
3064.471
 20
-4334.327
 30
2102.000
 70
    32
  0
VERTEX
  8
M32LXLIFT
 62
13
 10
3065.145
 20
-4310.771
 30
2102.000
 70
    32
  0
VERTEX
  8
M32LXLIFT
 62
13
 10
3066.867
 20
-4278.658
 30
2102.000
 70
    32
  0
VERTEX
  8
M32LXLIFT
 62
13
 10
3090.999
 20
-4271.766
 30
2102.000
 70
    32
  0
VERTEX
  8
M32LXLIFT
 62
13
 10
3105.829
 20
-4277.579
 30
2102.000
 70
    32
  0
VERTEX
  8
M32LXLIFT
 62
13
 10
3107.858
 20
-4262.461
 30
2102.000
 70
    32
  0
VERTEX
  8
M32LXLIFT
 62
13
 10
3116.100
 20
-4253.667
 30
2102.000
 70
    32
  0
VERTEX
  8
M32LXLIFT
 62
13
 10
3117.423
 20
-4252.058
 30
2102.000
 70
    32
  0
VERTEX
  8
M32LXLIFT
 62
13
 10
3133.859
 20
-4240.677
 30
2102.000
 70
    32
  0
VERTEX
  8
M32LXLIFT
 62
13
 10
3152.456
 20
-4227.946
 30
2102.000
 70
    32
  0
VERTEX
  8
M32LXLIFT
 62
13
 10
3165.239
 20
-4210.334
 30
2102.000
 70
    32
  0
VERTEX
  8
M32LXLIFT
 62
13
 10
3192.140
 20
-4190.388
 30
2102.000
 70
    32
  0
VERTEX
  8
M32LXLIFT
 62
13
 10
3221.481
 20
-4166.939
 30
2102.000
 70
    32
  0
VERTEX
  8
M32LXLIFT
 62
13
 10
3215.184
 20
-4157.212
 30
2102.000
 70
    32
  0
VERTEX
  8
M32LXLIFT
 62
13
 10
3203.413
 20
-4164.126
 30
2102.000
 70
    32
  0
VERTEX
  8
M32LXLIFT
 62
13
 10
3196.979
 20
-4155.256
 30
2102.000
 70
    32
  0
SEQEND
  8
M32LXLIFT
  0
POLYLINE
  8
M32LXLIFT
 62
3
 66
     1
 70
     9
  0
VERTEX
  8
M32LXLIFT
 62
3
 10
3221.325
 20
-4137.163
 30
2108.000
 70
    32
  0
VERTEX
  8
M32LXLIFT
 62
3
 10
3221.782
 20
-4127.193
 30
2108.000
 70
    32
  0
VERTEX
  8
M32LXLIFT
 62
3
 10
3223.240
 20
-4116.064
 30
2108.000
 70
    32
  0
VERTEX
  8
M32LXLIFT
 62
3
 10
3225.119
 20
-4102.680
 30
2108.000
 70
    32
  0
VERTEX
  8
M32LXLIFT
 62
3
 10
3227.313
 20
-4075.098
 30
2108.000
 70
    32
  0
VERTEX
  8
M32LXLIFT
 62
3
 10
3214.476
 20
-4074.122
 30
2108.000
 70
    32
  0
VERTEX
  8
M32LXLIFT
 62
3
 10
3209.043
 20
-4068.424
 30
2108.000
 70
    32
  0
VERTEX
  8
M32LXLIFT
 62
3
 10
3198.160
 20
-4076.860
 30
2108.000
 70
    32
  0
VERTEX
  8
M32LXLIFT
 62
3
 10
3183.026
 20
-4087.946
 30
2108.000
 70
    32
  0
VERTEX
  8
M32LXLIFT
 62
3
 10
3177.464
 20
-4098.045
 30
2108.000
 70
    32
  0
VERTEX
  8
M32LXLIFT
 62
3
 10
3184.294
 20
-4115.075
 30
2108.000
 70
    32
  0
VERTEX
  8
M32LXLIFT
 62
3
 10
3188.692
 20
-4128.454
 30
2108.000
 70
    32
  0
VERTEX
  8
M32LXLIFT
 62
3
 10
3193.896
 20
-4141.898
 30
2108.000
 70
    32
  0
VERTEX
  8
M32LXLIFT
 62
3
 10
3196.748
 20
-4154.341
 30
2108.000
 70
    32
  0
SEQEND
  8
M32LXLIFT
  0
POLYLINE
  8
M32LXLIFT
 62
13
 66
     1
 70
     9
  0
VERTEX
  8
M32LXLIFT
 62
13
 10
3222.760
 20
-4164.955
 30
2122.000
 70
    32
  0
VERTEX
  8
M32LXLIFT
 62
13
 10
3235.413
 20
-4185.509
 30
2122.000
 70
    32
  0
VERTEX
  8
M32LXLIFT
 62
13
 10
3240.425
 20
-4203.432
 30
2122.000
 70
    32
  0
VERTEX
  8
M32LXLIFT
 62
13
 10
3237.090
 20
-4223.952
 30
2122.000
 70
    32
  0
VERTEX
  8
M32LXLIFT
 62
13
 10
3261.434
 20
-4264.353
 30
2122.000
 70
    32
  0
VERTEX
  8
M32LXLIFT
 62
13
 10
3274.769
 20
-4285.384
 30
2122.000
 70
    32
  0
VERTEX
  8
M32LXLIFT
 62
13
 10
3285.860
 20
-4305.896
 30
2122.000
 70
    32
  0
VERTEX
  8
M32LXLIFT
 62
13
 10
3294.002
 20
-4314.495
 30
2122.000
 70
    32
  0
VERTEX
  8
M32LXLIFT
 62
13
 10
3304.698
 20
-4361.542
 30
2122.000
 70
    32
  0
VERTEX
  8
M32LXLIFT
 62
13
 10
3314.278
 20
-4370.166
 30
2122.000
 70
    32
  0
VERTEX
  8
M32LXLIFT
 62
13
 10
3320.063
 20
-4387.952
 30
2122.000
 70
    32
  0
VERTEX
  8
M32LXLIFT
 62
13
 10
3328.705
 20
-4414.877
 30
2122.000
 70
    32
  0
VERTEX
  8
M32LXLIFT
 62
13
 10
3319.115
 20
-4416.538
 30
2122.000
 70
    32
  0
VERTEX
  8
M32LXLIFT
 62
13
 10
3306.013
 20
-4426.713
 30
2122.000
 70
    32
  0
VERTEX
  8
M32LXLIFT
 62
13
 10
3279.426
 20
-4442.429
 30
2122.000
 70
    32
  0
VERTEX
  8
M32LXLIFT
 62
13
 10
3258.312
 20
-4422.260
 30
2122.000
 70
    32
  0
VERTEX
  8
M32LXLIFT
 62
13
 10
3243.098
 20
-4405.469
 30
2122.000
 70
    32
  0
VERTEX
  8
M32LXLIFT
 62
13
 10
3211.257
 20
-4361.894
 30
2122.000
 70
    32
  0
VERTEX
  8
M32LXLIFT
 62
13
 10
3189.432
 20
-4343.564
 30
2122.000
 70
    32
  0
VERTEX
  8
M32LXLIFT
 62
13
 10
3187.484
 20
-4335.500
 30
2122.000
 70
    32
  0
VERTEX
  8
M32LXLIFT
 62
13
 10
3202.732
 20
-4320.121
 30
2122.000
 70
    32
  0
VERTEX
  8
M32LXLIFT
 62
13
 10
3218.163
 20
-4298.811
 30
2122.000
 70
    32
  0
VERTEX
  8
M32LXLIFT
 62
13
 10
3172.965
 20
-4255.213
 30
2122.000
 70
    32
  0
VERTEX
  8
M32LXLIFT
 62
13
 10
3160.860
 20
-4233.925
 30
2122.000
 70
    32
  0
VERTEX
  8
M32LXLIFT
 62
13
 10
3154.605
 20
-4215.066
 30
2122.000
 70
    32
  0
VERTEX
  8
M32LXLIFT
 62
13
 10
3186.381
 20
-4192.651
 30
2122.000
 70
    32
  0
SEQEND
  8
M32LXLIFT
  0
POLYLINE
  8
M32LXLIFT
 62
13
 66
     1
 70
     9
  0
VERTEX
  8
M32LXLIFT
 62
13
 10
3213.182
 20
-4167.922
 30
2147.000
 70
    32
  0
VERTEX
  8
M32LXLIFT
 62
13
 10
3225.139
 20
-4189.606
 30
2147.000
 70
    32
  0
VERTEX
  8
M32LXLIFT
 62
13
 10
3224.357
 20
-4202.491
 30
2147.000
 70
    32
  0
VERTEX
  8
M32LXLIFT
 62
13
 10
3236.651
 20
-4219.200
 30
2147.000
 70
    32
  0
VERTEX
  8
M32LXLIFT
 62
13
 10
3259.881
 20
-4261.214
 30
2147.000
 70
    32
  0
VERTEX
  8
M32LXLIFT
 62
13
 10
3269.300
 20
-4266.459
 30
2147.000
 70
    32
  0
VERTEX
  8
M32LXLIFT
 62
13
 10
3276.577
 20
-4294.943
 30
2147.000
 70
    32
  0
VERTEX
  8
M32LXLIFT
 62
13
 10
3283.484
 20
-4323.373
 30
2147.000
 70
    32
  0
VERTEX
  8
M32LXLIFT
 62
13
 10
3306.823
 20
-4359.814
 30
2147.000
 70
    32
  0
VERTEX
  8
M32LXLIFT
 62
13
 10
3316.011
 20
-4368.856
 30
2147.000
 70
    32
  0
VERTEX
  8
M32LXLIFT
 62
13
 10
3322.820
 20
-4387.038
 30
2147.000
 70
    32
  0
VERTEX
  8
M32LXLIFT
 62
13
 10
3338.315
 20
-4375.762
 30
2147.000
 70
    32
  0
VERTEX
  8
M32LXLIFT
 62
13
 10
3342.004
 20
-4380.687
 30
2147.000
 70
    32
  0
VERTEX
  8
M32LXLIFT
 62
13
 10
3338.520
 20
-4385.273
 30
2147.000
 70
    32
  0
VERTEX
  8
M32LXLIFT
 62
13
 10
3347.793
 20
-4398.534
 30
2147.000
 70
    32
  0
VERTEX
  8
M32LXLIFT
 62
13
 10
3338.998
 20
-4406.000
 30
2147.000
 70
    32
  0
VERTEX
  8
M32LXLIFT
 62
13
 10
3330.479
 20
-4396.237
 30
2147.000
 70
    32
  0
VERTEX
  8
M32LXLIFT
 62
13
 10
3323.987
 20
-4403.405
 30
2147.000
 70
    32
  0
VERTEX
  8
M32LXLIFT
 62
13
 10
3327.392
 20
-4412.057
 30
2147.000
 70
    32
  0
VERTEX
  8
M32LXLIFT
 62
13
 10
3318.789
 20
-4420.806
 30
2147.000
 70
    32
  0
VERTEX
  8
M32LXLIFT
 62
13
 10
3312.166
 20
-4414.895
 30
2147.000
 70
    32
  0
VERTEX
  8
M32LXLIFT
 62
13
 10
3305.693
 20
-4419.303
 30
2147.000
 70
    32
  0
VERTEX
  8
M32LXLIFT
 62
13
 10
3298.236
 20
-4424.449
 30
2147.000
 70
    32
  0
VERTEX
  8
M32LXLIFT
 62
13
 10
3263.534
 20
-4477.674
 30
2147.000
 70
    32
  0
VERTEX
  8
M32LXLIFT
 62
13
 10
3286.754
 20
-4507.065
 30
2147.000
 70
    32
  0
VERTEX
  8
M32LXLIFT
 62
13
 10
3274.865
 20
-4515.970
 30
2147.000
 70
    32
  0
VERTEX
  8
M32LXLIFT
 62
13
 10
3254.732
 20
-4547.741
 30
2147.000
 70
    32
  0
VERTEX
  8
M32LXLIFT
 62
13
 10
3256.340
 20
-4561.911
 30
2147.000
 70
    32
  0
VERTEX
  8
M32LXLIFT
 62
13
 10
3265.455
 20
-4574.961
 30
2147.000
 70
    32
  0
VERTEX
  8
M32LXLIFT
 62
13
 10
3260.741
 20
-4579.810
 30
2147.000
 70
    32
  0
VERTEX
  8
M32LXLIFT
 62
13
 10
3263.990
 20
-4583.416
 30
2147.000
 70
    32
  0
VERTEX
  8
M32LXLIFT
 62
13
 10
3280.115
 20
-4630.312
 30
2147.000
 70
    32
  0
VERTEX
  8
M32LXLIFT
 62
13
 10
3293.816
 20
-4645.967
 30
2147.000
 70
    32
  0
VERTEX
  8
M32LXLIFT
 62
13
 10
3284.651
 20
-4655.577
 30
2147.000
 70
    32
  0
VERTEX
  8
M32LXLIFT
 62
13
 10
3239.398
 20
-4686.944
 30
2147.000
 70
    32
  0
VERTEX
  8
M32LXLIFT
 62
13
 10
3231.378
 20
-4692.511
 30
2147.000
 70
    32
  0
VERTEX
  8
M32LXLIFT
 62
13
 10
3239.260
 20
-4708.461
 30
2147.000
 70
    32
  0
VERTEX
  8
M32LXLIFT
 62
13
 10
3243.343
 20
-4728.575
 30
2147.000
 70
    32
  0
VERTEX
  8
M32LXLIFT
 62
13
 10
3228.480
 20
-4740.255
 30
2147.000
 70
    32
  0
VERTEX
  8
M32LXLIFT
 62
13
 10
3223.609
 20
-4716.449
 30
2147.000
 70
    32
  0
VERTEX
  8
M32LXLIFT
 62
13
 10
3224.922
 20
-4698.994
 30
2147.000
 70
    32
  0
VERTEX
  8
M32LXLIFT
 62
13
 10
3212.734
 20
-4706.914
 30
2147.000
 70
    32
  0
VERTEX
  8
M32LXLIFT
 62
13
 10
3218.277
 20
-4723.847
 30
2147.000
 70
    32
  0
VERTEX
  8
M32LXLIFT
 62
13
 10
3220.433
 20
-4733.763
 30
2147.000
 70
    32
  0
VERTEX
  8
M32LXLIFT
 62
13
 10
3202.502
 20
-4733.575
 30
2147.000
 70
    32
  0
VERTEX
  8
M32LXLIFT
 62
13
 10
3195.082
 20
-4734.959
 30
2147.000
 70
    32
  0
VERTEX
  8
M32LXLIFT
 62
13
 10
3192.373
 20
-4738.965
 30
2147.000
 70
    32
  0
VERTEX
  8
M32LXLIFT
 62
13
 10
3182.692
 20
-4729.853
 30
2147.000
 70
    32
  0
VERTEX
  8
M32LXLIFT
 62
13
 10
3177.418
 20
-4730.728
 30
2147.000
 70
    32
  0
VERTEX
  8
M32LXLIFT
 62
13
 10
3175.488
 20
-4724.047
 30
2147.000
 70
    32
  0
VERTEX
  8
M32LXLIFT
 62
13
 10
3173.352
 20
-4712.249
 30
2147.000
 70
    32
  0
VERTEX
  8
M32LXLIFT
 62
13
 10
3176.149
 20
-4629.328
 30
2147.000
 70
    32
  0
VERTEX
  8
M32LXLIFT
 62
13
 10
3167.278
 20
-4619.829
 30
2147.000
 70
    32
  0
VERTEX
  8
M32LXLIFT
 62
13
 10
3161.927
 20
-4603.301
 30
2147.000
 70
    32
  0
VERTEX
  8
M32LXLIFT
 62
13
 10
3155.888
 20
-4591.131
 30
2147.000
 70
    32
  0
VERTEX
  8
M32LXLIFT
 62
13
 10
3132.513
 20
-4555.376
 30
2147.000
 70
    32
  0
VERTEX
  8
M32LXLIFT
 62
13
 10
3122.269
 20
-4548.004
 30
2147.000
 70
    32
  0
VERTEX
  8
M32LXLIFT
 62
13
 10
3116.280
 20
-4539.860
 30
2147.000
 70
    32
  0
VERTEX
  8
M32LXLIFT
 62
13
 10
3121.768
 20
-4535.750
 30
2147.000
 70
    32
  0
VERTEX
  8
M32LXLIFT
 62
13
 10
3121.475
 20
-4526.855
 30
2147.000
 70
    32
  0
VERTEX
  8
M32LXLIFT
 62
13
 10
3110.708
 20
-4513.065
 30
2147.000
 70
    32
  0
VERTEX
  8
M32LXLIFT
 62
13
 10
3103.649
 20
-4501.440
 30
2147.000
 70
    32
  0
VERTEX
  8
M32LXLIFT
 62
13
 10
3060.135
 20
-4454.632
 30
2147.000
 70
    32
  0
VERTEX
  8
M32LXLIFT
 62
13
 10
3056.711
 20
-4448.741
 30
2147.000
 70
    32
  0
VERTEX
  8
M32LXLIFT
 62
13
 10
3102.441
 20
-4414.930
 30
2147.000
 70
    32
  0
VERTEX
  8
M32LXLIFT
 62
13
 10
3092.378
 20
-4399.295
 30
2147.000
 70
    32
  0
VERTEX
  8
M32LXLIFT
 62
13
 10
3087.587
 20
-4387.180
 30
2147.000
 70
    32
  0
VERTEX
  8
M32LXLIFT
 62
13
 10
3107.972
 20
-4371.143
 30
2147.000
 70
    32
  0
VERTEX
  8
M32LXLIFT
 62
13
 10
3122.036
 20
-4345.346
 30
2147.000
 70
    32
  0
VERTEX
  8
M32LXLIFT
 62
13
 10
3127.383
 20
-4340.462
 30
2147.000
 70
    32
  0
VERTEX
  8
M32LXLIFT
 62
13
 10
3128.991
 20
-4275.014
 30
2147.000
 70
    32
  0
VERTEX
  8
M32LXLIFT
 62
13
 10
3144.927
 20
-4261.981
 30
2147.000
 70
    32
  0
VERTEX
  8
M32LXLIFT
 62
13
 10
3163.512
 20
-4204.244
 30
2147.000
 70
    32
  0
VERTEX
  8
M32LXLIFT
 62
13
 10
3184.107
 20
-4190.247
 30
2147.000
 70
    32
  0
SEQEND
  8
M32LXLIFT
  0
POLYLINE
  8
M32LXLIFT
 62
8
 66
     1
 70
     9
  0
VERTEX
  8
M32LXLIFT
 62
8
 10
2918.113
 20
-4501.369
 30
2147.000
 70
    32
  0
VERTEX
  8
M32LXLIFT
 62
8
 10
2924.765
 20
-4518.022
 30
2147.000
 70
    32
  0
VERTEX
  8
M32LXLIFT
 62
8
 10
2934.336
 20
-4531.828
 30
2147.000
 70
    32
  0
VERTEX
  8
M32LXLIFT
 62
8
 10
2933.796
 20
-4551.341
 30
2147.000
 70
    32
  0
VERTEX
  8
M32LXLIFT
 62
8
 10
2921.924
 20
-4560.562
 30
2147.000
 70
    32
  0
VERTEX
  8
M32LXLIFT
 62
8
 10
2906.280
 20
-4557.124
 30
2147.000
 70
    32
  0
VERTEX
  8
M32LXLIFT
 62
8
 10
2901.965
 20
-4542.126
 30
2147.000
 70
    32
  0
VERTEX
  8
M32LXLIFT
 62
8
 10
2901.972
 20
-4532.017
 30
2147.000
 70
    32
  0
VERTEX
  8
M32LXLIFT
 62
8
 10
2906.691
 20
-4520.576
 30
2147.000
 70
    32
  0
VERTEX
  8
M32LXLIFT
 62
8
 10
2908.445
 20
-4500.484
 30
2147.000
 70
    32
  0
SEQEND
  8
M32LXLIFT
  0
POLYLINE
  8
M32LXLIFT
 62
1
 66
     1
 70
     9
  0
VERTEX
  8
M32LXLIFT
 62
1
 10
2920.113
 20
-4499.369
 30
2157.000
 70
    32
  0
VERTEX
  8
M32LXLIFT
 62
1
 10
2926.765
 20
-4516.022
 30
2157.000
 70
    32
  0
VERTEX
  8
M32LXLIFT
 62
1
 10
2936.336
 20
-4529.828
 30
2157.000
 70
    32
  0
VERTEX
  8
M32LXLIFT
 62
1
 10
2935.796
 20
-4549.341
 30
2157.000
 70
    32
  0
VERTEX
  8
M32LXLIFT
 62
1
 10
2923.924
 20
-4558.562
 30
2157.000
 70
    32
  0
VERTEX
  8
M32LXLIFT
 62
1
 10
2908.280
 20
-4555.124
 30
2157.000
 70
    32
  0
VERTEX
  8
M32LXLIFT
 62
1
 10
2903.965
 20
-4540.126
 30
2157.000
 70
    32
  0
VERTEX
  8
M32LXLIFT
 62
1
 10
2903.972
 20
-4530.017
 30
2157.000
 70
    32
  0
VERTEX
  8
M32LXLIFT
 62
1
 10
2908.691
 20
-4518.576
 30
2157.000
 70
    32
  0
VERTEX
  8
M32LXLIFT
 62
1
 10
2910.445
 20
-4498.484
 30
2157.000
 70
    32
  0
SEQEND
  8
M32LXLIFT
  0
POLYLINE
  8
M32LXLIFT
 62
1
 66
     1
 70
     9
  0
VERTEX
  8
M32LXLIFT
 62
1
 10
3215.182
 20
-4165.922
 30
2157.000
 70
    32
  0
VERTEX
  8
M32LXLIFT
 62
1
 10
3227.139
 20
-4187.606
 30
2157.000
 70
    32
  0
VERTEX
  8
M32LXLIFT
 62
1
 10
3226.357
 20
-4200.491
 30
2157.000
 70
    32
  0
VERTEX
  8
M32LXLIFT
 62
1
 10
3238.651
 20
-4217.200
 30
2157.000
 70
    32
  0
VERTEX
  8
M32LXLIFT
 62
1
 10
3261.881
 20
-4259.214
 30
2157.000
 70
    32
  0
VERTEX
  8
M32LXLIFT
 62
1
 10
3271.300
 20
-4264.459
 30
2157.000
 70
    32
  0
VERTEX
  8
M32LXLIFT
 62
1
 10
3278.577
 20
-4292.943
 30
2157.000
 70
    32
  0
VERTEX
  8
M32LXLIFT
 62
1
 10
3285.484
 20
-4321.373
 30
2157.000
 70
    32
  0
VERTEX
  8
M32LXLIFT
 62
1
 10
3308.823
 20
-4357.814
 30
2157.000
 70
    32
  0
VERTEX
  8
M32LXLIFT
 62
1
 10
3318.011
 20
-4366.856
 30
2157.000
 70
    32
  0
VERTEX
  8
M32LXLIFT
 62
1
 10
3324.820
 20
-4385.038
 30
2157.000
 70
    32
  0
VERTEX
  8
M32LXLIFT
 62
1
 10
3340.315
 20
-4373.762
 30
2157.000
 70
    32
  0
VERTEX
  8
M32LXLIFT
 62
1
 10
3344.004
 20
-4378.687
 30
2157.000
 70
    32
  0
VERTEX
  8
M32LXLIFT
 62
1
 10
3340.520
 20
-4383.273
 30
2157.000
 70
    32
  0
VERTEX
  8
M32LXLIFT
 62
1
 10
3349.793
 20
-4396.534
 30
2157.000
 70
    32
  0
VERTEX
  8
M32LXLIFT
 62
1
 10
3340.998
 20
-4404.000
 30
2157.000
 70
    32
  0
VERTEX
  8
M32LXLIFT
 62
1
 10
3332.479
 20
-4394.237
 30
2157.000
 70
    32
  0
VERTEX
  8
M32LXLIFT
 62
1
 10
3325.987
 20
-4401.405
 30
2157.000
 70
    32
  0
VERTEX
  8
M32LXLIFT
 62
1
 10
3329.392
 20
-4410.057
 30
2157.000
 70
    32
  0
VERTEX
  8
M32LXLIFT
 62
1
 10
3320.789
 20
-4418.806
 30
2157.000
 70
    32
  0
VERTEX
  8
M32LXLIFT
 62
1
 10
3314.166
 20
-4412.895
 30
2157.000
 70
    32
  0
VERTEX
  8
M32LXLIFT
 62
1
 10
3307.693
 20
-4417.303
 30
2157.000
 70
    32
  0
VERTEX
  8
M32LXLIFT
 62
1
 10
3300.236
 20
-4422.449
 30
2157.000
 70
    32
  0
VERTEX
  8
M32LXLIFT
 62
1
 10
3265.534
 20
-4475.674
 30
2157.000
 70
    32
  0
VERTEX
  8
M32LXLIFT
 62
1
 10
3288.754
 20
-4505.065
 30
2157.000
 70
    32
  0
VERTEX
  8
M32LXLIFT
 62
1
 10
3276.865
 20
-4513.970
 30
2157.000
 70
    32
  0
VERTEX
  8
M32LXLIFT
 62
1
 10
3256.732
 20
-4545.741
 30
2157.000
 70
    32
  0
VERTEX
  8
M32LXLIFT
 62
1
 10
3258.340
 20
-4559.911
 30
2157.000
 70
    32
  0
VERTEX
  8
M32LXLIFT
 62
1
 10
3267.455
 20
-4572.961
 30
2157.000
 70
    32
  0
VERTEX
  8
M32LXLIFT
 62
1
 10
3262.741
 20
-4577.810
 30
2157.000
 70
    32
  0
VERTEX
  8
M32LXLIFT
 62
1
 10
3265.990
 20
-4581.416
 30
2157.000
 70
    32
  0
VERTEX
  8
M32LXLIFT
 62
1
 10
3282.115
 20
-4628.312
 30
2157.000
 70
    32
  0
VERTEX
  8
M32LXLIFT
 62
1
 10
3295.816
 20
-4643.967
 30
2157.000
 70
    32
  0
VERTEX
  8
M32LXLIFT
 62
1
 10
3286.651
 20
-4653.577
 30
2157.000
 70
    32
  0
VERTEX
  8
M32LXLIFT
 62
1
 10
3241.398
 20
-4684.944
 30
2157.000
 70
    32
  0
VERTEX
  8
M32LXLIFT
 62
1
 10
3233.378
 20
-4690.511
 30
2157.000
 70
    32
  0
VERTEX
  8
M32LXLIFT
 62
1
 10
3241.260
 20
-4706.461
 30
2157.000
 70
    32
  0
VERTEX
  8
M32LXLIFT
 62
1
 10
3245.343
 20
-4726.575
 30
2157.000
 70
    32
  0
VERTEX
  8
M32LXLIFT
 62
1
 10
3230.480
 20
-4738.255
 30
2157.000
 70
    32
  0
VERTEX
  8
M32LXLIFT
 62
1
 10
3225.609
 20
-4714.449
 30
2157.000
 70
    32
  0
VERTEX
  8
M32LXLIFT
 62
1
 10
3226.922
 20
-4696.994
 30
2157.000
 70
    32
  0
VERTEX
  8
M32LXLIFT
 62
1
 10
3214.734
 20
-4704.914
 30
2157.000
 70
    32
  0
VERTEX
  8
M32LXLIFT
 62
1
 10
3220.277
 20
-4721.847
 30
2157.000
 70
    32
  0
VERTEX
  8
M32LXLIFT
 62
1
 10
3222.433
 20
-4731.763
 30
2157.000
 70
    32
  0
VERTEX
  8
M32LXLIFT
 62
1
 10
3204.502
 20
-4731.575
 30
2157.000
 70
    32
  0
VERTEX
  8
M32LXLIFT
 62
1
 10
3197.082
 20
-4732.959
 30
2157.000
 70
    32
  0
VERTEX
  8
M32LXLIFT
 62
1
 10
3194.373
 20
-4736.965
 30
2157.000
 70
    32
  0
VERTEX
  8
M32LXLIFT
 62
1
 10
3184.692
 20
-4727.853
 30
2157.000
 70
    32
  0
VERTEX
  8
M32LXLIFT
 62
1
 10
3179.418
 20
-4728.728
 30
2157.000
 70
    32
  0
VERTEX
  8
M32LXLIFT
 62
1
 10
3177.488
 20
-4722.047
 30
2157.000
 70
    32
  0
VERTEX
  8
M32LXLIFT
 62
1
 10
3175.352
 20
-4710.249
 30
2157.000
 70
    32
  0
VERTEX
  8
M32LXLIFT
 62
1
 10
3178.149
 20
-4627.328
 30
2157.000
 70
    32
  0
VERTEX
  8
M32LXLIFT
 62
1
 10
3169.278
 20
-4617.829
 30
2157.000
 70
    32
  0
VERTEX
  8
M32LXLIFT
 62
1
 10
3163.927
 20
-4601.301
 30
2157.000
 70
    32
  0
VERTEX
  8
M32LXLIFT
 62
1
 10
3157.888
 20
-4589.131
 30
2157.000
 70
    32
  0
VERTEX
  8
M32LXLIFT
 62
1
 10
3134.513
 20
-4553.376
 30
2157.000
 70
    32
  0
VERTEX
  8
M32LXLIFT
 62
1
 10
3124.269
 20
-4546.004
 30
2157.000
 70
    32
  0
VERTEX
  8
M32LXLIFT
 62
1
 10
3118.280
 20
-4537.860
 30
2157.000
 70
    32
  0
VERTEX
  8
M32LXLIFT
 62
1
 10
3123.768
 20
-4533.750
 30
2157.000
 70
    32
  0
VERTEX
  8
M32LXLIFT
 62
1
 10
3123.475
 20
-4524.855
 30
2157.000
 70
    32
  0
VERTEX
  8
M32LXLIFT
 62
1
 10
3112.708
 20
-4511.065
 30
2157.000
 70
    32
  0
VERTEX
  8
M32LXLIFT
 62
1
 10
3105.649
 20
-4499.440
 30
2157.000
 70
    32
  0
VERTEX
  8
M32LXLIFT
 62
1
 10
3062.135
 20
-4452.632
 30
2157.000
 70
    32
  0
VERTEX
  8
M32LXLIFT
 62
1
 10
3058.711
 20
-4446.741
 30
2157.000
 70
    32
  0
VERTEX
  8
M32LXLIFT
 62
1
 10
3104.441
 20
-4412.930
 30
2157.000
 70
    32
  0
VERTEX
  8
M32LXLIFT
 62
1
 10
3094.378
 20
-4397.295
 30
2157.000
 70
    32
  0
VERTEX
  8
M32LXLIFT
 62
1
 10
3089.587
 20
-4385.180
 30
2157.000
 70
    32
  0
VERTEX
  8
M32LXLIFT
 62
1
 10
3109.972
 20
-4369.143
 30
2157.000
 70
    32
  0
VERTEX
  8
M32LXLIFT
 62
1
 10
3124.036
 20
-4343.346
 30
2157.000
 70
    32
  0
VERTEX
  8
M32LXLIFT
 62
1
 10
3129.383
 20
-4338.462
 30
2157.000
 70
    32
  0
VERTEX
  8
M32LXLIFT
 62
1
 10
3130.991
 20
-4273.014
 30
2157.000
 70
    32
  0
VERTEX
  8
M32LXLIFT
 62
1
 10
3146.927
 20
-4259.981
 30
2157.000
 70
    32
  0
VERTEX
  8
M32LXLIFT
 62
1
 10
3165.512
 20
-4202.244
 30
2157.000
 70
    32
  0
VERTEX
  8
M32LXLIFT
 62
1
 10
3186.107
 20
-4188.247
 30
2157.000
 70
    32
  0
SEQEND
  8
M32LXLIFT
  0
POLYLINE
  8
M32LXLIFT
 62
1
 66
     1
 70
     9
  0
VERTEX
  8
M32LXLIFT
 62
1
 10
3198.748
 20
-4152.341
 30
2118.000
 70
    32
  0
VERTEX
  8
M32LXLIFT
 62
1
 10
3195.896
 20
-4139.898
 30
2118.000
 70
    32
  0
VERTEX
  8
M32LXLIFT
 62
1
 10
3190.692
 20
-4126.454
 30
2118.000
 70
    32
  0
VERTEX
  8
M32LXLIFT
 62
1
 10
3186.294
 20
-4113.075
 30
2118.000
 70
    32
  0
VERTEX
  8
M32LXLIFT
 62
1
 10
3179.464
 20
-4096.045
 30
2118.000
 70
    32
  0
VERTEX
  8
M32LXLIFT
 62
1
 10
3185.026
 20
-4085.946
 30
2118.000
 70
    32
  0
VERTEX
  8
M32LXLIFT
 62
1
 10
3200.160
 20
-4074.860
 30
2118.000
 70
    32
  0
VERTEX
  8
M32LXLIFT
 62
1
 10
3211.043
 20
-4066.424
 30
2118.000
 70
    32
  0
VERTEX
  8
M32LXLIFT
 62
1
 10
3216.476
 20
-4072.122
 30
2118.000
 70
    32
  0
VERTEX
  8
M32LXLIFT
 62
1
 10
3229.313
 20
-4073.098
 30
2118.000
 70
    32
  0
VERTEX
  8
M32LXLIFT
 62
1
 10
3227.119
 20
-4100.680
 30
2118.000
 70
    32
  0
VERTEX
  8
M32LXLIFT
 62
1
 10
3225.240
 20
-4114.064
 30
2118.000
 70
    32
  0
VERTEX
  8
M32LXLIFT
 62
1
 10
3223.782
 20
-4125.193
 30
2118.000
 70
    32
  0
VERTEX
  8
M32LXLIFT
 62
1
 10
3223.325
 20
-4135.163
 30
2118.000
 70
    32
  0
SEQEND
  8
M32LXLIFT
  0
ENDSEC
  0
EOF
