999
********************************
999
*   DXF File - Entities Only   *
999
*        3D Data Format        *
999
*     Output from ENVISAGE     *
999
*     31-Dec-2007 14:58:00     *
999
********************************
  0
SECTION 
  2
HEADER
  9
$ACADVER
  1
AC1009
  9
$EXTMIN
 10
-290000.000
 20
-250000.000
 30
-4000.000
  9
$EXTMAX
 10
320000.000
 20
160000.000
 30
6000.000
  0
ENDSEC
  0
SECTION
  2
ENTITIES
  0
POLYLINE
  8
M33LXLIFT
 62
3
 66
     1
 70
     9
  0
VERTEX
  8
M33LXLIFT
 62
3
 10
3648.203
 20
-4687.929
 30
1898.000
 70
    32
  0
VERTEX
  8
M33LXLIFT
 62
3
 10
3624.085
 20
-4704.964
 30
1898.000
 70
    32
  0
VERTEX
  8
M33LXLIFT
 62
3
 10
3579.534
 20
-4691.539
 30
1898.000
 70
    32
  0
VERTEX
  8
M33LXLIFT
 62
3
 10
3570.265
 20
-4693.498
 30
1898.000
 70
    32
  0
VERTEX
  8
M33LXLIFT
 62
3
 10
3557.564
 20
-4677.869
 30
1898.000
 70
    32
  0
VERTEX
  8
M33LXLIFT
 62
3
 10
3498.448
 20
-4671.650
 30
1898.000
 70
    32
  0
VERTEX
  8
M33LXLIFT
 62
3
 10
3476.282
 20
-4688.220
 30
1898.000
 70
    32
  0
VERTEX
  8
M33LXLIFT
 62
3
 10
3458.533
 20
-4699.540
 30
1898.000
 70
    32
  0
VERTEX
  8
M33LXLIFT
 62
3
 10
3447.272
 20
-4695.427
 30
1898.000
 70
    32
  0
VERTEX
  8
M33LXLIFT
 62
3
 10
3429.430
 20
-4696.748
 30
1898.000
 70
    32
  0
VERTEX
  8
M33LXLIFT
 62
3
 10
3419.160
 20
-4709.738
 30
1898.000
 70
    32
  0
VERTEX
  8
M33LXLIFT
 62
3
 10
3421.663
 20
-4730.203
 30
1898.000
 70
    32
  0
VERTEX
  8
M33LXLIFT
 62
3
 10
3400.703
 20
-4740.734
 30
1898.000
 70
    32
  0
VERTEX
  8
M33LXLIFT
 62
3
 10
3387.452
 20
-4752.216
 30
1898.000
 70
    32
  0
VERTEX
  8
M33LXLIFT
 62
3
 10
3371.047
 20
-4821.195
 30
1898.000
 70
    32
  0
VERTEX
  8
M33LXLIFT
 62
3
 10
3373.991
 20
-4834.001
 30
1898.000
 70
    32
  0
VERTEX
  8
M33LXLIFT
 62
3
 10
3377.749
 20
-4849.376
 30
1898.000
 70
    32
  0
VERTEX
  8
M33LXLIFT
 62
3
 10
3361.888
 20
-4851.743
 30
1898.000
 70
    32
  0
VERTEX
  8
M33LXLIFT
 62
3
 10
3350.118
 20
-4836.189
 30
1898.000
 70
    32
  0
VERTEX
  8
M33LXLIFT
 62
3
 10
3299.373
 20
-4684.007
 30
1898.000
 70
    32
  0
VERTEX
  8
M33LXLIFT
 62
3
 10
3281.941
 20
-4643.439
 30
1898.000
 70
    32
  0
VERTEX
  8
M33LXLIFT
 62
3
 10
3275.194
 20
-4624.922
 30
1898.000
 70
    32
  0
VERTEX
  8
M33LXLIFT
 62
3
 10
3269.055
 20
-4615.035
 30
1898.000
 70
    32
  0
VERTEX
  8
M33LXLIFT
 62
3
 10
3271.273
 20
-4610.653
 30
1898.000
 70
    32
  0
VERTEX
  8
M33LXLIFT
 62
3
 10
3266.657
 20
-4601.933
 30
1898.000
 70
    32
  0
VERTEX
  8
M33LXLIFT
 62
3
 10
3269.858
 20
-4597.696
 30
1898.000
 70
    32
  0
VERTEX
  8
M33LXLIFT
 62
3
 10
3265.912
 20
-4588.698
 30
1898.000
 70
    32
  0
VERTEX
  8
M33LXLIFT
 62
3
 10
3249.546
 20
-4571.523
 30
1898.000
 70
    32
  0
VERTEX
  8
M33LXLIFT
 62
3
 10
3238.068
 20
-4565.055
 30
1898.000
 70
    32
  0
VERTEX
  8
M33LXLIFT
 62
3
 10
3243.544
 20
-4555.188
 30
1898.000
 70
    32
  0
VERTEX
  8
M33LXLIFT
 62
3
 10
3274.346
 20
-4533.299
 30
1898.000
 70
    32
  0
VERTEX
  8
M33LXLIFT
 62
3
 10
3269.798
 20
-4517.745
 30
1898.000
 70
    32
  0
VERTEX
  8
M33LXLIFT
 62
3
 10
3288.445
 20
-4505.867
 30
1898.000
 70
    32
  0
VERTEX
  8
M33LXLIFT
 62
3
 10
3297.771
 20
-4517.983
 30
1898.000
 70
    32
  0
VERTEX
  8
M33LXLIFT
 62
3
 10
3339.841
 20
-4517.163
 30
1898.000
 70
    32
  0
VERTEX
  8
M33LXLIFT
 62
3
 10
3363.263
 20
-4498.894
 30
1898.000
 70
    32
  0
VERTEX
  8
M33LXLIFT
 62
3
 10
3362.296
 20
-4458.247
 30
1898.000
 70
    32
  0
VERTEX
  8
M33LXLIFT
 62
3
 10
3349.195
 20
-4452.983
 30
1898.000
 70
    32
  0
VERTEX
  8
M33LXLIFT
 62
3
 10
3333.070
 20
-4444.385
 30
1898.000
 70
    32
  0
VERTEX
  8
M33LXLIFT
 62
3
 10
3350.459
 20
-4427.423
 30
1898.000
 70
    32
  0
VERTEX
  8
M33LXLIFT
 62
3
 10
3349.025
 20
-4407.367
 30
1898.000
 70
    32
  0
VERTEX
  8
M33LXLIFT
 62
3
 10
3344.439
 20
-4381.444
 30
1898.000
 70
    32
  0
VERTEX
  8
M33LXLIFT
 62
3
 10
3340.059
 20
-4349.022
 30
1898.000
 70
    32
  0
VERTEX
  8
M33LXLIFT
 62
3
 10
3362.525
 20
-4335.949
 30
1898.000
 70
    32
  0
VERTEX
  8
M33LXLIFT
 62
3
 10
3378.778
 20
-4361.962
 30
1898.000
 70
    32
  0
VERTEX
  8
M33LXLIFT
 62
3
 10
3384.828
 20
-4383.077
 30
1898.000
 70
    32
  0
VERTEX
  8
M33LXLIFT
 62
3
 10
3381.108
 20
-4396.783
 30
1898.000
 70
    32
  0
VERTEX
  8
M33LXLIFT
 62
3
 10
3382.144
 20
-4408.051
 30
1898.000
 70
    32
  0
VERTEX
  8
M33LXLIFT
 62
3
 10
3389.377
 20
-4390.971
 30
1898.000
 70
    32
  0
VERTEX
  8
M33LXLIFT
 62
3
 10
3389.423
 20
-4377.476
 30
1898.000
 70
    32
  0
VERTEX
  8
M33LXLIFT
 62
3
 10
3406.066
 20
-4377.045
 30
1898.000
 70
    32
  0
VERTEX
  8
M33LXLIFT
 62
3
 10
3428.955
 20
-4389.594
 30
1898.000
 70
    32
  0
VERTEX
  8
M33LXLIFT
 62
3
 10
3408.243
 20
-4410.775
 30
1898.000
 70
    32
  0
VERTEX
  8
M33LXLIFT
 62
3
 10
3394.865
 20
-4423.117
 30
1898.000
 70
    32
  0
VERTEX
  8
M33LXLIFT
 62
3
 10
3401.675
 20
-4428.456
 30
1898.000
 70
    32
  0
VERTEX
  8
M33LXLIFT
 62
3
 10
3430.967
 20
-4469.080
 30
1898.000
 70
    32
  0
VERTEX
  8
M33LXLIFT
 62
3
 10
3444.893
 20
-4459.833
 30
1898.000
 70
    32
  0
VERTEX
  8
M33LXLIFT
 62
3
 10
3461.614
 20
-4483.529
 30
1898.000
 70
    32
  0
VERTEX
  8
M33LXLIFT
 62
3
 10
3497.415
 20
-4507.719
 30
1898.000
 70
    32
  0
VERTEX
  8
M33LXLIFT
 62
3
 10
3507.208
 20
-4499.243
 30
1898.000
 70
    32
  0
VERTEX
  8
M33LXLIFT
 62
3
 10
3514.755
 20
-4508.522
 30
1898.000
 70
    32
  0
VERTEX
  8
M33LXLIFT
 62
3
 10
3505.498
 20
-4518.898
 30
1898.000
 70
    32
  0
VERTEX
  8
M33LXLIFT
 62
3
 10
3480.946
 20
-4538.444
 30
1898.000
 70
    32
  0
VERTEX
  8
M33LXLIFT
 62
3
 10
3473.142
 20
-4546.209
 30
1898.000
 70
    32
  0
VERTEX
  8
M33LXLIFT
 62
3
 10
3468.732
 20
-4568.416
 30
1898.000
 70
    32
  0
VERTEX
  8
M33LXLIFT
 62
3
 10
3493.751
 20
-4602.255
 30
1898.000
 70
    32
  0
VERTEX
  8
M33LXLIFT
 62
3
 10
3517.470
 20
-4628.742
 30
1898.000
 70
    32
  0
VERTEX
  8
M33LXLIFT
 62
3
 10
3530.948
 20
-4647.186
 30
1898.000
 70
    32
  0
VERTEX
  8
M33LXLIFT
 62
3
 10
3576.088
 20
-4665.973
 30
1898.000
 70
    32
  0
VERTEX
  8
M33LXLIFT
 62
3
 10
3607.166
 20
-4656.246
 30
1898.000
 70
    32
  0
VERTEX
  8
M33LXLIFT
 62
3
 10
3619.989
 20
-4645.957
 30
1898.000
 70
    32
  0
VERTEX
  8
M33LXLIFT
 62
3
 10
3633.544
 20
-4663.030
 30
1898.000
 70
    32
  0
VERTEX
  8
M33LXLIFT
 62
3
 10
3647.194
 20
-4659.897
 30
1898.000
 70
    32
  0
VERTEX
  8
M33LXLIFT
 62
3
 10
3647.440
 20
-4659.933
 30
1898.000
 70
    32
  0
VERTEX
  8
M33LXLIFT
 62
3
 10
3654.869
 20
-4649.601
 30
1898.000
 70
    32
  0
VERTEX
  8
M33LXLIFT
 62
3
 10
3646.524
 20
-4645.731
 30
1898.000
 70
    32
  0
VERTEX
  8
M33LXLIFT
 62
3
 10
3637.298
 20
-4634.635
 30
1898.000
 70
    32
  0
VERTEX
  8
M33LXLIFT
 62
3
 10
3652.687
 20
-4624.411
 30
1898.000
 70
    32
  0
VERTEX
  8
M33LXLIFT
 62
3
 10
3660.668
 20
-4627.348
 30
1898.000
 70
    32
  0
VERTEX
  8
M33LXLIFT
 62
3
 10
3674.738
 20
-4646.884
 30
1898.000
 70
    32
  0
VERTEX
  8
M33LXLIFT
 62
3
 10
3684.366
 20
-4662.059
 30
1898.000
 70
    32
  0
SEQEND
  8
M33LXLIFT
  0
POLYLINE
  8
M33LXLIFT
 62
3
 66
     1
 70
     9
  0
VERTEX
  8
M33LXLIFT
 62
3
 10
3448.758
 20
-4580.920
 30
1913.000
 70
    32
  0
VERTEX
  8
M33LXLIFT
 62
3
 10
3451.962
 20
-4554.087
 30
1913.000
 70
    32
  0
VERTEX
  8
M33LXLIFT
 62
3
 10
3449.902
 20
-4521.315
 30
1913.000
 70
    32
  0
VERTEX
  8
M33LXLIFT
 62
3
 10
3446.095
 20
-4507.747
 30
1913.000
 70
    32
  0
VERTEX
  8
M33LXLIFT
 62
3
 10
3436.299
 20
-4514.882
 30
1913.000
 70
    32
  0
VERTEX
  8
M33LXLIFT
 62
3
 10
3429.069
 20
-4503.627
 30
1913.000
 70
    32
  0
VERTEX
  8
M33LXLIFT
 62
3
 10
3431.745
 20
-4500.009
 30
1913.000
 70
    32
  0
VERTEX
  8
M33LXLIFT
 62
3
 10
3413.843
 20
-4477.422
 30
1913.000
 70
    32
  0
VERTEX
  8
M33LXLIFT
 62
3
 10
3423.514
 20
-4470.709
 30
1913.000
 70
    32
  0
VERTEX
  8
M33LXLIFT
 62
3
 10
3408.998
 20
-4443.543
 30
1913.000
 70
    32
  0
VERTEX
  8
M33LXLIFT
 62
3
 10
3397.970
 20
-4414.891
 30
1913.000
 70
    32
  0
VERTEX
  8
M33LXLIFT
 62
3
 10
3372.555
 20
-4432.809
 30
1913.000
 70
    32
  0
VERTEX
  8
M33LXLIFT
 62
3
 10
3369.554
 20
-4422.250
 30
1913.000
 70
    32
  0
VERTEX
  8
M33LXLIFT
 62
3
 10
3363.461
 20
-4416.816
 30
1913.000
 70
    32
  0
VERTEX
  8
M33LXLIFT
 62
3
 10
3359.755
 20
-4419.338
 30
1913.000
 70
    32
  0
VERTEX
  8
M33LXLIFT
 62
3
 10
3356.066
 20
-4414.202
 30
1913.000
 70
    32
  0
VERTEX
  8
M33LXLIFT
 62
3
 10
3348.098
 20
-4413.322
 30
1913.000
 70
    32
  0
VERTEX
  8
M33LXLIFT
 62
3
 10
3347.809
 20
-4406.874
 30
1913.000
 70
    32
  0
VERTEX
  8
M33LXLIFT
 62
3
 10
3341.310
 20
-4401.630
 30
1913.000
 70
    32
  0
VERTEX
  8
M33LXLIFT
 62
3
 10
3335.523
 20
-4384.940
 30
1913.000
 70
    32
  0
VERTEX
  8
M33LXLIFT
 62
3
 10
3334.801
 20
-4367.125
 30
1913.000
 70
    32
  0
VERTEX
  8
M33LXLIFT
 62
3
 10
3329.096
 20
-4351.138
 30
1913.000
 70
    32
  0
VERTEX
  8
M33LXLIFT
 62
3
 10
3318.626
 20
-4353.965
 30
1913.000
 70
    32
  0
VERTEX
  8
M33LXLIFT
 62
3
 10
3316.887
 20
-4361.804
 30
1913.000
 70
    32
  0
VERTEX
  8
M33LXLIFT
 62
3
 10
3324.698
 20
-4380.493
 30
1913.000
 70
    32
  0
VERTEX
  8
M33LXLIFT
 62
3
 10
3326.555
 20
-4391.571
 30
1913.000
 70
    32
  0
VERTEX
  8
M33LXLIFT
 62
3
 10
3332.316
 20
-4414.725
 30
1913.000
 70
    32
  0
VERTEX
  8
M33LXLIFT
 62
3
 10
3332.257
 20
-4426.018
 30
1913.000
 70
    32
  0
VERTEX
  8
M33LXLIFT
 62
3
 10
3327.296
 20
-4432.307
 30
1913.000
 70
    32
  0
VERTEX
  8
M33LXLIFT
 62
3
 10
3328.620
 20
-4436.462
 30
1913.000
 70
    32
  0
VERTEX
  8
M33LXLIFT
 62
3
 10
3326.592
 20
-4447.900
 30
1913.000
 70
    32
  0
VERTEX
  8
M33LXLIFT
 62
3
 10
3319.244
 20
-4497.785
 30
1913.000
 70
    32
  0
VERTEX
  8
M33LXLIFT
 62
3
 10
3313.617
 20
-4501.400
 30
1913.000
 70
    32
  0
VERTEX
  8
M33LXLIFT
 62
3
 10
3288.243
 20
-4508.147
 30
1913.000
 70
    32
  0
VERTEX
  8
M33LXLIFT
 62
3
 10
3268.576
 20
-4520.396
 30
1913.000
 70
    32
  0
VERTEX
  8
M33LXLIFT
 62
3
 10
3252.651
 20
-4532.389
 30
1913.000
 70
    32
  0
VERTEX
  8
M33LXLIFT
 62
3
 10
3234.237
 20
-4548.844
 30
1913.000
 70
    32
  0
VERTEX
  8
M33LXLIFT
 62
3
 10
3241.583
 20
-4571.482
 30
1913.000
 70
    32
  0
VERTEX
  8
M33LXLIFT
 62
3
 10
3247.928
 20
-4583.609
 30
1913.000
 70
    32
  0
VERTEX
  8
M33LXLIFT
 62
3
 10
3248.692
 20
-4592.765
 30
1913.000
 70
    32
  0
VERTEX
  8
M33LXLIFT
 62
3
 10
3256.217
 20
-4607.079
 30
1913.000
 70
    32
  0
VERTEX
  8
M33LXLIFT
 62
3
 10
3252.183
 20
-4613.884
 30
1913.000
 70
    32
  0
VERTEX
  8
M33LXLIFT
 62
3
 10
3263.338
 20
-4629.117
 30
1913.000
 70
    32
  0
VERTEX
  8
M33LXLIFT
 62
3
 10
3264.965
 20
-4642.987
 30
1913.000
 70
    32
  0
VERTEX
  8
M33LXLIFT
 62
3
 10
3281.242
 20
-4661.751
 30
1913.000
 70
    32
  0
VERTEX
  8
M33LXLIFT
 62
3
 10
3306.139
 20
-4683.753
 30
1913.000
 70
    32
  0
VERTEX
  8
M33LXLIFT
 62
3
 10
3310.876
 20
-4681.888
 30
1913.000
 70
    32
  0
VERTEX
  8
M33LXLIFT
 62
3
 10
3364.892
 20
-4642.386
 30
1913.000
 70
    32
  0
VERTEX
  8
M33LXLIFT
 62
3
 10
3395.802
 20
-4619.640
 30
1913.000
 70
    32
  0
SEQEND
  8
M33LXLIFT
  0
POLYLINE
  8
M33LXLIFT
 62
3
 66
     1
 70
     9
  0
VERTEX
  8
M33LXLIFT
 62
3
 10
3658.625
 20
-4670.855
 30
1923.000
 70
    32
  0
VERTEX
  8
M33LXLIFT
 62
3
 10
3659.366
 20
-4657.864
 30
1923.000
 70
    32
  0
VERTEX
  8
M33LXLIFT
 62
3
 10
3653.740
 20
-4642.946
 30
1923.000
 70
    32
  0
VERTEX
  8
M33LXLIFT
 62
3
 10
3650.227
 20
-4622.827
 30
1923.000
 70
    32
  0
VERTEX
  8
M33LXLIFT
 62
3
 10
3645.590
 20
-4618.033
 30
1923.000
 70
    32
  0
VERTEX
  8
M33LXLIFT
 62
3
 10
3602.272
 20
-4650.025
 30
1923.000
 70
    32
  0
VERTEX
  8
M33LXLIFT
 62
3
 10
3544.423
 20
-4636.011
 30
1923.000
 70
    32
  0
VERTEX
  8
M33LXLIFT
 62
3
 10
3536.591
 20
-4618.779
 30
1923.000
 70
    32
  0
VERTEX
  8
M33LXLIFT
 62
3
 10
3530.013
 20
-4607.362
 30
1923.000
 70
    32
  0
VERTEX
  8
M33LXLIFT
 62
3
 10
3510.262
 20
-4588.618
 30
1923.000
 70
    32
  0
VERTEX
  8
M33LXLIFT
 62
3
 10
3517.549
 20
-4528.344
 30
1923.000
 70
    32
  0
VERTEX
  8
M33LXLIFT
 62
3
 10
3539.288
 20
-4515.324
 30
1923.000
 70
    32
  0
VERTEX
  8
M33LXLIFT
 62
3
 10
3526.335
 20
-4492.020
 30
1923.000
 70
    32
  0
VERTEX
  8
M33LXLIFT
 62
3
 10
3513.674
 20
-4477.716
 30
1923.000
 70
    32
  0
VERTEX
  8
M33LXLIFT
 62
3
 10
3475.864
 20
-4427.960
 30
1923.000
 70
    32
  0
VERTEX
  8
M33LXLIFT
 62
3
 10
3454.793
 20
-4409.189
 30
1923.000
 70
    32
  0
VERTEX
  8
M33LXLIFT
 62
3
 10
3429.956
 20
-4386.082
 30
1923.000
 70
    32
  0
VERTEX
  8
M33LXLIFT
 62
3
 10
3421.470
 20
-4398.246
 30
1923.000
 70
    32
  0
VERTEX
  8
M33LXLIFT
 62
3
 10
3399.182
 20
-4405.376
 30
1923.000
 70
    32
  0
VERTEX
  8
M33LXLIFT
 62
3
 10
3397.384
 20
-4416.745
 30
1923.000
 70
    32
  0
VERTEX
  8
M33LXLIFT
 62
3
 10
3373.478
 20
-4434.138
 30
1923.000
 70
    32
  0
VERTEX
  8
M33LXLIFT
 62
3
 10
3318.621
 20
-4498.473
 30
1923.000
 70
    32
  0
VERTEX
  8
M33LXLIFT
 62
3
 10
3285.091
 20
-4497.646
 30
1923.000
 70
    32
  0
VERTEX
  8
M33LXLIFT
 62
3
 10
3269.220
 20
-4509.484
 30
1923.000
 70
    32
  0
VERTEX
  8
M33LXLIFT
 62
3
 10
3251.311
 20
-4527.985
 30
1923.000
 70
    32
  0
VERTEX
  8
M33LXLIFT
 62
3
 10
3235.480
 20
-4536.110
 30
1923.000
 70
    32
  0
VERTEX
  8
M33LXLIFT
 62
3
 10
3233.020
 20
-4548.820
 30
1923.000
 70
    32
  0
VERTEX
  8
M33LXLIFT
 62
3
 10
3242.942
 20
-4563.685
 30
1923.000
 70
    32
  0
VERTEX
  8
M33LXLIFT
 62
3
 10
3241.602
 20
-4581.874
 30
1923.000
 70
    32
  0
VERTEX
  8
M33LXLIFT
 62
3
 10
3245.619
 20
-4591.988
 30
1923.000
 70
    32
  0
VERTEX
  8
M33LXLIFT
 62
3
 10
3262.641
 20
-4640.105
 30
1923.000
 70
    32
  0
VERTEX
  8
M33LXLIFT
 62
3
 10
3282.787
 20
-4664.524
 30
1923.000
 70
    32
  0
VERTEX
  8
M33LXLIFT
 62
3
 10
3304.566
 20
-4683.978
 30
1923.000
 70
    32
  0
VERTEX
  8
M33LXLIFT
 62
3
 10
3322.748
 20
-4810.459
 30
1923.000
 70
    32
  0
VERTEX
  8
M33LXLIFT
 62
3
 10
3334.175
 20
-4825.759
 30
1923.000
 70
    32
  0
VERTEX
  8
M33LXLIFT
 62
3
 10
3343.548
 20
-4820.107
 30
1923.000
 70
    32
  0
VERTEX
  8
M33LXLIFT
 62
3
 10
3348.190
 20
-4822.948
 30
1923.000
 70
    32
  0
VERTEX
  8
M33LXLIFT
 62
3
 10
3353.410
 20
-4820.714
 30
1923.000
 70
    32
  0
VERTEX
  8
M33LXLIFT
 62
3
 10
3357.682
 20
-4826.961
 30
1923.000
 70
    32
  0
VERTEX
  8
M33LXLIFT
 62
3
 10
3336.620
 20
-4840.470
 30
1923.000
 70
    32
  0
VERTEX
  8
M33LXLIFT
 62
3
 10
3352.078
 20
-4860.024
 30
1923.000
 70
    32
  0
VERTEX
  8
M33LXLIFT
 62
3
 10
3362.375
 20
-4855.658
 30
1923.000
 70
    32
  0
VERTEX
  8
M33LXLIFT
 62
3
 10
3415.239
 20
-4831.975
 30
1923.000
 70
    32
  0
VERTEX
  8
M33LXLIFT
 62
3
 10
3422.255
 20
-4828.018
 30
1923.000
 70
    32
  0
VERTEX
  8
M33LXLIFT
 62
3
 10
3436.162
 20
-4830.485
 30
1923.000
 70
    32
  0
VERTEX
  8
M33LXLIFT
 62
3
 10
3445.849
 20
-4849.093
 30
1923.000
 70
    32
  0
VERTEX
  8
M33LXLIFT
 62
3
 10
3457.660
 20
-4859.350
 30
1923.000
 70
    32
  0
VERTEX
  8
M33LXLIFT
 62
3
 10
3461.589
 20
-4852.302
 30
1923.000
 70
    32
  0
VERTEX
  8
M33LXLIFT
 62
3
 10
3463.737
 20
-4834.182
 30
1923.000
 70
    32
  0
VERTEX
  8
M33LXLIFT
 62
3
 10
3456.136
 20
-4826.317
 30
1923.000
 70
    32
  0
VERTEX
  8
M33LXLIFT
 62
3
 10
3455.182
 20
-4817.902
 30
1923.000
 70
    32
  0
VERTEX
  8
M33LXLIFT
 62
3
 10
3443.890
 20
-4807.163
 30
1923.000
 70
    32
  0
VERTEX
  8
M33LXLIFT
 62
3
 10
3406.543
 20
-4739.957
 30
1923.000
 70
    32
  0
VERTEX
  8
M33LXLIFT
 62
3
 10
3415.544
 20
-4732.731
 30
1923.000
 70
    32
  0
VERTEX
  8
M33LXLIFT
 62
3
 10
3404.552
 20
-4708.235
 30
1923.000
 70
    32
  0
VERTEX
  8
M33LXLIFT
 62
3
 10
3407.846
 20
-4686.583
 30
1923.000
 70
    32
  0
VERTEX
  8
M33LXLIFT
 62
3
 10
3432.773
 20
-4694.133
 30
1923.000
 70
    32
  0
VERTEX
  8
M33LXLIFT
 62
3
 10
3461.243
 20
-4699.679
 30
1923.000
 70
    32
  0
VERTEX
  8
M33LXLIFT
 62
3
 10
3481.580
 20
-4686.366
 30
1923.000
 70
    32
  0
VERTEX
  8
M33LXLIFT
 62
3
 10
3537.726
 20
-4644.182
 30
1923.000
 70
    32
  0
VERTEX
  8
M33LXLIFT
 62
3
 10
3566.375
 20
-4680.585
 30
1923.000
 70
    32
  0
VERTEX
  8
M33LXLIFT
 62
3
 10
3579.856
 20
-4691.809
 30
1923.000
 70
    32
  0
VERTEX
  8
M33LXLIFT
 62
3
 10
3589.500
 20
-4684.121
 30
1923.000
 70
    32
  0
VERTEX
  8
M33LXLIFT
 62
3
 10
3606.091
 20
-4669.816
 30
1923.000
 70
    32
  0
VERTEX
  8
M33LXLIFT
 62
3
 10
3617.954
 20
-4676.677
 30
1923.000
 70
    32
  0
VERTEX
  8
M33LXLIFT
 62
3
 10
3638.399
 20
-4679.647
 30
1923.000
 70
    32
  0
VERTEX
  8
M33LXLIFT
 62
3
 10
3647.961
 20
-4682.852
 30
1923.000
 70
    32
  0
SEQEND
  8
M33LXLIFT
  0
POLYLINE
  8
M33LXLIFT
 62
3
 66
     1
 70
     9
  0
VERTEX
  8
M33LXLIFT
 62
3
 10
3436.755
 20
-4362.136
 30
1948.000
 70
    32
  0
VERTEX
  8
M33LXLIFT
 62
3
 10
3455.899
 20
-4388.237
 30
1948.000
 70
    32
  0
VERTEX
  8
M33LXLIFT
 62
3
 10
3469.541
 20
-4408.549
 30
1948.000
 70
    32
  0
VERTEX
  8
M33LXLIFT
 62
3
 10
3475.585
 20
-4424.375
 30
1948.000
 70
    32
  0
VERTEX
  8
M33LXLIFT
 62
3
 10
3513.029
 20
-4460.131
 30
1948.000
 70
    32
  0
VERTEX
  8
M33LXLIFT
 62
3
 10
3538.088
 20
-4487.049
 30
1948.000
 70
    32
  0
VERTEX
  8
M33LXLIFT
 62
3
 10
3548.072
 20
-4506.211
 30
1948.000
 70
    32
  0
VERTEX
  8
M33LXLIFT
 62
3
 10
3531.358
 20
-4518.222
 30
1948.000
 70
    32
  0
VERTEX
  8
M33LXLIFT
 62
3
 10
3519.607
 20
-4527.938
 30
1948.000
 70
    32
  0
VERTEX
  8
M33LXLIFT
 62
3
 10
3518.319
 20
-4583.848
 30
1948.000
 70
    32
  0
VERTEX
  8
M33LXLIFT
 62
3
 10
3531.899
 20
-4592.688
 30
1948.000
 70
    32
  0
VERTEX
  8
M33LXLIFT
 62
3
 10
3538.874
 20
-4608.600
 30
1948.000
 70
    32
  0
VERTEX
  8
M33LXLIFT
 62
3
 10
3543.237
 20
-4619.561
 30
1948.000
 70
    32
  0
VERTEX
  8
M33LXLIFT
 62
3
 10
3546.944
 20
-4636.212
 30
1948.000
 70
    32
  0
VERTEX
  8
M33LXLIFT
 62
3
 10
3579.963
 20
-4627.806
 30
1948.000
 70
    32
  0
VERTEX
  8
M33LXLIFT
 62
3
 10
3610.064
 20
-4606.088
 30
1948.000
 70
    32
  0
VERTEX
  8
M33LXLIFT
 62
3
 10
3614.718
 20
-4584.786
 30
1948.000
 70
    32
  0
VERTEX
  8
M33LXLIFT
 62
3
 10
3628.096
 20
-4581.061
 30
1948.000
 70
    32
  0
VERTEX
  8
M33LXLIFT
 62
3
 10
3637.188
 20
-4604.238
 30
1948.000
 70
    32
  0
VERTEX
  8
M33LXLIFT
 62
3
 10
3637.664
 20
-4629.317
 30
1948.000
 70
    32
  0
VERTEX
  8
M33LXLIFT
 62
3
 10
3642.969
 20
-4646.222
 30
1948.000
 70
    32
  0
VERTEX
  8
M33LXLIFT
 62
3
 10
3650.368
 20
-4654.329
 30
1948.000
 70
    32
  0
VERTEX
  8
M33LXLIFT
 62
3
 10
3652.235
 20
-4660.798
 30
1948.000
 70
    32
  0
VERTEX
  8
M33LXLIFT
 62
3
 10
3638.382
 20
-4656.827
 30
1948.000
 70
    32
  0
VERTEX
  8
M33LXLIFT
 62
3
 10
3622.751
 20
-4657.297
 30
1948.000
 70
    32
  0
VERTEX
  8
M33LXLIFT
 62
3
 10
3559.354
 20
-4650.029
 30
1948.000
 70
    32
  0
VERTEX
  8
M33LXLIFT
 62
3
 10
3538.417
 20
-4639.136
 30
1948.000
 70
    32
  0
VERTEX
  8
M33LXLIFT
 62
3
 10
3469.268
 20
-4648.208
 30
1948.000
 70
    32
  0
VERTEX
  8
M33LXLIFT
 62
3
 10
3455.658
 20
-4655.361
 30
1948.000
 70
    32
  0
VERTEX
  8
M33LXLIFT
 62
3
 10
3443.530
 20
-4652.420
 30
1948.000
 70
    32
  0
VERTEX
  8
M33LXLIFT
 62
3
 10
3430.937
 20
-4658.727
 30
1948.000
 70
    32
  0
VERTEX
  8
M33LXLIFT
 62
3
 10
3394.765
 20
-4697.994
 30
1948.000
 70
    32
  0
VERTEX
  8
M33LXLIFT
 62
3
 10
3390.160
 20
-4726.106
 30
1948.000
 70
    32
  0
VERTEX
  8
M33LXLIFT
 62
3
 10
3397.236
 20
-4743.356
 30
1948.000
 70
    32
  0
VERTEX
  8
M33LXLIFT
 62
3
 10
3370.335
 20
-4765.144
 30
1948.000
 70
    32
  0
VERTEX
  8
M33LXLIFT
 62
3
 10
3348.906
 20
-4782.638
 30
1948.000
 70
    32
  0
VERTEX
  8
M33LXLIFT
 62
3
 10
3356.577
 20
-4804.455
 30
1948.000
 70
    32
  0
VERTEX
  8
M33LXLIFT
 62
3
 10
3361.435
 20
-4826.139
 30
1948.000
 70
    32
  0
VERTEX
  8
M33LXLIFT
 62
3
 10
3361.869
 20
-4839.623
 30
1948.000
 70
    32
  0
VERTEX
  8
M33LXLIFT
 62
3
 10
3344.226
 20
-4854.698
 30
1948.000
 70
    32
  0
VERTEX
  8
M33LXLIFT
 62
3
 10
3333.875
 20
-4834.280
 30
1948.000
 70
    32
  0
VERTEX
  8
M33LXLIFT
 62
3
 10
3327.118
 20
-4815.821
 30
1948.000
 70
    32
  0
VERTEX
  8
M33LXLIFT
 62
3
 10
3320.670
 20
-4820.714
 30
1948.000
 70
    32
  0
VERTEX
  8
M33LXLIFT
 62
3
 10
3322.025
 20
-4845.807
 30
1948.000
 70
    32
  0
VERTEX
  8
M33LXLIFT
 62
3
 10
3309.619
 20
-4842.634
 30
1948.000
 70
    32
  0
VERTEX
  8
M33LXLIFT
 62
3
 10
3309.255
 20
-4821.603
 30
1948.000
 70
    32
  0
VERTEX
  8
M33LXLIFT
 62
3
 10
3318.016
 20
-4804.168
 30
1948.000
 70
    32
  0
VERTEX
  8
M33LXLIFT
 62
3
 10
3331.547
 20
-4788.816
 30
1948.000
 70
    32
  0
VERTEX
  8
M33LXLIFT
 62
3
 10
3335.875
 20
-4777.854
 30
1948.000
 70
    32
  0
VERTEX
  8
M33LXLIFT
 62
3
 10
3351.025
 20
-4742.858
 30
1948.000
 70
    32
  0
VERTEX
  8
M33LXLIFT
 62
3
 10
3341.327
 20
-4709.255
 30
1948.000
 70
    32
  0
VERTEX
  8
M33LXLIFT
 62
3
 10
3279.959
 20
-4698.343
 30
1948.000
 70
    32
  0
VERTEX
  8
M33LXLIFT
 62
3
 10
3274.214
 20
-4695.665
 30
1948.000
 70
    32
  0
VERTEX
  8
M33LXLIFT
 62
3
 10
3270.550
 20
-4670.833
 30
1948.000
 70
    32
  0
VERTEX
  8
M33LXLIFT
 62
3
 10
3256.133
 20
-4640.762
 30
1948.000
 70
    32
  0
VERTEX
  8
M33LXLIFT
 62
3
 10
3269.194
 20
-4632.703
 30
1948.000
 70
    32
  0
VERTEX
  8
M33LXLIFT
 62
3
 10
3293.895
 20
-4565.031
 30
1948.000
 70
    32
  0
VERTEX
  8
M33LXLIFT
 62
3
 10
3275.557
 20
-4541.388
 30
1948.000
 70
    32
  0
VERTEX
  8
M33LXLIFT
 62
3
 10
3261.195
 20
-4513.341
 30
1948.000
 70
    32
  0
VERTEX
  8
M33LXLIFT
 62
3
 10
3285.236
 20
-4496.451
 30
1948.000
 70
    32
  0
VERTEX
  8
M33LXLIFT
 62
3
 10
3309.650
 20
-4500.152
 30
1948.000
 70
    32
  0
VERTEX
  8
M33LXLIFT
 62
3
 10
3320.092
 20
-4491.928
 30
1948.000
 70
    32
  0
VERTEX
  8
M33LXLIFT
 62
3
 10
3356.763
 20
-4447.954
 30
1948.000
 70
    32
  0
VERTEX
  8
M33LXLIFT
 62
3
 10
3381.764
 20
-4429.390
 30
1948.000
 70
    32
  0
VERTEX
  8
M33LXLIFT
 62
3
 10
3393.059
 20
-4403.164
 30
1948.000
 70
    32
  0
VERTEX
  8
M33LXLIFT
 62
3
 10
3389.749
 20
-4393.505
 30
1948.000
 70
    32
  0
VERTEX
  8
M33LXLIFT
 62
3
 10
3404.742
 20
-4382.416
 30
1948.000
 70
    32
  0
SEQEND
  8
M33LXLIFT
  0
POLYLINE
  8
M33LXLIFT
 62
3
 66
     1
 70
     9
  0
VERTEX
  8
M33LXLIFT
 62
3
 10
3378.574
 20
-4431.019
 30
1973.000
 70
    32
  0
VERTEX
  8
M33LXLIFT
 62
3
 10
3405.568
 20
-4386.153
 30
1973.000
 70
    32
  0
VERTEX
  8
M33LXLIFT
 62
3
 10
3415.890
 20
-4381.338
 30
1973.000
 70
    32
  0
VERTEX
  8
M33LXLIFT
 62
3
 10
3432.598
 20
-4388.963
 30
1973.000
 70
    32
  0
VERTEX
  8
M33LXLIFT
 62
3
 10
3439.987
 20
-4394.202
 30
1973.000
 70
    32
  0
VERTEX
  8
M33LXLIFT
 62
3
 10
3461.951
 20
-4421.887
 30
1973.000
 70
    32
  0
VERTEX
  8
M33LXLIFT
 62
3
 10
3473.625
 20
-4448.236
 30
1973.000
 70
    32
  0
VERTEX
  8
M33LXLIFT
 62
3
 10
3474.951
 20
-4463.882
 30
1973.000
 70
    32
  0
VERTEX
  8
M33LXLIFT
 62
3
 10
3491.086
 20
-4490.641
 30
1973.000
 70
    32
  0
VERTEX
  8
M33LXLIFT
 62
3
 10
3507.806
 20
-4513.026
 30
1973.000
 70
    32
  0
VERTEX
  8
M33LXLIFT
 62
3
 10
3513.121
 20
-4525.056
 30
1973.000
 70
    32
  0
VERTEX
  8
M33LXLIFT
 62
3
 10
3540.777
 20
-4563.507
 30
1973.000
 70
    32
  0
VERTEX
  8
M33LXLIFT
 62
3
 10
3565.463
 20
-4581.294
 30
1973.000
 70
    32
  0
VERTEX
  8
M33LXLIFT
 62
3
 10
3584.068
 20
-4599.437
 30
1973.000
 70
    32
  0
VERTEX
  8
M33LXLIFT
 62
3
 10
3595.141
 20
-4588.704
 30
1973.000
 70
    32
  0
VERTEX
  8
M33LXLIFT
 62
3
 10
3611.438
 20
-4577.049
 30
1973.000
 70
    32
  0
VERTEX
  8
M33LXLIFT
 62
3
 10
3619.831
 20
-4578.480
 30
1973.000
 70
    32
  0
VERTEX
  8
M33LXLIFT
 62
3
 10
3622.495
 20
-4596.963
 30
1973.000
 70
    32
  0
VERTEX
  8
M33LXLIFT
 62
3
 10
3622.050
 20
-4615.236
 30
1973.000
 70
    32
  0
VERTEX
  8
M33LXLIFT
 62
3
 10
3618.447
 20
-4625.568
 30
1973.000
 70
    32
  0
VERTEX
  8
M33LXLIFT
 62
3
 10
3618.522
 20
-4631.420
 30
1973.000
 70
    32
  0
VERTEX
  8
M33LXLIFT
 62
3
 10
3607.142
 20
-4640.412
 30
1973.000
 70
    32
  0
VERTEX
  8
M33LXLIFT
 62
3
 10
3602.600
 20
-4635.029
 30
1973.000
 70
    32
  0
VERTEX
  8
M33LXLIFT
 62
3
 10
3543.505
 20
-4634.568
 30
1973.000
 70
    32
  0
VERTEX
  8
M33LXLIFT
 62
3
 10
3526.257
 20
-4608.963
 30
1973.000
 70
    32
  0
VERTEX
  8
M33LXLIFT
 62
3
 10
3520.645
 20
-4586.213
 30
1973.000
 70
    32
  0
VERTEX
  8
M33LXLIFT
 62
3
 10
3519.245
 20
-4578.280
 30
1973.000
 70
    32
  0
VERTEX
  8
M33LXLIFT
 62
3
 10
3467.622
 20
-4570.196
 30
1973.000
 70
    32
  0
VERTEX
  8
M33LXLIFT
 62
3
 10
3447.929
 20
-4579.338
 30
1973.000
 70
    32
  0
VERTEX
  8
M33LXLIFT
 62
3
 10
3427.912
 20
-4586.422
 30
1973.000
 70
    32
  0
VERTEX
  8
M33LXLIFT
 62
3
 10
3415.824
 20
-4606.552
 30
1973.000
 70
    32
  0
VERTEX
  8
M33LXLIFT
 62
3
 10
3393.404
 20
-4623.078
 30
1973.000
 70
    32
  0
VERTEX
  8
M33LXLIFT
 62
3
 10
3356.727
 20
-4647.667
 30
1973.000
 70
    32
  0
VERTEX
  8
M33LXLIFT
 62
3
 10
3361.111
 20
-4693.977
 30
1973.000
 70
    32
  0
VERTEX
  8
M33LXLIFT
 62
3
 10
3366.282
 20
-4696.376
 30
1973.000
 70
    32
  0
VERTEX
  8
M33LXLIFT
 62
3
 10
3379.025
 20
-4709.568
 30
1973.000
 70
    32
  0
VERTEX
  8
M33LXLIFT
 62
3
 10
3381.541
 20
-4726.082
 30
1973.000
 70
    32
  0
VERTEX
  8
M33LXLIFT
 62
3
 10
3365.665
 20
-4737.862
 30
1973.000
 70
    32
  0
VERTEX
  8
M33LXLIFT
 62
3
 10
3364.084
 20
-4758.291
 30
1973.000
 70
    32
  0
VERTEX
  8
M33LXLIFT
 62
3
 10
3358.947
 20
-4759.477
 30
1973.000
 70
    32
  0
VERTEX
  8
M33LXLIFT
 62
3
 10
3335.214
 20
-4785.293
 30
1973.000
 70
    32
  0
VERTEX
  8
M33LXLIFT
 62
3
 10
3347.956
 20
-4815.882
 30
1973.000
 70
    32
  0
VERTEX
  8
M33LXLIFT
 62
3
 10
3350.722
 20
-4828.162
 30
1973.000
 70
    32
  0
VERTEX
  8
M33LXLIFT
 62
3
 10
3340.489
 20
-4839.585
 30
1973.000
 70
    32
  0
VERTEX
  8
M33LXLIFT
 62
3
 10
3325.220
 20
-4835.816
 30
1973.000
 70
    32
  0
VERTEX
  8
M33LXLIFT
 62
3
 10
3316.037
 20
-4824.031
 30
1973.000
 70
    32
  0
VERTEX
  8
M33LXLIFT
 62
3
 10
3311.980
 20
-4820.038
 30
1973.000
 70
    32
  0
VERTEX
  8
M33LXLIFT
 62
3
 10
3303.349
 20
-4824.036
 30
1973.000
 70
    32
  0
VERTEX
  8
M33LXLIFT
 62
3
 10
3305.608
 20
-4835.927
 30
1973.000
 70
    32
  0
VERTEX
  8
M33LXLIFT
 62
3
 10
3298.593
 20
-4843.429
 30
1973.000
 70
    32
  0
VERTEX
  8
M33LXLIFT
 62
3
 10
3293.403
 20
-4837.762
 30
1973.000
 70
    32
  0
VERTEX
  8
M33LXLIFT
 62
3
 10
3293.441
 20
-4820.119
 30
1973.000
 70
    32
  0
VERTEX
  8
M33LXLIFT
 62
3
 10
3315.899
 20
-4802.907
 30
1973.000
 70
    32
  0
VERTEX
  8
M33LXLIFT
 62
3
 10
3322.890
 20
-4779.448
 30
1973.000
 70
    32
  0
VERTEX
  8
M33LXLIFT
 62
3
 10
3259.743
 20
-4685.057
 30
1973.000
 70
    32
  0
VERTEX
  8
M33LXLIFT
 62
3
 10
3253.829
 20
-4659.686
 30
1973.000
 70
    32
  0
VERTEX
  8
M33LXLIFT
 62
3
 10
3254.478
 20
-4632.399
 30
1973.000
 70
    32
  0
VERTEX
  8
M33LXLIFT
 62
3
 10
3236.294
 20
-4597.424
 30
1973.000
 70
    32
  0
VERTEX
  8
M33LXLIFT
 62
3
 10
3226.464
 20
-4571.348
 30
1973.000
 70
    32
  0
VERTEX
  8
M33LXLIFT
 62
3
 10
3221.794
 20
-4543.084
 30
1973.000
 70
    32
  0
VERTEX
  8
M33LXLIFT
 62
3
 10
3224.885
 20
-4536.634
 30
1973.000
 70
    32
  0
VERTEX
  8
M33LXLIFT
 62
3
 10
3228.263
 20
-4539.269
 30
1973.000
 70
    32
  0
VERTEX
  8
M33LXLIFT
 62
3
 10
3249.306
 20
-4523.983
 30
1973.000
 70
    32
  0
VERTEX
  8
M33LXLIFT
 62
3
 10
3275.604
 20
-4505.017
 30
1973.000
 70
    32
  0
VERTEX
  8
M33LXLIFT
 62
3
 10
3341.378
 20
-4457.415
 30
1973.000
 70
    32
  0
VERTEX
  8
M33LXLIFT
 62
3
 10
3353.439
 20
-4449.341
 30
1973.000
 70
    32
  0
SEQEND
  8
M33LXLIFT
  0
POLYLINE
  8
M33LXLIFT
 62
3
 66
     1
 70
     9
  0
VERTEX
  8
M33LXLIFT
 62
3
 10
3368.102
 20
-4438.063
 30
1998.000
 70
    32
  0
VERTEX
  8
M33LXLIFT
 62
3
 10
3339.059
 20
-4458.403
 30
1998.000
 70
    32
  0
VERTEX
  8
M33LXLIFT
 62
3
 10
3346.415
 20
-4471.990
 30
1998.000
 70
    32
  0
VERTEX
  8
M33LXLIFT
 62
3
 10
3328.209
 20
-4488.958
 30
1998.000
 70
    32
  0
VERTEX
  8
M33LXLIFT
 62
3
 10
3321.336
 20
-4484.947
 30
1998.000
 70
    32
  0
VERTEX
  8
M33LXLIFT
 62
3
 10
3320.233
 20
-4499.943
 30
1998.000
 70
    32
  0
VERTEX
  8
M33LXLIFT
 62
3
 10
3306.153
 20
-4505.587
 30
1998.000
 70
    32
  0
VERTEX
  8
M33LXLIFT
 62
3
 10
3290.459
 20
-4498.777
 30
1998.000
 70
    32
  0
VERTEX
  8
M33LXLIFT
 62
3
 10
3283.243
 20
-4499.055
 30
1998.000
 70
    32
  0
VERTEX
  8
M33LXLIFT
 62
3
 10
3276.477
 20
-4508.715
 30
1998.000
 70
    32
  0
VERTEX
  8
M33LXLIFT
 62
3
 10
3221.419
 20
-4544.008
 30
1998.000
 70
    32
  0
VERTEX
  8
M33LXLIFT
 62
3
 10
3213.894
 20
-4548.769
 30
1998.000
 70
    32
  0
VERTEX
  8
M33LXLIFT
 62
3
 10
3214.890
 20
-4563.206
 30
1998.000
 70
    32
  0
VERTEX
  8
M33LXLIFT
 62
3
 10
3224.482
 20
-4583.554
 30
1998.000
 70
    32
  0
VERTEX
  8
M33LXLIFT
 62
3
 10
3233.700
 20
-4604.285
 30
1998.000
 70
    32
  0
VERTEX
  8
M33LXLIFT
 62
3
 10
3258.045
 20
-4640.863
 30
1998.000
 70
    32
  0
VERTEX
  8
M33LXLIFT
 62
3
 10
3252.070
 20
-4652.343
 30
1998.000
 70
    32
  0
VERTEX
  8
M33LXLIFT
 62
3
 10
3245.013
 20
-4659.379
 30
1998.000
 70
    32
  0
VERTEX
  8
M33LXLIFT
 62
3
 10
3247.394
 20
-4672.581
 30
1998.000
 70
    32
  0
VERTEX
  8
M33LXLIFT
 62
3
 10
3316.734
 20
-4768.661
 30
1998.000
 70
    32
  0
VERTEX
  8
M33LXLIFT
 62
3
 10
3308.776
 20
-4786.508
 30
1998.000
 70
    32
  0
VERTEX
  8
M33LXLIFT
 62
3
 10
3289.982
 20
-4809.363
 30
1998.000
 70
    32
  0
VERTEX
  8
M33LXLIFT
 62
3
 10
3281.228
 20
-4817.208
 30
1998.000
 70
    32
  0
VERTEX
  8
M33LXLIFT
 62
3
 10
3281.455
 20
-4825.990
 30
1998.000
 70
    32
  0
VERTEX
  8
M33LXLIFT
 62
3
 10
3286.133
 20
-4836.523
 30
1998.000
 70
    32
  0
VERTEX
  8
M33LXLIFT
 62
3
 10
3292.910
 20
-4837.876
 30
1998.000
 70
    32
  0
VERTEX
  8
M33LXLIFT
 62
3
 10
3298.138
 20
-4823.890
 30
1998.000
 70
    32
  0
VERTEX
  8
M33LXLIFT
 62
3
 10
3307.608
 20
-4813.009
 30
1998.000
 70
    32
  0
VERTEX
  8
M33LXLIFT
 62
3
 10
3313.550
 20
-4825.561
 30
1998.000
 70
    32
  0
VERTEX
  8
M33LXLIFT
 62
3
 10
3324.099
 20
-4833.092
 30
1998.000
 70
    32
  0
VERTEX
  8
M33LXLIFT
 62
3
 10
3335.211
 20
-4830.391
 30
1998.000
 70
    32
  0
VERTEX
  8
M33LXLIFT
 62
3
 10
3342.372
 20
-4825.133
 30
1998.000
 70
    32
  0
VERTEX
  8
M33LXLIFT
 62
3
 10
3337.180
 20
-4808.103
 30
1998.000
 70
    32
  0
VERTEX
  8
M33LXLIFT
 62
3
 10
3330.342
 20
-4790.317
 30
1998.000
 70
    32
  0
VERTEX
  8
M33LXLIFT
 62
3
 10
3353.172
 20
-4737.436
 30
1998.000
 70
    32
  0
VERTEX
  8
M33LXLIFT
 62
3
 10
3358.130
 20
-4732.595
 30
1998.000
 70
    32
  0
VERTEX
  8
M33LXLIFT
 62
3
 10
3368.796
 20
-4711.451
 30
1998.000
 70
    32
  0
VERTEX
  8
M33LXLIFT
 62
3
 10
3364.853
 20
-4704.743
 30
1998.000
 70
    32
  0
VERTEX
  8
M33LXLIFT
 62
3
 10
3341.467
 20
-4710.346
 30
1998.000
 70
    32
  0
VERTEX
  8
M33LXLIFT
 62
3
 10
3320.167
 20
-4682.225
 30
1998.000
 70
    32
  0
VERTEX
  8
M33LXLIFT
 62
3
 10
3332.971
 20
-4670.533
 30
1998.000
 70
    32
  0
VERTEX
  8
M33LXLIFT
 62
3
 10
3362.411
 20
-4649.247
 30
1998.000
 70
    32
  0
VERTEX
  8
M33LXLIFT
 62
3
 10
3366.817
 20
-4638.155
 30
1998.000
 70
    32
  0
VERTEX
  8
M33LXLIFT
 62
3
 10
3382.851
 20
-4601.285
 30
1998.000
 70
    32
  0
VERTEX
  8
M33LXLIFT
 62
3
 10
3394.645
 20
-4610.959
 30
1998.000
 70
    32
  0
VERTEX
  8
M33LXLIFT
 62
3
 10
3411.798
 20
-4595.529
 30
1998.000
 70
    32
  0
VERTEX
  8
M33LXLIFT
 62
3
 10
3416.366
 20
-4587.482
 30
1998.000
 70
    32
  0
VERTEX
  8
M33LXLIFT
 62
3
 10
3452.745
 20
-4586.200
 30
1998.000
 70
    32
  0
VERTEX
  8
M33LXLIFT
 62
3
 10
3459.148
 20
-4579.316
 30
1998.000
 70
    32
  0
VERTEX
  8
M33LXLIFT
 62
3
 10
3448.651
 20
-4554.613
 30
1998.000
 70
    32
  0
VERTEX
  8
M33LXLIFT
 62
3
 10
3457.880
 20
-4551.875
 30
1998.000
 70
    32
  0
VERTEX
  8
M33LXLIFT
 62
3
 10
3474.203
 20
-4566.081
 30
1998.000
 70
    32
  0
VERTEX
  8
M33LXLIFT
 62
3
 10
3483.231
 20
-4558.907
 30
1998.000
 70
    32
  0
VERTEX
  8
M33LXLIFT
 62
3
 10
3468.535
 20
-4543.944
 30
1998.000
 70
    32
  0
VERTEX
  8
M33LXLIFT
 62
3
 10
3444.895
 20
-4526.162
 30
1998.000
 70
    32
  0
VERTEX
  8
M33LXLIFT
 62
3
 10
3438.819
 20
-4518.183
 30
1998.000
 70
    32
  0
VERTEX
  8
M33LXLIFT
 62
3
 10
3424.046
 20
-4527.937
 30
1998.000
 70
    32
  0
VERTEX
  8
M33LXLIFT
 62
3
 10
3381.647
 20
-4483.117
 30
1998.000
 70
    32
  0
VERTEX
  8
M33LXLIFT
 62
3
 10
3374.034
 20
-4449.858
 30
1998.000
 70
    32
  0
SEQEND
  8
M33LXLIFT
  0
POLYLINE
  8
M33LXLIFT
 62
1
 66
     1
 70
     9
  0
VERTEX
  8
M33LXLIFT
 62
1
 10
3376.034
 20
-4447.858
 30
2008.000
 70
    32
  0
VERTEX
  8
M33LXLIFT
 62
1
 10
3383.647
 20
-4481.117
 30
2008.000
 70
    32
  0
VERTEX
  8
M33LXLIFT
 62
1
 10
3426.046
 20
-4525.937
 30
2008.000
 70
    32
  0
VERTEX
  8
M33LXLIFT
 62
1
 10
3440.819
 20
-4516.183
 30
2008.000
 70
    32
  0
VERTEX
  8
M33LXLIFT
 62
1
 10
3446.895
 20
-4524.162
 30
2008.000
 70
    32
  0
VERTEX
  8
M33LXLIFT
 62
1
 10
3470.535
 20
-4541.944
 30
2008.000
 70
    32
  0
VERTEX
  8
M33LXLIFT
 62
1
 10
3485.231
 20
-4556.907
 30
2008.000
 70
    32
  0
VERTEX
  8
M33LXLIFT
 62
1
 10
3476.203
 20
-4564.081
 30
2008.000
 70
    32
  0
VERTEX
  8
M33LXLIFT
 62
1
 10
3459.880
 20
-4549.875
 30
2008.000
 70
    32
  0
VERTEX
  8
M33LXLIFT
 62
1
 10
3450.651
 20
-4552.613
 30
2008.000
 70
    32
  0
VERTEX
  8
M33LXLIFT
 62
1
 10
3461.148
 20
-4577.316
 30
2008.000
 70
    32
  0
VERTEX
  8
M33LXLIFT
 62
1
 10
3454.745
 20
-4584.200
 30
2008.000
 70
    32
  0
VERTEX
  8
M33LXLIFT
 62
1
 10
3418.366
 20
-4585.482
 30
2008.000
 70
    32
  0
VERTEX
  8
M33LXLIFT
 62
1
 10
3413.798
 20
-4593.529
 30
2008.000
 70
    32
  0
VERTEX
  8
M33LXLIFT
 62
1
 10
3396.645
 20
-4608.959
 30
2008.000
 70
    32
  0
VERTEX
  8
M33LXLIFT
 62
1
 10
3384.851
 20
-4599.285
 30
2008.000
 70
    32
  0
VERTEX
  8
M33LXLIFT
 62
1
 10
3368.817
 20
-4636.155
 30
2008.000
 70
    32
  0
VERTEX
  8
M33LXLIFT
 62
1
 10
3364.411
 20
-4647.247
 30
2008.000
 70
    32
  0
VERTEX
  8
M33LXLIFT
 62
1
 10
3334.971
 20
-4668.533
 30
2008.000
 70
    32
  0
VERTEX
  8
M33LXLIFT
 62
1
 10
3322.167
 20
-4680.225
 30
2008.000
 70
    32
  0
VERTEX
  8
M33LXLIFT
 62
1
 10
3343.467
 20
-4708.346
 30
2008.000
 70
    32
  0
VERTEX
  8
M33LXLIFT
 62
1
 10
3366.853
 20
-4702.743
 30
2008.000
 70
    32
  0
VERTEX
  8
M33LXLIFT
 62
1
 10
3370.796
 20
-4709.451
 30
2008.000
 70
    32
  0
VERTEX
  8
M33LXLIFT
 62
1
 10
3360.130
 20
-4730.595
 30
2008.000
 70
    32
  0
VERTEX
  8
M33LXLIFT
 62
1
 10
3355.172
 20
-4735.436
 30
2008.000
 70
    32
  0
VERTEX
  8
M33LXLIFT
 62
1
 10
3332.342
 20
-4788.317
 30
2008.000
 70
    32
  0
VERTEX
  8
M33LXLIFT
 62
1
 10
3339.180
 20
-4806.103
 30
2008.000
 70
    32
  0
VERTEX
  8
M33LXLIFT
 62
1
 10
3344.372
 20
-4823.133
 30
2008.000
 70
    32
  0
VERTEX
  8
M33LXLIFT
 62
1
 10
3337.211
 20
-4828.391
 30
2008.000
 70
    32
  0
VERTEX
  8
M33LXLIFT
 62
1
 10
3326.099
 20
-4831.092
 30
2008.000
 70
    32
  0
VERTEX
  8
M33LXLIFT
 62
1
 10
3315.550
 20
-4823.561
 30
2008.000
 70
    32
  0
VERTEX
  8
M33LXLIFT
 62
1
 10
3309.608
 20
-4811.009
 30
2008.000
 70
    32
  0
VERTEX
  8
M33LXLIFT
 62
1
 10
3300.138
 20
-4821.890
 30
2008.000
 70
    32
  0
VERTEX
  8
M33LXLIFT
 62
1
 10
3294.910
 20
-4835.876
 30
2008.000
 70
    32
  0
VERTEX
  8
M33LXLIFT
 62
1
 10
3288.133
 20
-4834.523
 30
2008.000
 70
    32
  0
VERTEX
  8
M33LXLIFT
 62
1
 10
3283.455
 20
-4823.990
 30
2008.000
 70
    32
  0
VERTEX
  8
M33LXLIFT
 62
1
 10
3283.228
 20
-4815.208
 30
2008.000
 70
    32
  0
VERTEX
  8
M33LXLIFT
 62
1
 10
3291.982
 20
-4807.363
 30
2008.000
 70
    32
  0
VERTEX
  8
M33LXLIFT
 62
1
 10
3310.776
 20
-4784.508
 30
2008.000
 70
    32
  0
VERTEX
  8
M33LXLIFT
 62
1
 10
3318.734
 20
-4766.661
 30
2008.000
 70
    32
  0
VERTEX
  8
M33LXLIFT
 62
1
 10
3249.394
 20
-4670.581
 30
2008.000
 70
    32
  0
VERTEX
  8
M33LXLIFT
 62
1
 10
3247.013
 20
-4657.379
 30
2008.000
 70
    32
  0
VERTEX
  8
M33LXLIFT
 62
1
 10
3254.070
 20
-4650.343
 30
2008.000
 70
    32
  0
VERTEX
  8
M33LXLIFT
 62
1
 10
3260.045
 20
-4638.863
 30
2008.000
 70
    32
  0
VERTEX
  8
M33LXLIFT
 62
1
 10
3235.700
 20
-4602.285
 30
2008.000
 70
    32
  0
VERTEX
  8
M33LXLIFT
 62
1
 10
3226.482
 20
-4581.554
 30
2008.000
 70
    32
  0
VERTEX
  8
M33LXLIFT
 62
1
 10
3216.890
 20
-4561.206
 30
2008.000
 70
    32
  0
VERTEX
  8
M33LXLIFT
 62
1
 10
3215.894
 20
-4546.769
 30
2008.000
 70
    32
  0
VERTEX
  8
M33LXLIFT
 62
1
 10
3223.419
 20
-4542.008
 30
2008.000
 70
    32
  0
VERTEX
  8
M33LXLIFT
 62
1
 10
3278.477
 20
-4506.715
 30
2008.000
 70
    32
  0
VERTEX
  8
M33LXLIFT
 62
1
 10
3285.243
 20
-4497.055
 30
2008.000
 70
    32
  0
VERTEX
  8
M33LXLIFT
 62
1
 10
3292.459
 20
-4496.777
 30
2008.000
 70
    32
  0
VERTEX
  8
M33LXLIFT
 62
1
 10
3308.153
 20
-4503.587
 30
2008.000
 70
    32
  0
VERTEX
  8
M33LXLIFT
 62
1
 10
3322.233
 20
-4497.943
 30
2008.000
 70
    32
  0
VERTEX
  8
M33LXLIFT
 62
1
 10
3323.336
 20
-4482.947
 30
2008.000
 70
    32
  0
VERTEX
  8
M33LXLIFT
 62
1
 10
3330.209
 20
-4486.958
 30
2008.000
 70
    32
  0
VERTEX
  8
M33LXLIFT
 62
1
 10
3348.415
 20
-4469.990
 30
2008.000
 70
    32
  0
VERTEX
  8
M33LXLIFT
 62
1
 10
3341.059
 20
-4456.403
 30
2008.000
 70
    32
  0
VERTEX
  8
M33LXLIFT
 62
1
 10
3370.102
 20
-4436.063
 30
2008.000
 70
    32
  0
SEQEND
  8
M33LXLIFT
  0
POLYLINE
  8
M33LXLIFT
 62
6
 66
     1
 70
     9
  0
VERTEX
  8
M33LXLIFT
 62
6
 10
3367.043
 20
-4542.402
 30
1934.000
 70
    32
  0
VERTEX
  8
M33LXLIFT
 62
6
 10
3371.219
 20
-4550.408
 30
1934.000
 70
    32
  0
VERTEX
  8
M33LXLIFT
 62
6
 10
3366.609
 20
-4557.552
 30
1934.000
 70
    32
  0
VERTEX
  8
M33LXLIFT
 62
6
 10
3359.956
 20
-4558.938
 30
1934.000
 70
    32
  0
VERTEX
  8
M33LXLIFT
 62
6
 10
3355.392
 20
-4564.328
 30
1934.000
 70
    32
  0
VERTEX
  8
M33LXLIFT
 62
6
 10
3354.164
 20
-4572.298
 30
1934.000
 70
    32
  0
VERTEX
  8
M33LXLIFT
 62
6
 10
3346.208
 20
-4576.545
 30
1934.000
 70
    32
  0
VERTEX
  8
M33LXLIFT
 62
6
 10
3337.673
 20
-4580.128
 30
1934.000
 70
    32
  0
VERTEX
  8
M33LXLIFT
 62
6
 10
3336.279
 20
-4585.742
 30
1934.000
 70
    32
  0
VERTEX
  8
M33LXLIFT
 62
6
 10
3333.766
 20
-4590.537
 30
1934.000
 70
    32
  0
VERTEX
  8
M33LXLIFT
 62
6
 10
3323.686
 20
-4589.516
 30
1934.000
 70
    32
  0
VERTEX
  8
M33LXLIFT
 62
6
 10
3313.766
 20
-4592.361
 30
1934.000
 70
    32
  0
VERTEX
  8
M33LXLIFT
 62
6
 10
3308.867
 20
-4593.794
 30
1934.000
 70
    32
  0
VERTEX
  8
M33LXLIFT
 62
6
 10
3308.464
 20
-4585.798
 30
1934.000
 70
    32
  0
VERTEX
  8
M33LXLIFT
 62
6
 10
3312.505
 20
-4578.307
 30
1934.000
 70
    32
  0
VERTEX
  8
M33LXLIFT
 62
6
 10
3313.103
 20
-4569.601
 30
1934.000
 70
    32
  0
VERTEX
  8
M33LXLIFT
 62
6
 10
3314.360
 20
-4565.159
 30
1934.000
 70
    32
  0
VERTEX
  8
M33LXLIFT
 62
6
 10
3321.480
 20
-4573.981
 30
1934.000
 70
    32
  0
VERTEX
  8
M33LXLIFT
 62
6
 10
3324.635
 20
-4569.484
 30
1934.000
 70
    32
  0
VERTEX
  8
M33LXLIFT
 62
6
 10
3331.776
 20
-4571.515
 30
1934.000
 70
    32
  0
VERTEX
  8
M33LXLIFT
 62
6
 10
3336.052
 20
-4567.082
 30
1934.000
 70
    32
  0
VERTEX
  8
M33LXLIFT
 62
6
 10
3341.920
 20
-4562.166
 30
1934.000
 70
    32
  0
VERTEX
  8
M33LXLIFT
 62
6
 10
3350.293
 20
-4558.052
 30
1934.000
 70
    32
  0
VERTEX
  8
M33LXLIFT
 62
6
 10
3357.130
 20
-4552.985
 30
1934.000
 70
    32
  0
VERTEX
  8
M33LXLIFT
 62
6
 10
3357.592
 20
-4548.786
 30
1934.000
 70
    32
  0
SEQEND
  8
M33LXLIFT
  0
POLYLINE
  8
M33LXLIFT
 62
6
 66
     1
 70
     9
  0
VERTEX
  8
M33LXLIFT
 62
6
 10
3372.054
 20
-4508.559
 30
1901.000
 70
    32
  0
VERTEX
  8
M33LXLIFT
 62
6
 10
3367.844
 20
-4513.262
 30
1901.000
 70
    32
  0
VERTEX
  8
M33LXLIFT
 62
6
 10
3364.876
 20
-4523.977
 30
1901.000
 70
    32
  0
VERTEX
  8
M33LXLIFT
 62
6
 10
3362.150
 20
-4532.905
 30
1901.000
 70
    32
  0
VERTEX
  8
M33LXLIFT
 62
6
 10
3359.572
 20
-4538.391
 30
1901.000
 70
    32
  0
VERTEX
  8
M33LXLIFT
 62
6
 10
3351.322
 20
-4544.230
 30
1901.000
 70
    32
  0
VERTEX
  8
M33LXLIFT
 62
6
 10
3349.807
 20
-4535.396
 30
1901.000
 70
    32
  0
VERTEX
  8
M33LXLIFT
 62
6
 10
3345.642
 20
-4532.098
 30
1901.000
 70
    32
  0
VERTEX
  8
M33LXLIFT
 62
6
 10
3341.004
 20
-4524.936
 30
1901.000
 70
    32
  0
VERTEX
  8
M33LXLIFT
 62
6
 10
3340.476
 20
-4514.757
 30
1901.000
 70
    32
  0
VERTEX
  8
M33LXLIFT
 62
6
 10
3347.964
 20
-4507.842
 30
1901.000
 70
    32
  0
VERTEX
  8
M33LXLIFT
 62
6
 10
3356.463
 20
-4501.289
 30
1901.000
 70
    32
  0
VERTEX
  8
M33LXLIFT
 62
6
 10
3363.807
 20
-4497.060
 30
1901.000
 70
    32
  0
SEQEND
  8
M33LXLIFT
  0
POLYLINE
  8
M33LXLIFT
 62
6
 66
     1
 70
     9
  0
VERTEX
  8
M33LXLIFT
 62
6
 10
3361.312
 20
-4537.489
 30
1909.000
 70
    32
  0
VERTEX
  8
M33LXLIFT
 62
6
 10
3357.928
 20
-4530.194
 30
1909.000
 70
    32
  0
VERTEX
  8
M33LXLIFT
 62
6
 10
3358.705
 20
-4520.568
 30
1909.000
 70
    32
  0
VERTEX
  8
M33LXLIFT
 62
6
 10
3362.615
 20
-4509.888
 30
1909.000
 70
    32
  0
VERTEX
  8
M33LXLIFT
 62
6
 10
3360.299
 20
-4499.561
 30
1909.000
 70
    32
  0
VERTEX
  8
M33LXLIFT
 62
6
 10
3352.459
 20
-4497.506
 30
1909.000
 70
    32
  0
VERTEX
  8
M33LXLIFT
 62
6
 10
3342.052
 20
-4501.823
 30
1909.000
 70
    32
  0
VERTEX
  8
M33LXLIFT
 62
6
 10
3337.762
 20
-4509.859
 30
1909.000
 70
    32
  0
VERTEX
  8
M33LXLIFT
 62
6
 10
3335.424
 20
-4520.925
 30
1909.000
 70
    32
  0
VERTEX
  8
M33LXLIFT
 62
6
 10
3335.338
 20
-4527.897
 30
1909.000
 70
    32
  0
VERTEX
  8
M33LXLIFT
 62
6
 10
3338.547
 20
-4532.079
 30
1909.000
 70
    32
  0
VERTEX
  8
M33LXLIFT
 62
6
 10
3345.598
 20
-4530.164
 30
1909.000
 70
    32
  0
VERTEX
  8
M33LXLIFT
 62
6
 10
3349.887
 20
-4533.141
 30
1909.000
 70
    32
  0
VERTEX
  8
M33LXLIFT
 62
6
 10
3351.505
 20
-4538.569
 30
1909.000
 70
    32
  0
VERTEX
  8
M33LXLIFT
 62
6
 10
3350.704
 20
-4544.541
 30
1909.000
 70
    32
  0
SEQEND
  8
M33LXLIFT
  0
POLYLINE
  8
M33LXLIFT
 62
6
 66
     1
 70
     9
  0
VERTEX
  8
M33LXLIFT
 62
6
 10
3423.053
 20
-4799.957
 30
1929.000
 70
    32
  0
VERTEX
  8
M33LXLIFT
 62
6
 10
3432.430
 20
-4817.087
 30
1929.000
 70
    32
  0
VERTEX
  8
M33LXLIFT
 62
6
 10
3439.543
 20
-4833.456
 30
1929.000
 70
    32
  0
VERTEX
  8
M33LXLIFT
 62
6
 10
3442.680
 20
-4844.685
 30
1929.000
 70
    32
  0
VERTEX
  8
M33LXLIFT
 62
6
 10
3444.710
 20
-4857.992
 30
1929.000
 70
    32
  0
VERTEX
  8
M33LXLIFT
 62
6
 10
3452.537
 20
-4869.762
 30
1929.000
 70
    32
  0
VERTEX
  8
M33LXLIFT
 62
6
 10
3460.523
 20
-4888.418
 30
1929.000
 70
    32
  0
VERTEX
  8
M33LXLIFT
 62
6
 10
3468.564
 20
-4891.854
 30
1929.000
 70
    32
  0
VERTEX
  8
M33LXLIFT
 62
6
 10
3465.606
 20
-4878.453
 30
1929.000
 70
    32
  0
VERTEX
  8
M33LXLIFT
 62
6
 10
3458.346
 20
-4863.695
 30
1929.000
 70
    32
  0
VERTEX
  8
M33LXLIFT
 62
6
 10
3454.159
 20
-4852.352
 30
1929.000
 70
    32
  0
VERTEX
  8
M33LXLIFT
 62
6
 10
3459.579
 20
-4846.346
 30
1929.000
 70
    32
  0
VERTEX
  8
M33LXLIFT
 62
6
 10
3450.123
 20
-4833.042
 30
1929.000
 70
    32
  0
VERTEX
  8
M33LXLIFT
 62
6
 10
3447.614
 20
-4815.122
 30
1929.000
 70
    32
  0
VERTEX
  8
M33LXLIFT
 62
6
 10
3439.465
 20
-4791.844
 30
1929.000
 70
    32
  0
SEQEND
  8
M33LXLIFT
  0
POLYLINE
  8
M33LXLIFT
 62
6
 66
     1
 70
     9
  0
VERTEX
  8
M33LXLIFT
 62
6
 10
3442.050
 20
-4805.070
 30
1919.000
 70
    32
  0
VERTEX
  8
M33LXLIFT
 62
6
 10
3449.673
 20
-4810.848
 30
1919.000
 70
    32
  0
VERTEX
  8
M33LXLIFT
 62
6
 10
3454.855
 20
-4817.299
 30
1919.000
 70
    32
  0
VERTEX
  8
M33LXLIFT
 62
6
 10
3456.032
 20
-4823.600
 30
1919.000
 70
    32
  0
VERTEX
  8
M33LXLIFT
 62
6
 10
3458.864
 20
-4829.793
 30
1919.000
 70
    32
  0
VERTEX
  8
M33LXLIFT
 62
6
 10
3463.385
 20
-4834.121
 30
1919.000
 70
    32
  0
VERTEX
  8
M33LXLIFT
 62
6
 10
3463.179
 20
-4845.423
 30
1919.000
 70
    32
  0
VERTEX
  8
M33LXLIFT
 62
6
 10
3460.840
 20
-4851.655
 30
1919.000
 70
    32
  0
VERTEX
  8
M33LXLIFT
 62
6
 10
3455.194
 20
-4856.150
 30
1919.000
 70
    32
  0
VERTEX
  8
M33LXLIFT
 62
6
 10
3447.120
 20
-4850.047
 30
1919.000
 70
    32
  0
VERTEX
  8
M33LXLIFT
 62
6
 10
3442.240
 20
-4842.512
 30
1919.000
 70
    32
  0
VERTEX
  8
M33LXLIFT
 62
6
 10
3439.310
 20
-4834.224
 30
1919.000
 70
    32
  0
VERTEX
  8
M33LXLIFT
 62
6
 10
3432.787
 20
-4824.406
 30
1919.000
 70
    32
  0
VERTEX
  8
M33LXLIFT
 62
6
 10
3433.038
 20
-4814.370
 30
1919.000
 70
    32
  0
VERTEX
  8
M33LXLIFT
 62
6
 10
3434.992
 20
-4808.958
 30
1919.000
 70
    32
  0
SEQEND
  8
M33LXLIFT
  0
ENDSEC
  0
EOF
