999
********************************
999
*   DXF File - Entities Only   *
999
*        3D Data Format        *
999
*     Output from ENVISAGE     *
999
*     31-Dec-2007 14:59:17     *
999
********************************
  0
SECTION 
  2
HEADER
  9
$ACADVER
  1
AC1009
  9
$EXTMIN
 10
-290000.000
 20
-250000.000
 30
-4000.000
  9
$EXTMAX
 10
320000.000
 20
160000.000
 30
6000.000
  0
ENDSEC
  0
SECTION
  2
ENTITIES
  0
POLYLINE
  8
M36LXLIFT
 62
3
 66
     1
 70
     9
  0
VERTEX
  8
M36LXLIFT
 62
3
 10
3755.350
 20
-5349.872
 30
1585.000
 70
    32
  0
VERTEX
  8
M36LXLIFT
 62
3
 10
3747.338
 20
-5347.583
 30
1585.000
 70
    32
  0
VERTEX
  8
M36LXLIFT
 62
3
 10
3741.103
 20
-5345.189
 30
1585.000
 70
    32
  0
VERTEX
  8
M36LXLIFT
 62
3
 10
3735.432
 20
-5334.960
 30
1585.000
 70
    32
  0
VERTEX
  8
M36LXLIFT
 62
3
 10
3729.521
 20
-5322.181
 30
1585.000
 70
    32
  0
VERTEX
  8
M36LXLIFT
 62
3
 10
3720.987
 20
-5311.768
 30
1585.000
 70
    32
  0
VERTEX
  8
M36LXLIFT
 62
3
 10
3712.339
 20
-5304.166
 30
1585.000
 70
    32
  0
VERTEX
  8
M36LXLIFT
 62
3
 10
3707.545
 20
-5296.020
 30
1585.000
 70
    32
  0
VERTEX
  8
M36LXLIFT
 62
3
 10
3703.848
 20
-5285.212
 30
1585.000
 70
    32
  0
VERTEX
  8
M36LXLIFT
 62
3
 10
3696.416
 20
-5279.115
 30
1585.000
 70
    32
  0
VERTEX
  8
M36LXLIFT
 62
3
 10
3696.779
 20
-5272.193
 30
1585.000
 70
    32
  0
VERTEX
  8
M36LXLIFT
 62
3
 10
3704.719
 20
-5268.751
 30
1585.000
 70
    32
  0
VERTEX
  8
M36LXLIFT
 62
3
 10
3717.618
 20
-5278.571
 30
1585.000
 70
    32
  0
VERTEX
  8
M36LXLIFT
 62
3
 10
3726.929
 20
-5290.485
 30
1585.000
 70
    32
  0
VERTEX
  8
M36LXLIFT
 62
3
 10
3734.001
 20
-5305.138
 30
1585.000
 70
    32
  0
VERTEX
  8
M36LXLIFT
 62
3
 10
3744.581
 20
-5318.628
 30
1585.000
 70
    32
  0
VERTEX
  8
M36LXLIFT
 62
3
 10
3752.243
 20
-5330.228
 30
1585.000
 70
    32
  0
VERTEX
  8
M36LXLIFT
 62
3
 10
3759.138
 20
-5337.375
 30
1585.000
 70
    32
  0
VERTEX
  8
M36LXLIFT
 62
3
 10
3764.852
 20
-5344.844
 30
1585.000
 70
    32
  0
VERTEX
  8
M36LXLIFT
 62
3
 10
3764.580
 20
-5355.299
 30
1585.000
 70
    32
  0
VERTEX
  8
M36LXLIFT
 62
3
 10
3758.120
 20
-5360.161
 30
1585.000
 70
    32
  0
SEQEND
  8
M36LXLIFT
  0
POLYLINE
  8
M36LXLIFT
 62
8
 66
     1
 70
     9
  0
VERTEX
  8
M36LXLIFT
 62
8
 10
3612.256
 20
-5189.299
 30
1593.000
 70
    32
  0
VERTEX
  8
M36LXLIFT
 62
8
 10
3619.048
 20
-5205.094
 30
1593.000
 70
    32
  0
VERTEX
  8
M36LXLIFT
 62
8
 10
3626.257
 20
-5218.495
 30
1593.000
 70
    32
  0
VERTEX
  8
M36LXLIFT
 62
8
 10
3633.412
 20
-5228.427
 30
1593.000
 70
    32
  0
VERTEX
  8
M36LXLIFT
 62
8
 10
3656.307
 20
-5231.937
 30
1593.000
 70
    32
  0
VERTEX
  8
M36LXLIFT
 62
8
 10
3669.259
 20
-5248.642
 30
1593.000
 70
    32
  0
VERTEX
  8
M36LXLIFT
 62
8
 10
3674.906
 20
-5246.203
 30
1593.000
 70
    32
  0
VERTEX
  8
M36LXLIFT
 62
8
 10
3661.237
 20
-5224.986
 30
1593.000
 70
    32
  0
VERTEX
  8
M36LXLIFT
 62
8
 10
3660.141
 20
-5214.943
 30
1593.000
 70
    32
  0
VERTEX
  8
M36LXLIFT
 62
8
 10
3651.762
 20
-5203.068
 30
1593.000
 70
    32
  0
VERTEX
  8
M36LXLIFT
 62
8
 10
3650.977
 20
-5183.251
 30
1593.000
 70
    32
  0
VERTEX
  8
M36LXLIFT
 62
8
 10
3636.653
 20
-5169.868
 30
1593.000
 70
    32
  0
VERTEX
  8
M36LXLIFT
 62
8
 10
3623.555
 20
-5169.065
 30
1593.000
 70
    32
  0
VERTEX
  8
M36LXLIFT
 62
8
 10
3618.898
 20
-5174.167
 30
1593.000
 70
    32
  0
VERTEX
  8
M36LXLIFT
 62
8
 10
3618.779
 20
-5184.346
 30
1593.000
 70
    32
  0
SEQEND
  8
M36LXLIFT
  0
POLYLINE
  8
M36LXLIFT
 62
3
 66
     1
 70
     9
  0
VERTEX
  8
M36LXLIFT
 62
3
 10
3746.219
 20
-5354.804
 30
1595.000
 70
    32
  0
VERTEX
  8
M36LXLIFT
 62
3
 10
3736.092
 20
-5347.517
 30
1595.000
 70
    32
  0
VERTEX
  8
M36LXLIFT
 62
3
 10
3732.512
 20
-5337.672
 30
1595.000
 70
    32
  0
VERTEX
  8
M36LXLIFT
 62
3
 10
3723.509
 20
-5327.467
 30
1595.000
 70
    32
  0
VERTEX
  8
M36LXLIFT
 62
3
 10
3715.158
 20
-5309.869
 30
1595.000
 70
    32
  0
VERTEX
  8
M36LXLIFT
 62
3
 10
3702.797
 20
-5287.460
 30
1595.000
 70
    32
  0
VERTEX
  8
M36LXLIFT
 62
3
 10
3684.057
 20
-5262.221
 30
1595.000
 70
    32
  0
VERTEX
  8
M36LXLIFT
 62
3
 10
3691.935
 20
-5257.469
 30
1595.000
 70
    32
  0
VERTEX
  8
M36LXLIFT
 62
3
 10
3711.736
 20
-5278.081
 30
1595.000
 70
    32
  0
VERTEX
  8
M36LXLIFT
 62
3
 10
3737.685
 20
-5316.722
 30
1595.000
 70
    32
  0
VERTEX
  8
M36LXLIFT
 62
3
 10
3751.933
 20
-5342.116
 30
1595.000
 70
    32
  0
VERTEX
  8
M36LXLIFT
 62
3
 10
3754.030
 20
-5349.223
 30
1595.000
 70
    32
  0
SEQEND
  8
M36LXLIFT
  0
POLYLINE
  8
M36LXLIFT
 62
3
 66
     1
 70
     9
  0
VERTEX
  8
M36LXLIFT
 62
3
 10
3727.722
 20
-5338.202
 30
1606.000
 70
    32
  0
VERTEX
  8
M36LXLIFT
 62
3
 10
3723.009
 20
-5327.001
 30
1606.000
 70
    32
  0
VERTEX
  8
M36LXLIFT
 62
3
 10
3715.997
 20
-5314.861
 30
1606.000
 70
    32
  0
VERTEX
  8
M36LXLIFT
 62
3
 10
3705.793
 20
-5305.343
 30
1606.000
 70
    32
  0
VERTEX
  8
M36LXLIFT
 62
3
 10
3696.671
 20
-5304.235
 30
1606.000
 70
    32
  0
VERTEX
  8
M36LXLIFT
 62
3
 10
3692.547
 20
-5297.907
 30
1606.000
 70
    32
  0
VERTEX
  8
M36LXLIFT
 62
3
 10
3696.113
 20
-5291.448
 30
1606.000
 70
    32
  0
VERTEX
  8
M36LXLIFT
 62
3
 10
3687.586
 20
-5277.803
 30
1606.000
 70
    32
  0
VERTEX
  8
M36LXLIFT
 62
3
 10
3678.786
 20
-5267.382
 30
1606.000
 70
    32
  0
VERTEX
  8
M36LXLIFT
 62
3
 10
3674.314
 20
-5252.764
 30
1606.000
 70
    32
  0
VERTEX
  8
M36LXLIFT
 62
3
 10
3680.998
 20
-5248.384
 30
1606.000
 70
    32
  0
VERTEX
  8
M36LXLIFT
 62
3
 10
3684.704
 20
-5251.878
 30
1606.000
 70
    32
  0
VERTEX
  8
M36LXLIFT
 62
3
 10
3691.960
 20
-5250.545
 30
1606.000
 70
    32
  0
VERTEX
  8
M36LXLIFT
 62
3
 10
3697.830
 20
-5262.752
 30
1606.000
 70
    32
  0
VERTEX
  8
M36LXLIFT
 62
3
 10
3707.507
 20
-5270.487
 30
1606.000
 70
    32
  0
VERTEX
  8
M36LXLIFT
 62
3
 10
3713.619
 20
-5273.870
 30
1606.000
 70
    32
  0
VERTEX
  8
M36LXLIFT
 62
3
 10
3716.962
 20
-5292.328
 30
1606.000
 70
    32
  0
VERTEX
  8
M36LXLIFT
 62
3
 10
3725.099
 20
-5305.280
 30
1606.000
 70
    32
  0
VERTEX
  8
M36LXLIFT
 62
3
 10
3733.569
 20
-5317.344
 30
1606.000
 70
    32
  0
VERTEX
  8
M36LXLIFT
 62
3
 10
3741.597
 20
-5320.537
 30
1606.000
 70
    32
  0
VERTEX
  8
M36LXLIFT
 62
3
 10
3745.801
 20
-5331.780
 30
1606.000
 70
    32
  0
VERTEX
  8
M36LXLIFT
 62
3
 10
3747.265
 20
-5335.915
 30
1606.000
 70
    32
  0
VERTEX
  8
M36LXLIFT
 62
3
 10
3740.327
 20
-5340.694
 30
1606.000
 70
    32
  0
SEQEND
  8
M36LXLIFT
  0
POLYLINE
  8
M36LXLIFT
 62
3
 66
     1
 70
     9
  0
VERTEX
  8
M36LXLIFT
 62
3
 10
3735.573
 20
-5340.437
 30
1617.000
 70
    32
  0
VERTEX
  8
M36LXLIFT
 62
3
 10
3721.913
 20
-5318.573
 30
1617.000
 70
    32
  0
VERTEX
  8
M36LXLIFT
 62
3
 10
3710.934
 20
-5304.490
 30
1617.000
 70
    32
  0
VERTEX
  8
M36LXLIFT
 62
3
 10
3701.053
 20
-5295.328
 30
1617.000
 70
    32
  0
VERTEX
  8
M36LXLIFT
 62
3
 10
3692.535
 20
-5287.034
 30
1617.000
 70
    32
  0
VERTEX
  8
M36LXLIFT
 62
3
 10
3684.360
 20
-5274.953
 30
1617.000
 70
    32
  0
VERTEX
  8
M36LXLIFT
 62
3
 10
3676.933
 20
-5262.561
 30
1617.000
 70
    32
  0
VERTEX
  8
M36LXLIFT
 62
3
 10
3682.683
 20
-5255.617
 30
1617.000
 70
    32
  0
VERTEX
  8
M36LXLIFT
 62
3
 10
3689.640
 20
-5254.054
 30
1617.000
 70
    32
  0
VERTEX
  8
M36LXLIFT
 62
3
 10
3699.468
 20
-5259.171
 30
1617.000
 70
    32
  0
VERTEX
  8
M36LXLIFT
 62
3
 10
3706.655
 20
-5273.665
 30
1617.000
 70
    32
  0
VERTEX
  8
M36LXLIFT
 62
3
 10
3715.353
 20
-5288.170
 30
1617.000
 70
    32
  0
VERTEX
  8
M36LXLIFT
 62
3
 10
3721.262
 20
-5304.208
 30
1617.000
 70
    32
  0
VERTEX
  8
M36LXLIFT
 62
3
 10
3732.638
 20
-5315.648
 30
1617.000
 70
    32
  0
VERTEX
  8
M36LXLIFT
 62
3
 10
3740.319
 20
-5325.499
 30
1617.000
 70
    32
  0
SEQEND
  8
M36LXLIFT
  0
POLYLINE
  8
M36LXLIFT
 62
8
 66
     1
 70
     9
  0
VERTEX
  8
M36LXLIFT
 62
8
 10
3689.969
 20
-5246.733
 30
1613.000
 70
    32
  0
VERTEX
  8
M36LXLIFT
 62
8
 10
3673.174
 20
-5258.438
 30
1613.000
 70
    32
  0
VERTEX
  8
M36LXLIFT
 62
8
 10
3669.375
 20
-5252.731
 30
1613.000
 70
    32
  0
VERTEX
  8
M36LXLIFT
 62
8
 10
3674.122
 20
-5247.567
 30
1613.000
 70
    32
  0
VERTEX
  8
M36LXLIFT
 62
8
 10
3647.899
 20
-5214.560
 30
1613.000
 70
    32
  0
VERTEX
  8
M36LXLIFT
 62
8
 10
3637.780
 20
-5208.573
 30
1613.000
 70
    32
  0
VERTEX
  8
M36LXLIFT
 62
8
 10
3623.767
 20
-5198.880
 30
1613.000
 70
    32
  0
VERTEX
  8
M36LXLIFT
 62
8
 10
3608.058
 20
-5187.694
 30
1613.000
 70
    32
  0
VERTEX
  8
M36LXLIFT
 62
8
 10
3598.113
 20
-5178.900
 30
1613.000
 70
    32
  0
VERTEX
  8
M36LXLIFT
 62
8
 10
3589.138
 20
-5165.986
 30
1613.000
 70
    32
  0
VERTEX
  8
M36LXLIFT
 62
8
 10
3584.223
 20
-5153.653
 30
1613.000
 70
    32
  0
VERTEX
  8
M36LXLIFT
 62
8
 10
3594.671
 20
-5142.545
 30
1613.000
 70
    32
  0
VERTEX
  8
M36LXLIFT
 62
8
 10
3605.582
 20
-5142.175
 30
1613.000
 70
    32
  0
VERTEX
  8
M36LXLIFT
 62
8
 10
3613.427
 20
-5148.902
 30
1613.000
 70
    32
  0
VERTEX
  8
M36LXLIFT
 62
8
 10
3621.808
 20
-5166.316
 30
1613.000
 70
    32
  0
VERTEX
  8
M36LXLIFT
 62
8
 10
3631.760
 20
-5181.228
 30
1613.000
 70
    32
  0
VERTEX
  8
M36LXLIFT
 62
8
 10
3642.998
 20
-5192.014
 30
1613.000
 70
    32
  0
VERTEX
  8
M36LXLIFT
 62
8
 10
3644.360
 20
-5202.656
 30
1613.000
 70
    32
  0
VERTEX
  8
M36LXLIFT
 62
8
 10
3655.917
 20
-5214.506
 30
1613.000
 70
    32
  0
VERTEX
  8
M36LXLIFT
 62
8
 10
3665.386
 20
-5222.777
 30
1613.000
 70
    32
  0
VERTEX
  8
M36LXLIFT
 62
8
 10
3674.193
 20
-5237.743
 30
1613.000
 70
    32
  0
VERTEX
  8
M36LXLIFT
 62
8
 10
3679.321
 20
-5239.077
 30
1613.000
 70
    32
  0
VERTEX
  8
M36LXLIFT
 62
8
 10
3683.462
 20
-5237.024
 30
1613.000
 70
    32
  0
SEQEND
  8
M36LXLIFT
  0
POLYLINE
  8
M36LXLIFT
 62
11
 66
     1
 70
     9
  0
VERTEX
  8
M36LXLIFT
 62
11
 10
3965.668
 20
-5001.175
 30
1645.000
 70
    32
  0
VERTEX
  8
M36LXLIFT
 62
11
 10
3959.043
 20
-5007.007
 30
1645.000
 70
    32
  0
VERTEX
  8
M36LXLIFT
 62
11
 10
3948.726
 20
-5017.614
 30
1645.000
 70
    32
  0
VERTEX
  8
M36LXLIFT
 62
11
 10
3939.329
 20
-5029.182
 30
1645.000
 70
    32
  0
VERTEX
  8
M36LXLIFT
 62
11
 10
3927.479
 20
-5033.829
 30
1645.000
 70
    32
  0
VERTEX
  8
M36LXLIFT
 62
11
 10
3919.697
 20
-5031.684
 30
1645.000
 70
    32
  0
VERTEX
  8
M36LXLIFT
 62
11
 10
3911.962
 20
-5037.785
 30
1645.000
 70
    32
  0
VERTEX
  8
M36LXLIFT
 62
11
 10
3913.944
 20
-5042.871
 30
1645.000
 70
    32
  0
VERTEX
  8
M36LXLIFT
 62
11
 10
3905.817
 20
-5049.477
 30
1645.000
 70
    32
  0
VERTEX
  8
M36LXLIFT
 62
11
 10
3897.970
 20
-5053.045
 30
1645.000
 70
    32
  0
VERTEX
  8
M36LXLIFT
 62
11
 10
3893.933
 20
-5047.830
 30
1645.000
 70
    32
  0
VERTEX
  8
M36LXLIFT
 62
11
 10
3897.657
 20
-5038.783
 30
1645.000
 70
    32
  0
VERTEX
  8
M36LXLIFT
 62
11
 10
3910.188
 20
-5032.983
 30
1645.000
 70
    32
  0
VERTEX
  8
M36LXLIFT
 62
11
 10
3918.572
 20
-5023.900
 30
1645.000
 70
    32
  0
VERTEX
  8
M36LXLIFT
 62
11
 10
3918.512
 20
-5013.702
 30
1645.000
 70
    32
  0
VERTEX
  8
M36LXLIFT
 62
11
 10
3912.298
 20
-4998.969
 30
1645.000
 70
    32
  0
VERTEX
  8
M36LXLIFT
 62
11
 10
3909.425
 20
-4982.550
 30
1645.000
 70
    32
  0
VERTEX
  8
M36LXLIFT
 62
11
 10
3907.734
 20
-4965.811
 30
1645.000
 70
    32
  0
VERTEX
  8
M36LXLIFT
 62
11
 10
3907.541
 20
-4948.737
 30
1645.000
 70
    32
  0
VERTEX
  8
M36LXLIFT
 62
11
 10
3899.247
 20
-4934.437
 30
1645.000
 70
    32
  0
VERTEX
  8
M36LXLIFT
 62
11
 10
3904.764
 20
-4930.069
 30
1645.000
 70
    32
  0
VERTEX
  8
M36LXLIFT
 62
11
 10
3912.160
 20
-4936.746
 30
1645.000
 70
    32
  0
VERTEX
  8
M36LXLIFT
 62
11
 10
3922.838
 20
-4933.175
 30
1645.000
 70
    32
  0
VERTEX
  8
M36LXLIFT
 62
11
 10
3935.411
 20
-4951.533
 30
1645.000
 70
    32
  0
VERTEX
  8
M36LXLIFT
 62
11
 10
3944.364
 20
-4971.343
 30
1645.000
 70
    32
  0
VERTEX
  8
M36LXLIFT
 62
11
 10
3955.033
 20
-4980.853
 30
1645.000
 70
    32
  0
VERTEX
  8
M36LXLIFT
 62
11
 10
3961.385
 20
-4995.922
 30
1645.000
 70
    32
  0
SEQEND
  8
M36LXLIFT
  0
POLYLINE
  8
M36LXLIFT
 62
6
 66
     1
 70
     9
  0
VERTEX
  8
M36LXLIFT
 62
6
 10
4053.124
 20
-5148.541
 30
1585.000
 70
    32
  0
VERTEX
  8
M36LXLIFT
 62
6
 10
4047.291
 20
-5139.633
 30
1585.000
 70
    32
  0
VERTEX
  8
M36LXLIFT
 62
6
 10
4051.844
 20
-5134.687
 30
1585.000
 70
    32
  0
VERTEX
  8
M36LXLIFT
 62
6
 10
4044.912
 20
-5123.969
 30
1585.000
 70
    32
  0
VERTEX
  8
M36LXLIFT
 62
6
 10
4042.043
 20
-5111.815
 30
1585.000
 70
    32
  0
VERTEX
  8
M36LXLIFT
 62
6
 10
4043.008
 20
-5100.894
 30
1585.000
 70
    32
  0
VERTEX
  8
M36LXLIFT
 62
6
 10
4045.532
 20
-5095.251
 30
1585.000
 70
    32
  0
VERTEX
  8
M36LXLIFT
 62
6
 10
4043.312
 20
-5089.365
 30
1585.000
 70
    32
  0
VERTEX
  8
M36LXLIFT
 62
6
 10
4048.920
 20
-5085.718
 30
1585.000
 70
    32
  0
VERTEX
  8
M36LXLIFT
 62
6
 10
4072.025
 20
-5091.620
 30
1585.000
 70
    32
  0
VERTEX
  8
M36LXLIFT
 62
6
 10
4084.250
 20
-5087.504
 30
1585.000
 70
    32
  0
VERTEX
  8
M36LXLIFT
 62
6
 10
4096.262
 20
-5084.739
 30
1585.000
 70
    32
  0
VERTEX
  8
M36LXLIFT
 62
6
 10
4095.800
 20
-5093.664
 30
1585.000
 70
    32
  0
VERTEX
  8
M36LXLIFT
 62
6
 10
4099.747
 20
-5102.968
 30
1585.000
 70
    32
  0
VERTEX
  8
M36LXLIFT
 62
6
 10
4106.860
 20
-5113.336
 30
1585.000
 70
    32
  0
VERTEX
  8
M36LXLIFT
 62
6
 10
4103.793
 20
-5118.830
 30
1585.000
 70
    32
  0
VERTEX
  8
M36LXLIFT
 62
6
 10
4103.273
 20
-5125.732
 30
1585.000
 70
    32
  0
VERTEX
  8
M36LXLIFT
 62
6
 10
4098.323
 20
-5125.205
 30
1585.000
 70
    32
  0
VERTEX
  8
M36LXLIFT
 62
6
 10
4087.847
 20
-5123.807
 30
1585.000
 70
    32
  0
VERTEX
  8
M36LXLIFT
 62
6
 10
4083.246
 20
-5124.656
 30
1585.000
 70
    32
  0
VERTEX
  8
M36LXLIFT
 62
6
 10
4079.061
 20
-5129.660
 30
1585.000
 70
    32
  0
VERTEX
  8
M36LXLIFT
 62
6
 10
4077.416
 20
-5136.510
 30
1585.000
 70
    32
  0
VERTEX
  8
M36LXLIFT
 62
6
 10
4071.686
 20
-5141.334
 30
1585.000
 70
    32
  0
VERTEX
  8
M36LXLIFT
 62
6
 10
4064.260
 20
-5139.347
 30
1585.000
 70
    32
  0
VERTEX
  8
M36LXLIFT
 62
6
 10
4060.410
 20
-5141.824
 30
1585.000
 70
    32
  0
SEQEND
  8
M36LXLIFT
  0
POLYLINE
  8
M36LXLIFT
 62
8
 66
     1
 70
     9
  0
VERTEX
  8
M36LXLIFT
 62
8
 10
4053.349
 20
-5009.883
 30
1593.000
 70
    32
  0
VERTEX
  8
M36LXLIFT
 62
8
 10
4043.525
 20
-5008.332
 30
1593.000
 70
    32
  0
VERTEX
  8
M36LXLIFT
 62
8
 10
4019.249
 20
-5025.050
 30
1593.000
 70
    32
  0
VERTEX
  8
M36LXLIFT
 62
8
 10
4007.923
 20
-5032.953
 30
1593.000
 70
    32
  0
VERTEX
  8
M36LXLIFT
 62
8
 10
4001.357
 20
-5045.623
 30
1593.000
 70
    32
  0
VERTEX
  8
M36LXLIFT
 62
8
 10
4002.805
 20
-5061.673
 30
1593.000
 70
    32
  0
VERTEX
  8
M36LXLIFT
 62
8
 10
3982.858
 20
-5066.992
 30
1593.000
 70
    32
  0
VERTEX
  8
M36LXLIFT
 62
8
 10
3975.534
 20
-5055.555
 30
1593.000
 70
    32
  0
VERTEX
  8
M36LXLIFT
 62
8
 10
3963.511
 20
-5063.992
 30
1593.000
 70
    32
  0
VERTEX
  8
M36LXLIFT
 62
8
 10
3935.738
 20
-5087.707
 30
1593.000
 70
    32
  0
VERTEX
  8
M36LXLIFT
 62
8
 10
3922.376
 20
-5095.842
 30
1593.000
 70
    32
  0
VERTEX
  8
M36LXLIFT
 62
8
 10
3907.986
 20
-5103.213
 30
1593.000
 70
    32
  0
VERTEX
  8
M36LXLIFT
 62
8
 10
3897.269
 20
-5112.200
 30
1593.000
 70
    32
  0
VERTEX
  8
M36LXLIFT
 62
8
 10
3862.774
 20
-5143.612
 30
1593.000
 70
    32
  0
VERTEX
  8
M36LXLIFT
 62
8
 10
3870.214
 20
-5156.067
 30
1593.000
 70
    32
  0
VERTEX
  8
M36LXLIFT
 62
8
 10
3857.246
 20
-5165.006
 30
1593.000
 70
    32
  0
VERTEX
  8
M36LXLIFT
 62
8
 10
3851.586
 20
-5158.051
 30
1593.000
 70
    32
  0
VERTEX
  8
M36LXLIFT
 62
8
 10
3836.662
 20
-5139.152
 30
1593.000
 70
    32
  0
VERTEX
  8
M36LXLIFT
 62
8
 10
3822.093
 20
-5117.103
 30
1593.000
 70
    32
  0
VERTEX
  8
M36LXLIFT
 62
8
 10
3800.018
 20
-5081.211
 30
1593.000
 70
    32
  0
VERTEX
  8
M36LXLIFT
 62
8
 10
3750.930
 20
-5113.950
 30
1593.000
 70
    32
  0
VERTEX
  8
M36LXLIFT
 62
8
 10
3723.310
 20
-5133.674
 30
1593.000
 70
    32
  0
VERTEX
  8
M36LXLIFT
 62
8
 10
3711.389
 20
-5116.238
 30
1593.000
 70
    32
  0
VERTEX
  8
M36LXLIFT
 62
8
 10
3703.651
 20
-5108.882
 30
1593.000
 70
    32
  0
VERTEX
  8
M36LXLIFT
 62
8
 10
3690.693
 20
-5101.651
 30
1593.000
 70
    32
  0
VERTEX
  8
M36LXLIFT
 62
8
 10
3682.824
 20
-5091.960
 30
1593.000
 70
    32
  0
VERTEX
  8
M36LXLIFT
 62
8
 10
3637.228
 20
-5086.488
 30
1593.000
 70
    32
  0
VERTEX
  8
M36LXLIFT
 62
8
 10
3621.480
 20
-5081.394
 30
1593.000
 70
    32
  0
VERTEX
  8
M36LXLIFT
 62
8
 10
3608.240
 20
-5079.140
 30
1593.000
 70
    32
  0
VERTEX
  8
M36LXLIFT
 62
8
 10
3600.788
 20
-5067.247
 30
1593.000
 70
    32
  0
VERTEX
  8
M36LXLIFT
 62
8
 10
3600.480
 20
-5054.420
 30
1593.000
 70
    32
  0
VERTEX
  8
M36LXLIFT
 62
8
 10
3611.401
 20
-5039.631
 30
1593.000
 70
    32
  0
VERTEX
  8
M36LXLIFT
 62
8
 10
3645.174
 20
-4994.271
 30
1593.000
 70
    32
  0
VERTEX
  8
M36LXLIFT
 62
8
 10
3598.399
 20
-4918.630
 30
1593.000
 70
    32
  0
VERTEX
  8
M36LXLIFT
 62
8
 10
3588.257
 20
-4901.492
 30
1593.000
 70
    32
  0
VERTEX
  8
M36LXLIFT
 62
8
 10
3579.675
 20
-4883.933
 30
1593.000
 70
    32
  0
VERTEX
  8
M36LXLIFT
 62
8
 10
3573.602
 20
-4871.095
 30
1593.000
 70
    32
  0
VERTEX
  8
M36LXLIFT
 62
8
 10
3568.952
 20
-4859.824
 30
1593.000
 70
    32
  0
VERTEX
  8
M36LXLIFT
 62
8
 10
3564.185
 20
-4856.059
 30
1593.000
 70
    32
  0
VERTEX
  8
M36LXLIFT
 62
8
 10
3561.404
 20
-4850.551
 30
1593.000
 70
    32
  0
VERTEX
  8
M36LXLIFT
 62
8
 10
3563.651
 20
-4846.837
 30
1593.000
 70
    32
  0
VERTEX
  8
M36LXLIFT
 62
8
 10
3567.742
 20
-4848.130
 30
1593.000
 70
    32
  0
VERTEX
  8
M36LXLIFT
 62
8
 10
3597.557
 20
-4826.504
 30
1593.000
 70
    32
  0
VERTEX
  8
M36LXLIFT
 62
8
 10
3597.653
 20
-4815.359
 30
1593.000
 70
    32
  0
VERTEX
  8
M36LXLIFT
 62
8
 10
3604.702
 20
-4813.723
 30
1593.000
 70
    32
  0
VERTEX
  8
M36LXLIFT
 62
8
 10
3610.450
 20
-4817.179
 30
1593.000
 70
    32
  0
VERTEX
  8
M36LXLIFT
 62
8
 10
3661.055
 20
-4856.785
 30
1593.000
 70
    32
  0
VERTEX
  8
M36LXLIFT
 62
8
 10
3677.931
 20
-4874.188
 30
1593.000
 70
    32
  0
VERTEX
  8
M36LXLIFT
 62
8
 10
3694.019
 20
-4886.660
 30
1593.000
 70
    32
  0
VERTEX
  8
M36LXLIFT
 62
8
 10
3702.827
 20
-4900.612
 30
1593.000
 70
    32
  0
VERTEX
  8
M36LXLIFT
 62
8
 10
3721.258
 20
-4937.526
 30
1593.000
 70
    32
  0
VERTEX
  8
M36LXLIFT
 62
8
 10
3732.689
 20
-4941.610
 30
1593.000
 70
    32
  0
VERTEX
  8
M36LXLIFT
 62
8
 10
3745.043
 20
-4939.672
 30
1593.000
 70
    32
  0
VERTEX
  8
M36LXLIFT
 62
8
 10
3755.713
 20
-4946.663
 30
1593.000
 70
    32
  0
VERTEX
  8
M36LXLIFT
 62
8
 10
3762.349
 20
-4964.716
 30
1593.000
 70
    32
  0
VERTEX
  8
M36LXLIFT
 62
8
 10
3763.965
 20
-4979.973
 30
1593.000
 70
    32
  0
VERTEX
  8
M36LXLIFT
 62
8
 10
3797.901
 20
-5022.387
 30
1593.000
 70
    32
  0
VERTEX
  8
M36LXLIFT
 62
8
 10
3806.878
 20
-5040.750
 30
1593.000
 70
    32
  0
VERTEX
  8
M36LXLIFT
 62
8
 10
3823.469
 20
-5064.571
 30
1593.000
 70
    32
  0
VERTEX
  8
M36LXLIFT
 62
8
 10
3836.693
 20
-5106.249
 30
1593.000
 70
    32
  0
VERTEX
  8
M36LXLIFT
 62
8
 10
3888.792
 20
-5101.425
 30
1593.000
 70
    32
  0
VERTEX
  8
M36LXLIFT
 62
8
 10
3900.983
 20
-5092.195
 30
1593.000
 70
    32
  0
VERTEX
  8
M36LXLIFT
 62
8
 10
3905.997
 20
-5084.146
 30
1593.000
 70
    32
  0
VERTEX
  8
M36LXLIFT
 62
8
 10
3925.553
 20
-5073.259
 30
1593.000
 70
    32
  0
VERTEX
  8
M36LXLIFT
 62
8
 10
3958.584
 20
-5060.018
 30
1593.000
 70
    32
  0
VERTEX
  8
M36LXLIFT
 62
8
 10
3968.983
 20
-5049.172
 30
1593.000
 70
    32
  0
VERTEX
  8
M36LXLIFT
 62
8
 10
3968.792
 20
-5042.565
 30
1593.000
 70
    32
  0
VERTEX
  8
M36LXLIFT
 62
8
 10
3963.059
 20
-5028.581
 30
1593.000
 70
    32
  0
VERTEX
  8
M36LXLIFT
 62
8
 10
3954.183
 20
-4999.513
 30
1593.000
 70
    32
  0
VERTEX
  8
M36LXLIFT
 62
8
 10
3961.592
 20
-4979.998
 30
1593.000
 70
    32
  0
VERTEX
  8
M36LXLIFT
 62
8
 10
3968.917
 20
-4974.386
 30
1593.000
 70
    32
  0
VERTEX
  8
M36LXLIFT
 62
8
 10
3977.915
 20
-4976.016
 30
1593.000
 70
    32
  0
VERTEX
  8
M36LXLIFT
 62
8
 10
3988.764
 20
-4976.449
 30
1593.000
 70
    32
  0
VERTEX
  8
M36LXLIFT
 62
8
 10
4049.048
 20
-4986.498
 30
1593.000
 70
    32
  0
VERTEX
  8
M36LXLIFT
 62
8
 10
4058.414
 20
-4994.821
 30
1593.000
 70
    32
  0
VERTEX
  8
M36LXLIFT
 62
8
 10
4059.193
 20
-5002.195
 30
1593.000
 70
    32
  0
SEQEND
  8
M36LXLIFT
  0
POLYLINE
  8
M36LXLIFT
 62
8
 66
     1
 70
     9
  0
VERTEX
  8
M36LXLIFT
 62
8
 10
4067.152
 20
-4991.868
 30
1623.000
 70
    32
  0
VERTEX
  8
M36LXLIFT
 62
8
 10
4056.461
 20
-4979.429
 30
1623.000
 70
    32
  0
VERTEX
  8
M36LXLIFT
 62
8
 10
4040.847
 20
-4969.488
 30
1623.000
 70
    32
  0
VERTEX
  8
M36LXLIFT
 62
8
 10
4035.057
 20
-4979.903
 30
1623.000
 70
    32
  0
VERTEX
  8
M36LXLIFT
 62
8
 10
4038.456
 20
-4997.110
 30
1623.000
 70
    32
  0
VERTEX
  8
M36LXLIFT
 62
8
 10
4037.208
 20
-5004.652
 30
1623.000
 70
    32
  0
VERTEX
  8
M36LXLIFT
 62
8
 10
4028.962
 20
-5005.873
 30
1623.000
 70
    32
  0
VERTEX
  8
M36LXLIFT
 62
8
 10
4019.523
 20
-4999.482
 30
1623.000
 70
    32
  0
VERTEX
  8
M36LXLIFT
 62
8
 10
4013.133
 20
-5002.505
 30
1623.000
 70
    32
  0
VERTEX
  8
M36LXLIFT
 62
8
 10
3983.493
 20
-4997.343
 30
1623.000
 70
    32
  0
VERTEX
  8
M36LXLIFT
 62
8
 10
3971.442
 20
-5007.969
 30
1623.000
 70
    32
  0
VERTEX
  8
M36LXLIFT
 62
8
 10
3960.628
 20
-5014.323
 30
1623.000
 70
    32
  0
VERTEX
  8
M36LXLIFT
 62
8
 10
3960.433
 20
-5021.968
 30
1623.000
 70
    32
  0
VERTEX
  8
M36LXLIFT
 62
8
 10
3946.908
 20
-5032.363
 30
1623.000
 70
    32
  0
VERTEX
  8
M36LXLIFT
 62
8
 10
3930.296
 20
-5044.789
 30
1623.000
 70
    32
  0
VERTEX
  8
M36LXLIFT
 62
8
 10
3919.581
 20
-5072.928
 30
1623.000
 70
    32
  0
VERTEX
  8
M36LXLIFT
 62
8
 10
3909.568
 20
-5077.394
 30
1623.000
 70
    32
  0
VERTEX
  8
M36LXLIFT
 62
8
 10
3905.609
 20
-5081.365
 30
1623.000
 70
    32
  0
VERTEX
  8
M36LXLIFT
 62
8
 10
3898.328
 20
-5092.867
 30
1623.000
 70
    32
  0
VERTEX
  8
M36LXLIFT
 62
8
 10
3890.112
 20
-5099.503
 30
1623.000
 70
    32
  0
VERTEX
  8
M36LXLIFT
 62
8
 10
3879.054
 20
-5117.018
 30
1623.000
 70
    32
  0
VERTEX
  8
M36LXLIFT
 62
8
 10
3802.856
 20
-5071.822
 30
1623.000
 70
    32
  0
VERTEX
  8
M36LXLIFT
 62
8
 10
3796.638
 20
-5052.536
 30
1623.000
 70
    32
  0
VERTEX
  8
M36LXLIFT
 62
8
 10
3793.063
 20
-5041.655
 30
1623.000
 70
    32
  0
VERTEX
  8
M36LXLIFT
 62
8
 10
3776.824
 20
-5024.884
 30
1623.000
 70
    32
  0
VERTEX
  8
M36LXLIFT
 62
8
 10
3765.178
 20
-4978.886
 30
1623.000
 70
    32
  0
VERTEX
  8
M36LXLIFT
 62
8
 10
3759.263
 20
-4966.883
 30
1623.000
 70
    32
  0
VERTEX
  8
M36LXLIFT
 62
8
 10
3753.878
 20
-4955.907
 30
1623.000
 70
    32
  0
VERTEX
  8
M36LXLIFT
 62
8
 10
3741.933
 20
-4951.450
 30
1623.000
 70
    32
  0
VERTEX
  8
M36LXLIFT
 62
8
 10
3732.725
 20
-4953.589
 30
1623.000
 70
    32
  0
VERTEX
  8
M36LXLIFT
 62
8
 10
3724.006
 20
-4942.215
 30
1623.000
 70
    32
  0
VERTEX
  8
M36LXLIFT
 62
8
 10
3722.136
 20
-4938.901
 30
1623.000
 70
    32
  0
VERTEX
  8
M36LXLIFT
 62
8
 10
3705.160
 20
-4949.634
 30
1623.000
 70
    32
  0
VERTEX
  8
M36LXLIFT
 62
8
 10
3690.807
 20
-4958.892
 30
1623.000
 70
    32
  0
VERTEX
  8
M36LXLIFT
 62
8
 10
3671.121
 20
-4974.862
 30
1623.000
 70
    32
  0
VERTEX
  8
M36LXLIFT
 62
8
 10
3654.044
 20
-4989.040
 30
1623.000
 70
    32
  0
VERTEX
  8
M36LXLIFT
 62
8
 10
3637.876
 20
-4999.837
 30
1623.000
 70
    32
  0
VERTEX
  8
M36LXLIFT
 62
8
 10
3659.038
 20
-5031.727
 30
1623.000
 70
    32
  0
VERTEX
  8
M36LXLIFT
 62
8
 10
3673.564
 20
-5047.789
 30
1623.000
 70
    32
  0
VERTEX
  8
M36LXLIFT
 62
8
 10
3711.595
 20
-5019.980
 30
1623.000
 70
    32
  0
VERTEX
  8
M36LXLIFT
 62
8
 10
3732.288
 20
-5002.407
 30
1623.000
 70
    32
  0
VERTEX
  8
M36LXLIFT
 62
8
 10
3768.369
 20
-5031.042
 30
1623.000
 70
    32
  0
VERTEX
  8
M36LXLIFT
 62
8
 10
3774.530
 20
-5051.892
 30
1623.000
 70
    32
  0
VERTEX
  8
M36LXLIFT
 62
8
 10
3785.889
 20
-5068.086
 30
1623.000
 70
    32
  0
VERTEX
  8
M36LXLIFT
 62
8
 10
3796.708
 20
-5077.713
 30
1623.000
 70
    32
  0
VERTEX
  8
M36LXLIFT
 62
8
 10
3868.715
 20
-5135.966
 30
1623.000
 70
    32
  0
VERTEX
  8
M36LXLIFT
 62
8
 10
3879.963
 20
-5131.254
 30
1623.000
 70
    32
  0
VERTEX
  8
M36LXLIFT
 62
8
 10
3884.980
 20
-5125.751
 30
1623.000
 70
    32
  0
VERTEX
  8
M36LXLIFT
 62
8
 10
3906.690
 20
-5119.725
 30
1623.000
 70
    32
  0
VERTEX
  8
M36LXLIFT
 62
8
 10
3914.589
 20
-5113.102
 30
1623.000
 70
    32
  0
VERTEX
  8
M36LXLIFT
 62
8
 10
3922.480
 20
-5105.723
 30
1623.000
 70
    32
  0
VERTEX
  8
M36LXLIFT
 62
8
 10
3932.210
 20
-5101.463
 30
1623.000
 70
    32
  0
VERTEX
  8
M36LXLIFT
 62
8
 10
3935.500
 20
-5093.738
 30
1623.000
 70
    32
  0
VERTEX
  8
M36LXLIFT
 62
8
 10
3942.805
 20
-5088.092
 30
1623.000
 70
    32
  0
VERTEX
  8
M36LXLIFT
 62
8
 10
3965.809
 20
-5085.038
 30
1623.000
 70
    32
  0
VERTEX
  8
M36LXLIFT
 62
8
 10
3980.512
 20
-5075.961
 30
1623.000
 70
    32
  0
VERTEX
  8
M36LXLIFT
 62
8
 10
4004.605
 20
-5060.369
 30
1623.000
 70
    32
  0
VERTEX
  8
M36LXLIFT
 62
8
 10
4004.286
 20
-5047.987
 30
1623.000
 70
    32
  0
VERTEX
  8
M36LXLIFT
 62
8
 10
4008.741
 20
-5041.263
 30
1623.000
 70
    32
  0
VERTEX
  8
M36LXLIFT
 62
8
 10
4035.563
 20
-5036.733
 30
1623.000
 70
    32
  0
VERTEX
  8
M36LXLIFT
 62
8
 10
4039.405
 20
-5032.304
 30
1623.000
 70
    32
  0
VERTEX
  8
M36LXLIFT
 62
8
 10
4043.053
 20
-5009.094
 30
1623.000
 70
    32
  0
VERTEX
  8
M36LXLIFT
 62
8
 10
4050.917
 20
-5008.695
 30
1623.000
 70
    32
  0
VERTEX
  8
M36LXLIFT
 62
8
 10
4057.493
 20
-5003.688
 30
1623.000
 70
    32
  0
SEQEND
  8
M36LXLIFT
  0
POLYLINE
  8
M36LXLIFT
 62
8
 66
     1
 70
     9
  0
VERTEX
  8
M36LXLIFT
 62
8
 10
3600.286
 20
-4775.042
 30
1623.000
 70
    32
  0
VERTEX
  8
M36LXLIFT
 62
8
 10
3615.505
 20
-4793.100
 30
1623.000
 70
    32
  0
VERTEX
  8
M36LXLIFT
 62
8
 10
3621.218
 20
-4801.988
 30
1623.000
 70
    32
  0
VERTEX
  8
M36LXLIFT
 62
8
 10
3634.131
 20
-4812.700
 30
1623.000
 70
    32
  0
VERTEX
  8
M36LXLIFT
 62
8
 10
3628.540
 20
-4820.252
 30
1623.000
 70
    32
  0
VERTEX
  8
M36LXLIFT
 62
8
 10
3628.840
 20
-4825.144
 30
1623.000
 70
    32
  0
VERTEX
  8
M36LXLIFT
 62
8
 10
3617.983
 20
-4833.379
 30
1623.000
 70
    32
  0
VERTEX
  8
M36LXLIFT
 62
8
 10
3610.969
 20
-4839.575
 30
1623.000
 70
    32
  0
VERTEX
  8
M36LXLIFT
 62
8
 10
3601.302
 20
-4831.827
 30
1623.000
 70
    32
  0
VERTEX
  8
M36LXLIFT
 62
8
 10
3591.963
 20
-4821.991
 30
1623.000
 70
    32
  0
VERTEX
  8
M36LXLIFT
 62
8
 10
3577.001
 20
-4828.322
 30
1623.000
 70
    32
  0
VERTEX
  8
M36LXLIFT
 62
8
 10
3568.443
 20
-4835.534
 30
1623.000
 70
    32
  0
VERTEX
  8
M36LXLIFT
 62
8
 10
3561.198
 20
-4825.587
 30
1623.000
 70
    32
  0
VERTEX
  8
M36LXLIFT
 62
8
 10
3566.765
 20
-4819.792
 30
1623.000
 70
    32
  0
VERTEX
  8
M36LXLIFT
 62
8
 10
3577.150
 20
-4792.546
 30
1623.000
 70
    32
  0
VERTEX
  8
M36LXLIFT
 62
8
 10
3587.148
 20
-4784.176
 30
1623.000
 70
    32
  0
SEQEND
  8
M36LXLIFT
  0
POLYLINE
  8
M36LXLIFT
 62
11
 66
     1
 70
     9
  0
VERTEX
  8
M36LXLIFT
 62
11
 10
3945.106
 20
-5020.898
 30
1655.000
 70
    32
  0
VERTEX
  8
M36LXLIFT
 62
11
 10
3932.922
 20
-5031.265
 30
1655.000
 70
    32
  0
VERTEX
  8
M36LXLIFT
 62
11
 10
3908.255
 20
-5041.309
 30
1655.000
 70
    32
  0
VERTEX
  8
M36LXLIFT
 62
11
 10
3893.098
 20
-5048.202
 30
1655.000
 70
    32
  0
VERTEX
  8
M36LXLIFT
 62
11
 10
3893.625
 20
-5040.194
 30
1655.000
 70
    32
  0
VERTEX
  8
M36LXLIFT
 62
11
 10
3899.962
 20
-5029.533
 30
1655.000
 70
    32
  0
VERTEX
  8
M36LXLIFT
 62
11
 10
3890.076
 20
-5012.904
 30
1655.000
 70
    32
  0
VERTEX
  8
M36LXLIFT
 62
11
 10
3889.592
 20
-4998.057
 30
1655.000
 70
    32
  0
VERTEX
  8
M36LXLIFT
 62
11
 10
3889.673
 20
-4997.003
 30
1655.000
 70
    32
  0
VERTEX
  8
M36LXLIFT
 62
11
 10
3892.873
 20
-4981.780
 30
1655.000
 70
    32
  0
VERTEX
  8
M36LXLIFT
 62
11
 10
3891.712
 20
-4962.707
 30
1655.000
 70
    32
  0
VERTEX
  8
M36LXLIFT
 62
11
 10
3894.972
 20
-4951.188
 30
1655.000
 70
    32
  0
VERTEX
  8
M36LXLIFT
 62
11
 10
3900.339
 20
-4939.831
 30
1655.000
 70
    32
  0
VERTEX
  8
M36LXLIFT
 62
11
 10
3893.936
 20
-4929.814
 30
1655.000
 70
    32
  0
VERTEX
  8
M36LXLIFT
 62
11
 10
3881.296
 20
-4924.210
 30
1655.000
 70
    32
  0
VERTEX
  8
M36LXLIFT
 62
11
 10
3879.400
 20
-4908.231
 30
1655.000
 70
    32
  0
VERTEX
  8
M36LXLIFT
 62
11
 10
3876.457
 20
-4893.049
 30
1655.000
 70
    32
  0
VERTEX
  8
M36LXLIFT
 62
11
 10
3879.262
 20
-4884.412
 30
1655.000
 70
    32
  0
VERTEX
  8
M36LXLIFT
 62
11
 10
3887.057
 20
-4884.659
 30
1655.000
 70
    32
  0
VERTEX
  8
M36LXLIFT
 62
11
 10
3893.203
 20
-4895.642
 30
1655.000
 70
    32
  0
VERTEX
  8
M36LXLIFT
 62
11
 10
3899.318
 20
-4907.310
 30
1655.000
 70
    32
  0
VERTEX
  8
M36LXLIFT
 62
11
 10
3906.286
 20
-4920.535
 30
1655.000
 70
    32
  0
VERTEX
  8
M36LXLIFT
 62
11
 10
3911.751
 20
-4926.854
 30
1655.000
 70
    32
  0
VERTEX
  8
M36LXLIFT
 62
11
 10
3919.214
 20
-4940.584
 30
1655.000
 70
    32
  0
VERTEX
  8
M36LXLIFT
 62
11
 10
3927.803
 20
-4954.782
 30
1655.000
 70
    32
  0
VERTEX
  8
M36LXLIFT
 62
11
 10
3938.751
 20
-4967.296
 30
1655.000
 70
    32
  0
VERTEX
  8
M36LXLIFT
 62
11
 10
3932.170
 20
-4975.607
 30
1655.000
 70
    32
  0
VERTEX
  8
M36LXLIFT
 62
11
 10
3927.642
 20
-4986.327
 30
1655.000
 70
    32
  0
VERTEX
  8
M36LXLIFT
 62
11
 10
3937.892
 20
-5004.884
 30
1655.000
 70
    32
  0
SEQEND
  8
M36LXLIFT
  0
POLYLINE
  8
M36LXLIFT
 62
8
 66
     1
 70
     9
  0
VERTEX
  8
M36LXLIFT
 62
8
 10
3998.657
 20
-4993.303
 30
1653.000
 70
    32
  0
VERTEX
  8
M36LXLIFT
 62
8
 10
4015.288
 20
-5007.781
 30
1653.000
 70
    32
  0
VERTEX
  8
M36LXLIFT
 62
8
 10
4028.202
 20
-5025.636
 30
1653.000
 70
    32
  0
VERTEX
  8
M36LXLIFT
 62
8
 10
4017.504
 20
-5035.203
 30
1653.000
 70
    32
  0
VERTEX
  8
M36LXLIFT
 62
8
 10
4003.270
 20
-5043.600
 30
1653.000
 70
    32
  0
VERTEX
  8
M36LXLIFT
 62
8
 10
3998.412
 20
-5054.901
 30
1653.000
 70
    32
  0
VERTEX
  8
M36LXLIFT
 62
8
 10
3995.451
 20
-5066.523
 30
1653.000
 70
    32
  0
VERTEX
  8
M36LXLIFT
 62
8
 10
3975.263
 20
-5082.314
 30
1653.000
 70
    32
  0
VERTEX
  8
M36LXLIFT
 62
8
 10
3948.781
 20
-5102.007
 30
1653.000
 70
    32
  0
VERTEX
  8
M36LXLIFT
 62
8
 10
3922.371
 20
-5119.331
 30
1653.000
 70
    32
  0
VERTEX
  8
M36LXLIFT
 62
8
 10
3896.759
 20
-5129.873
 30
1653.000
 70
    32
  0
VERTEX
  8
M36LXLIFT
 62
8
 10
3878.908
 20
-5135.397
 30
1653.000
 70
    32
  0
VERTEX
  8
M36LXLIFT
 62
8
 10
3870.390
 20
-5139.999
 30
1653.000
 70
    32
  0
VERTEX
  8
M36LXLIFT
 62
8
 10
3876.188
 20
-5148.931
 30
1653.000
 70
    32
  0
VERTEX
  8
M36LXLIFT
 62
8
 10
3862.029
 20
-5152.640
 30
1653.000
 70
    32
  0
VERTEX
  8
M36LXLIFT
 62
8
 10
3844.761
 20
-5147.909
 30
1653.000
 70
    32
  0
VERTEX
  8
M36LXLIFT
 62
8
 10
3842.150
 20
-5135.340
 30
1653.000
 70
    32
  0
VERTEX
  8
M36LXLIFT
 62
8
 10
3832.901
 20
-5116.794
 30
1653.000
 70
    32
  0
VERTEX
  8
M36LXLIFT
 62
8
 10
3825.700
 20
-5116.314
 30
1653.000
 70
    32
  0
VERTEX
  8
M36LXLIFT
 62
8
 10
3816.732
 20
-5108.579
 30
1653.000
 70
    32
  0
VERTEX
  8
M36LXLIFT
 62
8
 10
3810.290
 20
-5095.175
 30
1653.000
 70
    32
  0
VERTEX
  8
M36LXLIFT
 62
8
 10
3802.852
 20
-5077.126
 30
1653.000
 70
    32
  0
VERTEX
  8
M36LXLIFT
 62
8
 10
3797.547
 20
-5063.188
 30
1653.000
 70
    32
  0
VERTEX
  8
M36LXLIFT
 62
8
 10
3786.885
 20
-5043.510
 30
1653.000
 70
    32
  0
VERTEX
  8
M36LXLIFT
 62
8
 10
3781.513
 20
-5027.309
 30
1653.000
 70
    32
  0
VERTEX
  8
M36LXLIFT
 62
8
 10
3741.638
 20
-4999.081
 30
1653.000
 70
    32
  0
VERTEX
  8
M36LXLIFT
 62
8
 10
3723.917
 20
-4978.817
 30
1653.000
 70
    32
  0
VERTEX
  8
M36LXLIFT
 62
8
 10
3706.769
 20
-4952.494
 30
1653.000
 70
    32
  0
VERTEX
  8
M36LXLIFT
 62
8
 10
3666.256
 20
-4928.501
 30
1653.000
 70
    32
  0
VERTEX
  8
M36LXLIFT
 62
8
 10
3645.887
 20
-4922.157
 30
1653.000
 70
    32
  0
VERTEX
  8
M36LXLIFT
 62
8
 10
3636.151
 20
-4933.859
 30
1653.000
 70
    32
  0
VERTEX
  8
M36LXLIFT
 62
8
 10
3612.166
 20
-4946.251
 30
1653.000
 70
    32
  0
VERTEX
  8
M36LXLIFT
 62
8
 10
3588.142
 20
-4958.012
 30
1653.000
 70
    32
  0
VERTEX
  8
M36LXLIFT
 62
8
 10
3577.028
 20
-4968.336
 30
1653.000
 70
    32
  0
VERTEX
  8
M36LXLIFT
 62
8
 10
3582.916
 20
-4990.872
 30
1653.000
 70
    32
  0
VERTEX
  8
M36LXLIFT
 62
8
 10
3596.635
 20
-5005.580
 30
1653.000
 70
    32
  0
VERTEX
  8
M36LXLIFT
 62
8
 10
3601.751
 20
-5012.164
 30
1653.000
 70
    32
  0
VERTEX
  8
M36LXLIFT
 62
8
 10
3600.472
 20
-5020.633
 30
1653.000
 70
    32
  0
VERTEX
  8
M36LXLIFT
 62
8
 10
3587.185
 20
-5023.459
 30
1653.000
 70
    32
  0
VERTEX
  8
M36LXLIFT
 62
8
 10
3579.083
 20
-5027.303
 30
1653.000
 70
    32
  0
VERTEX
  8
M36LXLIFT
 62
8
 10
3570.326
 20
-5027.677
 30
1653.000
 70
    32
  0
VERTEX
  8
M36LXLIFT
 62
8
 10
3556.747
 20
-5020.692
 30
1653.000
 70
    32
  0
VERTEX
  8
M36LXLIFT
 62
8
 10
3542.362
 20
-5016.854
 30
1653.000
 70
    32
  0
VERTEX
  8
M36LXLIFT
 62
8
 10
3544.395
 20
-5032.288
 30
1653.000
 70
    32
  0
VERTEX
  8
M36LXLIFT
 62
8
 10
3557.578
 20
-5056.443
 30
1653.000
 70
    32
  0
VERTEX
  8
M36LXLIFT
 62
8
 10
3568.333
 20
-5082.335
 30
1653.000
 70
    32
  0
VERTEX
  8
M36LXLIFT
 62
8
 10
3570.323
 20
-5096.698
 30
1653.000
 70
    32
  0
VERTEX
  8
M36LXLIFT
 62
8
 10
3569.609
 20
-5105.620
 30
1653.000
 70
    32
  0
VERTEX
  8
M36LXLIFT
 62
8
 10
3594.115
 20
-5140.461
 30
1653.000
 70
    32
  0
VERTEX
  8
M36LXLIFT
 62
8
 10
3616.546
 20
-5172.139
 30
1653.000
 70
    32
  0
VERTEX
  8
M36LXLIFT
 62
8
 10
3635.250
 20
-5197.609
 30
1653.000
 70
    32
  0
VERTEX
  8
M36LXLIFT
 62
8
 10
3650.744
 20
-5220.889
 30
1653.000
 70
    32
  0
VERTEX
  8
M36LXLIFT
 62
8
 10
3667.946
 20
-5239.454
 30
1653.000
 70
    32
  0
VERTEX
  8
M36LXLIFT
 62
8
 10
3683.687
 20
-5249.426
 30
1653.000
 70
    32
  0
VERTEX
  8
M36LXLIFT
 62
8
 10
3669.778
 20
-5261.875
 30
1653.000
 70
    32
  0
VERTEX
  8
M36LXLIFT
 62
8
 10
3662.467
 20
-5265.890
 30
1653.000
 70
    32
  0
VERTEX
  8
M36LXLIFT
 62
8
 10
3662.269
 20
-5251.708
 30
1653.000
 70
    32
  0
VERTEX
  8
M36LXLIFT
 62
8
 10
3655.213
 20
-5233.148
 30
1653.000
 70
    32
  0
VERTEX
  8
M36LXLIFT
 62
8
 10
3637.534
 20
-5213.955
 30
1653.000
 70
    32
  0
VERTEX
  8
M36LXLIFT
 62
8
 10
3615.040
 20
-5188.720
 30
1653.000
 70
    32
  0
VERTEX
  8
M36LXLIFT
 62
8
 10
3590.602
 20
-5158.898
 30
1653.000
 70
    32
  0
VERTEX
  8
M36LXLIFT
 62
8
 10
3574.295
 20
-5140.205
 30
1653.000
 70
    32
  0
VERTEX
  8
M36LXLIFT
 62
8
 10
3563.764
 20
-5129.690
 30
1653.000
 70
    32
  0
VERTEX
  8
M36LXLIFT
 62
8
 10
3551.277
 20
-5110.076
 30
1653.000
 70
    32
  0
VERTEX
  8
M36LXLIFT
 62
8
 10
3542.367
 20
-5097.777
 30
1653.000
 70
    32
  0
VERTEX
  8
M36LXLIFT
 62
8
 10
3530.782
 20
-5097.765
 30
1653.000
 70
    32
  0
VERTEX
  8
M36LXLIFT
 62
8
 10
3525.295
 20
-5085.619
 30
1653.000
 70
    32
  0
VERTEX
  8
M36LXLIFT
 62
8
 10
3511.630
 20
-5070.981
 30
1653.000
 70
    32
  0
VERTEX
  8
M36LXLIFT
 62
8
 10
3504.260
 20
-5060.708
 30
1653.000
 70
    32
  0
VERTEX
  8
M36LXLIFT
 62
8
 10
3514.495
 20
-5055.462
 30
1653.000
 70
    32
  0
VERTEX
  8
M36LXLIFT
 62
8
 10
3533.048
 20
-5065.943
 30
1653.000
 70
    32
  0
VERTEX
  8
M36LXLIFT
 62
8
 10
3548.588
 20
-5080.147
 30
1653.000
 70
    32
  0
VERTEX
  8
M36LXLIFT
 62
8
 10
3559.460
 20
-5089.081
 30
1653.000
 70
    32
  0
VERTEX
  8
M36LXLIFT
 62
8
 10
3560.132
 20
-5081.844
 30
1653.000
 70
    32
  0
VERTEX
  8
M36LXLIFT
 62
8
 10
3550.395
 20
-5071.938
 30
1653.000
 70
    32
  0
VERTEX
  8
M36LXLIFT
 62
8
 10
3539.430
 20
-5056.791
 30
1653.000
 70
    32
  0
VERTEX
  8
M36LXLIFT
 62
8
 10
3530.519
 20
-5038.980
 30
1653.000
 70
    32
  0
VERTEX
  8
M36LXLIFT
 62
8
 10
3528.994
 20
-5020.734
 30
1653.000
 70
    32
  0
VERTEX
  8
M36LXLIFT
 62
8
 10
3534.173
 20
-5004.778
 30
1653.000
 70
    32
  0
VERTEX
  8
M36LXLIFT
 62
8
 10
3544.239
 20
-4992.495
 30
1653.000
 70
    32
  0
VERTEX
  8
M36LXLIFT
 62
8
 10
3559.624
 20
-4996.344
 30
1653.000
 70
    32
  0
VERTEX
  8
M36LXLIFT
 62
8
 10
3579.998
 20
-5003.565
 30
1653.000
 70
    32
  0
VERTEX
  8
M36LXLIFT
 62
8
 10
3583.195
 20
-5001.244
 30
1653.000
 70
    32
  0
VERTEX
  8
M36LXLIFT
 62
8
 10
3578.328
 20
-4995.132
 30
1653.000
 70
    32
  0
VERTEX
  8
M36LXLIFT
 62
8
 10
3563.304
 20
-4952.751
 30
1653.000
 70
    32
  0
VERTEX
  8
M36LXLIFT
 62
8
 10
3568.453
 20
-4937.481
 30
1653.000
 70
    32
  0
VERTEX
  8
M36LXLIFT
 62
8
 10
3592.834
 20
-4921.259
 30
1653.000
 70
    32
  0
VERTEX
  8
M36LXLIFT
 62
8
 10
3604.848
 20
-4911.684
 30
1653.000
 70
    32
  0
VERTEX
  8
M36LXLIFT
 62
8
 10
3620.875
 20
-4911.736
 30
1653.000
 70
    32
  0
VERTEX
  8
M36LXLIFT
 62
8
 10
3629.421
 20
-4908.766
 30
1653.000
 70
    32
  0
VERTEX
  8
M36LXLIFT
 62
8
 10
3643.418
 20
-4904.409
 30
1653.000
 70
    32
  0
VERTEX
  8
M36LXLIFT
 62
8
 10
3647.306
 20
-4886.900
 30
1653.000
 70
    32
  0
VERTEX
  8
M36LXLIFT
 62
8
 10
3638.904
 20
-4874.544
 30
1653.000
 70
    32
  0
VERTEX
  8
M36LXLIFT
 62
8
 10
3631.956
 20
-4877.732
 30
1653.000
 70
    32
  0
VERTEX
  8
M36LXLIFT
 62
8
 10
3619.213
 20
-4861.842
 30
1653.000
 70
    32
  0
VERTEX
  8
M36LXLIFT
 62
8
 10
3608.656
 20
-4847.377
 30
1653.000
 70
    32
  0
VERTEX
  8
M36LXLIFT
 62
8
 10
3596.264
 20
-4855.586
 30
1653.000
 70
    32
  0
VERTEX
  8
M36LXLIFT
 62
8
 10
3586.124
 20
-4853.704
 30
1653.000
 70
    32
  0
VERTEX
  8
M36LXLIFT
 62
8
 10
3568.839
 20
-4838.510
 30
1653.000
 70
    32
  0
VERTEX
  8
M36LXLIFT
 62
8
 10
3558.994
 20
-4822.952
 30
1653.000
 70
    32
  0
VERTEX
  8
M36LXLIFT
 62
8
 10
3559.391
 20
-4805.782
 30
1653.000
 70
    32
  0
VERTEX
  8
M36LXLIFT
 62
8
 10
3572.188
 20
-4797.816
 30
1653.000
 70
    32
  0
VERTEX
  8
M36LXLIFT
 62
8
 10
3591.778
 20
-4784.575
 30
1653.000
 70
    32
  0
VERTEX
  8
M36LXLIFT
 62
8
 10
3604.997
 20
-4773.974
 30
1653.000
 70
    32
  0
VERTEX
  8
M36LXLIFT
 62
8
 10
3617.580
 20
-4786.898
 30
1653.000
 70
    32
  0
VERTEX
  8
M36LXLIFT
 62
8
 10
3630.173
 20
-4809.407
 30
1653.000
 70
    32
  0
VERTEX
  8
M36LXLIFT
 62
8
 10
3637.697
 20
-4821.768
 30
1653.000
 70
    32
  0
VERTEX
  8
M36LXLIFT
 62
8
 10
3648.646
 20
-4839.794
 30
1653.000
 70
    32
  0
VERTEX
  8
M36LXLIFT
 62
8
 10
3653.848
 20
-4837.935
 30
1653.000
 70
    32
  0
VERTEX
  8
M36LXLIFT
 62
8
 10
3658.541
 20
-4841.643
 30
1653.000
 70
    32
  0
VERTEX
  8
M36LXLIFT
 62
8
 10
3670.173
 20
-4835.335
 30
1653.000
 70
    32
  0
VERTEX
  8
M36LXLIFT
 62
8
 10
3672.488
 20
-4840.410
 30
1653.000
 70
    32
  0
VERTEX
  8
M36LXLIFT
 62
8
 10
3667.810
 20
-4844.408
 30
1653.000
 70
    32
  0
VERTEX
  8
M36LXLIFT
 62
8
 10
3670.941
 20
-4848.091
 30
1653.000
 70
    32
  0
VERTEX
  8
M36LXLIFT
 62
8
 10
3666.043
 20
-4853.249
 30
1653.000
 70
    32
  0
VERTEX
  8
M36LXLIFT
 62
8
 10
3669.759
 20
-4860.457
 30
1653.000
 70
    32
  0
VERTEX
  8
M36LXLIFT
 62
8
 10
3684.494
 20
-4872.297
 30
1653.000
 70
    32
  0
VERTEX
  8
M36LXLIFT
 62
8
 10
3692.364
 20
-4883.953
 30
1653.000
 70
    32
  0
VERTEX
  8
M36LXLIFT
 62
8
 10
3695.698
 20
-4897.185
 30
1653.000
 70
    32
  0
VERTEX
  8
M36LXLIFT
 62
8
 10
3695.938
 20
-4906.925
 30
1653.000
 70
    32
  0
VERTEX
  8
M36LXLIFT
 62
8
 10
3742.513
 20
-4926.420
 30
1653.000
 70
    32
  0
VERTEX
  8
M36LXLIFT
 62
8
 10
3756.772
 20
-4948.655
 30
1653.000
 70
    32
  0
VERTEX
  8
M36LXLIFT
 62
8
 10
3765.129
 20
-4962.257
 30
1653.000
 70
    32
  0
VERTEX
  8
M36LXLIFT
 62
8
 10
3773.694
 20
-4978.016
 30
1653.000
 70
    32
  0
VERTEX
  8
M36LXLIFT
 62
8
 10
3796.129
 20
-5018.401
 30
1653.000
 70
    32
  0
VERTEX
  8
M36LXLIFT
 62
8
 10
3807.934
 20
-5051.763
 30
1653.000
 70
    32
  0
VERTEX
  8
M36LXLIFT
 62
8
 10
3812.552
 20
-5073.499
 30
1653.000
 70
    32
  0
VERTEX
  8
M36LXLIFT
 62
8
 10
3823.816
 20
-5083.238
 30
1653.000
 70
    32
  0
VERTEX
  8
M36LXLIFT
 62
8
 10
3837.844
 20
-5083.707
 30
1653.000
 70
    32
  0
VERTEX
  8
M36LXLIFT
 62
8
 10
3839.006
 20
-5094.952
 30
1653.000
 70
    32
  0
VERTEX
  8
M36LXLIFT
 62
8
 10
3833.575
 20
-5104.484
 30
1653.000
 70
    32
  0
VERTEX
  8
M36LXLIFT
 62
8
 10
3843.181
 20
-5115.813
 30
1653.000
 70
    32
  0
VERTEX
  8
M36LXLIFT
 62
8
 10
3850.450
 20
-5129.580
 30
1653.000
 70
    32
  0
VERTEX
  8
M36LXLIFT
 62
8
 10
3858.079
 20
-5133.813
 30
1653.000
 70
    32
  0
VERTEX
  8
M36LXLIFT
 62
8
 10
3871.605
 20
-5121.876
 30
1653.000
 70
    32
  0
VERTEX
  8
M36LXLIFT
 62
8
 10
3890.611
 20
-5105.110
 30
1653.000
 70
    32
  0
VERTEX
  8
M36LXLIFT
 62
8
 10
3911.764
 20
-5091.894
 30
1653.000
 70
    32
  0
VERTEX
  8
M36LXLIFT
 62
8
 10
3933.144
 20
-5078.395
 30
1653.000
 70
    32
  0
VERTEX
  8
M36LXLIFT
 62
8
 10
3942.147
 20
-5067.470
 30
1653.000
 70
    32
  0
VERTEX
  8
M36LXLIFT
 62
8
 10
3940.230
 20
-5056.248
 30
1653.000
 70
    32
  0
VERTEX
  8
M36LXLIFT
 62
8
 10
3935.038
 20
-5046.084
 30
1653.000
 70
    32
  0
VERTEX
  8
M36LXLIFT
 62
8
 10
3939.858
 20
-5036.907
 30
1653.000
 70
    32
  0
VERTEX
  8
M36LXLIFT
 62
8
 10
3960.892
 20
-5019.039
 30
1653.000
 70
    32
  0
VERTEX
  8
M36LXLIFT
 62
8
 10
3957.154
 20
-5011.077
 30
1653.000
 70
    32
  0
VERTEX
  8
M36LXLIFT
 62
8
 10
3961.807
 20
-5008.641
 30
1653.000
 70
    32
  0
VERTEX
  8
M36LXLIFT
 62
8
 10
3978.262
 20
-5025.789
 30
1653.000
 70
    32
  0
VERTEX
  8
M36LXLIFT
 62
8
 10
3983.080
 20
-5021.685
 30
1653.000
 70
    32
  0
VERTEX
  8
M36LXLIFT
 62
8
 10
3975.715
 20
-5006.777
 30
1653.000
 70
    32
  0
SEQEND
  8
M36LXLIFT
  0
POLYLINE
  8
M36LXLIFT
 62
11
 66
     1
 70
     9
  0
VERTEX
  8
M36LXLIFT
 62
11
 10
3875.952
 20
-4889.488
 30
1665.000
 70
    32
  0
VERTEX
  8
M36LXLIFT
 62
11
 10
3892.725
 20
-4906.725
 30
1665.000
 70
    32
  0
VERTEX
  8
M36LXLIFT
 62
11
 10
3907.452
 20
-4929.361
 30
1665.000
 70
    32
  0
VERTEX
  8
M36LXLIFT
 62
11
 10
3911.819
 20
-4944.326
 30
1665.000
 70
    32
  0
VERTEX
  8
M36LXLIFT
 62
11
 10
3925.085
 20
-4958.682
 30
1665.000
 70
    32
  0
VERTEX
  8
M36LXLIFT
 62
11
 10
3931.125
 20
-4976.992
 30
1665.000
 70
    32
  0
VERTEX
  8
M36LXLIFT
 62
11
 10
3947.001
 20
-4994.339
 30
1665.000
 70
    32
  0
VERTEX
  8
M36LXLIFT
 62
11
 10
3954.048
 20
-5006.267
 30
1665.000
 70
    32
  0
VERTEX
  8
M36LXLIFT
 62
11
 10
3928.356
 20
-5013.657
 30
1665.000
 70
    32
  0
VERTEX
  8
M36LXLIFT
 62
11
 10
3908.039
 20
-5030.825
 30
1665.000
 70
    32
  0
VERTEX
  8
M36LXLIFT
 62
11
 10
3907.367
 20
-5033.486
 30
1665.000
 70
    32
  0
VERTEX
  8
M36LXLIFT
 62
11
 10
3901.723
 20
-5045.738
 30
1665.000
 70
    32
  0
VERTEX
  8
M36LXLIFT
 62
11
 10
3892.739
 20
-5044.886
 30
1665.000
 70
    32
  0
VERTEX
  8
M36LXLIFT
 62
11
 10
3898.434
 20
-5025.536
 30
1665.000
 70
    32
  0
VERTEX
  8
M36LXLIFT
 62
11
 10
3890.231
 20
-5008.583
 30
1665.000
 70
    32
  0
VERTEX
  8
M36LXLIFT
 62
11
 10
3888.170
 20
-4989.769
 30
1665.000
 70
    32
  0
VERTEX
  8
M36LXLIFT
 62
11
 10
3890.571
 20
-4962.604
 30
1665.000
 70
    32
  0
VERTEX
  8
M36LXLIFT
 62
11
 10
3880.126
 20
-4935.550
 30
1665.000
 70
    32
  0
VERTEX
  8
M36LXLIFT
 62
11
 10
3863.746
 20
-4903.471
 30
1665.000
 70
    32
  0
SEQEND
  8
M36LXLIFT
  0
POLYLINE
  8
M36LXLIFT
 62
11
 66
     1
 70
     9
  0
VERTEX
  8
M36LXLIFT
 62
11
 10
3873.752
 20
-4888.191
 30
1676.000
 70
    32
  0
VERTEX
  8
M36LXLIFT
 62
11
 10
3883.834
 20
-4905.210
 30
1676.000
 70
    32
  0
VERTEX
  8
M36LXLIFT
 62
11
 10
3896.478
 20
-4922.737
 30
1676.000
 70
    32
  0
VERTEX
  8
M36LXLIFT
 62
11
 10
3897.694
 20
-4936.045
 30
1676.000
 70
    32
  0
VERTEX
  8
M36LXLIFT
 62
11
 10
3902.937
 20
-4945.935
 30
1676.000
 70
    32
  0
VERTEX
  8
M36LXLIFT
 62
11
 10
3911.205
 20
-4949.871
 30
1676.000
 70
    32
  0
VERTEX
  8
M36LXLIFT
 62
11
 10
3921.576
 20
-4971.267
 30
1676.000
 70
    32
  0
VERTEX
  8
M36LXLIFT
 62
11
 10
3932.351
 20
-4981.543
 30
1676.000
 70
    32
  0
VERTEX
  8
M36LXLIFT
 62
11
 10
3950.876
 20
-4997.122
 30
1676.000
 70
    32
  0
VERTEX
  8
M36LXLIFT
 62
11
 10
3962.326
 20
-4992.364
 30
1676.000
 70
    32
  0
VERTEX
  8
M36LXLIFT
 62
11
 10
3958.960
 20
-4977.478
 30
1676.000
 70
    32
  0
VERTEX
  8
M36LXLIFT
 62
11
 10
3945.384
 20
-4962.826
 30
1676.000
 70
    32
  0
VERTEX
  8
M36LXLIFT
 62
11
 10
3929.191
 20
-4948.035
 30
1676.000
 70
    32
  0
VERTEX
  8
M36LXLIFT
 62
11
 10
3917.234
 20
-4930.108
 30
1676.000
 70
    32
  0
VERTEX
  8
M36LXLIFT
 62
11
 10
3928.213
 20
-4922.201
 30
1676.000
 70
    32
  0
VERTEX
  8
M36LXLIFT
 62
11
 10
3932.757
 20
-4934.248
 30
1676.000
 70
    32
  0
VERTEX
  8
M36LXLIFT
 62
11
 10
3945.973
 20
-4947.527
 30
1676.000
 70
    32
  0
VERTEX
  8
M36LXLIFT
 62
11
 10
3959.501
 20
-4958.717
 30
1676.000
 70
    32
  0
VERTEX
  8
M36LXLIFT
 62
11
 10
3966.741
 20
-4955.653
 30
1676.000
 70
    32
  0
VERTEX
  8
M36LXLIFT
 62
11
 10
3977.004
 20
-4971.883
 30
1676.000
 70
    32
  0
VERTEX
  8
M36LXLIFT
 62
11
 10
3987.337
 20
-4991.012
 30
1676.000
 70
    32
  0
VERTEX
  8
M36LXLIFT
 62
11
 10
3997.282
 20
-5004.744
 30
1676.000
 70
    32
  0
VERTEX
  8
M36LXLIFT
 62
11
 10
4002.711
 20
-5012.966
 30
1676.000
 70
    32
  0
VERTEX
  8
M36LXLIFT
 62
11
 10
3996.171
 20
-5016.386
 30
1676.000
 70
    32
  0
VERTEX
  8
M36LXLIFT
 62
11
 10
3978.126
 20
-5002.637
 30
1676.000
 70
    32
  0
VERTEX
  8
M36LXLIFT
 62
11
 10
3964.566
 20
-5002.182
 30
1676.000
 70
    32
  0
VERTEX
  8
M36LXLIFT
 62
11
 10
3971.292
 20
-5016.438
 30
1676.000
 70
    32
  0
VERTEX
  8
M36LXLIFT
 62
11
 10
3963.858
 20
-5019.536
 30
1676.000
 70
    32
  0
VERTEX
  8
M36LXLIFT
 62
11
 10
3952.613
 20
-5005.672
 30
1676.000
 70
    32
  0
VERTEX
  8
M36LXLIFT
 62
11
 10
3939.459
 20
-5002.075
 30
1676.000
 70
    32
  0
VERTEX
  8
M36LXLIFT
 62
11
 10
3925.804
 20
-5002.673
 30
1676.000
 70
    32
  0
VERTEX
  8
M36LXLIFT
 62
11
 10
3915.883
 20
-4998.868
 30
1676.000
 70
    32
  0
VERTEX
  8
M36LXLIFT
 62
11
 10
3910.224
 20
-5015.734
 30
1676.000
 70
    32
  0
VERTEX
  8
M36LXLIFT
 62
11
 10
3906.327
 20
-5031.733
 30
1676.000
 70
    32
  0
VERTEX
  8
M36LXLIFT
 62
11
 10
3907.857
 20
-5042.513
 30
1676.000
 70
    32
  0
VERTEX
  8
M36LXLIFT
 62
11
 10
3898.130
 20
-5052.553
 30
1676.000
 70
    32
  0
VERTEX
  8
M36LXLIFT
 62
11
 10
3892.459
 20
-5046.368
 30
1676.000
 70
    32
  0
VERTEX
  8
M36LXLIFT
 62
11
 10
3898.297
 20
-5034.616
 30
1676.000
 70
    32
  0
VERTEX
  8
M36LXLIFT
 62
11
 10
3896.706
 20
-5025.083
 30
1676.000
 70
    32
  0
VERTEX
  8
M36LXLIFT
 62
11
 10
3897.923
 20
-5016.095
 30
1676.000
 70
    32
  0
VERTEX
  8
M36LXLIFT
 62
11
 10
3885.725
 20
-5005.669
 30
1676.000
 70
    32
  0
VERTEX
  8
M36LXLIFT
 62
11
 10
3891.213
 20
-4993.738
 30
1676.000
 70
    32
  0
VERTEX
  8
M36LXLIFT
 62
11
 10
3890.492
 20
-4980.065
 30
1676.000
 70
    32
  0
VERTEX
  8
M36LXLIFT
 62
11
 10
3880.678
 20
-4965.033
 30
1676.000
 70
    32
  0
VERTEX
  8
M36LXLIFT
 62
11
 10
3880.324
 20
-4948.901
 30
1676.000
 70
    32
  0
VERTEX
  8
M36LXLIFT
 62
11
 10
3877.051
 20
-4927.498
 30
1676.000
 70
    32
  0
VERTEX
  8
M36LXLIFT
 62
11
 10
3870.486
 20
-4910.062
 30
1676.000
 70
    32
  0
VERTEX
  8
M36LXLIFT
 62
11
 10
3864.717
 20
-4905.370
 30
1676.000
 70
    32
  0
VERTEX
  8
M36LXLIFT
 62
11
 10
3863.320
 20
-4895.803
 30
1676.000
 70
    32
  0
SEQEND
  8
M36LXLIFT
  0
POLYLINE
  8
M36LXLIFT
 62
8
 66
     1
 70
     9
  0
VERTEX
  8
M36LXLIFT
 62
8
 10
4003.045
 20
-5059.932
 30
1673.000
 70
    32
  0
VERTEX
  8
M36LXLIFT
 62
8
 10
3996.289
 20
-5042.091
 30
1673.000
 70
    32
  0
VERTEX
  8
M36LXLIFT
 62
8
 10
3991.664
 20
-5034.366
 30
1673.000
 70
    32
  0
VERTEX
  8
M36LXLIFT
 62
8
 10
3977.979
 20
-5031.380
 30
1673.000
 70
    32
  0
VERTEX
  8
M36LXLIFT
 62
8
 10
3967.875
 20
-5023.339
 30
1673.000
 70
    32
  0
VERTEX
  8
M36LXLIFT
 62
8
 10
3960.975
 20
-5016.970
 30
1673.000
 70
    32
  0
VERTEX
  8
M36LXLIFT
 62
8
 10
3939.352
 20
-5032.645
 30
1673.000
 70
    32
  0
VERTEX
  8
M36LXLIFT
 62
8
 10
3842.312
 20
-5102.061
 30
1673.000
 70
    32
  0
VERTEX
  8
M36LXLIFT
 62
8
 10
3813.501
 20
-5071.254
 30
1673.000
 70
    32
  0
VERTEX
  8
M36LXLIFT
 62
8
 10
3800.558
 20
-5048.155
 30
1673.000
 70
    32
  0
VERTEX
  8
M36LXLIFT
 62
8
 10
3788.508
 20
-5017.402
 30
1673.000
 70
    32
  0
VERTEX
  8
M36LXLIFT
 62
8
 10
3759.504
 20
-4975.261
 30
1673.000
 70
    32
  0
VERTEX
  8
M36LXLIFT
 62
8
 10
3749.477
 20
-4952.409
 30
1673.000
 70
    32
  0
VERTEX
  8
M36LXLIFT
 62
8
 10
3734.904
 20
-4925.927
 30
1673.000
 70
    32
  0
VERTEX
  8
M36LXLIFT
 62
8
 10
3635.762
 20
-4823.128
 30
1673.000
 70
    32
  0
VERTEX
  8
M36LXLIFT
 62
8
 10
3624.728
 20
-4801.131
 30
1673.000
 70
    32
  0
VERTEX
  8
M36LXLIFT
 62
8
 10
3607.964
 20
-4768.292
 30
1673.000
 70
    32
  0
VERTEX
  8
M36LXLIFT
 62
8
 10
3552.927
 20
-4808.370
 30
1673.000
 70
    32
  0
VERTEX
  8
M36LXLIFT
 62
8
 10
3561.288
 20
-4833.547
 30
1673.000
 70
    32
  0
VERTEX
  8
M36LXLIFT
 62
8
 10
3572.305
 20
-4847.252
 30
1673.000
 70
    32
  0
VERTEX
  8
M36LXLIFT
 62
8
 10
3600.974
 20
-4905.924
 30
1673.000
 70
    32
  0
VERTEX
  8
M36LXLIFT
 62
8
 10
3587.539
 20
-4924.392
 30
1673.000
 70
    32
  0
VERTEX
  8
M36LXLIFT
 62
8
 10
3569.924
 20
-4934.259
 30
1673.000
 70
    32
  0
VERTEX
  8
M36LXLIFT
 62
8
 10
3550.222
 20
-4951.792
 30
1673.000
 70
    32
  0
VERTEX
  8
M36LXLIFT
 62
8
 10
3543.953
 20
-4970.639
 30
1673.000
 70
    32
  0
VERTEX
  8
M36LXLIFT
 62
8
 10
3569.977
 20
-4989.411
 30
1673.000
 70
    32
  0
VERTEX
  8
M36LXLIFT
 62
8
 10
3636.959
 20
-5030.002
 30
1673.000
 70
    32
  0
VERTEX
  8
M36LXLIFT
 62
8
 10
3651.370
 20
-5048.735
 30
1673.000
 70
    32
  0
VERTEX
  8
M36LXLIFT
 62
8
 10
3654.754
 20
-5033.225
 30
1673.000
 70
    32
  0
VERTEX
  8
M36LXLIFT
 62
8
 10
3660.698
 20
-5029.590
 30
1673.000
 70
    32
  0
VERTEX
  8
M36LXLIFT
 62
8
 10
3733.605
 20
-4989.292
 30
1673.000
 70
    32
  0
VERTEX
  8
M36LXLIFT
 62
8
 10
3780.308
 20
-5024.782
 30
1673.000
 70
    32
  0
VERTEX
  8
M36LXLIFT
 62
8
 10
3785.393
 20
-5045.827
 30
1673.000
 70
    32
  0
VERTEX
  8
M36LXLIFT
 62
8
 10
3795.968
 20
-5065.432
 30
1673.000
 70
    32
  0
VERTEX
  8
M36LXLIFT
 62
8
 10
3806.029
 20
-5077.549
 30
1673.000
 70
    32
  0
VERTEX
  8
M36LXLIFT
 62
8
 10
3832.947
 20
-5110.523
 30
1673.000
 70
    32
  0
VERTEX
  8
M36LXLIFT
 62
8
 10
3851.336
 20
-5125.328
 30
1673.000
 70
    32
  0
VERTEX
  8
M36LXLIFT
 62
8
 10
3868.981
 20
-5138.389
 30
1673.000
 70
    32
  0
VERTEX
  8
M36LXLIFT
 62
8
 10
3885.230
 20
-5130.516
 30
1673.000
 70
    32
  0
VERTEX
  8
M36LXLIFT
 62
8
 10
3904.786
 20
-5124.895
 30
1673.000
 70
    32
  0
VERTEX
  8
M36LXLIFT
 62
8
 10
3912.360
 20
-5124.645
 30
1673.000
 70
    32
  0
VERTEX
  8
M36LXLIFT
 62
8
 10
3974.343
 20
-5080.956
 30
1673.000
 70
    32
  0
SEQEND
  8
M36LXLIFT
  0
POLYLINE
  8
M36LXLIFT
 62
11
 66
     1
 70
     9
  0
VERTEX
  8
M36LXLIFT
 62
11
 10
3905.193
 20
-4887.251
 30
1686.000
 70
    32
  0
VERTEX
  8
M36LXLIFT
 62
11
 10
3898.281
 20
-4889.261
 30
1686.000
 70
    32
  0
VERTEX
  8
M36LXLIFT
 62
11
 10
3903.767
 20
-4905.386
 30
1686.000
 70
    32
  0
VERTEX
  8
M36LXLIFT
 62
11
 10
3914.038
 20
-4929.984
 30
1686.000
 70
    32
  0
VERTEX
  8
M36LXLIFT
 62
11
 10
3926.249
 20
-4946.522
 30
1686.000
 70
    32
  0
VERTEX
  8
M36LXLIFT
 62
11
 10
3942.448
 20
-4970.593
 30
1686.000
 70
    32
  0
VERTEX
  8
M36LXLIFT
 62
11
 10
3953.197
 20
-4988.853
 30
1686.000
 70
    32
  0
VERTEX
  8
M36LXLIFT
 62
11
 10
3947.030
 20
-4997.830
 30
1686.000
 70
    32
  0
VERTEX
  8
M36LXLIFT
 62
11
 10
3911.204
 20
-5031.884
 30
1686.000
 70
    32
  0
VERTEX
  8
M36LXLIFT
 62
11
 10
3892.226
 20
-5046.860
 30
1686.000
 70
    32
  0
VERTEX
  8
M36LXLIFT
 62
11
 10
3902.957
 20
-5051.853
 30
1686.000
 70
    32
  0
VERTEX
  8
M36LXLIFT
 62
11
 10
3922.371
 20
-5044.614
 30
1686.000
 70
    32
  0
VERTEX
  8
M36LXLIFT
 62
11
 10
3939.328
 20
-5043.092
 30
1686.000
 70
    32
  0
VERTEX
  8
M36LXLIFT
 62
11
 10
3948.799
 20
-5046.067
 30
1686.000
 70
    32
  0
VERTEX
  8
M36LXLIFT
 62
11
 10
3955.515
 20
-5036.798
 30
1686.000
 70
    32
  0
VERTEX
  8
M36LXLIFT
 62
11
 10
3941.720
 20
-5013.037
 30
1686.000
 70
    32
  0
VERTEX
  8
M36LXLIFT
 62
11
 10
3948.488
 20
-5012.766
 30
1686.000
 70
    32
  0
VERTEX
  8
M36LXLIFT
 62
11
 10
3962.288
 20
-5022.698
 30
1686.000
 70
    32
  0
VERTEX
  8
M36LXLIFT
 62
11
 10
3972.410
 20
-5016.597
 30
1686.000
 70
    32
  0
VERTEX
  8
M36LXLIFT
 62
11
 10
3977.331
 20
-5003.089
 30
1686.000
 70
    32
  0
VERTEX
  8
M36LXLIFT
 62
11
 10
3988.113
 20
-4999.227
 30
1686.000
 70
    32
  0
VERTEX
  8
M36LXLIFT
 62
11
 10
3979.909
 20
-4976.710
 30
1686.000
 70
    32
  0
VERTEX
  8
M36LXLIFT
 62
11
 10
3966.676
 20
-4957.436
 30
1686.000
 70
    32
  0
VERTEX
  8
M36LXLIFT
 62
11
 10
3960.094
 20
-4950.822
 30
1686.000
 70
    32
  0
VERTEX
  8
M36LXLIFT
 62
11
 10
3947.036
 20
-4945.027
 30
1686.000
 70
    32
  0
VERTEX
  8
M36LXLIFT
 62
11
 10
3934.967
 20
-4932.849
 30
1686.000
 70
    32
  0
VERTEX
  8
M36LXLIFT
 62
11
 10
3934.130
 20
-4924.861
 30
1686.000
 70
    32
  0
VERTEX
  8
M36LXLIFT
 62
11
 10
3932.338
 20
-4917.355
 30
1686.000
 70
    32
  0
VERTEX
  8
M36LXLIFT
 62
11
 10
3918.879
 20
-4902.384
 30
1686.000
 70
    32
  0
SEQEND
  8
M36LXLIFT
  0
POLYLINE
  8
M36LXLIFT
 62
11
 66
     1
 70
     9
  0
VERTEX
  8
M36LXLIFT
 62
11
 10
3882.565
 20
-5072.765
 30
1696.000
 70
    32
  0
VERTEX
  8
M36LXLIFT
 62
11
 10
3892.548
 20
-5085.818
 30
1696.000
 70
    32
  0
VERTEX
  8
M36LXLIFT
 62
11
 10
3907.367
 20
-5090.485
 30
1696.000
 70
    32
  0
VERTEX
  8
M36LXLIFT
 62
11
 10
3921.886
 20
-5090.020
 30
1696.000
 70
    32
  0
VERTEX
  8
M36LXLIFT
 62
11
 10
3933.428
 20
-5082.575
 30
1696.000
 70
    32
  0
VERTEX
  8
M36LXLIFT
 62
11
 10
3937.234
 20
-5062.601
 30
1696.000
 70
    32
  0
VERTEX
  8
M36LXLIFT
 62
11
 10
3941.599
 20
-5053.580
 30
1696.000
 70
    32
  0
VERTEX
  8
M36LXLIFT
 62
11
 10
3946.577
 20
-5047.603
 30
1696.000
 70
    32
  0
VERTEX
  8
M36LXLIFT
 62
11
 10
3946.454
 20
-5031.628
 30
1696.000
 70
    32
  0
VERTEX
  8
M36LXLIFT
 62
11
 10
3950.437
 20
-5024.748
 30
1696.000
 70
    32
  0
VERTEX
  8
M36LXLIFT
 62
11
 10
3961.359
 20
-5028.581
 30
1696.000
 70
    32
  0
VERTEX
  8
M36LXLIFT
 62
11
 10
3968.165
 20
-5022.564
 30
1696.000
 70
    32
  0
VERTEX
  8
M36LXLIFT
 62
11
 10
3961.178
 20
-5010.901
 30
1696.000
 70
    32
  0
VERTEX
  8
M36LXLIFT
 62
11
 10
3972.608
 20
-4996.655
 30
1696.000
 70
    32
  0
VERTEX
  8
M36LXLIFT
 62
11
 10
3977.392
 20
-4982.733
 30
1696.000
 70
    32
  0
VERTEX
  8
M36LXLIFT
 62
11
 10
3968.849
 20
-4967.194
 30
1696.000
 70
    32
  0
VERTEX
  8
M36LXLIFT
 62
11
 10
3957.487
 20
-4952.867
 30
1696.000
 70
    32
  0
VERTEX
  8
M36LXLIFT
 62
11
 10
3947.259
 20
-4950.268
 30
1696.000
 70
    32
  0
VERTEX
  8
M36LXLIFT
 62
11
 10
3934.330
 20
-4938.847
 30
1696.000
 70
    32
  0
VERTEX
  8
M36LXLIFT
 62
11
 10
3919.727
 20
-4925.606
 30
1696.000
 70
    32
  0
VERTEX
  8
M36LXLIFT
 62
11
 10
3914.508
 20
-4909.684
 30
1696.000
 70
    32
  0
VERTEX
  8
M36LXLIFT
 62
11
 10
3903.045
 20
-4899.802
 30
1696.000
 70
    32
  0
VERTEX
  8
M36LXLIFT
 62
11
 10
3895.528
 20
-4891.264
 30
1696.000
 70
    32
  0
VERTEX
  8
M36LXLIFT
 62
11
 10
3890.341
 20
-4896.959
 30
1696.000
 70
    32
  0
VERTEX
  8
M36LXLIFT
 62
11
 10
3897.093
 20
-4914.806
 30
1696.000
 70
    32
  0
VERTEX
  8
M36LXLIFT
 62
11
 10
3904.074
 20
-4924.834
 30
1696.000
 70
    32
  0
VERTEX
  8
M36LXLIFT
 62
11
 10
3914.780
 20
-4932.215
 30
1696.000
 70
    32
  0
VERTEX
  8
M36LXLIFT
 62
11
 10
3921.598
 20
-4945.423
 30
1696.000
 70
    32
  0
VERTEX
  8
M36LXLIFT
 62
11
 10
3937.941
 20
-4958.800
 30
1696.000
 70
    32
  0
VERTEX
  8
M36LXLIFT
 62
11
 10
3945.120
 20
-4975.894
 30
1696.000
 70
    32
  0
VERTEX
  8
M36LXLIFT
 62
11
 10
3947.870
 20
-4985.226
 30
1696.000
 70
    32
  0
VERTEX
  8
M36LXLIFT
 62
11
 10
3938.094
 20
-5001.856
 30
1696.000
 70
    32
  0
VERTEX
  8
M36LXLIFT
 62
11
 10
3931.568
 20
-5008.104
 30
1696.000
 70
    32
  0
VERTEX
  8
M36LXLIFT
 62
11
 10
3920.212
 20
-5003.389
 30
1696.000
 70
    32
  0
VERTEX
  8
M36LXLIFT
 62
11
 10
3914.845
 20
-5014.899
 30
1696.000
 70
    32
  0
VERTEX
  8
M36LXLIFT
 62
11
 10
3907.115
 20
-5030.453
 30
1696.000
 70
    32
  0
VERTEX
  8
M36LXLIFT
 62
11
 10
3895.908
 20
-5040.272
 30
1696.000
 70
    32
  0
VERTEX
  8
M36LXLIFT
 62
11
 10
3887.825
 20
-5056.087
 30
1696.000
 70
    32
  0
SEQEND
  8
M36LXLIFT
  0
POLYLINE
  8
M36LXLIFT
 62
8
 66
     1
 70
     9
  0
VERTEX
  8
M36LXLIFT
 62
8
 10
3599.824
 20
-4774.141
 30
1693.000
 70
    32
  0
VERTEX
  8
M36LXLIFT
 62
8
 10
3617.627
 20
-4792.448
 30
1693.000
 70
    32
  0
VERTEX
  8
M36LXLIFT
 62
8
 10
3628.019
 20
-4807.384
 30
1693.000
 70
    32
  0
VERTEX
  8
M36LXLIFT
 62
8
 10
3634.019
 20
-4824.804
 30
1693.000
 70
    32
  0
VERTEX
  8
M36LXLIFT
 62
8
 10
3747.956
 20
-4932.004
 30
1693.000
 70
    32
  0
VERTEX
  8
M36LXLIFT
 62
8
 10
3759.938
 20
-4951.010
 30
1693.000
 70
    32
  0
VERTEX
  8
M36LXLIFT
 62
8
 10
3769.706
 20
-4972.637
 30
1693.000
 70
    32
  0
VERTEX
  8
M36LXLIFT
 62
8
 10
3781.593
 20
-5019.145
 30
1693.000
 70
    32
  0
VERTEX
  8
M36LXLIFT
 62
8
 10
3795.684
 20
-5043.367
 30
1693.000
 70
    32
  0
VERTEX
  8
M36LXLIFT
 62
8
 10
3804.992
 20
-5049.597
 30
1693.000
 70
    32
  0
VERTEX
  8
M36LXLIFT
 62
8
 10
3813.049
 20
-5056.206
 30
1693.000
 70
    32
  0
VERTEX
  8
M36LXLIFT
 62
8
 10
3819.348
 20
-5068.268
 30
1693.000
 70
    32
  0
VERTEX
  8
M36LXLIFT
 62
8
 10
3813.885
 20
-5073.293
 30
1693.000
 70
    32
  0
VERTEX
  8
M36LXLIFT
 62
8
 10
3798.018
 20
-5067.652
 30
1693.000
 70
    32
  0
VERTEX
  8
M36LXLIFT
 62
8
 10
3646.196
 20
-5041.917
 30
1693.000
 70
    32
  0
VERTEX
  8
M36LXLIFT
 62
8
 10
3631.128
 20
-5035.139
 30
1693.000
 70
    32
  0
VERTEX
  8
M36LXLIFT
 62
8
 10
3619.252
 20
-5029.279
 30
1693.000
 70
    32
  0
VERTEX
  8
M36LXLIFT
 62
8
 10
3557.850
 20
-4995.024
 30
1693.000
 70
    32
  0
VERTEX
  8
M36LXLIFT
 62
8
 10
3542.179
 20
-4986.397
 30
1693.000
 70
    32
  0
VERTEX
  8
M36LXLIFT
 62
8
 10
3526.259
 20
-4978.172
 30
1693.000
 70
    32
  0
VERTEX
  8
M36LXLIFT
 62
8
 10
3514.930
 20
-4972.017
 30
1693.000
 70
    32
  0
VERTEX
  8
M36LXLIFT
 62
8
 10
3507.448
 20
-4958.207
 30
1693.000
 70
    32
  0
VERTEX
  8
M36LXLIFT
 62
8
 10
3522.437
 20
-4950.399
 30
1693.000
 70
    32
  0
VERTEX
  8
M36LXLIFT
 62
8
 10
3538.832
 20
-4939.911
 30
1693.000
 70
    32
  0
VERTEX
  8
M36LXLIFT
 62
8
 10
3564.446
 20
-4925.337
 30
1693.000
 70
    32
  0
VERTEX
  8
M36LXLIFT
 62
8
 10
3593.860
 20
-4904.672
 30
1693.000
 70
    32
  0
VERTEX
  8
M36LXLIFT
 62
8
 10
3603.669
 20
-4901.680
 30
1693.000
 70
    32
  0
VERTEX
  8
M36LXLIFT
 62
8
 10
3584.459
 20
-4859.604
 30
1693.000
 70
    32
  0
VERTEX
  8
M36LXLIFT
 62
8
 10
3556.461
 20
-4836.380
 30
1693.000
 70
    32
  0
VERTEX
  8
M36LXLIFT
 62
8
 10
3538.759
 20
-4818.653
 30
1693.000
 70
    32
  0
VERTEX
  8
M36LXLIFT
 62
8
 10
3566.991
 20
-4798.754
 30
1693.000
 70
    32
  0
SEQEND
  8
M36LXLIFT
  0
POLYLINE
  8
M36LXLIFT
 62
11
 66
     1
 70
     9
  0
VERTEX
  8
M36LXLIFT
 62
11
 10
3912.096
 20
-5063.004
 30
1703.000
 70
    32
  0
VERTEX
  8
M36LXLIFT
 62
11
 10
3897.959
 20
-5050.278
 30
1703.000
 70
    32
  0
VERTEX
  8
M36LXLIFT
 62
11
 10
3890.835
 20
-5037.308
 30
1703.000
 70
    32
  0
VERTEX
  8
M36LXLIFT
 62
11
 10
3901.837
 20
-5023.346
 30
1703.000
 70
    32
  0
VERTEX
  8
M36LXLIFT
 62
11
 10
3915.753
 20
-5008.009
 30
1703.000
 70
    32
  0
VERTEX
  8
M36LXLIFT
 62
11
 10
3923.552
 20
-5001.412
 30
1703.000
 70
    32
  0
VERTEX
  8
M36LXLIFT
 62
11
 10
3933.044
 20
-5009.592
 30
1703.000
 70
    32
  0
VERTEX
  8
M36LXLIFT
 62
11
 10
3940.361
 20
-5003.675
 30
1703.000
 70
    32
  0
VERTEX
  8
M36LXLIFT
 62
11
 10
3940.459
 20
-4990.744
 30
1703.000
 70
    32
  0
VERTEX
  8
M36LXLIFT
 62
11
 10
3943.985
 20
-4977.584
 30
1703.000
 70
    32
  0
VERTEX
  8
M36LXLIFT
 62
11
 10
3934.629
 20
-4966.471
 30
1703.000
 70
    32
  0
VERTEX
  8
M36LXLIFT
 62
11
 10
3924.777
 20
-4947.113
 30
1703.000
 70
    32
  0
VERTEX
  8
M36LXLIFT
 62
11
 10
3911.956
 20
-4931.132
 30
1703.000
 70
    32
  0
VERTEX
  8
M36LXLIFT
 62
11
 10
3900.988
 20
-4919.458
 30
1703.000
 70
    32
  0
VERTEX
  8
M36LXLIFT
 62
11
 10
3892.832
 20
-4900.924
 30
1703.000
 70
    32
  0
VERTEX
  8
M36LXLIFT
 62
11
 10
3889.190
 20
-4889.431
 30
1703.000
 70
    32
  0
VERTEX
  8
M36LXLIFT
 62
11
 10
3881.492
 20
-4881.023
 30
1703.000
 70
    32
  0
VERTEX
  8
M36LXLIFT
 62
11
 10
3889.021
 20
-4873.316
 30
1703.000
 70
    32
  0
VERTEX
  8
M36LXLIFT
 62
11
 10
3900.812
 20
-4887.002
 30
1703.000
 70
    32
  0
VERTEX
  8
M36LXLIFT
 62
11
 10
3916.012
 20
-4910.826
 30
1703.000
 70
    32
  0
VERTEX
  8
M36LXLIFT
 62
11
 10
3929.490
 20
-4927.850
 30
1703.000
 70
    32
  0
VERTEX
  8
M36LXLIFT
 62
11
 10
3941.868
 20
-4945.900
 30
1703.000
 70
    32
  0
VERTEX
  8
M36LXLIFT
 62
11
 10
3952.069
 20
-4944.950
 30
1703.000
 70
    32
  0
VERTEX
  8
M36LXLIFT
 62
11
 10
3967.568
 20
-4970.517
 30
1703.000
 70
    32
  0
VERTEX
  8
M36LXLIFT
 62
11
 10
3976.603
 20
-4990.693
 30
1703.000
 70
    32
  0
VERTEX
  8
M36LXLIFT
 62
11
 10
3965.373
 20
-5001.226
 30
1703.000
 70
    32
  0
VERTEX
  8
M36LXLIFT
 62
11
 10
3962.182
 20
-5015.883
 30
1703.000
 70
    32
  0
VERTEX
  8
M36LXLIFT
 62
11
 10
3954.478
 20
-5023.500
 30
1703.000
 70
    32
  0
VERTEX
  8
M36LXLIFT
 62
11
 10
3945.262
 20
-5027.868
 30
1703.000
 70
    32
  0
VERTEX
  8
M36LXLIFT
 62
11
 10
3935.691
 20
-5023.887
 30
1703.000
 70
    32
  0
VERTEX
  8
M36LXLIFT
 62
11
 10
3940.596
 20
-5039.031
 30
1703.000
 70
    32
  0
VERTEX
  8
M36LXLIFT
 62
11
 10
3934.843
 20
-5048.267
 30
1703.000
 70
    32
  0
SEQEND
  8
M36LXLIFT
  0
POLYLINE
  8
M36LXLIFT
 62
1
 66
     1
 70
     9
  0
VERTEX
  8
M36LXLIFT
 62
1
 10
3601.824
 20
-4772.141
 30
1703.000
 70
    32
  0
VERTEX
  8
M36LXLIFT
 62
1
 10
3619.627
 20
-4790.448
 30
1703.000
 70
    32
  0
VERTEX
  8
M36LXLIFT
 62
1
 10
3630.019
 20
-4805.384
 30
1703.000
 70
    32
  0
VERTEX
  8
M36LXLIFT
 62
1
 10
3636.019
 20
-4822.804
 30
1703.000
 70
    32
  0
VERTEX
  8
M36LXLIFT
 62
1
 10
3749.956
 20
-4930.004
 30
1703.000
 70
    32
  0
VERTEX
  8
M36LXLIFT
 62
1
 10
3761.938
 20
-4949.010
 30
1703.000
 70
    32
  0
VERTEX
  8
M36LXLIFT
 62
1
 10
3771.706
 20
-4970.637
 30
1703.000
 70
    32
  0
VERTEX
  8
M36LXLIFT
 62
1
 10
3783.593
 20
-5017.145
 30
1703.000
 70
    32
  0
VERTEX
  8
M36LXLIFT
 62
1
 10
3797.684
 20
-5041.367
 30
1703.000
 70
    32
  0
VERTEX
  8
M36LXLIFT
 62
1
 10
3806.992
 20
-5047.597
 30
1703.000
 70
    32
  0
VERTEX
  8
M36LXLIFT
 62
1
 10
3815.049
 20
-5054.206
 30
1703.000
 70
    32
  0
VERTEX
  8
M36LXLIFT
 62
1
 10
3821.348
 20
-5066.268
 30
1703.000
 70
    32
  0
VERTEX
  8
M36LXLIFT
 62
1
 10
3815.885
 20
-5071.293
 30
1703.000
 70
    32
  0
VERTEX
  8
M36LXLIFT
 62
1
 10
3800.018
 20
-5065.652
 30
1703.000
 70
    32
  0
VERTEX
  8
M36LXLIFT
 62
1
 10
3648.196
 20
-5039.917
 30
1703.000
 70
    32
  0
VERTEX
  8
M36LXLIFT
 62
1
 10
3633.128
 20
-5033.139
 30
1703.000
 70
    32
  0
VERTEX
  8
M36LXLIFT
 62
1
 10
3621.252
 20
-5027.279
 30
1703.000
 70
    32
  0
VERTEX
  8
M36LXLIFT
 62
1
 10
3559.850
 20
-4993.024
 30
1703.000
 70
    32
  0
VERTEX
  8
M36LXLIFT
 62
1
 10
3544.179
 20
-4984.397
 30
1703.000
 70
    32
  0
VERTEX
  8
M36LXLIFT
 62
1
 10
3528.259
 20
-4976.172
 30
1703.000
 70
    32
  0
VERTEX
  8
M36LXLIFT
 62
1
 10
3516.930
 20
-4970.017
 30
1703.000
 70
    32
  0
VERTEX
  8
M36LXLIFT
 62
1
 10
3509.448
 20
-4956.207
 30
1703.000
 70
    32
  0
VERTEX
  8
M36LXLIFT
 62
1
 10
3524.437
 20
-4948.399
 30
1703.000
 70
    32
  0
VERTEX
  8
M36LXLIFT
 62
1
 10
3540.832
 20
-4937.911
 30
1703.000
 70
    32
  0
VERTEX
  8
M36LXLIFT
 62
1
 10
3566.446
 20
-4923.337
 30
1703.000
 70
    32
  0
VERTEX
  8
M36LXLIFT
 62
1
 10
3595.860
 20
-4902.672
 30
1703.000
 70
    32
  0
VERTEX
  8
M36LXLIFT
 62
1
 10
3605.669
 20
-4899.680
 30
1703.000
 70
    32
  0
VERTEX
  8
M36LXLIFT
 62
1
 10
3586.459
 20
-4857.604
 30
1703.000
 70
    32
  0
VERTEX
  8
M36LXLIFT
 62
1
 10
3558.461
 20
-4834.380
 30
1703.000
 70
    32
  0
VERTEX
  8
M36LXLIFT
 62
1
 10
3540.759
 20
-4816.653
 30
1703.000
 70
    32
  0
VERTEX
  8
M36LXLIFT
 62
1
 10
3568.991
 20
-4796.754
 30
1703.000
 70
    32
  0
SEQEND
  8
M36LXLIFT
  0
POLYLINE
  8
M36LXLIFT
 62
1
 66
     1
 70
     9
  0
VERTEX
  8
M36LXLIFT
 62
1
 10
3737.573
 20
-5338.437
 30
1627.000
 70
    32
  0
VERTEX
  8
M36LXLIFT
 62
1
 10
3723.913
 20
-5316.573
 30
1627.000
 70
    32
  0
VERTEX
  8
M36LXLIFT
 62
1
 10
3712.934
 20
-5302.490
 30
1627.000
 70
    32
  0
VERTEX
  8
M36LXLIFT
 62
1
 10
3703.053
 20
-5293.328
 30
1627.000
 70
    32
  0
VERTEX
  8
M36LXLIFT
 62
1
 10
3694.535
 20
-5285.034
 30
1627.000
 70
    32
  0
VERTEX
  8
M36LXLIFT
 62
1
 10
3686.360
 20
-5272.953
 30
1627.000
 70
    32
  0
VERTEX
  8
M36LXLIFT
 62
1
 10
3678.933
 20
-5260.561
 30
1627.000
 70
    32
  0
VERTEX
  8
M36LXLIFT
 62
1
 10
3684.683
 20
-5253.617
 30
1627.000
 70
    32
  0
VERTEX
  8
M36LXLIFT
 62
1
 10
3691.640
 20
-5252.054
 30
1627.000
 70
    32
  0
VERTEX
  8
M36LXLIFT
 62
1
 10
3701.468
 20
-5257.171
 30
1627.000
 70
    32
  0
VERTEX
  8
M36LXLIFT
 62
1
 10
3708.655
 20
-5271.665
 30
1627.000
 70
    32
  0
VERTEX
  8
M36LXLIFT
 62
1
 10
3717.353
 20
-5286.170
 30
1627.000
 70
    32
  0
VERTEX
  8
M36LXLIFT
 62
1
 10
3723.262
 20
-5302.208
 30
1627.000
 70
    32
  0
VERTEX
  8
M36LXLIFT
 62
1
 10
3734.638
 20
-5313.648
 30
1627.000
 70
    32
  0
VERTEX
  8
M36LXLIFT
 62
1
 10
3742.319
 20
-5323.499
 30
1627.000
 70
    32
  0
SEQEND
  8
M36LXLIFT
  0
POLYLINE
  8
M36LXLIFT
 62
1
 66
     1
 70
     9
  0
VERTEX
  8
M36LXLIFT
 62
1
 10
3914.096
 20
-5061.004
 30
1713.000
 70
    32
  0
VERTEX
  8
M36LXLIFT
 62
1
 10
3899.959
 20
-5048.278
 30
1713.000
 70
    32
  0
VERTEX
  8
M36LXLIFT
 62
1
 10
3892.835
 20
-5035.308
 30
1713.000
 70
    32
  0
VERTEX
  8
M36LXLIFT
 62
1
 10
3903.837
 20
-5021.346
 30
1713.000
 70
    32
  0
VERTEX
  8
M36LXLIFT
 62
1
 10
3917.753
 20
-5006.009
 30
1713.000
 70
    32
  0
VERTEX
  8
M36LXLIFT
 62
1
 10
3925.552
 20
-4999.412
 30
1713.000
 70
    32
  0
VERTEX
  8
M36LXLIFT
 62
1
 10
3935.044
 20
-5007.592
 30
1713.000
 70
    32
  0
VERTEX
  8
M36LXLIFT
 62
1
 10
3942.361
 20
-5001.675
 30
1713.000
 70
    32
  0
VERTEX
  8
M36LXLIFT
 62
1
 10
3942.459
 20
-4988.744
 30
1713.000
 70
    32
  0
VERTEX
  8
M36LXLIFT
 62
1
 10
3945.985
 20
-4975.584
 30
1713.000
 70
    32
  0
VERTEX
  8
M36LXLIFT
 62
1
 10
3936.629
 20
-4964.471
 30
1713.000
 70
    32
  0
VERTEX
  8
M36LXLIFT
 62
1
 10
3926.777
 20
-4945.113
 30
1713.000
 70
    32
  0
VERTEX
  8
M36LXLIFT
 62
1
 10
3913.956
 20
-4929.132
 30
1713.000
 70
    32
  0
VERTEX
  8
M36LXLIFT
 62
1
 10
3902.988
 20
-4917.458
 30
1713.000
 70
    32
  0
VERTEX
  8
M36LXLIFT
 62
1
 10
3894.832
 20
-4898.924
 30
1713.000
 70
    32
  0
VERTEX
  8
M36LXLIFT
 62
1
 10
3891.190
 20
-4887.431
 30
1713.000
 70
    32
  0
VERTEX
  8
M36LXLIFT
 62
1
 10
3883.492
 20
-4879.023
 30
1713.000
 70
    32
  0
VERTEX
  8
M36LXLIFT
 62
1
 10
3891.021
 20
-4871.316
 30
1713.000
 70
    32
  0
VERTEX
  8
M36LXLIFT
 62
1
 10
3902.812
 20
-4885.002
 30
1713.000
 70
    32
  0
VERTEX
  8
M36LXLIFT
 62
1
 10
3918.012
 20
-4908.826
 30
1713.000
 70
    32
  0
VERTEX
  8
M36LXLIFT
 62
1
 10
3931.490
 20
-4925.850
 30
1713.000
 70
    32
  0
VERTEX
  8
M36LXLIFT
 62
1
 10
3943.868
 20
-4943.900
 30
1713.000
 70
    32
  0
VERTEX
  8
M36LXLIFT
 62
1
 10
3954.069
 20
-4942.950
 30
1713.000
 70
    32
  0
VERTEX
  8
M36LXLIFT
 62
1
 10
3969.568
 20
-4968.517
 30
1713.000
 70
    32
  0
VERTEX
  8
M36LXLIFT
 62
1
 10
3978.603
 20
-4988.693
 30
1713.000
 70
    32
  0
VERTEX
  8
M36LXLIFT
 62
1
 10
3967.373
 20
-4999.226
 30
1713.000
 70
    32
  0
VERTEX
  8
M36LXLIFT
 62
1
 10
3964.182
 20
-5013.883
 30
1713.000
 70
    32
  0
VERTEX
  8
M36LXLIFT
 62
1
 10
3956.478
 20
-5021.500
 30
1713.000
 70
    32
  0
VERTEX
  8
M36LXLIFT
 62
1
 10
3947.262
 20
-5025.868
 30
1713.000
 70
    32
  0
VERTEX
  8
M36LXLIFT
 62
1
 10
3937.691
 20
-5021.887
 30
1713.000
 70
    32
  0
VERTEX
  8
M36LXLIFT
 62
1
 10
3942.596
 20
-5037.031
 30
1713.000
 70
    32
  0
VERTEX
  8
M36LXLIFT
 62
1
 10
3936.843
 20
-5046.267
 30
1713.000
 70
    32
  0
SEQEND
  8
M36LXLIFT
  0
POLYLINE
  8
M36LXLIFT
 62
1
 66
     1
 70
     9
  0
VERTEX
  8
M36LXLIFT
 62
1
 10
4055.124
 20
-5146.541
 30
1595.000
 70
    32
  0
VERTEX
  8
M36LXLIFT
 62
1
 10
4049.291
 20
-5137.633
 30
1595.000
 70
    32
  0
VERTEX
  8
M36LXLIFT
 62
1
 10
4053.844
 20
-5132.687
 30
1595.000
 70
    32
  0
VERTEX
  8
M36LXLIFT
 62
1
 10
4046.912
 20
-5121.969
 30
1595.000
 70
    32
  0
VERTEX
  8
M36LXLIFT
 62
1
 10
4044.043
 20
-5109.815
 30
1595.000
 70
    32
  0
VERTEX
  8
M36LXLIFT
 62
1
 10
4045.008
 20
-5098.894
 30
1595.000
 70
    32
  0
VERTEX
  8
M36LXLIFT
 62
1
 10
4047.532
 20
-5093.251
 30
1595.000
 70
    32
  0
VERTEX
  8
M36LXLIFT
 62
1
 10
4045.312
 20
-5087.365
 30
1595.000
 70
    32
  0
VERTEX
  8
M36LXLIFT
 62
1
 10
4050.920
 20
-5083.718
 30
1595.000
 70
    32
  0
VERTEX
  8
M36LXLIFT
 62
1
 10
4074.025
 20
-5089.620
 30
1595.000
 70
    32
  0
VERTEX
  8
M36LXLIFT
 62
1
 10
4086.250
 20
-5085.504
 30
1595.000
 70
    32
  0
VERTEX
  8
M36LXLIFT
 62
1
 10
4098.262
 20
-5082.739
 30
1595.000
 70
    32
  0
VERTEX
  8
M36LXLIFT
 62
1
 10
4097.800
 20
-5091.664
 30
1595.000
 70
    32
  0
VERTEX
  8
M36LXLIFT
 62
1
 10
4101.747
 20
-5100.968
 30
1595.000
 70
    32
  0
VERTEX
  8
M36LXLIFT
 62
1
 10
4108.860
 20
-5111.336
 30
1595.000
 70
    32
  0
VERTEX
  8
M36LXLIFT
 62
1
 10
4105.793
 20
-5116.830
 30
1595.000
 70
    32
  0
VERTEX
  8
M36LXLIFT
 62
1
 10
4105.273
 20
-5123.732
 30
1595.000
 70
    32
  0
VERTEX
  8
M36LXLIFT
 62
1
 10
4100.323
 20
-5123.205
 30
1595.000
 70
    32
  0
VERTEX
  8
M36LXLIFT
 62
1
 10
4089.847
 20
-5121.807
 30
1595.000
 70
    32
  0
VERTEX
  8
M36LXLIFT
 62
1
 10
4085.246
 20
-5122.656
 30
1595.000
 70
    32
  0
VERTEX
  8
M36LXLIFT
 62
1
 10
4081.061
 20
-5127.660
 30
1595.000
 70
    32
  0
VERTEX
  8
M36LXLIFT
 62
1
 10
4079.416
 20
-5134.510
 30
1595.000
 70
    32
  0
VERTEX
  8
M36LXLIFT
 62
1
 10
4073.686
 20
-5139.334
 30
1595.000
 70
    32
  0
VERTEX
  8
M36LXLIFT
 62
1
 10
4066.260
 20
-5137.347
 30
1595.000
 70
    32
  0
VERTEX
  8
M36LXLIFT
 62
1
 10
4062.410
 20
-5139.824
 30
1595.000
 70
    32
  0
SEQEND
  8
M36LXLIFT
  0
POLYLINE
  8
M36LXLIFT
 62
6
 66
     1
 70
     9
  0
VERTEX
  8
M36LXLIFT
 62
6
 10
4076.077
 20
-5091.615
 30
1573.839
 70
    32
  0
VERTEX
  8
M36LXLIFT
 62
6
 10
4080.915
 20
-5080.281
 30
1573.849
 70
    32
  0
VERTEX
  8
M36LXLIFT
 62
6
 10
4087.779
 20
-5082.407
 30
1573.860
 70
    32
  0
VERTEX
  8
M36LXLIFT
 62
6
 10
4094.980
 20
-5079.235
 30
1573.873
 70
    32
  0
VERTEX
  8
M36LXLIFT
 62
6
 10
4101.079
 20
-5085.681
 30
1573.881
 70
    32
  0
VERTEX
  8
M36LXLIFT
 62
6
 10
4097.464
 20
-5091.553
 30
1573.874
 70
    32
  0
VERTEX
  8
M36LXLIFT
 62
6
 10
4097.968
 20
-5099.955
 30
1573.873
 70
    32
  0
VERTEX
  8
M36LXLIFT
 62
6
 10
4107.786
 20
-5118.823
 30
1573.884
 70
    32
  0
VERTEX
  8
M36LXLIFT
 62
6
 10
4105.845
 20
-5131.522
 30
1573.878
 70
    32
  0
VERTEX
  8
M36LXLIFT
 62
6
 10
4099.441
 20
-5134.616
 30
1573.867
 70
    32
  0
VERTEX
  8
M36LXLIFT
 62
6
 10
4093.332
 20
-5128.965
 30
1573.858
 70
    32
  0
VERTEX
  8
M36LXLIFT
 62
6
 10
4084.386
 20
-5117.444
 30
1573.846
 70
    32
  0
VERTEX
  8
M36LXLIFT
 62
6
 10
4073.172
 20
-5110.310
 30
1573.829
 70
    32
  0
VERTEX
  8
M36LXLIFT
 62
6
 10
4069.430
 20
-5106.017
 30
1573.824
 70
    32
  0
SEQEND
  8
M36LXLIFT
  0
POLYLINE
  8
M36LXLIFT
 62
8
 66
     1
 70
     9
  0
VERTEX
  8
M36LXLIFT
 62
8
 10
3633.999
 20
-5194.450
 30
1573.644
 70
    32
  0
VERTEX
  8
M36LXLIFT
 62
8
 10
3635.680
 20
-5191.187
 30
1573.643
 70
    32
  0
VERTEX
  8
M36LXLIFT
 62
8
 10
3636.918
 20
-5188.365
 30
1573.642
 70
    32
  0
VERTEX
  8
M36LXLIFT
 62
8
 10
3640.803
 20
-5186.251
 30
1573.644
 70
    32
  0
VERTEX
  8
M36LXLIFT
 62
8
 10
3651.566
 20
-5188.381
 30
1573.656
 70
    32
  0
VERTEX
  8
M36LXLIFT
 62
8
 10
3655.887
 20
-5190.591
 30
1573.662
 70
    32
  0
VERTEX
  8
M36LXLIFT
 62
8
 10
3661.782
 20
-5197.822
 30
1573.674
 70
    32
  0
VERTEX
  8
M36LXLIFT
 62
8
 10
3666.908
 20
-5198.633
 30
1573.680
 70
    32
  0
VERTEX
  8
M36LXLIFT
 62
8
 10
3673.424
 20
-5211.435
 30
1573.697
 70
    32
  0
VERTEX
  8
M36LXLIFT
 62
8
 10
3695.629
 20
-5239.784
 30
1573.734
 70
    32
  0
VERTEX
  8
M36LXLIFT
 62
8
 10
3700.072
 20
-5246.625
 30
1573.730
 70
    32
  0
VERTEX
  8
M36LXLIFT
 62
8
 10
3718.670
 20
-5256.687
 30
1573.702
 70
    32
  0
VERTEX
  8
M36LXLIFT
 62
8
 10
3701.326
 20
-5271.386
 30
1573.693
 70
    32
  0
VERTEX
  8
M36LXLIFT
 62
8
 10
3692.909
 20
-5266.499
 30
1573.707
 70
    32
  0
VERTEX
  8
M36LXLIFT
 62
8
 10
3683.838
 20
-5257.716
 30
1573.712
 70
    32
  0
VERTEX
  8
M36LXLIFT
 62
8
 10
3676.024
 20
-5254.057
 30
1573.704
 70
    32
  0
VERTEX
  8
M36LXLIFT
 62
8
 10
3673.029
 20
-5249.466
 30
1573.708
 70
    32
  0
VERTEX
  8
M36LXLIFT
 62
8
 10
3677.709
 20
-5246.824
 30
1573.724
 70
    32
  0
VERTEX
  8
M36LXLIFT
 62
8
 10
3663.964
 20
-5227.837
 30
1573.701
 70
    32
  0
VERTEX
  8
M36LXLIFT
 62
8
 10
3659.998
 20
-5224.039
 30
1573.694
 70
    32
  0
VERTEX
  8
M36LXLIFT
 62
8
 10
3636.893
 20
-5211.395
 30
1573.660
 70
    32
  0
VERTEX
  8
M36LXLIFT
 62
8
 10
3629.580
 20
-5201.504
 30
1573.645
 70
    32
  0
SEQEND
  8
M36LXLIFT
  0
POLYLINE
  8
M36LXLIFT
 62
7
 66
     1
 70
     9
  0
VERTEX
  8
M36LXLIFT
 62
7
 10
3845.162
 20
-5111.585
 30
1667.000
 70
    32
  0
VERTEX
  8
M36LXLIFT
 62
7
 10
3843.365
 20
-5102.282
 30
1667.000
 70
    32
  0
VERTEX
  8
M36LXLIFT
 62
7
 10
3849.327
 20
-5089.265
 30
1667.000
 70
    32
  0
VERTEX
  8
M36LXLIFT
 62
7
 10
3845.205
 20
-5083.457
 30
1667.000
 70
    32
  0
VERTEX
  8
M36LXLIFT
 62
7
 10
3839.413
 20
-5088.775
 30
1667.000
 70
    32
  0
VERTEX
  8
M36LXLIFT
 62
7
 10
3834.953
 20
-5085.305
 30
1667.000
 70
    32
  0
VERTEX
  8
M36LXLIFT
 62
7
 10
3824.952
 20
-5084.551
 30
1667.000
 70
    32
  0
VERTEX
  8
M36LXLIFT
 62
7
 10
3815.223
 20
-5077.996
 30
1667.000
 70
    32
  0
VERTEX
  8
M36LXLIFT
 62
7
 10
3809.129
 20
-5073.662
 30
1667.000
 70
    32
  0
VERTEX
  8
M36LXLIFT
 62
7
 10
3801.559
 20
-5080.858
 30
1667.000
 70
    32
  0
VERTEX
  8
M36LXLIFT
 62
7
 10
3804.860
 20
-5094.962
 30
1667.000
 70
    32
  0
VERTEX
  8
M36LXLIFT
 62
7
 10
3814.541
 20
-5109.674
 30
1667.000
 70
    32
  0
VERTEX
  8
M36LXLIFT
 62
7
 10
3825.463
 20
-5117.531
 30
1667.000
 70
    32
  0
VERTEX
  8
M36LXLIFT
 62
7
 10
3831.452
 20
-5121.724
 30
1667.000
 70
    32
  0
SEQEND
  8
M36LXLIFT
  0
POLYLINE
  8
M36LXLIFT
 62
7
 66
     1
 70
     9
  0
VERTEX
  8
M36LXLIFT
 62
7
 10
3811.283
 20
-5061.009
 30
1648.000
 70
    32
  0
VERTEX
  8
M36LXLIFT
 62
7
 10
3814.201
 20
-5066.589
 30
1648.000
 70
    32
  0
VERTEX
  8
M36LXLIFT
 62
7
 10
3813.848
 20
-5075.595
 30
1648.000
 70
    32
  0
VERTEX
  8
M36LXLIFT
 62
7
 10
3815.125
 20
-5082.353
 30
1648.000
 70
    32
  0
VERTEX
  8
M36LXLIFT
 62
7
 10
3824.864
 20
-5087.800
 30
1648.000
 70
    32
  0
VERTEX
  8
M36LXLIFT
 62
7
 10
3828.417
 20
-5094.115
 30
1648.000
 70
    32
  0
VERTEX
  8
M36LXLIFT
 62
7
 10
3829.502
 20
-5102.414
 30
1648.000
 70
    32
  0
VERTEX
  8
M36LXLIFT
 62
7
 10
3837.999
 20
-5110.049
 30
1648.000
 70
    32
  0
VERTEX
  8
M36LXLIFT
 62
7
 10
3836.161
 20
-5116.229
 30
1648.000
 70
    32
  0
VERTEX
  8
M36LXLIFT
 62
7
 10
3828.663
 20
-5114.362
 30
1648.000
 70
    32
  0
VERTEX
  8
M36LXLIFT
 62
7
 10
3822.707
 20
-5105.447
 30
1648.000
 70
    32
  0
VERTEX
  8
M36LXLIFT
 62
7
 10
3816.284
 20
-5105.080
 30
1648.000
 70
    32
  0
VERTEX
  8
M36LXLIFT
 62
7
 10
3814.158
 20
-5097.742
 30
1648.000
 70
    32
  0
VERTEX
  8
M36LXLIFT
 62
7
 10
3813.301
 20
-5091.116
 30
1648.000
 70
    32
  0
VERTEX
  8
M36LXLIFT
 62
7
 10
3806.854
 20
-5082.121
 30
1648.000
 70
    32
  0
VERTEX
  8
M36LXLIFT
 62
7
 10
3805.639
 20
-5075.751
 30
1648.000
 70
    32
  0
VERTEX
  8
M36LXLIFT
 62
7
 10
3801.297
 20
-5067.733
 30
1648.000
 70
    32
  0
SEQEND
  8
M36LXLIFT
  0
POLYLINE
  8
M36LXLIFT
 62
7
 66
     1
 70
     9
  0
VERTEX
  8
M36LXLIFT
 62
7
 10
3805.353
 20
-5051.766
 30
1658.000
 70
    32
  0
VERTEX
  8
M36LXLIFT
 62
7
 10
3805.905
 20
-5057.008
 30
1658.000
 70
    32
  0
VERTEX
  8
M36LXLIFT
 62
7
 10
3809.645
 20
-5066.338
 30
1658.000
 70
    32
  0
VERTEX
  8
M36LXLIFT
 62
7
 10
3812.597
 20
-5075.481
 30
1658.000
 70
    32
  0
VERTEX
  8
M36LXLIFT
 62
7
 10
3819.894
 20
-5082.985
 30
1658.000
 70
    32
  0
VERTEX
  8
M36LXLIFT
 62
7
 10
3826.711
 20
-5082.808
 30
1658.000
 70
    32
  0
VERTEX
  8
M36LXLIFT
 62
7
 10
3833.986
 20
-5084.903
 30
1658.000
 70
    32
  0
VERTEX
  8
M36LXLIFT
 62
7
 10
3837.907
 20
-5091.497
 30
1658.000
 70
    32
  0
VERTEX
  8
M36LXLIFT
 62
7
 10
3834.586
 20
-5098.577
 30
1658.000
 70
    32
  0
VERTEX
  8
M36LXLIFT
 62
7
 10
3833.194
 20
-5105.774
 30
1658.000
 70
    32
  0
VERTEX
  8
M36LXLIFT
 62
7
 10
3834.597
 20
-5113.979
 30
1658.000
 70
    32
  0
VERTEX
  8
M36LXLIFT
 62
7
 10
3828.126
 20
-5119.115
 30
1658.000
 70
    32
  0
VERTEX
  8
M36LXLIFT
 62
7
 10
3823.056
 20
-5111.837
 30
1658.000
 70
    32
  0
VERTEX
  8
M36LXLIFT
 62
7
 10
3816.531
 20
-5108.980
 30
1658.000
 70
    32
  0
VERTEX
  8
M36LXLIFT
 62
7
 10
3810.758
 20
-5098.197
 30
1658.000
 70
    32
  0
VERTEX
  8
M36LXLIFT
 62
7
 10
3809.310
 20
-5090.675
 30
1658.000
 70
    32
  0
VERTEX
  8
M36LXLIFT
 62
7
 10
3804.338
 20
-5080.395
 30
1658.000
 70
    32
  0
VERTEX
  8
M36LXLIFT
 62
7
 10
3802.877
 20
-5071.363
 30
1658.000
 70
    32
  0
VERTEX
  8
M36LXLIFT
 62
7
 10
3795.466
 20
-5058.623
 30
1658.000
 70
    32
  0
SEQEND
  8
M36LXLIFT
  0
POLYLINE
  8
M36LXLIFT
 62
11
 66
     1
 70
     9
  0
VERTEX
  8
M36LXLIFT
 62
11
 10
3939.478
 20
-4920.316
 30
1665.000
 70
    32
  0
VERTEX
  8
M36LXLIFT
 62
11
 10
3943.512
 20
-4929.209
 30
1665.000
 70
    32
  0
VERTEX
  8
M36LXLIFT
 62
11
 10
3948.902
 20
-4939.832
 30
1665.000
 70
    32
  0
VERTEX
  8
M36LXLIFT
 62
11
 10
3955.097
 20
-4939.262
 30
1665.000
 70
    32
  0
VERTEX
  8
M36LXLIFT
 62
11
 10
3961.157
 20
-4938.355
 30
1665.000
 70
    32
  0
VERTEX
  8
M36LXLIFT
 62
11
 10
3968.427
 20
-4947.081
 30
1665.000
 70
    32
  0
VERTEX
  8
M36LXLIFT
 62
11
 10
3973.257
 20
-4953.776
 30
1665.000
 70
    32
  0
VERTEX
  8
M36LXLIFT
 62
11
 10
3971.238
 20
-4956.531
 30
1665.000
 70
    32
  0
VERTEX
  8
M36LXLIFT
 62
11
 10
3978.030
 20
-4963.544
 30
1665.000
 70
    32
  0
VERTEX
  8
M36LXLIFT
 62
11
 10
3980.734
 20
-4974.047
 30
1665.000
 70
    32
  0
VERTEX
  8
M36LXLIFT
 62
11
 10
3986.975
 20
-4983.298
 30
1665.000
 70
    32
  0
VERTEX
  8
M36LXLIFT
 62
11
 10
3994.549
 20
-4993.645
 30
1665.000
 70
    32
  0
VERTEX
  8
M36LXLIFT
 62
11
 10
3999.062
 20
-5000.352
 30
1665.000
 70
    32
  0
VERTEX
  8
M36LXLIFT
 62
11
 10
3992.403
 20
-5006.131
 30
1665.000
 70
    32
  0
VERTEX
  8
M36LXLIFT
 62
11
 10
3987.880
 20
-5008.419
 30
1665.000
 70
    32
  0
VERTEX
  8
M36LXLIFT
 62
11
 10
3978.299
 20
-5003.094
 30
1665.000
 70
    32
  0
VERTEX
  8
M36LXLIFT
 62
11
 10
3969.149
 20
-4998.217
 30
1665.000
 70
    32
  0
VERTEX
  8
M36LXLIFT
 62
11
 10
3963.884
 20
-4990.319
 30
1665.000
 70
    32
  0
VERTEX
  8
M36LXLIFT
 62
11
 10
3958.758
 20
-4981.563
 30
1665.000
 70
    32
  0
VERTEX
  8
M36LXLIFT
 62
11
 10
3952.519
 20
-4968.412
 30
1665.000
 70
    32
  0
VERTEX
  8
M36LXLIFT
 62
11
 10
3946.050
 20
-4956.293
 30
1665.000
 70
    32
  0
VERTEX
  8
M36LXLIFT
 62
11
 10
3940.228
 20
-4947.173
 30
1665.000
 70
    32
  0
VERTEX
  8
M36LXLIFT
 62
11
 10
3934.637
 20
-4937.021
 30
1665.000
 70
    32
  0
VERTEX
  8
M36LXLIFT
 62
11
 10
3928.923
 20
-4924.899
 30
1665.000
 70
    32
  0
SEQEND
  8
M36LXLIFT
  0
POLYLINE
  8
M36LXLIFT
 62
11
 66
     1
 70
     9
  0
VERTEX
  8
M36LXLIFT
 62
11
 10
3991.762
 20
-5001.209
 30
1655.000
 70
    32
  0
VERTEX
  8
M36LXLIFT
 62
11
 10
3986.262
 20
-5001.407
 30
1655.000
 70
    32
  0
VERTEX
  8
M36LXLIFT
 62
11
 10
3981.550
 20
-4999.403
 30
1655.000
 70
    32
  0
VERTEX
  8
M36LXLIFT
 62
11
 10
3974.888
 20
-4999.794
 30
1655.000
 70
    32
  0
VERTEX
  8
M36LXLIFT
 62
11
 10
3969.707
 20
-4994.007
 30
1655.000
 70
    32
  0
VERTEX
  8
M36LXLIFT
 62
11
 10
3967.192
 20
-4989.648
 30
1655.000
 70
    32
  0
VERTEX
  8
M36LXLIFT
 62
11
 10
3963.304
 20
-4980.860
 30
1655.000
 70
    32
  0
VERTEX
  8
M36LXLIFT
 62
11
 10
3959.951
 20
-4971.466
 30
1655.000
 70
    32
  0
VERTEX
  8
M36LXLIFT
 62
11
 10
3953.675
 20
-4962.677
 30
1655.000
 70
    32
  0
VERTEX
  8
M36LXLIFT
 62
11
 10
3948.610
 20
-4956.154
 30
1655.000
 70
    32
  0
VERTEX
  8
M36LXLIFT
 62
11
 10
3946.219
 20
-4949.426
 30
1655.000
 70
    32
  0
VERTEX
  8
M36LXLIFT
 62
11
 10
3939.885
 20
-4938.616
 30
1655.000
 70
    32
  0
VERTEX
  8
M36LXLIFT
 62
11
 10
3938.687
 20
-4933.083
 30
1655.000
 70
    32
  0
VERTEX
  8
M36LXLIFT
 62
11
 10
3943.315
 20
-4933.628
 30
1655.000
 70
    32
  0
VERTEX
  8
M36LXLIFT
 62
11
 10
3948.641
 20
-4933.340
 30
1655.000
 70
    32
  0
VERTEX
  8
M36LXLIFT
 62
11
 10
3952.589
 20
-4939.372
 30
1655.000
 70
    32
  0
VERTEX
  8
M36LXLIFT
 62
11
 10
3957.343
 20
-4946.662
 30
1655.000
 70
    32
  0
VERTEX
  8
M36LXLIFT
 62
11
 10
3962.418
 20
-4944.386
 30
1655.000
 70
    32
  0
VERTEX
  8
M36LXLIFT
 62
11
 10
3967.691
 20
-4946.416
 30
1655.000
 70
    32
  0
VERTEX
  8
M36LXLIFT
 62
11
 10
3972.627
 20
-4952.164
 30
1655.000
 70
    32
  0
VERTEX
  8
M36LXLIFT
 62
11
 10
3974.418
 20
-4959.111
 30
1655.000
 70
    32
  0
VERTEX
  8
M36LXLIFT
 62
11
 10
3980.675
 20
-4968.022
 30
1655.000
 70
    32
  0
VERTEX
  8
M36LXLIFT
 62
11
 10
3986.881
 20
-4976.863
 30
1655.000
 70
    32
  0
VERTEX
  8
M36LXLIFT
 62
11
 10
3992.951
 20
-4986.562
 30
1655.000
 70
    32
  0
VERTEX
  8
M36LXLIFT
 62
11
 10
3997.801
 20
-4995.628
 30
1655.000
 70
    32
  0
SEQEND
  8
M36LXLIFT
  0
ENDSEC
  0
EOF
