999
********************************
999
*   DXF File - Entities Only   *
999
*        3D Data Format        *
999
*     Output from ENVISAGE     *
999
*     31-Dec-2007 14:59:54     *
999
********************************
  0
SECTION 
  2
HEADER
  9
$ACADVER
  1
AC1009
  9
$EXTMIN
 10
-290000.000
 20
-250000.000
 30
-4000.000
  9
$EXTMAX
 10
320000.000
 20
160000.000
 30
6000.000
  0
ENDSEC
  0
SECTION
  2
ENTITIES
  0
POLYLINE
  8
M38LXLIFT
 62
3
 66
     1
 70
     9
  0
VERTEX
  8
M38LXLIFT
 62
3
 10
4209.911
 20
-5439.337
 30
1435.000
 70
    32
  0
VERTEX
  8
M38LXLIFT
 62
3
 10
4194.009
 20
-5454.715
 30
1435.000
 70
    32
  0
VERTEX
  8
M38LXLIFT
 62
3
 10
4187.672
 20
-5453.827
 30
1435.000
 70
    32
  0
VERTEX
  8
M38LXLIFT
 62
3
 10
4184.796
 20
-5449.623
 30
1435.000
 70
    32
  0
VERTEX
  8
M38LXLIFT
 62
3
 10
4183.696
 20
-5438.665
 30
1435.000
 70
    32
  0
VERTEX
  8
M38LXLIFT
 62
3
 10
4181.554
 20
-5431.247
 30
1435.000
 70
    32
  0
VERTEX
  8
M38LXLIFT
 62
3
 10
4171.625
 20
-5419.986
 30
1435.000
 70
    32
  0
VERTEX
  8
M38LXLIFT
 62
3
 10
4161.370
 20
-5411.757
 30
1435.000
 70
    32
  0
VERTEX
  8
M38LXLIFT
 62
3
 10
4159.563
 20
-5404.962
 30
1435.000
 70
    32
  0
VERTEX
  8
M38LXLIFT
 62
3
 10
4163.142
 20
-5386.485
 30
1435.000
 70
    32
  0
VERTEX
  8
M38LXLIFT
 62
3
 10
4165.884
 20
-5364.401
 30
1435.000
 70
    32
  0
VERTEX
  8
M38LXLIFT
 62
3
 10
4168.594
 20
-5359.570
 30
1435.000
 70
    32
  0
VERTEX
  8
M38LXLIFT
 62
3
 10
4184.403
 20
-5351.043
 30
1435.000
 70
    32
  0
VERTEX
  8
M38LXLIFT
 62
3
 10
4200.439
 20
-5345.262
 30
1435.000
 70
    32
  0
VERTEX
  8
M38LXLIFT
 62
3
 10
4216.426
 20
-5341.993
 30
1435.000
 70
    32
  0
VERTEX
  8
M38LXLIFT
 62
3
 10
4227.130
 20
-5340.536
 30
1435.000
 70
    32
  0
VERTEX
  8
M38LXLIFT
 62
3
 10
4242.678
 20
-5333.917
 30
1435.000
 70
    32
  0
VERTEX
  8
M38LXLIFT
 62
3
 10
4257.538
 20
-5328.756
 30
1435.000
 70
    32
  0
VERTEX
  8
M38LXLIFT
 62
3
 10
4267.290
 20
-5328.081
 30
1435.000
 70
    32
  0
VERTEX
  8
M38LXLIFT
 62
3
 10
4278.684
 20
-5331.087
 30
1435.000
 70
    32
  0
VERTEX
  8
M38LXLIFT
 62
3
 10
4292.271
 20
-5331.567
 30
1435.000
 70
    32
  0
VERTEX
  8
M38LXLIFT
 62
3
 10
4294.258
 20
-5336.188
 30
1435.000
 70
    32
  0
VERTEX
  8
M38LXLIFT
 62
3
 10
4287.856
 20
-5339.762
 30
1435.000
 70
    32
  0
VERTEX
  8
M38LXLIFT
 62
3
 10
4269.237
 20
-5345.544
 30
1435.000
 70
    32
  0
VERTEX
  8
M38LXLIFT
 62
3
 10
4249.087
 20
-5348.106
 30
1435.000
 70
    32
  0
VERTEX
  8
M38LXLIFT
 62
3
 10
4236.889
 20
-5350.948
 30
1435.000
 70
    32
  0
VERTEX
  8
M38LXLIFT
 62
3
 10
4226.497
 20
-5363.923
 30
1435.000
 70
    32
  0
VERTEX
  8
M38LXLIFT
 62
3
 10
4235.232
 20
-5375.169
 30
1435.000
 70
    32
  0
VERTEX
  8
M38LXLIFT
 62
3
 10
4243.434
 20
-5383.995
 30
1435.000
 70
    32
  0
VERTEX
  8
M38LXLIFT
 62
3
 10
4254.068
 20
-5388.509
 30
1435.000
 70
    32
  0
VERTEX
  8
M38LXLIFT
 62
3
 10
4266.890
 20
-5392.009
 30
1435.000
 70
    32
  0
VERTEX
  8
M38LXLIFT
 62
3
 10
4280.941
 20
-5397.545
 30
1435.000
 70
    32
  0
VERTEX
  8
M38LXLIFT
 62
3
 10
4297.852
 20
-5412.573
 30
1435.000
 70
    32
  0
VERTEX
  8
M38LXLIFT
 62
3
 10
4294.350
 20
-5416.136
 30
1435.000
 70
    32
  0
VERTEX
  8
M38LXLIFT
 62
3
 10
4285.744
 20
-5409.320
 30
1435.000
 70
    32
  0
VERTEX
  8
M38LXLIFT
 62
3
 10
4276.829
 20
-5403.586
 30
1435.000
 70
    32
  0
VERTEX
  8
M38LXLIFT
 62
3
 10
4257.547
 20
-5399.178
 30
1435.000
 70
    32
  0
VERTEX
  8
M38LXLIFT
 62
3
 10
4239.220
 20
-5396.569
 30
1435.000
 70
    32
  0
VERTEX
  8
M38LXLIFT
 62
3
 10
4222.391
 20
-5394.405
 30
1435.000
 70
    32
  0
VERTEX
  8
M38LXLIFT
 62
3
 10
4211.043
 20
-5392.981
 30
1435.000
 70
    32
  0
VERTEX
  8
M38LXLIFT
 62
3
 10
4202.994
 20
-5401.063
 30
1435.000
 70
    32
  0
VERTEX
  8
M38LXLIFT
 62
3
 10
4195.721
 20
-5409.024
 30
1435.000
 70
    32
  0
VERTEX
  8
M38LXLIFT
 62
3
 10
4198.856
 20
-5418.753
 30
1435.000
 70
    32
  0
SEQEND
  8
M38LXLIFT
  0
POLYLINE
  8
M38LXLIFT
 62
6
 66
     1
 70
     9
  0
VERTEX
  8
M38LXLIFT
 62
6
 10
4133.974
 20
-5463.290
 30
1438.000
 70
    32
  0
VERTEX
  8
M38LXLIFT
 62
6
 10
4144.139
 20
-5460.922
 30
1438.000
 70
    32
  0
VERTEX
  8
M38LXLIFT
 62
6
 10
4149.259
 20
-5452.658
 30
1438.000
 70
    32
  0
VERTEX
  8
M38LXLIFT
 62
6
 10
4147.076
 20
-5442.146
 30
1438.000
 70
    32
  0
VERTEX
  8
M38LXLIFT
 62
6
 10
4141.360
 20
-5431.665
 30
1438.000
 70
    32
  0
VERTEX
  8
M38LXLIFT
 62
6
 10
4134.168
 20
-5423.200
 30
1438.000
 70
    32
  0
VERTEX
  8
M38LXLIFT
 62
6
 10
4124.463
 20
-5415.442
 30
1438.000
 70
    32
  0
VERTEX
  8
M38LXLIFT
 62
6
 10
4118.303
 20
-5406.459
 30
1438.000
 70
    32
  0
VERTEX
  8
M38LXLIFT
 62
6
 10
4113.831
 20
-5403.495
 30
1438.000
 70
    32
  0
VERTEX
  8
M38LXLIFT
 62
6
 10
4104.259
 20
-5408.672
 30
1438.000
 70
    32
  0
VERTEX
  8
M38LXLIFT
 62
6
 10
4103.185
 20
-5416.112
 30
1438.000
 70
    32
  0
VERTEX
  8
M38LXLIFT
 62
6
 10
4109.321
 20
-5425.972
 30
1438.000
 70
    32
  0
VERTEX
  8
M38LXLIFT
 62
6
 10
4114.533
 20
-5434.227
 30
1438.000
 70
    32
  0
VERTEX
  8
M38LXLIFT
 62
6
 10
4109.838
 20
-5440.358
 30
1438.000
 70
    32
  0
VERTEX
  8
M38LXLIFT
 62
6
 10
4114.907
 20
-5448.714
 30
1438.000
 70
    32
  0
VERTEX
  8
M38LXLIFT
 62
6
 10
4123.432
 20
-5455.264
 30
1438.000
 70
    32
  0
SEQEND
  8
M38LXLIFT
  0
POLYLINE
  8
M38LXLIFT
 62
13
 66
     1
 70
     9
  0
VERTEX
  8
M38LXLIFT
 62
13
 10
4117.543
 20
-5568.210
 30
1436.000
 70
    32
  0
VERTEX
  8
M38LXLIFT
 62
13
 10
4113.243
 20
-5558.661
 30
1436.000
 70
    32
  0
VERTEX
  8
M38LXLIFT
 62
13
 10
4112.971
 20
-5547.655
 30
1436.000
 70
    32
  0
VERTEX
  8
M38LXLIFT
 62
13
 10
4113.897
 20
-5541.828
 30
1436.000
 70
    32
  0
VERTEX
  8
M38LXLIFT
 62
13
 10
4111.125
 20
-5533.673
 30
1436.000
 70
    32
  0
VERTEX
  8
M38LXLIFT
 62
13
 10
4108.447
 20
-5521.251
 30
1436.000
 70
    32
  0
VERTEX
  8
M38LXLIFT
 62
13
 10
4107.733
 20
-5514.327
 30
1436.000
 70
    32
  0
VERTEX
  8
M38LXLIFT
 62
13
 10
4100.257
 20
-5511.986
 30
1436.000
 70
    32
  0
VERTEX
  8
M38LXLIFT
 62
13
 10
4102.570
 20
-5503.561
 30
1436.000
 70
    32
  0
VERTEX
  8
M38LXLIFT
 62
13
 10
4098.104
 20
-5491.653
 30
1436.000
 70
    32
  0
VERTEX
  8
M38LXLIFT
 62
13
 10
4094.228
 20
-5477.390
 30
1436.000
 70
    32
  0
VERTEX
  8
M38LXLIFT
 62
13
 10
4085.042
 20
-5479.924
 30
1436.000
 70
    32
  0
VERTEX
  8
M38LXLIFT
 62
13
 10
4085.347
 20
-5500.384
 30
1436.000
 70
    32
  0
VERTEX
  8
M38LXLIFT
 62
13
 10
4089.900
 20
-5510.290
 30
1436.000
 70
    32
  0
VERTEX
  8
M38LXLIFT
 62
13
 10
4091.852
 20
-5522.905
 30
1436.000
 70
    32
  0
VERTEX
  8
M38LXLIFT
 62
13
 10
4092.418
 20
-5538.118
 30
1436.000
 70
    32
  0
VERTEX
  8
M38LXLIFT
 62
13
 10
4097.060
 20
-5549.362
 30
1436.000
 70
    32
  0
VERTEX
  8
M38LXLIFT
 62
13
 10
4094.708
 20
-5560.616
 30
1436.000
 70
    32
  0
VERTEX
  8
M38LXLIFT
 62
13
 10
4100.292
 20
-5570.760
 30
1436.000
 70
    32
  0
VERTEX
  8
M38LXLIFT
 62
13
 10
4107.467
 20
-5577.836
 30
1436.000
 70
    32
  0
SEQEND
  8
M38LXLIFT
  0
POLYLINE
  8
M38LXLIFT
 62
7
 66
     1
 70
     9
  0
VERTEX
  8
M38LXLIFT
 62
7
 10
4072.576
 20
-5373.436
 30
1435.000
 70
    32
  0
VERTEX
  8
M38LXLIFT
 62
7
 10
4070.531
 20
-5364.333
 30
1435.000
 70
    32
  0
VERTEX
  8
M38LXLIFT
 62
7
 10
4073.955
 20
-5359.750
 30
1435.000
 70
    32
  0
VERTEX
  8
M38LXLIFT
 62
7
 10
4083.506
 20
-5361.371
 30
1435.000
 70
    32
  0
VERTEX
  8
M38LXLIFT
 62
7
 10
4092.144
 20
-5370.964
 30
1435.000
 70
    32
  0
VERTEX
  8
M38LXLIFT
 62
7
 10
4099.798
 20
-5375.224
 30
1435.000
 70
    32
  0
VERTEX
  8
M38LXLIFT
 62
7
 10
4118.417
 20
-5362.765
 30
1435.000
 70
    32
  0
VERTEX
  8
M38LXLIFT
 62
7
 10
4132.408
 20
-5351.220
 30
1435.000
 70
    32
  0
VERTEX
  8
M38LXLIFT
 62
7
 10
4139.524
 20
-5341.217
 30
1435.000
 70
    32
  0
VERTEX
  8
M38LXLIFT
 62
7
 10
4135.257
 20
-5331.107
 30
1435.000
 70
    32
  0
VERTEX
  8
M38LXLIFT
 62
7
 10
4125.034
 20
-5328.993
 30
1435.000
 70
    32
  0
VERTEX
  8
M38LXLIFT
 62
7
 10
4115.910
 20
-5317.806
 30
1435.000
 70
    32
  0
VERTEX
  8
M38LXLIFT
 62
7
 10
4106.563
 20
-5319.809
 30
1435.000
 70
    32
  0
VERTEX
  8
M38LXLIFT
 62
7
 10
4091.396
 20
-5325.296
 30
1435.000
 70
    32
  0
VERTEX
  8
M38LXLIFT
 62
7
 10
4081.168
 20
-5324.693
 30
1435.000
 70
    32
  0
VERTEX
  8
M38LXLIFT
 62
7
 10
4072.671
 20
-5325.770
 30
1435.000
 70
    32
  0
VERTEX
  8
M38LXLIFT
 62
7
 10
4059.659
 20
-5330.804
 30
1435.000
 70
    32
  0
VERTEX
  8
M38LXLIFT
 62
7
 10
4046.743
 20
-5338.248
 30
1435.000
 70
    32
  0
VERTEX
  8
M38LXLIFT
 62
7
 10
4043.309
 20
-5349.191
 30
1435.000
 70
    32
  0
VERTEX
  8
M38LXLIFT
 62
7
 10
4053.775
 20
-5362.117
 30
1435.000
 70
    32
  0
VERTEX
  8
M38LXLIFT
 62
7
 10
4062.284
 20
-5373.955
 30
1435.000
 70
    32
  0
SEQEND
  8
M38LXLIFT
  0
POLYLINE
  8
M38LXLIFT
 62
8
 66
     1
 70
     9
  0
VERTEX
  8
M38LXLIFT
 62
8
 10
3978.118
 20
-5244.583
 30
1436.000
 70
    32
  0
VERTEX
  8
M38LXLIFT
 62
8
 10
3970.418
 20
-5232.064
 30
1436.000
 70
    32
  0
VERTEX
  8
M38LXLIFT
 62
8
 10
3961.320
 20
-5222.582
 30
1436.000
 70
    32
  0
VERTEX
  8
M38LXLIFT
 62
8
 10
3956.910
 20
-5215.913
 30
1436.000
 70
    32
  0
VERTEX
  8
M38LXLIFT
 62
8
 10
3947.729
 20
-5203.583
 30
1436.000
 70
    32
  0
VERTEX
  8
M38LXLIFT
 62
8
 10
3941.350
 20
-5209.617
 30
1436.000
 70
    32
  0
VERTEX
  8
M38LXLIFT
 62
8
 10
3947.269
 20
-5217.047
 30
1436.000
 70
    32
  0
VERTEX
  8
M38LXLIFT
 62
8
 10
3956.619
 20
-5237.657
 30
1436.000
 70
    32
  0
VERTEX
  8
M38LXLIFT
 62
8
 10
3962.699
 20
-5245.618
 30
1436.000
 70
    32
  0
VERTEX
  8
M38LXLIFT
 62
8
 10
3968.188
 20
-5250.015
 30
1436.000
 70
    32
  0
SEQEND
  8
M38LXLIFT
  0
POLYLINE
  8
M38LXLIFT
 62
3
 66
     1
 70
     9
  0
VERTEX
  8
M38LXLIFT
 62
3
 10
4199.632
 20
-5447.647
 30
1447.000
 70
    32
  0
VERTEX
  8
M38LXLIFT
 62
3
 10
4193.925
 20
-5439.077
 30
1447.000
 70
    32
  0
VERTEX
  8
M38LXLIFT
 62
3
 10
4194.627
 20
-5424.545
 30
1447.000
 70
    32
  0
VERTEX
  8
M38LXLIFT
 62
3
 10
4189.103
 20
-5410.915
 30
1447.000
 70
    32
  0
VERTEX
  8
M38LXLIFT
 62
3
 10
4187.894
 20
-5402.948
 30
1447.000
 70
    32
  0
VERTEX
  8
M38LXLIFT
 62
3
 10
4197.249
 20
-5398.300
 30
1447.000
 70
    32
  0
VERTEX
  8
M38LXLIFT
 62
3
 10
4199.886
 20
-5394.481
 30
1447.000
 70
    32
  0
VERTEX
  8
M38LXLIFT
 62
3
 10
4193.931
 20
-5390.146
 30
1447.000
 70
    32
  0
VERTEX
  8
M38LXLIFT
 62
3
 10
4197.703
 20
-5384.171
 30
1447.000
 70
    32
  0
VERTEX
  8
M38LXLIFT
 62
3
 10
4203.006
 20
-5381.437
 30
1447.000
 70
    32
  0
VERTEX
  8
M38LXLIFT
 62
3
 10
4215.640
 20
-5389.459
 30
1447.000
 70
    32
  0
VERTEX
  8
M38LXLIFT
 62
3
 10
4227.839
 20
-5396.600
 30
1447.000
 70
    32
  0
VERTEX
  8
M38LXLIFT
 62
3
 10
4242.135
 20
-5398.901
 30
1447.000
 70
    32
  0
VERTEX
  8
M38LXLIFT
 62
3
 10
4254.401
 20
-5403.037
 30
1447.000
 70
    32
  0
VERTEX
  8
M38LXLIFT
 62
3
 10
4268.237
 20
-5405.898
 30
1447.000
 70
    32
  0
VERTEX
  8
M38LXLIFT
 62
3
 10
4284.858
 20
-5410.740
 30
1447.000
 70
    32
  0
VERTEX
  8
M38LXLIFT
 62
3
 10
4290.504
 20
-5406.110
 30
1447.000
 70
    32
  0
VERTEX
  8
M38LXLIFT
 62
3
 10
4280.213
 20
-5397.114
 30
1447.000
 70
    32
  0
VERTEX
  8
M38LXLIFT
 62
3
 10
4268.152
 20
-5397.971
 30
1447.000
 70
    32
  0
VERTEX
  8
M38LXLIFT
 62
3
 10
4254.012
 20
-5392.490
 30
1447.000
 70
    32
  0
VERTEX
  8
M38LXLIFT
 62
3
 10
4240.616
 20
-5385.799
 30
1447.000
 70
    32
  0
VERTEX
  8
M38LXLIFT
 62
3
 10
4226.238
 20
-5378.525
 30
1447.000
 70
    32
  0
VERTEX
  8
M38LXLIFT
 62
3
 10
4214.287
 20
-5370.980
 30
1447.000
 70
    32
  0
VERTEX
  8
M38LXLIFT
 62
3
 10
4210.695
 20
-5365.110
 30
1447.000
 70
    32
  0
VERTEX
  8
M38LXLIFT
 62
3
 10
4218.490
 20
-5348.485
 30
1447.000
 70
    32
  0
VERTEX
  8
M38LXLIFT
 62
3
 10
4229.432
 20
-5339.047
 30
1447.000
 70
    32
  0
VERTEX
  8
M38LXLIFT
 62
3
 10
4241.531
 20
-5334.113
 30
1447.000
 70
    32
  0
VERTEX
  8
M38LXLIFT
 62
3
 10
4252.141
 20
-5338.821
 30
1447.000
 70
    32
  0
VERTEX
  8
M38LXLIFT
 62
3
 10
4265.466
 20
-5338.340
 30
1447.000
 70
    32
  0
VERTEX
  8
M38LXLIFT
 62
3
 10
4267.459
 20
-5329.527
 30
1447.000
 70
    32
  0
VERTEX
  8
M38LXLIFT
 62
3
 10
4281.045
 20
-5333.230
 30
1447.000
 70
    32
  0
VERTEX
  8
M38LXLIFT
 62
3
 10
4295.463
 20
-5332.156
 30
1447.000
 70
    32
  0
VERTEX
  8
M38LXLIFT
 62
3
 10
4295.417
 20
-5326.936
 30
1447.000
 70
    32
  0
VERTEX
  8
M38LXLIFT
 62
3
 10
4286.104
 20
-5322.796
 30
1447.000
 70
    32
  0
VERTEX
  8
M38LXLIFT
 62
3
 10
4266.593
 20
-5319.662
 30
1447.000
 70
    32
  0
VERTEX
  8
M38LXLIFT
 62
3
 10
4247.640
 20
-5320.820
 30
1447.000
 70
    32
  0
VERTEX
  8
M38LXLIFT
 62
3
 10
4231.015
 20
-5327.911
 30
1447.000
 70
    32
  0
VERTEX
  8
M38LXLIFT
 62
3
 10
4214.929
 20
-5336.025
 30
1447.000
 70
    32
  0
VERTEX
  8
M38LXLIFT
 62
3
 10
4196.700
 20
-5347.590
 30
1447.000
 70
    32
  0
VERTEX
  8
M38LXLIFT
 62
3
 10
4175.940
 20
-5366.508
 30
1447.000
 70
    32
  0
VERTEX
  8
M38LXLIFT
 62
3
 10
4162.549
 20
-5377.218
 30
1447.000
 70
    32
  0
VERTEX
  8
M38LXLIFT
 62
3
 10
4164.769
 20
-5394.506
 30
1447.000
 70
    32
  0
VERTEX
  8
M38LXLIFT
 62
3
 10
4158.263
 20
-5402.402
 30
1447.000
 70
    32
  0
VERTEX
  8
M38LXLIFT
 62
3
 10
4162.345
 20
-5412.615
 30
1447.000
 70
    32
  0
VERTEX
  8
M38LXLIFT
 62
3
 10
4174.514
 20
-5425.908
 30
1447.000
 70
    32
  0
VERTEX
  8
M38LXLIFT
 62
3
 10
4174.468
 20
-5442.798
 30
1447.000
 70
    32
  0
VERTEX
  8
M38LXLIFT
 62
3
 10
4177.533
 20
-5448.842
 30
1447.000
 70
    32
  0
VERTEX
  8
M38LXLIFT
 62
3
 10
4186.294
 20
-5450.764
 30
1447.000
 70
    32
  0
VERTEX
  8
M38LXLIFT
 62
3
 10
4191.878
 20
-5448.260
 30
1447.000
 70
    32
  0
VERTEX
  8
M38LXLIFT
 62
3
 10
4196.085
 20
-5454.221
 30
1447.000
 70
    32
  0
SEQEND
  8
M38LXLIFT
  0
POLYLINE
  8
M38LXLIFT
 62
13
 66
     1
 70
     9
  0
VERTEX
  8
M38LXLIFT
 62
13
 10
4248.870
 20
-5258.501
 30
1450.000
 70
    32
  0
VERTEX
  8
M38LXLIFT
 62
13
 10
4240.495
 20
-5256.510
 30
1450.000
 70
    32
  0
VERTEX
  8
M38LXLIFT
 62
13
 10
4221.034
 20
-5253.886
 30
1450.000
 70
    32
  0
VERTEX
  8
M38LXLIFT
 62
13
 10
4215.617
 20
-5258.237
 30
1450.000
 70
    32
  0
VERTEX
  8
M38LXLIFT
 62
13
 10
4203.305
 20
-5263.767
 30
1450.000
 70
    32
  0
VERTEX
  8
M38LXLIFT
 62
13
 10
4187.657
 20
-5272.322
 30
1450.000
 70
    32
  0
VERTEX
  8
M38LXLIFT
 62
13
 10
4172.958
 20
-5280.829
 30
1450.000
 70
    32
  0
VERTEX
  8
M38LXLIFT
 62
13
 10
4165.106
 20
-5279.983
 30
1450.000
 70
    32
  0
VERTEX
  8
M38LXLIFT
 62
13
 10
4156.233
 20
-5272.014
 30
1450.000
 70
    32
  0
VERTEX
  8
M38LXLIFT
 62
13
 10
4154.561
 20
-5265.046
 30
1450.000
 70
    32
  0
VERTEX
  8
M38LXLIFT
 62
13
 10
4160.702
 20
-5256.217
 30
1450.000
 70
    32
  0
VERTEX
  8
M38LXLIFT
 62
13
 10
4171.431
 20
-5247.375
 30
1450.000
 70
    32
  0
VERTEX
  8
M38LXLIFT
 62
13
 10
4184.777
 20
-5238.668
 30
1450.000
 70
    32
  0
VERTEX
  8
M38LXLIFT
 62
13
 10
4196.439
 20
-5236.685
 30
1450.000
 70
    32
  0
VERTEX
  8
M38LXLIFT
 62
13
 10
4207.194
 20
-5229.794
 30
1450.000
 70
    32
  0
VERTEX
  8
M38LXLIFT
 62
13
 10
4222.013
 20
-5225.576
 30
1450.000
 70
    32
  0
VERTEX
  8
M38LXLIFT
 62
13
 10
4230.653
 20
-5227.041
 30
1450.000
 70
    32
  0
VERTEX
  8
M38LXLIFT
 62
13
 10
4242.031
 20
-5236.762
 30
1450.000
 70
    32
  0
VERTEX
  8
M38LXLIFT
 62
13
 10
4254.674
 20
-5250.251
 30
1450.000
 70
    32
  0
SEQEND
  8
M38LXLIFT
  0
POLYLINE
  8
M38LXLIFT
 62
6
 66
     1
 70
     9
  0
VERTEX
  8
M38LXLIFT
 62
6
 10
4078.778
 20
-5381.739
 30
1447.000
 70
    32
  0
VERTEX
  8
M38LXLIFT
 62
6
 10
4084.861
 20
-5392.437
 30
1447.000
 70
    32
  0
VERTEX
  8
M38LXLIFT
 62
6
 10
4094.970
 20
-5395.438
 30
1447.000
 70
    32
  0
VERTEX
  8
M38LXLIFT
 62
6
 10
4106.365
 20
-5401.644
 30
1447.000
 70
    32
  0
VERTEX
  8
M38LXLIFT
 62
6
 10
4111.580
 20
-5406.309
 30
1447.000
 70
    32
  0
VERTEX
  8
M38LXLIFT
 62
6
 10
4124.267
 20
-5414.402
 30
1447.000
 70
    32
  0
VERTEX
  8
M38LXLIFT
 62
6
 10
4135.122
 20
-5426.809
 30
1447.000
 70
    32
  0
VERTEX
  8
M38LXLIFT
 62
6
 10
4144.096
 20
-5435.799
 30
1447.000
 70
    32
  0
VERTEX
  8
M38LXLIFT
 62
6
 10
4151.213
 20
-5443.320
 30
1447.000
 70
    32
  0
VERTEX
  8
M38LXLIFT
 62
6
 10
4154.671
 20
-5455.200
 30
1447.000
 70
    32
  0
VERTEX
  8
M38LXLIFT
 62
6
 10
4142.886
 20
-5457.165
 30
1447.000
 70
    32
  0
VERTEX
  8
M38LXLIFT
 62
6
 10
4125.370
 20
-5452.002
 30
1447.000
 70
    32
  0
VERTEX
  8
M38LXLIFT
 62
6
 10
4111.870
 20
-5441.339
 30
1447.000
 70
    32
  0
VERTEX
  8
M38LXLIFT
 62
6
 10
4100.130
 20
-5426.414
 30
1447.000
 70
    32
  0
VERTEX
  8
M38LXLIFT
 62
6
 10
4097.975
 20
-5417.615
 30
1447.000
 70
    32
  0
VERTEX
  8
M38LXLIFT
 62
6
 10
4087.368
 20
-5404.805
 30
1447.000
 70
    32
  0
VERTEX
  8
M38LXLIFT
 62
6
 10
4079.506
 20
-5402.324
 30
1447.000
 70
    32
  0
VERTEX
  8
M38LXLIFT
 62
6
 10
4069.977
 20
-5388.165
 30
1447.000
 70
    32
  0
SEQEND
  8
M38LXLIFT
  0
POLYLINE
  8
M38LXLIFT
 62
7
 66
     1
 70
     9
  0
VERTEX
  8
M38LXLIFT
 62
7
 10
4054.371
 20
-5332.656
 30
1445.000
 70
    32
  0
VERTEX
  8
M38LXLIFT
 62
7
 10
4064.550
 20
-5343.268
 30
1445.000
 70
    32
  0
VERTEX
  8
M38LXLIFT
 62
7
 10
4071.574
 20
-5355.675
 30
1445.000
 70
    32
  0
VERTEX
  8
M38LXLIFT
 62
7
 10
4064.965
 20
-5362.990
 30
1445.000
 70
    32
  0
VERTEX
  8
M38LXLIFT
 62
7
 10
4063.613
 20
-5373.845
 30
1445.000
 70
    32
  0
VERTEX
  8
M38LXLIFT
 62
7
 10
4067.108
 20
-5381.648
 30
1445.000
 70
    32
  0
VERTEX
  8
M38LXLIFT
 62
7
 10
4068.004
 20
-5389.193
 30
1445.000
 70
    32
  0
VERTEX
  8
M38LXLIFT
 62
7
 10
4060.861
 20
-5397.999
 30
1445.000
 70
    32
  0
VERTEX
  8
M38LXLIFT
 62
7
 10
4055.520
 20
-5397.587
 30
1445.000
 70
    32
  0
VERTEX
  8
M38LXLIFT
 62
7
 10
4050.430
 20
-5399.724
 30
1445.000
 70
    32
  0
VERTEX
  8
M38LXLIFT
 62
7
 10
4040.204
 20
-5388.163
 30
1445.000
 70
    32
  0
VERTEX
  8
M38LXLIFT
 62
7
 10
4032.584
 20
-5389.990
 30
1445.000
 70
    32
  0
VERTEX
  8
M38LXLIFT
 62
7
 10
4032.667
 20
-5380.077
 30
1445.000
 70
    32
  0
VERTEX
  8
M38LXLIFT
 62
7
 10
4025.192
 20
-5366.473
 30
1445.000
 70
    32
  0
VERTEX
  8
M38LXLIFT
 62
7
 10
4028.203
 20
-5357.998
 30
1445.000
 70
    32
  0
VERTEX
  8
M38LXLIFT
 62
7
 10
4027.297
 20
-5352.651
 30
1445.000
 70
    32
  0
VERTEX
  8
M38LXLIFT
 62
7
 10
4036.850
 20
-5347.090
 30
1445.000
 70
    32
  0
SEQEND
  8
M38LXLIFT
  0
POLYLINE
  8
M38LXLIFT
 62
13
 66
     1
 70
     9
  0
VERTEX
  8
M38LXLIFT
 62
13
 10
4079.528
 20
-5463.822
 30
1447.000
 70
    32
  0
VERTEX
  8
M38LXLIFT
 62
13
 10
4089.476
 20
-5478.546
 30
1447.000
 70
    32
  0
VERTEX
  8
M38LXLIFT
 62
13
 10
4092.844
 20
-5491.041
 30
1447.000
 70
    32
  0
VERTEX
  8
M38LXLIFT
 62
13
 10
4093.757
 20
-5509.517
 30
1447.000
 70
    32
  0
VERTEX
  8
M38LXLIFT
 62
13
 10
4100.967
 20
-5527.040
 30
1447.000
 70
    32
  0
VERTEX
  8
M38LXLIFT
 62
13
 10
4106.097
 20
-5538.665
 30
1447.000
 70
    32
  0
VERTEX
  8
M38LXLIFT
 62
13
 10
4107.787
 20
-5552.733
 30
1447.000
 70
    32
  0
VERTEX
  8
M38LXLIFT
 62
13
 10
4099.474
 20
-5556.279
 30
1447.000
 70
    32
  0
VERTEX
  8
M38LXLIFT
 62
13
 10
4091.600
 20
-5541.548
 30
1447.000
 70
    32
  0
VERTEX
  8
M38LXLIFT
 62
13
 10
4084.962
 20
-5525.680
 30
1447.000
 70
    32
  0
VERTEX
  8
M38LXLIFT
 62
13
 10
4082.131
 20
-5504.031
 30
1447.000
 70
    32
  0
VERTEX
  8
M38LXLIFT
 62
13
 10
4076.648
 20
-5485.444
 30
1447.000
 70
    32
  0
VERTEX
  8
M38LXLIFT
 62
13
 10
4067.071
 20
-5470.336
 30
1447.000
 70
    32
  0
SEQEND
  8
M38LXLIFT
  0
POLYLINE
  8
M38LXLIFT
 62
8
 66
     1
 70
     9
  0
VERTEX
  8
M38LXLIFT
 62
8
 10
3931.524
 20
-5198.615
 30
1447.000
 70
    32
  0
VERTEX
  8
M38LXLIFT
 62
8
 10
3942.471
 20
-5206.576
 30
1447.000
 70
    32
  0
VERTEX
  8
M38LXLIFT
 62
8
 10
3948.992
 20
-5210.052
 30
1447.000
 70
    32
  0
VERTEX
  8
M38LXLIFT
 62
8
 10
3956.451
 20
-5223.340
 30
1447.000
 70
    32
  0
VERTEX
  8
M38LXLIFT
 62
8
 10
3961.982
 20
-5231.820
 30
1447.000
 70
    32
  0
VERTEX
  8
M38LXLIFT
 62
8
 10
3966.107
 20
-5236.638
 30
1447.000
 70
    32
  0
VERTEX
  8
M38LXLIFT
 62
8
 10
3963.349
 20
-5243.831
 30
1447.000
 70
    32
  0
VERTEX
  8
M38LXLIFT
 62
8
 10
3958.945
 20
-5242.176
 30
1447.000
 70
    32
  0
VERTEX
  8
M38LXLIFT
 62
8
 10
3952.487
 20
-5232.742
 30
1447.000
 70
    32
  0
VERTEX
  8
M38LXLIFT
 62
8
 10
3944.592
 20
-5222.405
 30
1447.000
 70
    32
  0
VERTEX
  8
M38LXLIFT
 62
8
 10
3936.518
 20
-5212.857
 30
1447.000
 70
    32
  0
VERTEX
  8
M38LXLIFT
 62
8
 10
3931.794
 20
-5208.265
 30
1447.000
 70
    32
  0
VERTEX
  8
M38LXLIFT
 62
8
 10
3924.327
 20
-5203.958
 30
1447.000
 70
    32
  0
SEQEND
  8
M38LXLIFT
  0
POLYLINE
  8
M38LXLIFT
 62
3
 66
     1
 70
     9
  0
VERTEX
  8
M38LXLIFT
 62
3
 10
3870.911
 20
-5182.436
 30
1443.000
 70
    32
  0
VERTEX
  8
M38LXLIFT
 62
3
 10
3864.608
 20
-5188.540
 30
1443.000
 70
    32
  0
VERTEX
  8
M38LXLIFT
 62
3
 10
3859.575
 20
-5189.869
 30
1443.000
 70
    32
  0
VERTEX
  8
M38LXLIFT
 62
3
 10
3853.648
 20
-5183.215
 30
1443.000
 70
    32
  0
VERTEX
  8
M38LXLIFT
 62
3
 10
3849.831
 20
-5172.915
 30
1443.000
 70
    32
  0
VERTEX
  8
M38LXLIFT
 62
3
 10
3857.115
 20
-5164.003
 30
1443.000
 70
    32
  0
SEQEND
  8
M38LXLIFT
  0
POLYLINE
  8
M38LXLIFT
 62
6
 66
     1
 70
     9
  0
VERTEX
  8
M38LXLIFT
 62
6
 10
3767.904
 20
-5155.597
 30
1445.000
 70
    32
  0
VERTEX
  8
M38LXLIFT
 62
6
 10
3779.822
 20
-5166.341
 30
1445.000
 70
    32
  0
VERTEX
  8
M38LXLIFT
 62
6
 10
3791.956
 20
-5176.048
 30
1445.000
 70
    32
  0
VERTEX
  8
M38LXLIFT
 62
6
 10
3788.913
 20
-5183.890
 30
1445.000
 70
    32
  0
VERTEX
  8
M38LXLIFT
 62
6
 10
3794.096
 20
-5187.922
 30
1445.000
 70
    32
  0
VERTEX
  8
M38LXLIFT
 62
6
 10
3802.587
 20
-5191.249
 30
1445.000
 70
    32
  0
VERTEX
  8
M38LXLIFT
 62
6
 10
3811.741
 20
-5191.785
 30
1445.000
 70
    32
  0
VERTEX
  8
M38LXLIFT
 62
6
 10
3806.251
 20
-5200.459
 30
1445.000
 70
    32
  0
VERTEX
  8
M38LXLIFT
 62
6
 10
3790.351
 20
-5210.296
 30
1445.000
 70
    32
  0
VERTEX
  8
M38LXLIFT
 62
6
 10
3783.519
 20
-5205.517
 30
1445.000
 70
    32
  0
VERTEX
  8
M38LXLIFT
 62
6
 10
3776.658
 20
-5214.114
 30
1445.000
 70
    32
  0
VERTEX
  8
M38LXLIFT
 62
6
 10
3770.559
 20
-5217.987
 30
1445.000
 70
    32
  0
VERTEX
  8
M38LXLIFT
 62
6
 10
3763.736
 20
-5218.675
 30
1445.000
 70
    32
  0
VERTEX
  8
M38LXLIFT
 62
6
 10
3759.987
 20
-5208.762
 30
1445.000
 70
    32
  0
VERTEX
  8
M38LXLIFT
 62
6
 10
3762.007
 20
-5198.068
 30
1445.000
 70
    32
  0
VERTEX
  8
M38LXLIFT
 62
6
 10
3765.063
 20
-5194.813
 30
1445.000
 70
    32
  0
VERTEX
  8
M38LXLIFT
 62
6
 10
3763.191
 20
-5181.974
 30
1445.000
 70
    32
  0
VERTEX
  8
M38LXLIFT
 62
6
 10
3759.899
 20
-5171.940
 30
1445.000
 70
    32
  0
VERTEX
  8
M38LXLIFT
 62
6
 10
3758.748
 20
-5162.725
 30
1445.000
 70
    32
  0
SEQEND
  8
M38LXLIFT
  0
POLYLINE
  8
M38LXLIFT
 62
3
 66
     1
 70
     9
  0
VERTEX
  8
M38LXLIFT
 62
3
 10
4193.571
 20
-5426.229
 30
1458.000
 70
    32
  0
VERTEX
  8
M38LXLIFT
 62
3
 10
4185.281
 20
-5415.981
 30
1458.000
 70
    32
  0
VERTEX
  8
M38LXLIFT
 62
3
 10
4191.076
 20
-5410.393
 30
1458.000
 70
    32
  0
VERTEX
  8
M38LXLIFT
 62
3
 10
4191.806
 20
-5397.515
 30
1458.000
 70
    32
  0
VERTEX
  8
M38LXLIFT
 62
3
 10
4191.502
 20
-5390.701
 30
1458.000
 70
    32
  0
VERTEX
  8
M38LXLIFT
 62
3
 10
4201.690
 20
-5395.884
 30
1458.000
 70
    32
  0
VERTEX
  8
M38LXLIFT
 62
3
 10
4207.009
 20
-5389.666
 30
1458.000
 70
    32
  0
VERTEX
  8
M38LXLIFT
 62
3
 10
4206.981
 20
-5381.322
 30
1458.000
 70
    32
  0
VERTEX
  8
M38LXLIFT
 62
3
 10
4215.066
 20
-5382.700
 30
1458.000
 70
    32
  0
VERTEX
  8
M38LXLIFT
 62
3
 10
4226.443
 20
-5391.498
 30
1458.000
 70
    32
  0
VERTEX
  8
M38LXLIFT
 62
3
 10
4238.436
 20
-5400.820
 30
1458.000
 70
    32
  0
VERTEX
  8
M38LXLIFT
 62
3
 10
4250.960
 20
-5411.283
 30
1458.000
 70
    32
  0
VERTEX
  8
M38LXLIFT
 62
3
 10
4259.462
 20
-5411.465
 30
1458.000
 70
    32
  0
VERTEX
  8
M38LXLIFT
 62
3
 10
4268.176
 20
-5411.928
 30
1458.000
 70
    32
  0
VERTEX
  8
M38LXLIFT
 62
3
 10
4277.478
 20
-5414.918
 30
1458.000
 70
    32
  0
VERTEX
  8
M38LXLIFT
 62
3
 10
4279.941
 20
-5410.747
 30
1458.000
 70
    32
  0
VERTEX
  8
M38LXLIFT
 62
3
 10
4274.502
 20
-5402.088
 30
1458.000
 70
    32
  0
VERTEX
  8
M38LXLIFT
 62
3
 10
4262.442
 20
-5399.089
 30
1458.000
 70
    32
  0
VERTEX
  8
M38LXLIFT
 62
3
 10
4249.785
 20
-5390.928
 30
1458.000
 70
    32
  0
VERTEX
  8
M38LXLIFT
 62
3
 10
4233.178
 20
-5383.220
 30
1458.000
 70
    32
  0
VERTEX
  8
M38LXLIFT
 62
3
 10
4222.767
 20
-5374.243
 30
1458.000
 70
    32
  0
VERTEX
  8
M38LXLIFT
 62
3
 10
4215.670
 20
-5363.535
 30
1458.000
 70
    32
  0
VERTEX
  8
M38LXLIFT
 62
3
 10
4214.093
 20
-5354.160
 30
1458.000
 70
    32
  0
VERTEX
  8
M38LXLIFT
 62
3
 10
4224.401
 20
-5348.136
 30
1458.000
 70
    32
  0
VERTEX
  8
M38LXLIFT
 62
3
 10
4224.658
 20
-5340.898
 30
1458.000
 70
    32
  0
VERTEX
  8
M38LXLIFT
 62
3
 10
4208.616
 20
-5344.868
 30
1458.000
 70
    32
  0
VERTEX
  8
M38LXLIFT
 62
3
 10
4195.327
 20
-5352.484
 30
1458.000
 70
    32
  0
VERTEX
  8
M38LXLIFT
 62
3
 10
4187.200
 20
-5359.502
 30
1458.000
 70
    32
  0
VERTEX
  8
M38LXLIFT
 62
3
 10
4180.939
 20
-5367.532
 30
1458.000
 70
    32
  0
VERTEX
  8
M38LXLIFT
 62
3
 10
4191.349
 20
-5371.116
 30
1458.000
 70
    32
  0
VERTEX
  8
M38LXLIFT
 62
3
 10
4189.626
 20
-5375.829
 30
1458.000
 70
    32
  0
VERTEX
  8
M38LXLIFT
 62
3
 10
4178.056
 20
-5377.414
 30
1458.000
 70
    32
  0
VERTEX
  8
M38LXLIFT
 62
3
 10
4171.380
 20
-5371.780
 30
1458.000
 70
    32
  0
VERTEX
  8
M38LXLIFT
 62
3
 10
4167.368
 20
-5380.313
 30
1458.000
 70
    32
  0
VERTEX
  8
M38LXLIFT
 62
3
 10
4163.005
 20
-5388.671
 30
1458.000
 70
    32
  0
VERTEX
  8
M38LXLIFT
 62
3
 10
4166.826
 20
-5396.791
 30
1458.000
 70
    32
  0
VERTEX
  8
M38LXLIFT
 62
3
 10
4168.383
 20
-5405.410
 30
1458.000
 70
    32
  0
VERTEX
  8
M38LXLIFT
 62
3
 10
4162.181
 20
-5410.314
 30
1458.000
 70
    32
  0
VERTEX
  8
M38LXLIFT
 62
3
 10
4155.786
 20
-5420.646
 30
1458.000
 70
    32
  0
VERTEX
  8
M38LXLIFT
 62
3
 10
4152.227
 20
-5427.737
 30
1458.000
 70
    32
  0
VERTEX
  8
M38LXLIFT
 62
3
 10
4142.802
 20
-5424.730
 30
1458.000
 70
    32
  0
VERTEX
  8
M38LXLIFT
 62
3
 10
4129.808
 20
-5420.786
 30
1458.000
 70
    32
  0
VERTEX
  8
M38LXLIFT
 62
3
 10
4116.201
 20
-5412.242
 30
1458.000
 70
    32
  0
VERTEX
  8
M38LXLIFT
 62
3
 10
4105.542
 20
-5418.531
 30
1458.000
 70
    32
  0
VERTEX
  8
M38LXLIFT
 62
3
 10
4100.406
 20
-5427.032
 30
1458.000
 70
    32
  0
VERTEX
  8
M38LXLIFT
 62
3
 10
4111.336
 20
-5438.589
 30
1458.000
 70
    32
  0
VERTEX
  8
M38LXLIFT
 62
3
 10
4120.692
 20
-5436.695
 30
1458.000
 70
    32
  0
VERTEX
  8
M38LXLIFT
 62
3
 10
4130.500
 20
-5438.753
 30
1458.000
 70
    32
  0
VERTEX
  8
M38LXLIFT
 62
3
 10
4143.989
 20
-5438.251
 30
1458.000
 70
    32
  0
VERTEX
  8
M38LXLIFT
 62
3
 10
4154.857
 20
-5436.757
 30
1458.000
 70
    32
  0
VERTEX
  8
M38LXLIFT
 62
3
 10
4164.248
 20
-5435.057
 30
1458.000
 70
    32
  0
VERTEX
  8
M38LXLIFT
 62
3
 10
4170.336
 20
-5432.771
 30
1458.000
 70
    32
  0
VERTEX
  8
M38LXLIFT
 62
3
 10
4171.107
 20
-5432.188
 30
1458.000
 70
    32
  0
VERTEX
  8
M38LXLIFT
 62
3
 10
4175.641
 20
-5427.554
 30
1458.000
 70
    32
  0
VERTEX
  8
M38LXLIFT
 62
3
 10
4184.601
 20
-5433.443
 30
1458.000
 70
    32
  0
SEQEND
  8
M38LXLIFT
  0
POLYLINE
  8
M38LXLIFT
 62
6
 66
     1
 70
     9
  0
VERTEX
  8
M38LXLIFT
 62
6
 10
4102.064
 20
-5407.950
 30
1458.000
 70
    32
  0
VERTEX
  8
M38LXLIFT
 62
6
 10
4097.961
 20
-5399.603
 30
1458.000
 70
    32
  0
VERTEX
  8
M38LXLIFT
 62
6
 10
4098.049
 20
-5389.081
 30
1458.000
 70
    32
  0
VERTEX
  8
M38LXLIFT
 62
6
 10
4091.130
 20
-5384.291
 30
1458.000
 70
    32
  0
VERTEX
  8
M38LXLIFT
 62
6
 10
4080.371
 20
-5386.804
 30
1458.000
 70
    32
  0
VERTEX
  8
M38LXLIFT
 62
6
 10
4070.289
 20
-5381.761
 30
1458.000
 70
    32
  0
VERTEX
  8
M38LXLIFT
 62
6
 10
4061.634
 20
-5388.517
 30
1458.000
 70
    32
  0
VERTEX
  8
M38LXLIFT
 62
6
 10
4069.555
 20
-5398.714
 30
1458.000
 70
    32
  0
VERTEX
  8
M38LXLIFT
 62
6
 10
4079.048
 20
-5411.575
 30
1458.000
 70
    32
  0
VERTEX
  8
M38LXLIFT
 62
6
 10
4085.666
 20
-5420.775
 30
1458.000
 70
    32
  0
VERTEX
  8
M38LXLIFT
 62
6
 10
4097.798
 20
-5419.206
 30
1458.000
 70
    32
  0
SEQEND
  8
M38LXLIFT
  0
POLYLINE
  8
M38LXLIFT
 62
7
 66
     1
 70
     9
  0
VERTEX
  8
M38LXLIFT
 62
7
 10
4055.618
 20
-5333.189
 30
1459.000
 70
    32
  0
VERTEX
  8
M38LXLIFT
 62
7
 10
4068.947
 20
-5348.215
 30
1459.000
 70
    32
  0
VERTEX
  8
M38LXLIFT
 62
7
 10
4071.412
 20
-5355.268
 30
1459.000
 70
    32
  0
VERTEX
  8
M38LXLIFT
 62
7
 10
4065.222
 20
-5363.685
 30
1459.000
 70
    32
  0
VERTEX
  8
M38LXLIFT
 62
7
 10
4066.725
 20
-5377.188
 30
1459.000
 70
    32
  0
VERTEX
  8
M38LXLIFT
 62
7
 10
4068.937
 20
-5387.404
 30
1459.000
 70
    32
  0
VERTEX
  8
M38LXLIFT
 62
7
 10
4064.572
 20
-5395.323
 30
1459.000
 70
    32
  0
VERTEX
  8
M38LXLIFT
 62
7
 10
4055.362
 20
-5398.867
 30
1459.000
 70
    32
  0
VERTEX
  8
M38LXLIFT
 62
7
 10
4048.951
 20
-5398.976
 30
1459.000
 70
    32
  0
VERTEX
  8
M38LXLIFT
 62
7
 10
4039.786
 20
-5389.609
 30
1459.000
 70
    32
  0
VERTEX
  8
M38LXLIFT
 62
7
 10
4034.590
 20
-5390.452
 30
1459.000
 70
    32
  0
VERTEX
  8
M38LXLIFT
 62
7
 10
4033.726
 20
-5379.108
 30
1459.000
 70
    32
  0
VERTEX
  8
M38LXLIFT
 62
7
 10
4027.881
 20
-5369.765
 30
1459.000
 70
    32
  0
VERTEX
  8
M38LXLIFT
 62
7
 10
4026.583
 20
-5365.132
 30
1459.000
 70
    32
  0
VERTEX
  8
M38LXLIFT
 62
7
 10
4029.097
 20
-5355.199
 30
1459.000
 70
    32
  0
VERTEX
  8
M38LXLIFT
 62
7
 10
4039.677
 20
-5346.328
 30
1459.000
 70
    32
  0
SEQEND
  8
M38LXLIFT
  0
POLYLINE
  8
M38LXLIFT
 62
4
 66
     1
 70
     9
  0
VERTEX
  8
M38LXLIFT
 62
4
 10
4065.820
 20
-5332.417
 30
1455.000
 70
    32
  0
VERTEX
  8
M38LXLIFT
 62
4
 10
4056.097
 20
-5318.959
 30
1455.000
 70
    32
  0
VERTEX
  8
M38LXLIFT
 62
4
 10
4043.173
 20
-5299.224
 30
1455.000
 70
    32
  0
VERTEX
  8
M38LXLIFT
 62
4
 10
4049.856
 20
-5296.268
 30
1455.000
 70
    32
  0
VERTEX
  8
M38LXLIFT
 62
4
 10
4063.269
 20
-5299.455
 30
1455.000
 70
    32
  0
VERTEX
  8
M38LXLIFT
 62
4
 10
4075.852
 20
-5301.398
 30
1455.000
 70
    32
  0
VERTEX
  8
M38LXLIFT
 62
4
 10
4076.474
 20
-5292.894
 30
1455.000
 70
    32
  0
VERTEX
  8
M38LXLIFT
 62
4
 10
4076.686
 20
-5282.829
 30
1455.000
 70
    32
  0
VERTEX
  8
M38LXLIFT
 62
4
 10
4087.518
 20
-5275.749
 30
1455.000
 70
    32
  0
VERTEX
  8
M38LXLIFT
 62
4
 10
4093.853
 20
-5279.328
 30
1455.000
 70
    32
  0
VERTEX
  8
M38LXLIFT
 62
4
 10
4100.514
 20
-5290.917
 30
1455.000
 70
    32
  0
VERTEX
  8
M38LXLIFT
 62
4
 10
4106.098
 20
-5300.788
 30
1455.000
 70
    32
  0
VERTEX
  8
M38LXLIFT
 62
4
 10
4098.968
 20
-5306.503
 30
1455.000
 70
    32
  0
VERTEX
  8
M38LXLIFT
 62
4
 10
4091.596
 20
-5308.108
 30
1455.000
 70
    32
  0
VERTEX
  8
M38LXLIFT
 62
4
 10
4085.505
 20
-5319.862
 30
1455.000
 70
    32
  0
VERTEX
  8
M38LXLIFT
 62
4
 10
4075.462
 20
-5326.676
 30
1455.000
 70
    32
  0
SEQEND
  8
M38LXLIFT
  0
POLYLINE
  8
M38LXLIFT
 62
13
 66
     1
 70
     9
  0
VERTEX
  8
M38LXLIFT
 62
13
 10
4255.713
 20
-5251.298
 30
1455.000
 70
    32
  0
VERTEX
  8
M38LXLIFT
 62
13
 10
4246.895
 20
-5240.789
 30
1455.000
 70
    32
  0
VERTEX
  8
M38LXLIFT
 62
13
 10
4234.795
 20
-5230.887
 30
1455.000
 70
    32
  0
VERTEX
  8
M38LXLIFT
 62
13
 10
4223.490
 20
-5227.868
 30
1455.000
 70
    32
  0
VERTEX
  8
M38LXLIFT
 62
13
 10
4207.335
 20
-5229.503
 30
1455.000
 70
    32
  0
VERTEX
  8
M38LXLIFT
 62
13
 10
4194.980
 20
-5238.063
 30
1455.000
 70
    32
  0
VERTEX
  8
M38LXLIFT
 62
13
 10
4182.413
 20
-5240.951
 30
1455.000
 70
    32
  0
VERTEX
  8
M38LXLIFT
 62
13
 10
4167.461
 20
-5250.153
 30
1455.000
 70
    32
  0
VERTEX
  8
M38LXLIFT
 62
13
 10
4158.742
 20
-5258.718
 30
1455.000
 70
    32
  0
VERTEX
  8
M38LXLIFT
 62
13
 10
4155.783
 20
-5266.896
 30
1455.000
 70
    32
  0
VERTEX
  8
M38LXLIFT
 62
13
 10
4159.780
 20
-5275.103
 30
1455.000
 70
    32
  0
VERTEX
  8
M38LXLIFT
 62
13
 10
4172.200
 20
-5280.911
 30
1455.000
 70
    32
  0
VERTEX
  8
M38LXLIFT
 62
13
 10
4183.656
 20
-5276.552
 30
1455.000
 70
    32
  0
VERTEX
  8
M38LXLIFT
 62
13
 10
4200.271
 20
-5265.325
 30
1455.000
 70
    32
  0
VERTEX
  8
M38LXLIFT
 62
13
 10
4214.567
 20
-5259.481
 30
1455.000
 70
    32
  0
VERTEX
  8
M38LXLIFT
 62
13
 10
4225.965
 20
-5253.734
 30
1455.000
 70
    32
  0
VERTEX
  8
M38LXLIFT
 62
13
 10
4240.789
 20
-5258.497
 30
1455.000
 70
    32
  0
VERTEX
  8
M38LXLIFT
 62
13
 10
4250.985
 20
-5260.922
 30
1455.000
 70
    32
  0
SEQEND
  8
M38LXLIFT
  0
POLYLINE
  8
M38LXLIFT
 62
13
 66
     1
 70
     9
  0
VERTEX
  8
M38LXLIFT
 62
13
 10
4077.422
 20
-5561.273
 30
1457.000
 70
    32
  0
VERTEX
  8
M38LXLIFT
 62
13
 10
4087.361
 20
-5555.198
 30
1457.000
 70
    32
  0
VERTEX
  8
M38LXLIFT
 62
13
 10
4083.369
 20
-5537.962
 30
1457.000
 70
    32
  0
VERTEX
  8
M38LXLIFT
 62
13
 10
4076.409
 20
-5515.484
 30
1457.000
 70
    32
  0
VERTEX
  8
M38LXLIFT
 62
13
 10
4072.829
 20
-5490.342
 30
1457.000
 70
    32
  0
VERTEX
  8
M38LXLIFT
 62
13
 10
4063.536
 20
-5468.855
 30
1457.000
 70
    32
  0
VERTEX
  8
M38LXLIFT
 62
13
 10
4049.149
 20
-5442.520
 30
1457.000
 70
    32
  0
VERTEX
  8
M38LXLIFT
 62
13
 10
4038.333
 20
-5449.038
 30
1457.000
 70
    32
  0
VERTEX
  8
M38LXLIFT
 62
13
 10
4038.669
 20
-5454.728
 30
1457.000
 70
    32
  0
VERTEX
  8
M38LXLIFT
 62
13
 10
4053.005
 20
-5471.525
 30
1457.000
 70
    32
  0
VERTEX
  8
M38LXLIFT
 62
13
 10
4058.670
 20
-5495.202
 30
1457.000
 70
    32
  0
VERTEX
  8
M38LXLIFT
 62
13
 10
4066.044
 20
-5509.774
 30
1457.000
 70
    32
  0
VERTEX
  8
M38LXLIFT
 62
13
 10
4067.597
 20
-5533.254
 30
1457.000
 70
    32
  0
VERTEX
  8
M38LXLIFT
 62
13
 10
4074.761
 20
-5553.378
 30
1457.000
 70
    32
  0
SEQEND
  8
M38LXLIFT
  0
POLYLINE
  8
M38LXLIFT
 62
11
 66
     1
 70
     9
  0
VERTEX
  8
M38LXLIFT
 62
11
 10
3968.174
 20
-5390.094
 30
1458.000
 70
    32
  0
VERTEX
  8
M38LXLIFT
 62
11
 10
3953.354
 20
-5386.648
 30
1458.000
 70
    32
  0
VERTEX
  8
M38LXLIFT
 62
11
 10
3943.103
 20
-5388.667
 30
1458.000
 70
    32
  0
VERTEX
  8
M38LXLIFT
 62
11
 10
3933.953
 20
-5378.738
 30
1458.000
 70
    32
  0
VERTEX
  8
M38LXLIFT
 62
11
 10
3930.103
 20
-5367.228
 30
1458.000
 70
    32
  0
VERTEX
  8
M38LXLIFT
 62
11
 10
3940.676
 20
-5356.161
 30
1458.000
 70
    32
  0
VERTEX
  8
M38LXLIFT
 62
11
 10
3945.013
 20
-5345.292
 30
1458.000
 70
    32
  0
VERTEX
  8
M38LXLIFT
 62
11
 10
3943.667
 20
-5326.167
 30
1458.000
 70
    32
  0
VERTEX
  8
M38LXLIFT
 62
11
 10
3940.875
 20
-5310.666
 30
1458.000
 70
    32
  0
VERTEX
  8
M38LXLIFT
 62
11
 10
3939.674
 20
-5298.146
 30
1458.000
 70
    32
  0
VERTEX
  8
M38LXLIFT
 62
11
 10
3933.533
 20
-5289.577
 30
1458.000
 70
    32
  0
VERTEX
  8
M38LXLIFT
 62
11
 10
3930.892
 20
-5272.091
 30
1458.000
 70
    32
  0
VERTEX
  8
M38LXLIFT
 62
11
 10
3918.692
 20
-5269.198
 30
1458.000
 70
    32
  0
VERTEX
  8
M38LXLIFT
 62
11
 10
3908.274
 20
-5258.026
 30
1458.000
 70
    32
  0
VERTEX
  8
M38LXLIFT
 62
11
 10
3900.370
 20
-5247.706
 30
1458.000
 70
    32
  0
VERTEX
  8
M38LXLIFT
 62
11
 10
3909.465
 20
-5241.388
 30
1458.000
 70
    32
  0
VERTEX
  8
M38LXLIFT
 62
11
 10
3916.304
 20
-5253.503
 30
1458.000
 70
    32
  0
VERTEX
  8
M38LXLIFT
 62
11
 10
3930.296
 20
-5261.975
 30
1458.000
 70
    32
  0
VERTEX
  8
M38LXLIFT
 62
11
 10
3938.996
 20
-5263.439
 30
1458.000
 70
    32
  0
VERTEX
  8
M38LXLIFT
 62
11
 10
3948.418
 20
-5265.568
 30
1458.000
 70
    32
  0
VERTEX
  8
M38LXLIFT
 62
11
 10
3956.040
 20
-5275.661
 30
1458.000
 70
    32
  0
VERTEX
  8
M38LXLIFT
 62
11
 10
3960.720
 20
-5283.022
 30
1458.000
 70
    32
  0
VERTEX
  8
M38LXLIFT
 62
11
 10
3960.865
 20
-5289.626
 30
1458.000
 70
    32
  0
VERTEX
  8
M38LXLIFT
 62
11
 10
3956.272
 20
-5297.827
 30
1458.000
 70
    32
  0
VERTEX
  8
M38LXLIFT
 62
11
 10
3955.991
 20
-5308.385
 30
1458.000
 70
    32
  0
VERTEX
  8
M38LXLIFT
 62
11
 10
3958.531
 20
-5322.095
 30
1458.000
 70
    32
  0
VERTEX
  8
M38LXLIFT
 62
11
 10
3960.838
 20
-5334.331
 30
1458.000
 70
    32
  0
VERTEX
  8
M38LXLIFT
 62
11
 10
3970.610
 20
-5346.541
 30
1458.000
 70
    32
  0
VERTEX
  8
M38LXLIFT
 62
11
 10
3974.454
 20
-5350.902
 30
1458.000
 70
    32
  0
VERTEX
  8
M38LXLIFT
 62
11
 10
3973.122
 20
-5362.254
 30
1458.000
 70
    32
  0
VERTEX
  8
M38LXLIFT
 62
11
 10
3971.282
 20
-5379.492
 30
1458.000
 70
    32
  0
SEQEND
  8
M38LXLIFT
  0
POLYLINE
  8
M38LXLIFT
 62
8
 66
     1
 70
     9
  0
VERTEX
  8
M38LXLIFT
 62
8
 10
3965.773
 20
-5239.145
 30
1457.000
 70
    32
  0
VERTEX
  8
M38LXLIFT
 62
8
 10
3957.272
 20
-5229.055
 30
1457.000
 70
    32
  0
VERTEX
  8
M38LXLIFT
 62
8
 10
3949.395
 20
-5221.247
 30
1457.000
 70
    32
  0
VERTEX
  8
M38LXLIFT
 62
8
 10
3941.833
 20
-5208.028
 30
1457.000
 70
    32
  0
VERTEX
  8
M38LXLIFT
 62
8
 10
3927.595
 20
-5199.961
 30
1457.000
 70
    32
  0
VERTEX
  8
M38LXLIFT
 62
8
 10
3921.053
 20
-5202.810
 30
1457.000
 70
    32
  0
VERTEX
  8
M38LXLIFT
 62
8
 10
3923.502
 20
-5210.426
 30
1457.000
 70
    32
  0
VERTEX
  8
M38LXLIFT
 62
8
 10
3931.817
 20
-5212.400
 30
1457.000
 70
    32
  0
VERTEX
  8
M38LXLIFT
 62
8
 10
3941.735
 20
-5220.869
 30
1457.000
 70
    32
  0
VERTEX
  8
M38LXLIFT
 62
8
 10
3947.711
 20
-5232.425
 30
1457.000
 70
    32
  0
VERTEX
  8
M38LXLIFT
 62
8
 10
3957.261
 20
-5246.673
 30
1457.000
 70
    32
  0
SEQEND
  8
M38LXLIFT
  0
POLYLINE
  8
M38LXLIFT
 62
3
 66
     1
 70
     9
  0
VERTEX
  8
M38LXLIFT
 62
3
 10
3851.387
 20
-5192.029
 30
1454.000
 70
    32
  0
VERTEX
  8
M38LXLIFT
 62
3
 10
3856.518
 20
-5192.557
 30
1454.000
 70
    32
  0
VERTEX
  8
M38LXLIFT
 62
3
 10
3863.545
 20
-5187.580
 30
1454.000
 70
    32
  0
VERTEX
  8
M38LXLIFT
 62
3
 10
3865.486
 20
-5179.511
 30
1454.000
 70
    32
  0
VERTEX
  8
M38LXLIFT
 62
3
 10
3859.760
 20
-5174.260
 30
1454.000
 70
    32
  0
VERTEX
  8
M38LXLIFT
 62
3
 10
3855.944
 20
-5167.897
 30
1454.000
 70
    32
  0
VERTEX
  8
M38LXLIFT
 62
3
 10
3857.516
 20
-5159.776
 30
1454.000
 70
    32
  0
VERTEX
  8
M38LXLIFT
 62
3
 10
3849.734
 20
-5154.427
 30
1454.000
 70
    32
  0
VERTEX
  8
M38LXLIFT
 62
3
 10
3844.271
 20
-5159.873
 30
1454.000
 70
    32
  0
VERTEX
  8
M38LXLIFT
 62
3
 10
3838.719
 20
-5164.617
 30
1454.000
 70
    32
  0
VERTEX
  8
M38LXLIFT
 62
3
 10
3837.864
 20
-5171.646
 30
1454.000
 70
    32
  0
VERTEX
  8
M38LXLIFT
 62
3
 10
3847.250
 20
-5178.535
 30
1454.000
 70
    32
  0
VERTEX
  8
M38LXLIFT
 62
3
 10
3849.625
 20
-5184.886
 30
1454.000
 70
    32
  0
SEQEND
  8
M38LXLIFT
  0
POLYLINE
  8
M38LXLIFT
 62
4
 66
     1
 70
     9
  0
VERTEX
  8
M38LXLIFT
 62
4
 10
3818.181
 20
-5189.593
 30
1458.000
 70
    32
  0
VERTEX
  8
M38LXLIFT
 62
4
 10
3826.006
 20
-5202.724
 30
1458.000
 70
    32
  0
VERTEX
  8
M38LXLIFT
 62
4
 10
3841.132
 20
-5219.255
 30
1458.000
 70
    32
  0
VERTEX
  8
M38LXLIFT
 62
4
 10
3854.413
 20
-5235.529
 30
1458.000
 70
    32
  0
VERTEX
  8
M38LXLIFT
 62
4
 10
3858.301
 20
-5247.671
 30
1458.000
 70
    32
  0
VERTEX
  8
M38LXLIFT
 62
4
 10
3854.377
 20
-5251.074
 30
1458.000
 70
    32
  0
VERTEX
  8
M38LXLIFT
 62
4
 10
3842.862
 20
-5237.429
 30
1458.000
 70
    32
  0
VERTEX
  8
M38LXLIFT
 62
4
 10
3835.007
 20
-5220.909
 30
1458.000
 70
    32
  0
VERTEX
  8
M38LXLIFT
 62
4
 10
3821.767
 20
-5216.931
 30
1458.000
 70
    32
  0
VERTEX
  8
M38LXLIFT
 62
4
 10
3814.547
 20
-5216.551
 30
1458.000
 70
    32
  0
VERTEX
  8
M38LXLIFT
 62
4
 10
3808.753
 20
-5212.231
 30
1458.000
 70
    32
  0
VERTEX
  8
M38LXLIFT
 62
4
 10
3804.563
 20
-5198.667
 30
1458.000
 70
    32
  0
SEQEND
  8
M38LXLIFT
  0
POLYLINE
  8
M38LXLIFT
 62
2
 66
     1
 70
     9
  0
VERTEX
  8
M38LXLIFT
 62
2
 10
3774.629
 20
-5234.812
 30
1458.000
 70
    32
  0
VERTEX
  8
M38LXLIFT
 62
2
 10
3768.727
 20
-5234.866
 30
1458.000
 70
    32
  0
VERTEX
  8
M38LXLIFT
 62
2
 10
3761.043
 20
-5237.808
 30
1458.000
 70
    32
  0
VERTEX
  8
M38LXLIFT
 62
2
 10
3758.728
 20
-5244.069
 30
1458.000
 70
    32
  0
VERTEX
  8
M38LXLIFT
 62
2
 10
3756.819
 20
-5251.014
 30
1458.000
 70
    32
  0
VERTEX
  8
M38LXLIFT
 62
2
 10
3764.368
 20
-5260.281
 30
1458.000
 70
    32
  0
VERTEX
  8
M38LXLIFT
 62
2
 10
3766.093
 20
-5277.138
 30
1458.000
 70
    32
  0
VERTEX
  8
M38LXLIFT
 62
2
 10
3774.886
 20
-5338.183
 30
1458.000
 70
    32
  0
VERTEX
  8
M38LXLIFT
 62
2
 10
3783.085
 20
-5389.552
 30
1458.000
 70
    32
  0
VERTEX
  8
M38LXLIFT
 62
2
 10
3789.998
 20
-5413.717
 30
1458.000
 70
    32
  0
VERTEX
  8
M38LXLIFT
 62
2
 10
3799.211
 20
-5426.790
 30
1458.000
 70
    32
  0
VERTEX
  8
M38LXLIFT
 62
2
 10
3807.998
 20
-5428.078
 30
1458.000
 70
    32
  0
VERTEX
  8
M38LXLIFT
 62
2
 10
3816.892
 20
-5424.553
 30
1458.000
 70
    32
  0
VERTEX
  8
M38LXLIFT
 62
2
 10
3825.736
 20
-5416.443
 30
1458.000
 70
    32
  0
VERTEX
  8
M38LXLIFT
 62
2
 10
3829.627
 20
-5408.772
 30
1458.000
 70
    32
  0
VERTEX
  8
M38LXLIFT
 62
2
 10
3837.963
 20
-5401.156
 30
1458.000
 70
    32
  0
VERTEX
  8
M38LXLIFT
 62
2
 10
3844.646
 20
-5387.854
 30
1458.000
 70
    32
  0
VERTEX
  8
M38LXLIFT
 62
2
 10
3840.888
 20
-5367.139
 30
1458.000
 70
    32
  0
VERTEX
  8
M38LXLIFT
 62
2
 10
3832.823
 20
-5345.385
 30
1458.000
 70
    32
  0
VERTEX
  8
M38LXLIFT
 62
2
 10
3827.835
 20
-5340.237
 30
1458.000
 70
    32
  0
VERTEX
  8
M38LXLIFT
 62
2
 10
3822.836
 20
-5326.623
 30
1458.000
 70
    32
  0
VERTEX
  8
M38LXLIFT
 62
2
 10
3799.128
 20
-5296.543
 30
1458.000
 70
    32
  0
VERTEX
  8
M38LXLIFT
 62
2
 10
3783.642
 20
-5272.249
 30
1458.000
 70
    32
  0
VERTEX
  8
M38LXLIFT
 62
2
 10
3774.818
 20
-5259.982
 30
1458.000
 70
    32
  0
VERTEX
  8
M38LXLIFT
 62
2
 10
3773.493
 20
-5252.398
 30
1458.000
 70
    32
  0
SEQEND
  8
M38LXLIFT
  0
POLYLINE
  8
M38LXLIFT
 62
8
 66
     1
 70
     9
  0
VERTEX
  8
M38LXLIFT
 62
8
 10
3729.926
 20
-5340.441
 30
1455.000
 70
    32
  0
VERTEX
  8
M38LXLIFT
 62
8
 10
3723.645
 20
-5337.371
 30
1455.000
 70
    32
  0
VERTEX
  8
M38LXLIFT
 62
8
 10
3726.516
 20
-5329.369
 30
1455.000
 70
    32
  0
VERTEX
  8
M38LXLIFT
 62
8
 10
3724.403
 20
-5322.490
 30
1455.000
 70
    32
  0
VERTEX
  8
M38LXLIFT
 62
8
 10
3717.096
 20
-5327.679
 30
1455.000
 70
    32
  0
VERTEX
  8
M38LXLIFT
 62
8
 10
3704.519
 20
-5306.800
 30
1455.000
 70
    32
  0
VERTEX
  8
M38LXLIFT
 62
8
 10
3706.563
 20
-5297.993
 30
1455.000
 70
    32
  0
VERTEX
  8
M38LXLIFT
 62
8
 10
3718.659
 20
-5290.839
 30
1455.000
 70
    32
  0
VERTEX
  8
M38LXLIFT
 62
8
 10
3730.982
 20
-5304.095
 30
1455.000
 70
    32
  0
VERTEX
  8
M38LXLIFT
 62
8
 10
3729.330
 20
-5309.194
 30
1455.000
 70
    32
  0
VERTEX
  8
M38LXLIFT
 62
8
 10
3734.057
 20
-5320.262
 30
1455.000
 70
    32
  0
VERTEX
  8
M38LXLIFT
 62
8
 10
3741.072
 20
-5332.904
 30
1455.000
 70
    32
  0
SEQEND
  8
M38LXLIFT
  0
POLYLINE
  8
M38LXLIFT
 62
3
 66
     1
 70
     9
  0
VERTEX
  8
M38LXLIFT
 62
3
 10
4255.395
 20
-5399.393
 30
1468.000
 70
    32
  0
VERTEX
  8
M38LXLIFT
 62
3
 10
4240.503
 20
-5388.951
 30
1468.000
 70
    32
  0
VERTEX
  8
M38LXLIFT
 62
3
 10
4225.275
 20
-5380.722
 30
1468.000
 70
    32
  0
VERTEX
  8
M38LXLIFT
 62
3
 10
4217.890
 20
-5372.617
 30
1468.000
 70
    32
  0
VERTEX
  8
M38LXLIFT
 62
3
 10
4213.508
 20
-5365.031
 30
1468.000
 70
    32
  0
VERTEX
  8
M38LXLIFT
 62
3
 10
4207.062
 20
-5358.201
 30
1468.000
 70
    32
  0
VERTEX
  8
M38LXLIFT
 62
3
 10
4195.041
 20
-5351.215
 30
1468.000
 70
    32
  0
VERTEX
  8
M38LXLIFT
 62
3
 10
4184.546
 20
-5354.462
 30
1468.000
 70
    32
  0
VERTEX
  8
M38LXLIFT
 62
3
 10
4174.890
 20
-5362.114
 30
1468.000
 70
    32
  0
VERTEX
  8
M38LXLIFT
 62
3
 10
4180.209
 20
-5367.263
 30
1468.000
 70
    32
  0
VERTEX
  8
M38LXLIFT
 62
3
 10
4183.977
 20
-5378.466
 30
1468.000
 70
    32
  0
VERTEX
  8
M38LXLIFT
 62
3
 10
4175.097
 20
-5385.985
 30
1468.000
 70
    32
  0
VERTEX
  8
M38LXLIFT
 62
3
 10
4167.474
 20
-5396.399
 30
1468.000
 70
    32
  0
VERTEX
  8
M38LXLIFT
 62
3
 10
4153.396
 20
-5397.151
 30
1468.000
 70
    32
  0
VERTEX
  8
M38LXLIFT
 62
3
 10
4140.714
 20
-5393.272
 30
1468.000
 70
    32
  0
VERTEX
  8
M38LXLIFT
 62
3
 10
4127.732
 20
-5399.223
 30
1468.000
 70
    32
  0
VERTEX
  8
M38LXLIFT
 62
3
 10
4113.766
 20
-5405.025
 30
1468.000
 70
    32
  0
VERTEX
  8
M38LXLIFT
 62
3
 10
4104.254
 20
-5416.284
 30
1468.000
 70
    32
  0
VERTEX
  8
M38LXLIFT
 62
3
 10
4113.347
 20
-5420.183
 30
1468.000
 70
    32
  0
VERTEX
  8
M38LXLIFT
 62
3
 10
4126.823
 20
-5423.805
 30
1468.000
 70
    32
  0
VERTEX
  8
M38LXLIFT
 62
3
 10
4139.802
 20
-5424.081
 30
1468.000
 70
    32
  0
VERTEX
  8
M38LXLIFT
 62
3
 10
4151.304
 20
-5426.208
 30
1468.000
 70
    32
  0
VERTEX
  8
M38LXLIFT
 62
3
 10
4162.497
 20
-5427.470
 30
1468.000
 70
    32
  0
VERTEX
  8
M38LXLIFT
 62
3
 10
4166.482
 20
-5424.428
 30
1468.000
 70
    32
  0
VERTEX
  8
M38LXLIFT
 62
3
 10
4174.007
 20
-5409.281
 30
1468.000
 70
    32
  0
VERTEX
  8
M38LXLIFT
 62
3
 10
4178.412
 20
-5400.579
 30
1468.000
 70
    32
  0
VERTEX
  8
M38LXLIFT
 62
3
 10
4182.556
 20
-5393.598
 30
1468.000
 70
    32
  0
VERTEX
  8
M38LXLIFT
 62
3
 10
4190.070
 20
-5391.344
 30
1468.000
 70
    32
  0
VERTEX
  8
M38LXLIFT
 62
3
 10
4195.219
 20
-5399.675
 30
1468.000
 70
    32
  0
VERTEX
  8
M38LXLIFT
 62
3
 10
4202.889
 20
-5403.421
 30
1468.000
 70
    32
  0
VERTEX
  8
M38LXLIFT
 62
3
 10
4212.348
 20
-5394.166
 30
1468.000
 70
    32
  0
VERTEX
  8
M38LXLIFT
 62
3
 10
4210.926
 20
-5384.075
 30
1468.000
 70
    32
  0
VERTEX
  8
M38LXLIFT
 62
3
 10
4220.375
 20
-5385.638
 30
1468.000
 70
    32
  0
VERTEX
  8
M38LXLIFT
 62
3
 10
4224.607
 20
-5394.207
 30
1468.000
 70
    32
  0
VERTEX
  8
M38LXLIFT
 62
3
 10
4227.786
 20
-5400.603
 30
1468.000
 70
    32
  0
VERTEX
  8
M38LXLIFT
 62
3
 10
4237.096
 20
-5403.906
 30
1468.000
 70
    32
  0
VERTEX
  8
M38LXLIFT
 62
3
 10
4243.677
 20
-5409.436
 30
1468.000
 70
    32
  0
SEQEND
  8
M38LXLIFT
  0
POLYLINE
  8
M38LXLIFT
 62
6
 66
     1
 70
     9
  0
VERTEX
  8
M38LXLIFT
 62
6
 10
4098.131
 20
-5391.199
 30
1469.000
 70
    32
  0
VERTEX
  8
M38LXLIFT
 62
6
 10
4109.049
 20
-5397.577
 30
1469.000
 70
    32
  0
VERTEX
  8
M38LXLIFT
 62
6
 10
4116.071
 20
-5406.822
 30
1469.000
 70
    32
  0
VERTEX
  8
M38LXLIFT
 62
6
 10
4109.363
 20
-5415.363
 30
1469.000
 70
    32
  0
VERTEX
  8
M38LXLIFT
 62
6
 10
4097.181
 20
-5422.253
 30
1469.000
 70
    32
  0
VERTEX
  8
M38LXLIFT
 62
6
 10
4086.250
 20
-5413.483
 30
1469.000
 70
    32
  0
VERTEX
  8
M38LXLIFT
 62
6
 10
4081.871
 20
-5401.746
 30
1469.000
 70
    32
  0
VERTEX
  8
M38LXLIFT
 62
6
 10
4077.454
 20
-5396.043
 30
1469.000
 70
    32
  0
VERTEX
  8
M38LXLIFT
 62
6
 10
4065.669
 20
-5394.124
 30
1469.000
 70
    32
  0
VERTEX
  8
M38LXLIFT
 62
6
 10
4060.292
 20
-5387.708
 30
1469.000
 70
    32
  0
VERTEX
  8
M38LXLIFT
 62
6
 10
4064.846
 20
-5380.098
 30
1469.000
 70
    32
  0
VERTEX
  8
M38LXLIFT
 62
6
 10
4078.926
 20
-5377.270
 30
1469.000
 70
    32
  0
VERTEX
  8
M38LXLIFT
 62
6
 10
4086.080
 20
-5377.792
 30
1469.000
 70
    32
  0
VERTEX
  8
M38LXLIFT
 62
6
 10
4092.145
 20
-5385.886
 30
1469.000
 70
    32
  0
SEQEND
  8
M38LXLIFT
  0
POLYLINE
  8
M38LXLIFT
 62
13
 66
     1
 70
     9
  0
VERTEX
  8
M38LXLIFT
 62
13
 10
4089.788
 20
-5555.234
 30
1467.000
 70
    32
  0
VERTEX
  8
M38LXLIFT
 62
13
 10
4076.471
 20
-5514.587
 30
1467.000
 70
    32
  0
VERTEX
  8
M38LXLIFT
 62
13
 10
4067.048
 20
-5498.372
 30
1467.000
 70
    32
  0
VERTEX
  8
M38LXLIFT
 62
13
 10
4066.692
 20
-5489.135
 30
1467.000
 70
    32
  0
VERTEX
  8
M38LXLIFT
 62
13
 10
4059.052
 20
-5478.160
 30
1467.000
 70
    32
  0
VERTEX
  8
M38LXLIFT
 62
13
 10
4060.161
 20
-5468.390
 30
1467.000
 70
    32
  0
VERTEX
  8
M38LXLIFT
 62
13
 10
4045.412
 20
-5455.768
 30
1467.000
 70
    32
  0
VERTEX
  8
M38LXLIFT
 62
13
 10
4039.693
 20
-5459.868
 30
1467.000
 70
    32
  0
VERTEX
  8
M38LXLIFT
 62
13
 10
4038.703
 20
-5470.096
 30
1467.000
 70
    32
  0
VERTEX
  8
M38LXLIFT
 62
13
 10
4048.171
 20
-5490.972
 30
1467.000
 70
    32
  0
VERTEX
  8
M38LXLIFT
 62
13
 10
4061.747
 20
-5522.475
 30
1467.000
 70
    32
  0
VERTEX
  8
M38LXLIFT
 62
13
 10
4064.495
 20
-5539.561
 30
1467.000
 70
    32
  0
VERTEX
  8
M38LXLIFT
 62
13
 10
4077.780
 20
-5558.502
 30
1467.000
 70
    32
  0
SEQEND
  8
M38LXLIFT
  0
POLYLINE
  8
M38LXLIFT
 62
4
 66
     1
 70
     9
  0
VERTEX
  8
M38LXLIFT
 62
4
 10
4054.429
 20
-5318.317
 30
1465.000
 70
    32
  0
VERTEX
  8
M38LXLIFT
 62
4
 10
4037.079
 20
-5305.426
 30
1465.000
 70
    32
  0
VERTEX
  8
M38LXLIFT
 62
4
 10
4029.788
 20
-5296.706
 30
1465.000
 70
    32
  0
VERTEX
  8
M38LXLIFT
 62
4
 10
4027.709
 20
-5289.282
 30
1465.000
 70
    32
  0
VERTEX
  8
M38LXLIFT
 62
4
 10
4022.263
 20
-5278.767
 30
1465.000
 70
    32
  0
VERTEX
  8
M38LXLIFT
 62
4
 10
4034.889
 20
-5277.227
 30
1465.000
 70
    32
  0
VERTEX
  8
M38LXLIFT
 62
4
 10
4047.382
 20
-5272.837
 30
1465.000
 70
    32
  0
VERTEX
  8
M38LXLIFT
 62
4
 10
4057.044
 20
-5274.244
 30
1465.000
 70
    32
  0
VERTEX
  8
M38LXLIFT
 62
4
 10
4065.984
 20
-5279.567
 30
1465.000
 70
    32
  0
VERTEX
  8
M38LXLIFT
 62
4
 10
4076.083
 20
-5285.128
 30
1465.000
 70
    32
  0
VERTEX
  8
M38LXLIFT
 62
4
 10
4081.474
 20
-5272.425
 30
1465.000
 70
    32
  0
VERTEX
  8
M38LXLIFT
 62
4
 10
4087.782
 20
-5267.345
 30
1465.000
 70
    32
  0
VERTEX
  8
M38LXLIFT
 62
4
 10
4097.429
 20
-5268.435
 30
1465.000
 70
    32
  0
VERTEX
  8
M38LXLIFT
 62
4
 10
4103.110
 20
-5278.231
 30
1465.000
 70
    32
  0
VERTEX
  8
M38LXLIFT
 62
4
 10
4099.665
 20
-5287.646
 30
1465.000
 70
    32
  0
VERTEX
  8
M38LXLIFT
 62
4
 10
4082.234
 20
-5299.273
 30
1465.000
 70
    32
  0
SEQEND
  8
M38LXLIFT
  0
POLYLINE
  8
M38LXLIFT
 62
11
 66
     1
 70
     9
  0
VERTEX
  8
M38LXLIFT
 62
11
 10
3908.897
 20
-5358.706
 30
1469.000
 70
    32
  0
VERTEX
  8
M38LXLIFT
 62
11
 10
3903.541
 20
-5348.016
 30
1469.000
 70
    32
  0
VERTEX
  8
M38LXLIFT
 62
11
 10
3897.419
 20
-5340.292
 30
1469.000
 70
    32
  0
VERTEX
  8
M38LXLIFT
 62
11
 10
3909.972
 20
-5329.306
 30
1469.000
 70
    32
  0
VERTEX
  8
M38LXLIFT
 62
11
 10
3922.415
 20
-5328.557
 30
1469.000
 70
    32
  0
VERTEX
  8
M38LXLIFT
 62
11
 10
3929.808
 20
-5322.133
 30
1469.000
 70
    32
  0
VERTEX
  8
M38LXLIFT
 62
11
 10
3929.402
 20
-5308.674
 30
1469.000
 70
    32
  0
VERTEX
  8
M38LXLIFT
 62
11
 10
3925.839
 20
-5296.118
 30
1469.000
 70
    32
  0
VERTEX
  8
M38LXLIFT
 62
11
 10
3916.977
 20
-5284.077
 30
1469.000
 70
    32
  0
VERTEX
  8
M38LXLIFT
 62
11
 10
3904.356
 20
-5277.314
 30
1469.000
 70
    32
  0
VERTEX
  8
M38LXLIFT
 62
11
 10
3900.746
 20
-5270.034
 30
1469.000
 70
    32
  0
VERTEX
  8
M38LXLIFT
 62
11
 10
3897.893
 20
-5260.668
 30
1469.000
 70
    32
  0
VERTEX
  8
M38LXLIFT
 62
11
 10
3903.574
 20
-5256.815
 30
1469.000
 70
    32
  0
VERTEX
  8
M38LXLIFT
 62
11
 10
3913.029
 20
-5267.436
 30
1469.000
 70
    32
  0
VERTEX
  8
M38LXLIFT
 62
11
 10
3924.616
 20
-5277.690
 30
1469.000
 70
    32
  0
VERTEX
  8
M38LXLIFT
 62
11
 10
3935.880
 20
-5278.900
 30
1469.000
 70
    32
  0
VERTEX
  8
M38LXLIFT
 62
11
 10
3945.905
 20
-5282.878
 30
1469.000
 70
    32
  0
VERTEX
  8
M38LXLIFT
 62
11
 10
3943.856
 20
-5295.524
 30
1469.000
 70
    32
  0
VERTEX
  8
M38LXLIFT
 62
11
 10
3946.846
 20
-5313.088
 30
1469.000
 70
    32
  0
VERTEX
  8
M38LXLIFT
 62
11
 10
3957.842
 20
-5326.397
 30
1469.000
 70
    32
  0
VERTEX
  8
M38LXLIFT
 62
11
 10
3967.757
 20
-5340.611
 30
1469.000
 70
    32
  0
VERTEX
  8
M38LXLIFT
 62
11
 10
3972.143
 20
-5347.757
 30
1469.000
 70
    32
  0
VERTEX
  8
M38LXLIFT
 62
11
 10
3970.843
 20
-5359.196
 30
1469.000
 70
    32
  0
VERTEX
  8
M38LXLIFT
 62
11
 10
3966.000
 20
-5377.393
 30
1469.000
 70
    32
  0
VERTEX
  8
M38LXLIFT
 62
11
 10
3958.784
 20
-5379.755
 30
1469.000
 70
    32
  0
VERTEX
  8
M38LXLIFT
 62
11
 10
3947.319
 20
-5371.595
 30
1469.000
 70
    32
  0
VERTEX
  8
M38LXLIFT
 62
11
 10
3940.409
 20
-5367.399
 30
1469.000
 70
    32
  0
VERTEX
  8
M38LXLIFT
 62
11
 10
3933.893
 20
-5372.195
 30
1469.000
 70
    32
  0
VERTEX
  8
M38LXLIFT
 62
11
 10
3926.408
 20
-5357.721
 30
1469.000
 70
    32
  0
VERTEX
  8
M38LXLIFT
 62
11
 10
3921.479
 20
-5348.354
 30
1469.000
 70
    32
  0
SEQEND
  8
M38LXLIFT
  0
POLYLINE
  8
M38LXLIFT
 62
8
 66
     1
 70
     9
  0
VERTEX
  8
M38LXLIFT
 62
8
 10
3926.867
 20
-5197.960
 30
1468.000
 70
    32
  0
VERTEX
  8
M38LXLIFT
 62
8
 10
3937.326
 20
-5206.532
 30
1468.000
 70
    32
  0
VERTEX
  8
M38LXLIFT
 62
8
 10
3942.354
 20
-5216.481
 30
1468.000
 70
    32
  0
VERTEX
  8
M38LXLIFT
 62
8
 10
3955.628
 20
-5228.878
 30
1468.000
 70
    32
  0
VERTEX
  8
M38LXLIFT
 62
8
 10
3965.242
 20
-5241.348
 30
1468.000
 70
    32
  0
VERTEX
  8
M38LXLIFT
 62
8
 10
3955.985
 20
-5249.690
 30
1468.000
 70
    32
  0
VERTEX
  8
M38LXLIFT
 62
8
 10
3952.076
 20
-5250.165
 30
1468.000
 70
    32
  0
VERTEX
  8
M38LXLIFT
 62
8
 10
3947.728
 20
-5242.773
 30
1468.000
 70
    32
  0
VERTEX
  8
M38LXLIFT
 62
8
 10
3945.197
 20
-5236.664
 30
1468.000
 70
    32
  0
VERTEX
  8
M38LXLIFT
 62
8
 10
3937.951
 20
-5226.819
 30
1468.000
 70
    32
  0
VERTEX
  8
M38LXLIFT
 62
8
 10
3926.196
 20
-5211.885
 30
1468.000
 70
    32
  0
VERTEX
  8
M38LXLIFT
 62
8
 10
3918.853
 20
-5203.094
 30
1468.000
 70
    32
  0
SEQEND
  8
M38LXLIFT
  0
POLYLINE
  8
M38LXLIFT
 62
2
 66
     1
 70
     9
  0
VERTEX
  8
M38LXLIFT
 62
2
 10
3808.661
 20
-5422.213
 30
1467.000
 70
    32
  0
VERTEX
  8
M38LXLIFT
 62
2
 10
3795.357
 20
-5411.258
 30
1467.000
 70
    32
  0
VERTEX
  8
M38LXLIFT
 62
2
 10
3786.946
 20
-5405.764
 30
1467.000
 70
    32
  0
VERTEX
  8
M38LXLIFT
 62
2
 10
3780.736
 20
-5396.139
 30
1467.000
 70
    32
  0
VERTEX
  8
M38LXLIFT
 62
2
 10
3775.130
 20
-5377.989
 30
1467.000
 70
    32
  0
VERTEX
  8
M38LXLIFT
 62
2
 10
3773.592
 20
-5363.288
 30
1467.000
 70
    32
  0
VERTEX
  8
M38LXLIFT
 62
2
 10
3773.926
 20
-5345.789
 30
1467.000
 70
    32
  0
VERTEX
  8
M38LXLIFT
 62
2
 10
3769.098
 20
-5317.567
 30
1467.000
 70
    32
  0
VERTEX
  8
M38LXLIFT
 62
2
 10
3769.178
 20
-5308.773
 30
1467.000
 70
    32
  0
VERTEX
  8
M38LXLIFT
 62
2
 10
3772.716
 20
-5304.531
 30
1467.000
 70
    32
  0
VERTEX
  8
M38LXLIFT
 62
2
 10
3768.478
 20
-5286.903
 30
1467.000
 70
    32
  0
VERTEX
  8
M38LXLIFT
 62
2
 10
3765.772
 20
-5274.917
 30
1467.000
 70
    32
  0
VERTEX
  8
M38LXLIFT
 62
2
 10
3777.768
 20
-5267.181
 30
1467.000
 70
    32
  0
VERTEX
  8
M38LXLIFT
 62
2
 10
3781.695
 20
-5268.659
 30
1467.000
 70
    32
  0
VERTEX
  8
M38LXLIFT
 62
2
 10
3789.318
 20
-5283.468
 30
1467.000
 70
    32
  0
VERTEX
  8
M38LXLIFT
 62
2
 10
3790.687
 20
-5293.489
 30
1467.000
 70
    32
  0
VERTEX
  8
M38LXLIFT
 62
2
 10
3794.205
 20
-5293.520
 30
1467.000
 70
    32
  0
VERTEX
  8
M38LXLIFT
 62
2
 10
3818.248
 20
-5324.854
 30
1467.000
 70
    32
  0
VERTEX
  8
M38LXLIFT
 62
2
 10
3817.943
 20
-5329.336
 30
1467.000
 70
    32
  0
VERTEX
  8
M38LXLIFT
 62
2
 10
3825.823
 20
-5344.939
 30
1467.000
 70
    32
  0
VERTEX
  8
M38LXLIFT
 62
2
 10
3832.923
 20
-5363.191
 30
1467.000
 70
    32
  0
VERTEX
  8
M38LXLIFT
 62
2
 10
3836.151
 20
-5373.809
 30
1467.000
 70
    32
  0
VERTEX
  8
M38LXLIFT
 62
2
 10
3832.377
 20
-5392.420
 30
1467.000
 70
    32
  0
VERTEX
  8
M38LXLIFT
 62
2
 10
3827.860
 20
-5407.647
 30
1467.000
 70
    32
  0
VERTEX
  8
M38LXLIFT
 62
2
 10
3822.819
 20
-5412.667
 30
1467.000
 70
    32
  0
SEQEND
  8
M38LXLIFT
  0
POLYLINE
  8
M38LXLIFT
 62
8
 66
     1
 70
     9
  0
VERTEX
  8
M38LXLIFT
 62
8
 10
3718.144
 20
-5286.166
 30
1467.000
 70
    32
  0
VERTEX
  8
M38LXLIFT
 62
8
 10
3727.012
 20
-5299.403
 30
1467.000
 70
    32
  0
VERTEX
  8
M38LXLIFT
 62
8
 10
3733.116
 20
-5318.825
 30
1467.000
 70
    32
  0
VERTEX
  8
M38LXLIFT
 62
8
 10
3738.730
 20
-5322.446
 30
1467.000
 70
    32
  0
VERTEX
  8
M38LXLIFT
 62
8
 10
3746.030
 20
-5328.211
 30
1467.000
 70
    32
  0
VERTEX
  8
M38LXLIFT
 62
8
 10
3758.968
 20
-5354.396
 30
1467.000
 70
    32
  0
VERTEX
  8
M38LXLIFT
 62
8
 10
3765.989
 20
-5373.579
 30
1467.000
 70
    32
  0
VERTEX
  8
M38LXLIFT
 62
8
 10
3763.983
 20
-5375.601
 30
1467.000
 70
    32
  0
VERTEX
  8
M38LXLIFT
 62
8
 10
3749.336
 20
-5353.623
 30
1467.000
 70
    32
  0
VERTEX
  8
M38LXLIFT
 62
8
 10
3746.481
 20
-5354.195
 30
1467.000
 70
    32
  0
VERTEX
  8
M38LXLIFT
 62
8
 10
3741.041
 20
-5341.165
 30
1467.000
 70
    32
  0
VERTEX
  8
M38LXLIFT
 62
8
 10
3731.858
 20
-5343.228
 30
1467.000
 70
    32
  0
VERTEX
  8
M38LXLIFT
 62
8
 10
3726.180
 20
-5335.067
 30
1467.000
 70
    32
  0
VERTEX
  8
M38LXLIFT
 62
8
 10
3726.310
 20
-5322.633
 30
1467.000
 70
    32
  0
VERTEX
  8
M38LXLIFT
 62
8
 10
3723.179
 20
-5310.960
 30
1467.000
 70
    32
  0
VERTEX
  8
M38LXLIFT
 62
8
 10
3713.281
 20
-5306.561
 30
1467.000
 70
    32
  0
VERTEX
  8
M38LXLIFT
 62
8
 10
3705.552
 20
-5293.686
 30
1467.000
 70
    32
  0
SEQEND
  8
M38LXLIFT
  0
POLYLINE
  8
M38LXLIFT
 62
3
 66
     1
 70
     9
  0
VERTEX
  8
M38LXLIFT
 62
3
 10
4233.442
 20
-5400.879
 30
1481.000
 70
    32
  0
VERTEX
  8
M38LXLIFT
 62
3
 10
4223.150
 20
-5383.751
 30
1481.000
 70
    32
  0
VERTEX
  8
M38LXLIFT
 62
3
 10
4211.198
 20
-5373.799
 30
1481.000
 70
    32
  0
VERTEX
  8
M38LXLIFT
 62
3
 10
4198.872
 20
-5367.313
 30
1481.000
 70
    32
  0
VERTEX
  8
M38LXLIFT
 62
3
 10
4197.035
 20
-5357.372
 30
1481.000
 70
    32
  0
VERTEX
  8
M38LXLIFT
 62
3
 10
4192.387
 20
-5360.850
 30
1481.000
 70
    32
  0
VERTEX
  8
M38LXLIFT
 62
3
 10
4190.003
 20
-5370.435
 30
1481.000
 70
    32
  0
VERTEX
  8
M38LXLIFT
 62
3
 10
4184.271
 20
-5384.943
 30
1481.000
 70
    32
  0
VERTEX
  8
M38LXLIFT
 62
3
 10
4183.667
 20
-5390.009
 30
1481.000
 70
    32
  0
VERTEX
  8
M38LXLIFT
 62
3
 10
4190.801
 20
-5398.073
 30
1481.000
 70
    32
  0
VERTEX
  8
M38LXLIFT
 62
3
 10
4202.276
 20
-5393.880
 30
1481.000
 70
    32
  0
VERTEX
  8
M38LXLIFT
 62
3
 10
4211.966
 20
-5396.846
 30
1481.000
 70
    32
  0
VERTEX
  8
M38LXLIFT
 62
3
 10
4218.957
 20
-5407.214
 30
1481.000
 70
    32
  0
SEQEND
  8
M38LXLIFT
  0
POLYLINE
  8
M38LXLIFT
 62
8
 66
     1
 70
     9
  0
VERTEX
  8
M38LXLIFT
 62
8
 10
4197.307
 20
-5298.280
 30
1480.000
 70
    32
  0
VERTEX
  8
M38LXLIFT
 62
8
 10
4186.248
 20
-5308.754
 30
1480.000
 70
    32
  0
VERTEX
  8
M38LXLIFT
 62
8
 10
4173.308
 20
-5318.328
 30
1480.000
 70
    32
  0
VERTEX
  8
M38LXLIFT
 62
8
 10
4162.955
 20
-5326.955
 30
1480.000
 70
    32
  0
VERTEX
  8
M38LXLIFT
 62
8
 10
4145.651
 20
-5338.038
 30
1480.000
 70
    32
  0
VERTEX
  8
M38LXLIFT
 62
8
 10
4127.697
 20
-5348.399
 30
1480.000
 70
    32
  0
VERTEX
  8
M38LXLIFT
 62
8
 10
4107.740
 20
-5355.205
 30
1480.000
 70
    32
  0
VERTEX
  8
M38LXLIFT
 62
8
 10
4101.803
 20
-5347.124
 30
1480.000
 70
    32
  0
VERTEX
  8
M38LXLIFT
 62
8
 10
4092.021
 20
-5330.384
 30
1480.000
 70
    32
  0
VERTEX
  8
M38LXLIFT
 62
8
 10
4085.652
 20
-5313.946
 30
1480.000
 70
    32
  0
VERTEX
  8
M38LXLIFT
 62
8
 10
4092.011
 20
-5305.561
 30
1480.000
 70
    32
  0
VERTEX
  8
M38LXLIFT
 62
8
 10
4103.313
 20
-5298.202
 30
1480.000
 70
    32
  0
VERTEX
  8
M38LXLIFT
 62
8
 10
4114.786
 20
-5294.889
 30
1480.000
 70
    32
  0
VERTEX
  8
M38LXLIFT
 62
8
 10
4120.057
 20
-5301.051
 30
1480.000
 70
    32
  0
VERTEX
  8
M38LXLIFT
 62
8
 10
4132.498
 20
-5298.443
 30
1480.000
 70
    32
  0
VERTEX
  8
M38LXLIFT
 62
8
 10
4143.006
 20
-5292.666
 30
1480.000
 70
    32
  0
VERTEX
  8
M38LXLIFT
 62
8
 10
4149.063
 20
-5286.814
 30
1480.000
 70
    32
  0
VERTEX
  8
M38LXLIFT
 62
8
 10
4156.107
 20
-5280.664
 30
1480.000
 70
    32
  0
VERTEX
  8
M38LXLIFT
 62
8
 10
4157.713
 20
-5275.617
 30
1480.000
 70
    32
  0
VERTEX
  8
M38LXLIFT
 62
8
 10
4159.676
 20
-5265.028
 30
1480.000
 70
    32
  0
VERTEX
  8
M38LXLIFT
 62
8
 10
4166.139
 20
-5258.104
 30
1480.000
 70
    32
  0
VERTEX
  8
M38LXLIFT
 62
8
 10
4176.063
 20
-5256.829
 30
1480.000
 70
    32
  0
VERTEX
  8
M38LXLIFT
 62
8
 10
4184.536
 20
-5263.013
 30
1480.000
 70
    32
  0
VERTEX
  8
M38LXLIFT
 62
8
 10
4198.649
 20
-5275.412
 30
1480.000
 70
    32
  0
VERTEX
  8
M38LXLIFT
 62
8
 10
4202.715
 20
-5290.827
 30
1480.000
 70
    32
  0
SEQEND
  8
M38LXLIFT
  0
POLYLINE
  8
M38LXLIFT
 62
13
 66
     1
 70
     9
  0
VERTEX
  8
M38LXLIFT
 62
13
 10
4073.711
 20
-5534.045
 30
1476.000
 70
    32
  0
VERTEX
  8
M38LXLIFT
 62
13
 10
4066.484
 20
-5513.526
 30
1476.000
 70
    32
  0
VERTEX
  8
M38LXLIFT
 62
13
 10
4059.392
 20
-5499.058
 30
1476.000
 70
    32
  0
VERTEX
  8
M38LXLIFT
 62
13
 10
4059.879
 20
-5486.937
 30
1476.000
 70
    32
  0
VERTEX
  8
M38LXLIFT
 62
13
 10
4048.092
 20
-5470.160
 30
1476.000
 70
    32
  0
VERTEX
  8
M38LXLIFT
 62
13
 10
4042.360
 20
-5466.759
 30
1476.000
 70
    32
  0
VERTEX
  8
M38LXLIFT
 62
13
 10
4039.501
 20
-5476.150
 30
1476.000
 70
    32
  0
VERTEX
  8
M38LXLIFT
 62
13
 10
4038.961
 20
-5487.761
 30
1476.000
 70
    32
  0
VERTEX
  8
M38LXLIFT
 62
13
 10
4047.934
 20
-5504.447
 30
1476.000
 70
    32
  0
VERTEX
  8
M38LXLIFT
 62
13
 10
4056.926
 20
-5519.251
 30
1476.000
 70
    32
  0
VERTEX
  8
M38LXLIFT
 62
13
 10
4063.331
 20
-5535.002
 30
1476.000
 70
    32
  0
SEQEND
  8
M38LXLIFT
  0
POLYLINE
  8
M38LXLIFT
 62
8
 66
     1
 70
     9
  0
VERTEX
  8
M38LXLIFT
 62
8
 10
3918.273
 20
-5184.545
 30
1478.000
 70
    32
  0
VERTEX
  8
M38LXLIFT
 62
8
 10
3930.729
 20
-5201.041
 30
1478.000
 70
    32
  0
VERTEX
  8
M38LXLIFT
 62
8
 10
3936.139
 20
-5208.418
 30
1478.000
 70
    32
  0
VERTEX
  8
M38LXLIFT
 62
8
 10
3944.518
 20
-5221.374
 30
1478.000
 70
    32
  0
VERTEX
  8
M38LXLIFT
 62
8
 10
3956.573
 20
-5233.665
 30
1478.000
 70
    32
  0
VERTEX
  8
M38LXLIFT
 62
8
 10
3958.924
 20
-5240.036
 30
1478.000
 70
    32
  0
VERTEX
  8
M38LXLIFT
 62
8
 10
3960.907
 20
-5244.595
 30
1478.000
 70
    32
  0
VERTEX
  8
M38LXLIFT
 62
8
 10
3955.183
 20
-5251.186
 30
1478.000
 70
    32
  0
VERTEX
  8
M38LXLIFT
 62
8
 10
3953.361
 20
-5260.789
 30
1478.000
 70
    32
  0
VERTEX
  8
M38LXLIFT
 62
8
 10
3947.519
 20
-5262.525
 30
1478.000
 70
    32
  0
VERTEX
  8
M38LXLIFT
 62
8
 10
3940.580
 20
-5253.106
 30
1478.000
 70
    32
  0
VERTEX
  8
M38LXLIFT
 62
8
 10
3933.267
 20
-5247.592
 30
1478.000
 70
    32
  0
VERTEX
  8
M38LXLIFT
 62
8
 10
3932.588
 20
-5240.519
 30
1478.000
 70
    32
  0
VERTEX
  8
M38LXLIFT
 62
8
 10
3939.545
 20
-5233.226
 30
1478.000
 70
    32
  0
VERTEX
  8
M38LXLIFT
 62
8
 10
3935.350
 20
-5223.951
 30
1478.000
 70
    32
  0
VERTEX
  8
M38LXLIFT
 62
8
 10
3931.487
 20
-5216.734
 30
1478.000
 70
    32
  0
VERTEX
  8
M38LXLIFT
 62
8
 10
3924.070
 20
-5210.200
 30
1478.000
 70
    32
  0
VERTEX
  8
M38LXLIFT
 62
8
 10
3917.269
 20
-5202.875
 30
1478.000
 70
    32
  0
VERTEX
  8
M38LXLIFT
 62
8
 10
3908.644
 20
-5189.883
 30
1478.000
 70
    32
  0
SEQEND
  8
M38LXLIFT
  0
POLYLINE
  8
M38LXLIFT
 62
11
 66
     1
 70
     9
  0
VERTEX
  8
M38LXLIFT
 62
11
 10
3958.218
 20
-5363.285
 30
1480.000
 70
    32
  0
VERTEX
  8
M38LXLIFT
 62
11
 10
3957.580
 20
-5350.689
 30
1480.000
 70
    32
  0
VERTEX
  8
M38LXLIFT
 62
11
 10
3959.597
 20
-5339.291
 30
1480.000
 70
    32
  0
VERTEX
  8
M38LXLIFT
 62
11
 10
3953.751
 20
-5327.516
 30
1480.000
 70
    32
  0
VERTEX
  8
M38LXLIFT
 62
11
 10
3945.371
 20
-5315.879
 30
1480.000
 70
    32
  0
VERTEX
  8
M38LXLIFT
 62
11
 10
3934.986
 20
-5304.205
 30
1480.000
 70
    32
  0
VERTEX
  8
M38LXLIFT
 62
11
 10
3934.468
 20
-5295.145
 30
1480.000
 70
    32
  0
VERTEX
  8
M38LXLIFT
 62
11
 10
3936.363
 20
-5282.410
 30
1480.000
 70
    32
  0
VERTEX
  8
M38LXLIFT
 62
11
 10
3931.325
 20
-5271.568
 30
1480.000
 70
    32
  0
VERTEX
  8
M38LXLIFT
 62
11
 10
3920.790
 20
-5268.795
 30
1480.000
 70
    32
  0
VERTEX
  8
M38LXLIFT
 62
11
 10
3914.879
 20
-5269.704
 30
1480.000
 70
    32
  0
VERTEX
  8
M38LXLIFT
 62
11
 10
3902.023
 20
-5266.032
 30
1480.000
 70
    32
  0
VERTEX
  8
M38LXLIFT
 62
11
 10
3892.719
 20
-5263.436
 30
1480.000
 70
    32
  0
VERTEX
  8
M38LXLIFT
 62
11
 10
3887.942
 20
-5255.585
 30
1480.000
 70
    32
  0
VERTEX
  8
M38LXLIFT
 62
11
 10
3887.545
 20
-5248.302
 30
1480.000
 70
    32
  0
VERTEX
  8
M38LXLIFT
 62
11
 10
3880.941
 20
-5237.863
 30
1480.000
 70
    32
  0
VERTEX
  8
M38LXLIFT
 62
11
 10
3875.657
 20
-5226.986
 30
1480.000
 70
    32
  0
VERTEX
  8
M38LXLIFT
 62
11
 10
3868.672
 20
-5227.489
 30
1480.000
 70
    32
  0
VERTEX
  8
M38LXLIFT
 62
11
 10
3857.548
 20
-5233.617
 30
1480.000
 70
    32
  0
VERTEX
  8
M38LXLIFT
 62
11
 10
3854.552
 20
-5238.716
 30
1480.000
 70
    32
  0
VERTEX
  8
M38LXLIFT
 62
11
 10
3863.668
 20
-5253.098
 30
1480.000
 70
    32
  0
VERTEX
  8
M38LXLIFT
 62
11
 10
3876.373
 20
-5266.111
 30
1480.000
 70
    32
  0
VERTEX
  8
M38LXLIFT
 62
11
 10
3883.253
 20
-5264.588
 30
1480.000
 70
    32
  0
VERTEX
  8
M38LXLIFT
 62
11
 10
3891.143
 20
-5273.955
 30
1480.000
 70
    32
  0
VERTEX
  8
M38LXLIFT
 62
11
 10
3899.115
 20
-5287.984
 30
1480.000
 70
    32
  0
VERTEX
  8
M38LXLIFT
 62
11
 10
3909.927
 20
-5295.383
 30
1480.000
 70
    32
  0
VERTEX
  8
M38LXLIFT
 62
11
 10
3918.835
 20
-5305.965
 30
1480.000
 70
    32
  0
VERTEX
  8
M38LXLIFT
 62
11
 10
3917.880
 20
-5327.884
 30
1480.000
 70
    32
  0
VERTEX
  8
M38LXLIFT
 62
11
 10
3912.315
 20
-5333.807
 30
1480.000
 70
    32
  0
VERTEX
  8
M38LXLIFT
 62
11
 10
3905.385
 20
-5333.061
 30
1480.000
 70
    32
  0
VERTEX
  8
M38LXLIFT
 62
11
 10
3899.257
 20
-5338.526
 30
1480.000
 70
    32
  0
VERTEX
  8
M38LXLIFT
 62
11
 10
3902.362
 20
-5347.079
 30
1480.000
 70
    32
  0
VERTEX
  8
M38LXLIFT
 62
11
 10
3906.529
 20
-5349.563
 30
1480.000
 70
    32
  0
VERTEX
  8
M38LXLIFT
 62
11
 10
3914.276
 20
-5342.886
 30
1480.000
 70
    32
  0
VERTEX
  8
M38LXLIFT
 62
11
 10
3921.561
 20
-5340.730
 30
1480.000
 70
    32
  0
VERTEX
  8
M38LXLIFT
 62
11
 10
3930.173
 20
-5349.447
 30
1480.000
 70
    32
  0
VERTEX
  8
M38LXLIFT
 62
11
 10
3936.797
 20
-5357.563
 30
1480.000
 70
    32
  0
VERTEX
  8
M38LXLIFT
 62
11
 10
3946.624
 20
-5363.502
 30
1480.000
 70
    32
  0
VERTEX
  8
M38LXLIFT
 62
11
 10
3952.603
 20
-5366.059
 30
1480.000
 70
    32
  0
SEQEND
  8
M38LXLIFT
  0
POLYLINE
  8
M38LXLIFT
 62
6
 66
     1
 70
     9
  0
VERTEX
  8
M38LXLIFT
 62
6
 10
3760.967
 20
-5234.486
 30
1475.000
 70
    32
  0
VERTEX
  8
M38LXLIFT
 62
6
 10
3769.380
 20
-5230.607
 30
1475.000
 70
    32
  0
VERTEX
  8
M38LXLIFT
 62
6
 10
3770.070
 20
-5226.685
 30
1475.000
 70
    32
  0
VERTEX
  8
M38LXLIFT
 62
6
 10
3767.914
 20
-5218.520
 30
1475.000
 70
    32
  0
VERTEX
  8
M38LXLIFT
 62
6
 10
3769.208
 20
-5209.092
 30
1475.000
 70
    32
  0
VERTEX
  8
M38LXLIFT
 62
6
 10
3775.089
 20
-5204.031
 30
1475.000
 70
    32
  0
VERTEX
  8
M38LXLIFT
 62
6
 10
3787.632
 20
-5203.763
 30
1475.000
 70
    32
  0
VERTEX
  8
M38LXLIFT
 62
6
 10
3798.239
 20
-5205.163
 30
1475.000
 70
    32
  0
VERTEX
  8
M38LXLIFT
 62
6
 10
3804.203
 20
-5204.765
 30
1475.000
 70
    32
  0
VERTEX
  8
M38LXLIFT
 62
6
 10
3804.072
 20
-5195.634
 30
1475.000
 70
    32
  0
VERTEX
  8
M38LXLIFT
 62
6
 10
3797.082
 20
-5183.946
 30
1475.000
 70
    32
  0
VERTEX
  8
M38LXLIFT
 62
6
 10
3789.580
 20
-5174.509
 30
1475.000
 70
    32
  0
VERTEX
  8
M38LXLIFT
 62
6
 10
3778.151
 20
-5168.340
 30
1475.000
 70
    32
  0
VERTEX
  8
M38LXLIFT
 62
6
 10
3767.146
 20
-5161.415
 30
1475.000
 70
    32
  0
VERTEX
  8
M38LXLIFT
 62
6
 10
3758.620
 20
-5155.601
 30
1475.000
 70
    32
  0
VERTEX
  8
M38LXLIFT
 62
6
 10
3748.437
 20
-5152.565
 30
1475.000
 70
    32
  0
VERTEX
  8
M38LXLIFT
 62
6
 10
3743.491
 20
-5155.058
 30
1475.000
 70
    32
  0
VERTEX
  8
M38LXLIFT
 62
6
 10
3735.616
 20
-5149.086
 30
1475.000
 70
    32
  0
VERTEX
  8
M38LXLIFT
 62
6
 10
3732.093
 20
-5153.921
 30
1475.000
 70
    32
  0
VERTEX
  8
M38LXLIFT
 62
6
 10
3732.785
 20
-5164.828
 30
1475.000
 70
    32
  0
VERTEX
  8
M38LXLIFT
 62
6
 10
3732.354
 20
-5173.941
 30
1475.000
 70
    32
  0
VERTEX
  8
M38LXLIFT
 62
6
 10
3739.991
 20
-5188.990
 30
1475.000
 70
    32
  0
VERTEX
  8
M38LXLIFT
 62
6
 10
3749.651
 20
-5204.392
 30
1475.000
 70
    32
  0
VERTEX
  8
M38LXLIFT
 62
6
 10
3744.734
 20
-5213.236
 30
1475.000
 70
    32
  0
VERTEX
  8
M38LXLIFT
 62
6
 10
3755.939
 20
-5230.998
 30
1475.000
 70
    32
  0
SEQEND
  8
M38LXLIFT
  0
POLYLINE
  8
M38LXLIFT
 62
13
 66
     1
 70
     9
  0
VERTEX
  8
M38LXLIFT
 62
13
 10
3828.529
 20
-5156.675
 30
1475.000
 70
    32
  0
VERTEX
  8
M38LXLIFT
 62
13
 10
3820.545
 20
-5154.081
 30
1475.000
 70
    32
  0
VERTEX
  8
M38LXLIFT
 62
13
 10
3810.099
 20
-5150.253
 30
1475.000
 70
    32
  0
VERTEX
  8
M38LXLIFT
 62
13
 10
3799.471
 20
-5135.465
 30
1475.000
 70
    32
  0
VERTEX
  8
M38LXLIFT
 62
13
 10
3790.511
 20
-5123.933
 30
1475.000
 70
    32
  0
VERTEX
  8
M38LXLIFT
 62
13
 10
3797.625
 20
-5117.291
 30
1475.000
 70
    32
  0
VERTEX
  8
M38LXLIFT
 62
13
 10
3810.597
 20
-5110.548
 30
1475.000
 70
    32
  0
VERTEX
  8
M38LXLIFT
 62
13
 10
3820.945
 20
-5123.788
 30
1475.000
 70
    32
  0
VERTEX
  8
M38LXLIFT
 62
13
 10
3816.736
 20
-5128.147
 30
1475.000
 70
    32
  0
VERTEX
  8
M38LXLIFT
 62
13
 10
3822.132
 20
-5133.008
 30
1475.000
 70
    32
  0
VERTEX
  8
M38LXLIFT
 62
13
 10
3832.241
 20
-5139.615
 30
1475.000
 70
    32
  0
VERTEX
  8
M38LXLIFT
 62
13
 10
3838.953
 20
-5147.996
 30
1475.000
 70
    32
  0
SEQEND
  8
M38LXLIFT
  0
POLYLINE
  8
M38LXLIFT
 62
11
 66
     1
 70
     9
  0
VERTEX
  8
M38LXLIFT
 62
11
 10
4216.654
 20
-5298.656
 30
1488.000
 70
    32
  0
VERTEX
  8
M38LXLIFT
 62
11
 10
4222.900
 20
-5291.827
 30
1488.000
 70
    32
  0
VERTEX
  8
M38LXLIFT
 62
11
 10
4222.466
 20
-5285.770
 30
1488.000
 70
    32
  0
VERTEX
  8
M38LXLIFT
 62
11
 10
4220.359
 20
-5276.157
 30
1488.000
 70
    32
  0
VERTEX
  8
M38LXLIFT
 62
11
 10
4226.247
 20
-5270.339
 30
1488.000
 70
    32
  0
VERTEX
  8
M38LXLIFT
 62
11
 10
4232.602
 20
-5266.994
 30
1488.000
 70
    32
  0
VERTEX
  8
M38LXLIFT
 62
11
 10
4236.747
 20
-5270.837
 30
1488.000
 70
    32
  0
VERTEX
  8
M38LXLIFT
 62
11
 10
4235.834
 20
-5275.913
 30
1488.000
 70
    32
  0
VERTEX
  8
M38LXLIFT
 62
11
 10
4233.814
 20
-5286.095
 30
1488.000
 70
    32
  0
VERTEX
  8
M38LXLIFT
 62
11
 10
4235.490
 20
-5297.526
 30
1488.000
 70
    32
  0
VERTEX
  8
M38LXLIFT
 62
11
 10
4228.081
 20
-5302.270
 30
1488.000
 70
    32
  0
VERTEX
  8
M38LXLIFT
 62
11
 10
4220.368
 20
-5304.318
 30
1488.000
 70
    32
  0
SEQEND
  8
M38LXLIFT
  0
POLYLINE
  8
M38LXLIFT
 62
13
 66
     1
 70
     9
  0
VERTEX
  8
M38LXLIFT
 62
13
 10
4046.126
 20
-5475.847
 30
1486.000
 70
    32
  0
VERTEX
  8
M38LXLIFT
 62
13
 10
4047.259
 20
-5489.392
 30
1486.000
 70
    32
  0
VERTEX
  8
M38LXLIFT
 62
13
 10
4055.605
 20
-5502.759
 30
1486.000
 70
    32
  0
VERTEX
  8
M38LXLIFT
 62
13
 10
4063.569
 20
-5519.527
 30
1486.000
 70
    32
  0
VERTEX
  8
M38LXLIFT
 62
13
 10
4067.598
 20
-5526.690
 30
1486.000
 70
    32
  0
VERTEX
  8
M38LXLIFT
 62
13
 10
4062.142
 20
-5529.178
 30
1486.000
 70
    32
  0
VERTEX
  8
M38LXLIFT
 62
13
 10
4053.678
 20
-5525.178
 30
1486.000
 70
    32
  0
VERTEX
  8
M38LXLIFT
 62
13
 10
4051.001
 20
-5512.194
 30
1486.000
 70
    32
  0
VERTEX
  8
M38LXLIFT
 62
13
 10
4041.407
 20
-5502.524
 30
1486.000
 70
    32
  0
VERTEX
  8
M38LXLIFT
 62
13
 10
4034.439
 20
-5491.089
 30
1486.000
 70
    32
  0
VERTEX
  8
M38LXLIFT
 62
13
 10
4033.417
 20
-5478.759
 30
1486.000
 70
    32
  0
VERTEX
  8
M38LXLIFT
 62
13
 10
4040.318
 20
-5470.276
 30
1486.000
 70
    32
  0
SEQEND
  8
M38LXLIFT
  0
POLYLINE
  8
M38LXLIFT
 62
11
 66
     1
 70
     9
  0
VERTEX
  8
M38LXLIFT
 62
11
 10
3866.982
 20
-5212.387
 30
1491.000
 70
    32
  0
VERTEX
  8
M38LXLIFT
 62
11
 10
3872.373
 20
-5214.802
 30
1491.000
 70
    32
  0
VERTEX
  8
M38LXLIFT
 62
11
 10
3882.352
 20
-5229.702
 30
1491.000
 70
    32
  0
VERTEX
  8
M38LXLIFT
 62
11
 10
3899.383
 20
-5251.768
 30
1491.000
 70
    32
  0
VERTEX
  8
M38LXLIFT
 62
11
 10
3903.401
 20
-5259.370
 30
1491.000
 70
    32
  0
VERTEX
  8
M38LXLIFT
 62
11
 10
3903.358
 20
-5263.395
 30
1491.000
 70
    32
  0
VERTEX
  8
M38LXLIFT
 62
11
 10
3909.541
 20
-5258.445
 30
1491.000
 70
    32
  0
VERTEX
  8
M38LXLIFT
 62
11
 10
3913.876
 20
-5266.794
 30
1491.000
 70
    32
  0
VERTEX
  8
M38LXLIFT
 62
11
 10
3919.756
 20
-5271.558
 30
1491.000
 70
    32
  0
VERTEX
  8
M38LXLIFT
 62
11
 10
3927.673
 20
-5269.041
 30
1491.000
 70
    32
  0
VERTEX
  8
M38LXLIFT
 62
11
 10
3932.626
 20
-5283.855
 30
1491.000
 70
    32
  0
VERTEX
  8
M38LXLIFT
 62
11
 10
3927.260
 20
-5289.193
 30
1491.000
 70
    32
  0
VERTEX
  8
M38LXLIFT
 62
11
 10
3928.549
 20
-5299.930
 30
1491.000
 70
    32
  0
VERTEX
  8
M38LXLIFT
 62
11
 10
3943.574
 20
-5313.281
 30
1491.000
 70
    32
  0
VERTEX
  8
M38LXLIFT
 62
11
 10
3949.574
 20
-5321.845
 30
1491.000
 70
    32
  0
VERTEX
  8
M38LXLIFT
 62
11
 10
3949.781
 20
-5331.518
 30
1491.000
 70
    32
  0
VERTEX
  8
M38LXLIFT
 62
11
 10
3946.282
 20
-5339.626
 30
1491.000
 70
    32
  0
VERTEX
  8
M38LXLIFT
 62
11
 10
3935.188
 20
-5340.414
 30
1491.000
 70
    32
  0
VERTEX
  8
M38LXLIFT
 62
11
 10
3929.432
 20
-5334.914
 30
1491.000
 70
    32
  0
VERTEX
  8
M38LXLIFT
 62
11
 10
3923.742
 20
-5321.488
 30
1491.000
 70
    32
  0
VERTEX
  8
M38LXLIFT
 62
11
 10
3915.817
 20
-5305.987
 30
1491.000
 70
    32
  0
VERTEX
  8
M38LXLIFT
 62
11
 10
3897.321
 20
-5317.127
 30
1491.000
 70
    32
  0
VERTEX
  8
M38LXLIFT
 62
11
 10
3902.221
 20
-5334.138
 30
1491.000
 70
    32
  0
VERTEX
  8
M38LXLIFT
 62
11
 10
3905.444
 20
-5340.473
 30
1491.000
 70
    32
  0
VERTEX
  8
M38LXLIFT
 62
11
 10
3900.427
 20
-5343.728
 30
1491.000
 70
    32
  0
VERTEX
  8
M38LXLIFT
 62
11
 10
3893.109
 20
-5335.132
 30
1491.000
 70
    32
  0
VERTEX
  8
M38LXLIFT
 62
11
 10
3887.501
 20
-5322.728
 30
1491.000
 70
    32
  0
VERTEX
  8
M38LXLIFT
 62
11
 10
3882.505
 20
-5310.426
 30
1491.000
 70
    32
  0
VERTEX
  8
M38LXLIFT
 62
11
 10
3874.901
 20
-5303.546
 30
1491.000
 70
    32
  0
VERTEX
  8
M38LXLIFT
 62
11
 10
3872.941
 20
-5288.540
 30
1491.000
 70
    32
  0
VERTEX
  8
M38LXLIFT
 62
11
 10
3881.403
 20
-5282.397
 30
1491.000
 70
    32
  0
VERTEX
  8
M38LXLIFT
 62
11
 10
3895.188
 20
-5287.351
 30
1491.000
 70
    32
  0
VERTEX
  8
M38LXLIFT
 62
11
 10
3903.239
 20
-5284.415
 30
1491.000
 70
    32
  0
VERTEX
  8
M38LXLIFT
 62
11
 10
3900.499
 20
-5274.822
 30
1491.000
 70
    32
  0
VERTEX
  8
M38LXLIFT
 62
11
 10
3894.632
 20
-5266.595
 30
1491.000
 70
    32
  0
VERTEX
  8
M38LXLIFT
 62
11
 10
3882.614
 20
-5274.410
 30
1491.000
 70
    32
  0
VERTEX
  8
M38LXLIFT
 62
11
 10
3873.376
 20
-5280.675
 30
1491.000
 70
    32
  0
VERTEX
  8
M38LXLIFT
 62
11
 10
3866.793
 20
-5273.714
 30
1491.000
 70
    32
  0
VERTEX
  8
M38LXLIFT
 62
11
 10
3856.079
 20
-5259.447
 30
1491.000
 70
    32
  0
VERTEX
  8
M38LXLIFT
 62
11
 10
3843.008
 20
-5241.572
 30
1491.000
 70
    32
  0
VERTEX
  8
M38LXLIFT
 62
11
 10
3837.856
 20
-5232.079
 30
1491.000
 70
    32
  0
VERTEX
  8
M38LXLIFT
 62
11
 10
3849.383
 20
-5225.694
 30
1491.000
 70
    32
  0
SEQEND
  8
M38LXLIFT
  0
POLYLINE
  8
M38LXLIFT
 62
8
 66
     1
 70
     9
  0
VERTEX
  8
M38LXLIFT
 62
8
 10
3936.883
 20
-5233.226
 30
1489.000
 70
    32
  0
VERTEX
  8
M38LXLIFT
 62
8
 10
3939.358
 20
-5242.901
 30
1489.000
 70
    32
  0
VERTEX
  8
M38LXLIFT
 62
8
 10
3946.442
 20
-5249.505
 30
1489.000
 70
    32
  0
VERTEX
  8
M38LXLIFT
 62
8
 10
3954.133
 20
-5249.848
 30
1489.000
 70
    32
  0
VERTEX
  8
M38LXLIFT
 62
8
 10
3957.947
 20
-5243.998
 30
1489.000
 70
    32
  0
VERTEX
  8
M38LXLIFT
 62
8
 10
3949.244
 20
-5230.886
 30
1489.000
 70
    32
  0
VERTEX
  8
M38LXLIFT
 62
8
 10
3942.665
 20
-5218.635
 30
1489.000
 70
    32
  0
VERTEX
  8
M38LXLIFT
 62
8
 10
3933.911
 20
-5205.451
 30
1489.000
 70
    32
  0
VERTEX
  8
M38LXLIFT
 62
8
 10
3922.696
 20
-5191.541
 30
1489.000
 70
    32
  0
VERTEX
  8
M38LXLIFT
 62
8
 10
3913.225
 20
-5195.058
 30
1489.000
 70
    32
  0
VERTEX
  8
M38LXLIFT
 62
8
 10
3913.423
 20
-5202.903
 30
1489.000
 70
    32
  0
VERTEX
  8
M38LXLIFT
 62
8
 10
3920.853
 20
-5211.958
 30
1489.000
 70
    32
  0
SEQEND
  8
M38LXLIFT
  0
POLYLINE
  8
M38LXLIFT
 62
2
 66
     1
 70
     9
  0
VERTEX
  8
M38LXLIFT
 62
2
 10
3810.214
 20
-5356.907
 30
1490.000
 70
    32
  0
VERTEX
  8
M38LXLIFT
 62
2
 10
3816.185
 20
-5363.010
 30
1490.000
 70
    32
  0
VERTEX
  8
M38LXLIFT
 62
2
 10
3815.971
 20
-5376.329
 30
1490.000
 70
    32
  0
VERTEX
  8
M38LXLIFT
 62
2
 10
3819.123
 20
-5381.960
 30
1490.000
 70
    32
  0
VERTEX
  8
M38LXLIFT
 62
2
 10
3818.827
 20
-5395.013
 30
1490.000
 70
    32
  0
VERTEX
  8
M38LXLIFT
 62
2
 10
3819.575
 20
-5404.840
 30
1490.000
 70
    32
  0
VERTEX
  8
M38LXLIFT
 62
2
 10
3815.752
 20
-5408.862
 30
1490.000
 70
    32
  0
VERTEX
  8
M38LXLIFT
 62
2
 10
3803.212
 20
-5403.990
 30
1490.000
 70
    32
  0
VERTEX
  8
M38LXLIFT
 62
2
 10
3796.710
 20
-5398.051
 30
1490.000
 70
    32
  0
VERTEX
  8
M38LXLIFT
 62
2
 10
3794.224
 20
-5390.327
 30
1490.000
 70
    32
  0
VERTEX
  8
M38LXLIFT
 62
2
 10
3784.545
 20
-5384.926
 30
1490.000
 70
    32
  0
VERTEX
  8
M38LXLIFT
 62
2
 10
3784.552
 20
-5375.100
 30
1490.000
 70
    32
  0
VERTEX
  8
M38LXLIFT
 62
2
 10
3793.964
 20
-5368.928
 30
1490.000
 70
    32
  0
SEQEND
  8
M38LXLIFT
  0
POLYLINE
  8
M38LXLIFT
 62
8
 66
     1
 70
     9
  0
VERTEX
  8
M38LXLIFT
 62
8
 10
3741.242
 20
-5242.486
 30
1493.000
 70
    32
  0
VERTEX
  8
M38LXLIFT
 62
8
 10
3747.016
 20
-5251.642
 30
1493.000
 70
    32
  0
VERTEX
  8
M38LXLIFT
 62
8
 10
3757.116
 20
-5267.319
 30
1493.000
 70
    32
  0
VERTEX
  8
M38LXLIFT
 62
8
 10
3762.202
 20
-5282.470
 30
1493.000
 70
    32
  0
VERTEX
  8
M38LXLIFT
 62
8
 10
3766.367
 20
-5298.602
 30
1493.000
 70
    32
  0
VERTEX
  8
M38LXLIFT
 62
8
 10
3762.661
 20
-5310.958
 30
1493.000
 70
    32
  0
VERTEX
  8
M38LXLIFT
 62
8
 10
3762.112
 20
-5320.631
 30
1493.000
 70
    32
  0
VERTEX
  8
M38LXLIFT
 62
8
 10
3753.291
 20
-5327.784
 30
1493.000
 70
    32
  0
VERTEX
  8
M38LXLIFT
 62
8
 10
3743.054
 20
-5317.818
 30
1493.000
 70
    32
  0
VERTEX
  8
M38LXLIFT
 62
8
 10
3731.049
 20
-5308.248
 30
1493.000
 70
    32
  0
VERTEX
  8
M38LXLIFT
 62
8
 10
3721.669
 20
-5299.181
 30
1493.000
 70
    32
  0
VERTEX
  8
M38LXLIFT
 62
8
 10
3715.205
 20
-5283.609
 30
1493.000
 70
    32
  0
VERTEX
  8
M38LXLIFT
 62
8
 10
3711.016
 20
-5271.380
 30
1493.000
 70
    32
  0
VERTEX
  8
M38LXLIFT
 62
8
 10
3706.186
 20
-5269.752
 30
1493.000
 70
    32
  0
VERTEX
  8
M38LXLIFT
 62
8
 10
3695.837
 20
-5258.570
 30
1493.000
 70
    32
  0
VERTEX
  8
M38LXLIFT
 62
8
 10
3696.592
 20
-5273.248
 30
1493.000
 70
    32
  0
VERTEX
  8
M38LXLIFT
 62
8
 10
3710.827
 20
-5291.696
 30
1493.000
 70
    32
  0
VERTEX
  8
M38LXLIFT
 62
8
 10
3717.608
 20
-5307.257
 30
1493.000
 70
    32
  0
VERTEX
  8
M38LXLIFT
 62
8
 10
3731.637
 20
-5327.686
 30
1493.000
 70
    32
  0
VERTEX
  8
M38LXLIFT
 62
8
 10
3743.852
 20
-5343.150
 30
1493.000
 70
    32
  0
VERTEX
  8
M38LXLIFT
 62
8
 10
3755.716
 20
-5362.964
 30
1493.000
 70
    32
  0
VERTEX
  8
M38LXLIFT
 62
8
 10
3761.440
 20
-5372.049
 30
1493.000
 70
    32
  0
VERTEX
  8
M38LXLIFT
 62
8
 10
3767.599
 20
-5385.680
 30
1493.000
 70
    32
  0
VERTEX
  8
M38LXLIFT
 62
8
 10
3772.659
 20
-5380.668
 30
1493.000
 70
    32
  0
VERTEX
  8
M38LXLIFT
 62
8
 10
3773.126
 20
-5370.730
 30
1493.000
 70
    32
  0
VERTEX
  8
M38LXLIFT
 62
8
 10
3776.523
 20
-5362.479
 30
1493.000
 70
    32
  0
VERTEX
  8
M38LXLIFT
 62
8
 10
3771.487
 20
-5349.667
 30
1493.000
 70
    32
  0
VERTEX
  8
M38LXLIFT
 62
8
 10
3767.173
 20
-5341.196
 30
1493.000
 70
    32
  0
VERTEX
  8
M38LXLIFT
 62
8
 10
3774.032
 20
-5333.714
 30
1493.000
 70
    32
  0
VERTEX
  8
M38LXLIFT
 62
8
 10
3775.141
 20
-5326.340
 30
1493.000
 70
    32
  0
VERTEX
  8
M38LXLIFT
 62
8
 10
3784.728
 20
-5317.992
 30
1493.000
 70
    32
  0
VERTEX
  8
M38LXLIFT
 62
8
 10
3791.598
 20
-5310.827
 30
1493.000
 70
    32
  0
VERTEX
  8
M38LXLIFT
 62
8
 10
3782.975
 20
-5299.493
 30
1493.000
 70
    32
  0
VERTEX
  8
M38LXLIFT
 62
8
 10
3777.293
 20
-5290.163
 30
1493.000
 70
    32
  0
VERTEX
  8
M38LXLIFT
 62
8
 10
3772.000
 20
-5278.504
 30
1493.000
 70
    32
  0
VERTEX
  8
M38LXLIFT
 62
8
 10
3767.687
 20
-5268.522
 30
1493.000
 70
    32
  0
VERTEX
  8
M38LXLIFT
 62
8
 10
3759.474
 20
-5257.004
 30
1493.000
 70
    32
  0
VERTEX
  8
M38LXLIFT
 62
8
 10
3749.917
 20
-5238.458
 30
1493.000
 70
    32
  0
SEQEND
  8
M38LXLIFT
  0
POLYLINE
  8
M38LXLIFT
 62
6
 66
     1
 70
     9
  0
VERTEX
  8
M38LXLIFT
 62
6
 10
3773.969
 20
-5160.653
 30
1493.000
 70
    32
  0
VERTEX
  8
M38LXLIFT
 62
6
 10
3768.743
 20
-5168.913
 30
1493.000
 70
    32
  0
VERTEX
  8
M38LXLIFT
 62
6
 10
3760.187
 20
-5164.330
 30
1493.000
 70
    32
  0
VERTEX
  8
M38LXLIFT
 62
6
 10
3750.065
 20
-5163.454
 30
1493.000
 70
    32
  0
VERTEX
  8
M38LXLIFT
 62
6
 10
3739.289
 20
-5164.233
 30
1493.000
 70
    32
  0
VERTEX
  8
M38LXLIFT
 62
6
 10
3730.903
 20
-5163.522
 30
1493.000
 70
    32
  0
VERTEX
  8
M38LXLIFT
 62
6
 10
3721.147
 20
-5165.731
 30
1493.000
 70
    32
  0
VERTEX
  8
M38LXLIFT
 62
6
 10
3715.087
 20
-5169.945
 30
1493.000
 70
    32
  0
VERTEX
  8
M38LXLIFT
 62
6
 10
3705.075
 20
-5172.552
 30
1493.000
 70
    32
  0
VERTEX
  8
M38LXLIFT
 62
6
 10
3701.272
 20
-5162.529
 30
1493.000
 70
    32
  0
VERTEX
  8
M38LXLIFT
 62
6
 10
3696.286
 20
-5152.055
 30
1493.000
 70
    32
  0
VERTEX
  8
M38LXLIFT
 62
6
 10
3688.530
 20
-5141.937
 30
1493.000
 70
    32
  0
VERTEX
  8
M38LXLIFT
 62
6
 10
3680.885
 20
-5135.303
 30
1493.000
 70
    32
  0
VERTEX
  8
M38LXLIFT
 62
6
 10
3685.356
 20
-5124.775
 30
1493.000
 70
    32
  0
VERTEX
  8
M38LXLIFT
 62
6
 10
3690.706
 20
-5115.024
 30
1493.000
 70
    32
  0
VERTEX
  8
M38LXLIFT
 62
6
 10
3696.320
 20
-5106.704
 30
1493.000
 70
    32
  0
VERTEX
  8
M38LXLIFT
 62
6
 10
3706.859
 20
-5109.980
 30
1493.000
 70
    32
  0
VERTEX
  8
M38LXLIFT
 62
6
 10
3715.496
 20
-5115.584
 30
1493.000
 70
    32
  0
VERTEX
  8
M38LXLIFT
 62
6
 10
3724.466
 20
-5125.591
 30
1493.000
 70
    32
  0
VERTEX
  8
M38LXLIFT
 62
6
 10
3735.054
 20
-5131.207
 30
1493.000
 70
    32
  0
VERTEX
  8
M38LXLIFT
 62
6
 10
3744.780
 20
-5142.726
 30
1493.000
 70
    32
  0
VERTEX
  8
M38LXLIFT
 62
6
 10
3756.174
 20
-5149.169
 30
1493.000
 70
    32
  0
VERTEX
  8
M38LXLIFT
 62
6
 10
3768.191
 20
-5156.788
 30
1493.000
 70
    32
  0
SEQEND
  8
M38LXLIFT
  0
POLYLINE
  8
M38LXLIFT
 62
13
 66
     1
 70
     9
  0
VERTEX
  8
M38LXLIFT
 62
13
 10
3798.181
 20
-5141.336
 30
1491.000
 70
    32
  0
VERTEX
  8
M38LXLIFT
 62
13
 10
3793.923
 20
-5126.890
 30
1491.000
 70
    32
  0
VERTEX
  8
M38LXLIFT
 62
13
 10
3789.775
 20
-5114.415
 30
1491.000
 70
    32
  0
VERTEX
  8
M38LXLIFT
 62
13
 10
3798.552
 20
-5109.774
 30
1491.000
 70
    32
  0
VERTEX
  8
M38LXLIFT
 62
13
 10
3807.117
 20
-5116.185
 30
1491.000
 70
    32
  0
VERTEX
  8
M38LXLIFT
 62
13
 10
3812.726
 20
-5115.423
 30
1491.000
 70
    32
  0
VERTEX
  8
M38LXLIFT
 62
13
 10
3818.652
 20
-5112.384
 30
1491.000
 70
    32
  0
VERTEX
  8
M38LXLIFT
 62
13
 10
3820.992
 20
-5124.745
 30
1491.000
 70
    32
  0
SEQEND
  8
M38LXLIFT
  0
POLYLINE
  8
M38LXLIFT
 62
11
 66
     1
 70
     9
  0
VERTEX
  8
M38LXLIFT
 62
11
 10
4266.722
 20
-5360.709
 30
1503.000
 70
    32
  0
VERTEX
  8
M38LXLIFT
 62
11
 10
4275.999
 20
-5363.956
 30
1503.000
 70
    32
  0
VERTEX
  8
M38LXLIFT
 62
11
 10
4283.256
 20
-5360.221
 30
1503.000
 70
    32
  0
VERTEX
  8
M38LXLIFT
 62
11
 10
4284.644
 20
-5348.824
 30
1503.000
 70
    32
  0
VERTEX
  8
M38LXLIFT
 62
11
 10
4287.180
 20
-5340.061
 30
1503.000
 70
    32
  0
VERTEX
  8
M38LXLIFT
 62
11
 10
4276.480
 20
-5325.721
 30
1503.000
 70
    32
  0
VERTEX
  8
M38LXLIFT
 62
11
 10
4261.716
 20
-5317.135
 30
1503.000
 70
    32
  0
VERTEX
  8
M38LXLIFT
 62
11
 10
4245.993
 20
-5305.129
 30
1503.000
 70
    32
  0
VERTEX
  8
M38LXLIFT
 62
11
 10
4232.987
 20
-5310.642
 30
1503.000
 70
    32
  0
VERTEX
  8
M38LXLIFT
 62
11
 10
4226.294
 20
-5313.212
 30
1503.000
 70
    32
  0
VERTEX
  8
M38LXLIFT
 62
11
 10
4221.669
 20
-5308.764
 30
1503.000
 70
    32
  0
VERTEX
  8
M38LXLIFT
 62
11
 10
4224.468
 20
-5297.971
 30
1503.000
 70
    32
  0
VERTEX
  8
M38LXLIFT
 62
11
 10
4215.940
 20
-5283.790
 30
1503.000
 70
    32
  0
VERTEX
  8
M38LXLIFT
 62
11
 10
4208.312
 20
-5273.397
 30
1503.000
 70
    32
  0
VERTEX
  8
M38LXLIFT
 62
11
 10
4189.476
 20
-5287.459
 30
1503.000
 70
    32
  0
VERTEX
  8
M38LXLIFT
 62
11
 10
4178.590
 20
-5301.289
 30
1503.000
 70
    32
  0
VERTEX
  8
M38LXLIFT
 62
11
 10
4193.723
 20
-5311.881
 30
1503.000
 70
    32
  0
VERTEX
  8
M38LXLIFT
 62
11
 10
4209.199
 20
-5316.813
 30
1503.000
 70
    32
  0
VERTEX
  8
M38LXLIFT
 62
11
 10
4207.367
 20
-5327.447
 30
1503.000
 70
    32
  0
VERTEX
  8
M38LXLIFT
 62
11
 10
4211.699
 20
-5330.592
 30
1503.000
 70
    32
  0
VERTEX
  8
M38LXLIFT
 62
11
 10
4232.610
 20
-5335.704
 30
1503.000
 70
    32
  0
VERTEX
  8
M38LXLIFT
 62
11
 10
4249.452
 20
-5340.730
 30
1503.000
 70
    32
  0
VERTEX
  8
M38LXLIFT
 62
11
 10
4260.223
 20
-5349.932
 30
1503.000
 70
    32
  0
SEQEND
  8
M38LXLIFT
  0
POLYLINE
  8
M38LXLIFT
 62
13
 66
     1
 70
     9
  0
VERTEX
  8
M38LXLIFT
 62
13
 10
4033.591
 20
-5456.211
 30
1496.000
 70
    32
  0
VERTEX
  8
M38LXLIFT
 62
13
 10
4043.391
 20
-5474.992
 30
1496.000
 70
    32
  0
VERTEX
  8
M38LXLIFT
 62
13
 10
4047.855
 20
-5489.839
 30
1496.000
 70
    32
  0
VERTEX
  8
M38LXLIFT
 62
13
 10
4058.140
 20
-5502.857
 30
1496.000
 70
    32
  0
VERTEX
  8
M38LXLIFT
 62
13
 10
4066.278
 20
-5523.381
 30
1496.000
 70
    32
  0
VERTEX
  8
M38LXLIFT
 62
13
 10
4061.580
 20
-5525.265
 30
1496.000
 70
    32
  0
VERTEX
  8
M38LXLIFT
 62
13
 10
4047.275
 20
-5508.337
 30
1496.000
 70
    32
  0
VERTEX
  8
M38LXLIFT
 62
13
 10
4035.363
 20
-5490.976
 30
1496.000
 70
    32
  0
VERTEX
  8
M38LXLIFT
 62
13
 10
4030.115
 20
-5469.659
 30
1496.000
 70
    32
  0
VERTEX
  8
M38LXLIFT
 62
13
 10
4027.567
 20
-5459.704
 30
1496.000
 70
    32
  0
SEQEND
  8
M38LXLIFT
  0
POLYLINE
  8
M38LXLIFT
 62
11
 66
     1
 70
     9
  0
VERTEX
  8
M38LXLIFT
 62
11
 10
3968.255
 20
-5348.255
 30
1501.000
 70
    32
  0
VERTEX
  8
M38LXLIFT
 62
11
 10
3962.172
 20
-5352.116
 30
1501.000
 70
    32
  0
VERTEX
  8
M38LXLIFT
 62
11
 10
3947.298
 20
-5330.511
 30
1501.000
 70
    32
  0
VERTEX
  8
M38LXLIFT
 62
11
 10
3938.863
 20
-5333.366
 30
1501.000
 70
    32
  0
VERTEX
  8
M38LXLIFT
 62
11
 10
3935.648
 20
-5324.434
 30
1501.000
 70
    32
  0
VERTEX
  8
M38LXLIFT
 62
11
 10
3935.289
 20
-5315.710
 30
1501.000
 70
    32
  0
VERTEX
  8
M38LXLIFT
 62
11
 10
3925.885
 20
-5306.602
 30
1501.000
 70
    32
  0
VERTEX
  8
M38LXLIFT
 62
11
 10
3928.107
 20
-5299.798
 30
1501.000
 70
    32
  0
VERTEX
  8
M38LXLIFT
 62
11
 10
3938.480
 20
-5305.607
 30
1501.000
 70
    32
  0
VERTEX
  8
M38LXLIFT
 62
11
 10
3947.186
 20
-5315.545
 30
1501.000
 70
    32
  0
VERTEX
  8
M38LXLIFT
 62
11
 10
3959.759
 20
-5334.269
 30
1501.000
 70
    32
  0
SEQEND
  8
M38LXLIFT
  0
POLYLINE
  8
M38LXLIFT
 62
11
 66
     1
 70
     9
  0
VERTEX
  8
M38LXLIFT
 62
11
 10
3882.900
 20
-5229.238
 30
1500.000
 70
    32
  0
VERTEX
  8
M38LXLIFT
 62
11
 10
3895.170
 20
-5245.149
 30
1500.000
 70
    32
  0
VERTEX
  8
M38LXLIFT
 62
11
 10
3903.019
 20
-5260.037
 30
1500.000
 70
    32
  0
VERTEX
  8
M38LXLIFT
 62
11
 10
3887.703
 20
-5271.335
 30
1500.000
 70
    32
  0
VERTEX
  8
M38LXLIFT
 62
11
 10
3872.469
 20
-5280.950
 30
1500.000
 70
    32
  0
VERTEX
  8
M38LXLIFT
 62
11
 10
3858.572
 20
-5265.783
 30
1500.000
 70
    32
  0
VERTEX
  8
M38LXLIFT
 62
11
 10
3853.718
 20
-5252.192
 30
1500.000
 70
    32
  0
SEQEND
  8
M38LXLIFT
  0
POLYLINE
  8
M38LXLIFT
 62
8
 66
     1
 70
     9
  0
VERTEX
  8
M38LXLIFT
 62
8
 10
3966.061
 20
-5235.857
 30
1500.000
 70
    32
  0
VERTEX
  8
M38LXLIFT
 62
8
 10
3969.681
 20
-5242.656
 30
1500.000
 70
    32
  0
VERTEX
  8
M38LXLIFT
 62
8
 10
3960.264
 20
-5251.634
 30
1500.000
 70
    32
  0
VERTEX
  8
M38LXLIFT
 62
8
 10
3950.550
 20
-5250.327
 30
1500.000
 70
    32
  0
VERTEX
  8
M38LXLIFT
 62
8
 10
3939.145
 20
-5247.430
 30
1500.000
 70
    32
  0
VERTEX
  8
M38LXLIFT
 62
8
 10
3933.731
 20
-5235.759
 30
1500.000
 70
    32
  0
VERTEX
  8
M38LXLIFT
 62
8
 10
3926.841
 20
-5224.290
 30
1500.000
 70
    32
  0
VERTEX
  8
M38LXLIFT
 62
8
 10
3939.656
 20
-5217.616
 30
1500.000
 70
    32
  0
VERTEX
  8
M38LXLIFT
 62
8
 10
3951.091
 20
-5226.987
 30
1500.000
 70
    32
  0
VERTEX
  8
M38LXLIFT
 62
8
 10
3958.245
 20
-5236.425
 30
1500.000
 70
    32
  0
SEQEND
  8
M38LXLIFT
  0
POLYLINE
  8
M38LXLIFT
 62
11
 66
     1
 70
     9
  0
VERTEX
  8
M38LXLIFT
 62
11
 10
4285.980
 20
-5319.093
 30
1513.000
 70
    32
  0
VERTEX
  8
M38LXLIFT
 62
11
 10
4275.921
 20
-5308.733
 30
1513.000
 70
    32
  0
VERTEX
  8
M38LXLIFT
 62
11
 10
4261.036
 20
-5305.152
 30
1513.000
 70
    32
  0
VERTEX
  8
M38LXLIFT
 62
11
 10
4246.375
 20
-5300.539
 30
1513.000
 70
    32
  0
VERTEX
  8
M38LXLIFT
 62
11
 10
4239.470
 20
-5290.482
 30
1513.000
 70
    32
  0
VERTEX
  8
M38LXLIFT
 62
11
 10
4233.632
 20
-5286.055
 30
1513.000
 70
    32
  0
VERTEX
  8
M38LXLIFT
 62
11
 10
4223.307
 20
-5282.621
 30
1513.000
 70
    32
  0
VERTEX
  8
M38LXLIFT
 62
11
 10
4214.484
 20
-5286.454
 30
1513.000
 70
    32
  0
VERTEX
  8
M38LXLIFT
 62
11
 10
4208.612
 20
-5292.694
 30
1513.000
 70
    32
  0
VERTEX
  8
M38LXLIFT
 62
11
 10
4200.394
 20
-5295.868
 30
1513.000
 70
    32
  0
VERTEX
  8
M38LXLIFT
 62
11
 10
4198.355
 20
-5302.895
 30
1513.000
 70
    32
  0
VERTEX
  8
M38LXLIFT
 62
11
 10
4206.884
 20
-5312.200
 30
1513.000
 70
    32
  0
VERTEX
  8
M38LXLIFT
 62
11
 10
4220.760
 20
-5317.821
 30
1513.000
 70
    32
  0
VERTEX
  8
M38LXLIFT
 62
11
 10
4231.713
 20
-5322.859
 30
1513.000
 70
    32
  0
VERTEX
  8
M38LXLIFT
 62
11
 10
4239.857
 20
-5329.405
 30
1513.000
 70
    32
  0
VERTEX
  8
M38LXLIFT
 62
11
 10
4248.229
 20
-5337.305
 30
1513.000
 70
    32
  0
VERTEX
  8
M38LXLIFT
 62
11
 10
4250.939
 20
-5346.078
 30
1513.000
 70
    32
  0
VERTEX
  8
M38LXLIFT
 62
11
 10
4254.871
 20
-5352.657
 30
1513.000
 70
    32
  0
VERTEX
  8
M38LXLIFT
 62
11
 10
4263.723
 20
-5350.649
 30
1513.000
 70
    32
  0
VERTEX
  8
M38LXLIFT
 62
11
 10
4269.070
 20
-5342.946
 30
1513.000
 70
    32
  0
VERTEX
  8
M38LXLIFT
 62
11
 10
4276.342
 20
-5332.970
 30
1513.000
 70
    32
  0
SEQEND
  8
M38LXLIFT
  0
POLYLINE
  8
M38LXLIFT
 62
8
 66
     1
 70
     9
  0
VERTEX
  8
M38LXLIFT
 62
8
 10
3923.452
 20
-5232.016
 30
1510.000
 70
    32
  0
VERTEX
  8
M38LXLIFT
 62
8
 10
3930.346
 20
-5246.968
 30
1510.000
 70
    32
  0
VERTEX
  8
M38LXLIFT
 62
8
 10
3944.297
 20
-5266.977
 30
1510.000
 70
    32
  0
VERTEX
  8
M38LXLIFT
 62
8
 10
3956.091
 20
-5261.411
 30
1510.000
 70
    32
  0
VERTEX
  8
M38LXLIFT
 62
8
 10
3961.826
 20
-5254.836
 30
1510.000
 70
    32
  0
VERTEX
  8
M38LXLIFT
 62
8
 10
3956.185
 20
-5240.708
 30
1510.000
 70
    32
  0
VERTEX
  8
M38LXLIFT
 62
8
 10
3947.677
 20
-5228.454
 30
1510.000
 70
    32
  0
VERTEX
  8
M38LXLIFT
 62
8
 10
3942.393
 20
-5219.279
 30
1510.000
 70
    32
  0
VERTEX
  8
M38LXLIFT
 62
8
 10
3933.138
 20
-5215.824
 30
1510.000
 70
    32
  0
VERTEX
  8
M38LXLIFT
 62
8
 10
3928.954
 20
-5220.507
 30
1510.000
 70
    32
  0
SEQEND
  8
M38LXLIFT
  0
POLYLINE
  8
M38LXLIFT
 62
11
 66
     1
 70
     9
  0
VERTEX
  8
M38LXLIFT
 62
11
 10
4241.909
 20
-5344.253
 30
1517.000
 70
    32
  0
VERTEX
  8
M38LXLIFT
 62
11
 10
4250.210
 20
-5336.171
 30
1517.000
 70
    32
  0
VERTEX
  8
M38LXLIFT
 62
11
 10
4258.341
 20
-5323.804
 30
1517.000
 70
    32
  0
VERTEX
  8
M38LXLIFT
 62
11
 10
4261.711
 20
-5316.055
 30
1517.000
 70
    32
  0
VERTEX
  8
M38LXLIFT
 62
11
 10
4259.666
 20
-5302.496
 30
1517.000
 70
    32
  0
VERTEX
  8
M38LXLIFT
 62
11
 10
4246.446
 20
-5292.808
 30
1517.000
 70
    32
  0
VERTEX
  8
M38LXLIFT
 62
11
 10
4236.052
 20
-5285.383
 30
1517.000
 70
    32
  0
VERTEX
  8
M38LXLIFT
 62
11
 10
4229.252
 20
-5277.319
 30
1517.000
 70
    32
  0
VERTEX
  8
M38LXLIFT
 62
11
 10
4218.079
 20
-5271.480
 30
1517.000
 70
    32
  0
VERTEX
  8
M38LXLIFT
 62
11
 10
4207.569
 20
-5267.673
 30
1517.000
 70
    32
  0
VERTEX
  8
M38LXLIFT
 62
11
 10
4198.862
 20
-5275.513
 30
1517.000
 70
    32
  0
VERTEX
  8
M38LXLIFT
 62
11
 10
4188.762
 20
-5282.537
 30
1517.000
 70
    32
  0
VERTEX
  8
M38LXLIFT
 62
11
 10
4190.536
 20
-5292.551
 30
1517.000
 70
    32
  0
VERTEX
  8
M38LXLIFT
 62
11
 10
4201.973
 20
-5308.450
 30
1517.000
 70
    32
  0
VERTEX
  8
M38LXLIFT
 62
11
 10
4207.995
 20
-5315.782
 30
1517.000
 70
    32
  0
VERTEX
  8
M38LXLIFT
 62
11
 10
4214.635
 20
-5311.170
 30
1517.000
 70
    32
  0
VERTEX
  8
M38LXLIFT
 62
11
 10
4223.208
 20
-5316.782
 30
1517.000
 70
    32
  0
VERTEX
  8
M38LXLIFT
 62
11
 10
4232.589
 20
-5329.833
 30
1517.000
 70
    32
  0
SEQEND
  8
M38LXLIFT
  0
POLYLINE
  8
M38LXLIFT
 62
8
 66
     1
 70
     9
  0
VERTEX
  8
M38LXLIFT
 62
8
 10
4015.045
 20
-5366.971
 30
1525.000
 70
    32
  0
VERTEX
  8
M38LXLIFT
 62
8
 10
4025.561
 20
-5376.730
 30
1525.000
 70
    32
  0
VERTEX
  8
M38LXLIFT
 62
8
 10
4040.973
 20
-5385.963
 30
1525.000
 70
    32
  0
VERTEX
  8
M38LXLIFT
 62
8
 10
4051.680
 20
-5375.388
 30
1525.000
 70
    32
  0
VERTEX
  8
M38LXLIFT
 62
8
 10
4049.153
 20
-5368.153
 30
1525.000
 70
    32
  0
VERTEX
  8
M38LXLIFT
 62
8
 10
4063.137
 20
-5374.060
 30
1525.000
 70
    32
  0
VERTEX
  8
M38LXLIFT
 62
8
 10
4076.886
 20
-5381.690
 30
1525.000
 70
    32
  0
VERTEX
  8
M38LXLIFT
 62
8
 10
4090.029
 20
-5380.404
 30
1525.000
 70
    32
  0
VERTEX
  8
M38LXLIFT
 62
8
 10
4098.770
 20
-5372.318
 30
1525.000
 70
    32
  0
VERTEX
  8
M38LXLIFT
 62
8
 10
4101.057
 20
-5367.929
 30
1525.000
 70
    32
  0
VERTEX
  8
M38LXLIFT
 62
8
 10
4089.722
 20
-5359.124
 30
1525.000
 70
    32
  0
VERTEX
  8
M38LXLIFT
 62
8
 10
4082.230
 20
-5352.469
 30
1525.000
 70
    32
  0
VERTEX
  8
M38LXLIFT
 62
8
 10
4084.948
 20
-5344.443
 30
1525.000
 70
    32
  0
VERTEX
  8
M38LXLIFT
 62
8
 10
4084.379
 20
-5338.477
 30
1525.000
 70
    32
  0
VERTEX
  8
M38LXLIFT
 62
8
 10
4093.912
 20
-5328.243
 30
1525.000
 70
    32
  0
VERTEX
  8
M38LXLIFT
 62
8
 10
4105.736
 20
-5319.134
 30
1525.000
 70
    32
  0
VERTEX
  8
M38LXLIFT
 62
8
 10
4115.718
 20
-5315.289
 30
1525.000
 70
    32
  0
VERTEX
  8
M38LXLIFT
 62
8
 10
4127.232
 20
-5312.153
 30
1525.000
 70
    32
  0
VERTEX
  8
M38LXLIFT
 62
8
 10
4136.898
 20
-5313.402
 30
1525.000
 70
    32
  0
VERTEX
  8
M38LXLIFT
 62
8
 10
4145.929
 20
-5304.102
 30
1525.000
 70
    32
  0
VERTEX
  8
M38LXLIFT
 62
8
 10
4155.545
 20
-5293.253
 30
1525.000
 70
    32
  0
VERTEX
  8
M38LXLIFT
 62
8
 10
4164.941
 20
-5290.957
 30
1525.000
 70
    32
  0
VERTEX
  8
M38LXLIFT
 62
8
 10
4177.462
 20
-5288.710
 30
1525.000
 70
    32
  0
VERTEX
  8
M38LXLIFT
 62
8
 10
4182.411
 20
-5275.786
 30
1525.000
 70
    32
  0
VERTEX
  8
M38LXLIFT
 62
8
 10
4192.960
 20
-5262.683
 30
1525.000
 70
    32
  0
VERTEX
  8
M38LXLIFT
 62
8
 10
4201.846
 20
-5255.369
 30
1525.000
 70
    32
  0
VERTEX
  8
M38LXLIFT
 62
8
 10
4207.004
 20
-5249.679
 30
1525.000
 70
    32
  0
VERTEX
  8
M38LXLIFT
 62
8
 10
4199.105
 20
-5240.024
 30
1525.000
 70
    32
  0
VERTEX
  8
M38LXLIFT
 62
8
 10
4178.336
 20
-5248.107
 30
1525.000
 70
    32
  0
VERTEX
  8
M38LXLIFT
 62
8
 10
4164.114
 20
-5253.193
 30
1525.000
 70
    32
  0
VERTEX
  8
M38LXLIFT
 62
8
 10
4160.171
 20
-5251.781
 30
1525.000
 70
    32
  0
VERTEX
  8
M38LXLIFT
 62
8
 10
4146.207
 20
-5263.732
 30
1525.000
 70
    32
  0
VERTEX
  8
M38LXLIFT
 62
8
 10
4130.914
 20
-5273.936
 30
1525.000
 70
    32
  0
VERTEX
  8
M38LXLIFT
 62
8
 10
4113.847
 20
-5288.911
 30
1525.000
 70
    32
  0
VERTEX
  8
M38LXLIFT
 62
8
 10
4093.301
 20
-5303.664
 30
1525.000
 70
    32
  0
VERTEX
  8
M38LXLIFT
 62
8
 10
4071.303
 20
-5321.729
 30
1525.000
 70
    32
  0
VERTEX
  8
M38LXLIFT
 62
8
 10
4052.722
 20
-5336.311
 30
1525.000
 70
    32
  0
VERTEX
  8
M38LXLIFT
 62
8
 10
4032.412
 20
-5352.099
 30
1525.000
 70
    32
  0
VERTEX
  8
M38LXLIFT
 62
8
 10
4021.823
 20
-5359.496
 30
1525.000
 70
    32
  0
SEQEND
  8
M38LXLIFT
  0
POLYLINE
  8
M38LXLIFT
 62
3
 66
     1
 70
     9
  0
VERTEX
  8
M38LXLIFT
 62
3
 10
4005.116
 20
-5310.868
 30
1525.000
 70
    32
  0
VERTEX
  8
M38LXLIFT
 62
3
 10
3990.685
 20
-5296.255
 30
1525.000
 70
    32
  0
VERTEX
  8
M38LXLIFT
 62
3
 10
3983.595
 20
-5289.404
 30
1525.000
 70
    32
  0
VERTEX
  8
M38LXLIFT
 62
3
 10
3964.881
 20
-5304.970
 30
1525.000
 70
    32
  0
VERTEX
  8
M38LXLIFT
 62
3
 10
3949.090
 20
-5279.146
 30
1525.000
 70
    32
  0
VERTEX
  8
M38LXLIFT
 62
3
 10
3953.277
 20
-5272.760
 30
1525.000
 70
    32
  0
VERTEX
  8
M38LXLIFT
 62
3
 10
3968.187
 20
-5263.068
 30
1525.000
 70
    32
  0
VERTEX
  8
M38LXLIFT
 62
3
 10
3974.750
 20
-5252.557
 30
1525.000
 70
    32
  0
VERTEX
  8
M38LXLIFT
 62
3
 10
3991.251
 20
-5251.914
 30
1525.000
 70
    32
  0
VERTEX
  8
M38LXLIFT
 62
3
 10
4005.321
 20
-5252.570
 30
1525.000
 70
    32
  0
VERTEX
  8
M38LXLIFT
 62
3
 10
4018.242
 20
-5267.229
 30
1525.000
 70
    32
  0
VERTEX
  8
M38LXLIFT
 62
3
 10
4023.947
 20
-5269.507
 30
1525.000
 70
    32
  0
VERTEX
  8
M38LXLIFT
 62
3
 10
4033.187
 20
-5254.973
 30
1525.000
 70
    32
  0
VERTEX
  8
M38LXLIFT
 62
3
 10
4037.439
 20
-5232.871
 30
1525.000
 70
    32
  0
VERTEX
  8
M38LXLIFT
 62
3
 10
4052.110
 20
-5229.098
 30
1525.000
 70
    32
  0
VERTEX
  8
M38LXLIFT
 62
3
 10
4072.995
 20
-5207.687
 30
1525.000
 70
    32
  0
VERTEX
  8
M38LXLIFT
 62
3
 10
4066.637
 20
-5194.984
 30
1525.000
 70
    32
  0
VERTEX
  8
M38LXLIFT
 62
3
 10
4092.858
 20
-5165.652
 30
1525.000
 70
    32
  0
VERTEX
  8
M38LXLIFT
 62
3
 10
4110.247
 20
-5158.927
 30
1525.000
 70
    32
  0
VERTEX
  8
M38LXLIFT
 62
3
 10
4125.609
 20
-5173.604
 30
1525.000
 70
    32
  0
VERTEX
  8
M38LXLIFT
 62
3
 10
4123.527
 20
-5192.179
 30
1525.000
 70
    32
  0
VERTEX
  8
M38LXLIFT
 62
3
 10
4129.571
 20
-5220.126
 30
1525.000
 70
    32
  0
VERTEX
  8
M38LXLIFT
 62
3
 10
4092.945
 20
-5248.109
 30
1525.000
 70
    32
  0
VERTEX
  8
M38LXLIFT
 62
3
 10
4027.755
 20
-5294.081
 30
1525.000
 70
    32
  0
SEQEND
  8
M38LXLIFT
  0
POLYLINE
  8
M38LXLIFT
 62
7
 66
     1
 70
     9
  0
VERTEX
  8
M38LXLIFT
 62
7
 10
4012.072
 20
-5178.809
 30
1525.000
 70
    32
  0
VERTEX
  8
M38LXLIFT
 62
7
 10
4020.151
 20
-5171.448
 30
1525.000
 70
    32
  0
VERTEX
  8
M38LXLIFT
 62
7
 10
4029.453
 20
-5175.842
 30
1525.000
 70
    32
  0
VERTEX
  8
M38LXLIFT
 62
7
 10
4033.064
 20
-5187.547
 30
1525.000
 70
    32
  0
VERTEX
  8
M38LXLIFT
 62
7
 10
4037.273
 20
-5201.775
 30
1525.000
 70
    32
  0
VERTEX
  8
M38LXLIFT
 62
7
 10
4037.274
 20
-5211.924
 30
1525.000
 70
    32
  0
VERTEX
  8
M38LXLIFT
 62
7
 10
4027.928
 20
-5221.244
 30
1525.000
 70
    32
  0
VERTEX
  8
M38LXLIFT
 62
7
 10
4014.391
 20
-5231.435
 30
1525.000
 70
    32
  0
VERTEX
  8
M38LXLIFT
 62
7
 10
3997.486
 20
-5234.592
 30
1525.000
 70
    32
  0
VERTEX
  8
M38LXLIFT
 62
7
 10
3989.945
 20
-5233.381
 30
1525.000
 70
    32
  0
VERTEX
  8
M38LXLIFT
 62
7
 10
3981.451
 20
-5221.640
 30
1525.000
 70
    32
  0
VERTEX
  8
M38LXLIFT
 62
7
 10
3978.728
 20
-5208.929
 30
1525.000
 70
    32
  0
VERTEX
  8
M38LXLIFT
 62
7
 10
3981.394
 20
-5198.515
 30
1525.000
 70
    32
  0
VERTEX
  8
M38LXLIFT
 62
7
 10
3992.252
 20
-5191.907
 30
1525.000
 70
    32
  0
VERTEX
  8
M38LXLIFT
 62
7
 10
3999.913
 20
-5187.621
 30
1525.000
 70
    32
  0
SEQEND
  8
M38LXLIFT
  0
POLYLINE
  8
M38LXLIFT
 62
8
 66
     1
 70
     9
  0
VERTEX
  8
M38LXLIFT
 62
8
 10
3922.492
 20
-5244.776
 30
1525.000
 70
    32
  0
VERTEX
  8
M38LXLIFT
 62
8
 10
3914.889
 20
-5234.786
 30
1525.000
 70
    32
  0
VERTEX
  8
M38LXLIFT
 62
8
 10
3907.339
 20
-5224.865
 30
1525.000
 70
    32
  0
VERTEX
  8
M38LXLIFT
 62
8
 10
3905.345
 20
-5216.012
 30
1525.000
 70
    32
  0
VERTEX
  8
M38LXLIFT
 62
8
 10
3912.677
 20
-5199.841
 30
1525.000
 70
    32
  0
VERTEX
  8
M38LXLIFT
 62
8
 10
3919.888
 20
-5196.559
 30
1525.000
 70
    32
  0
VERTEX
  8
M38LXLIFT
 62
8
 10
3929.474
 20
-5211.329
 30
1525.000
 70
    32
  0
VERTEX
  8
M38LXLIFT
 62
8
 10
3942.333
 20
-5229.676
 30
1525.000
 70
    32
  0
VERTEX
  8
M38LXLIFT
 62
8
 10
3939.621
 20
-5233.506
 30
1525.000
 70
    32
  0
SEQEND
  8
M38LXLIFT
  0
POLYLINE
  8
M38LXLIFT
 62
2
 66
     1
 70
     9
  0
VERTEX
  8
M38LXLIFT
 62
2
 10
3779.635
 20
-5358.018
 30
1526.000
 70
    32
  0
VERTEX
  8
M38LXLIFT
 62
2
 10
3799.643
 20
-5354.155
 30
1526.000
 70
    32
  0
VERTEX
  8
M38LXLIFT
 62
2
 10
3807.932
 20
-5374.325
 30
1526.000
 70
    32
  0
VERTEX
  8
M38LXLIFT
 62
2
 10
3815.248
 20
-5385.968
 30
1526.000
 70
    32
  0
VERTEX
  8
M38LXLIFT
 62
2
 10
3827.557
 20
-5395.908
 30
1526.000
 70
    32
  0
VERTEX
  8
M38LXLIFT
 62
2
 10
3831.864
 20
-5394.175
 30
1526.000
 70
    32
  0
VERTEX
  8
M38LXLIFT
 62
2
 10
3838.278
 20
-5407.387
 30
1526.000
 70
    32
  0
VERTEX
  8
M38LXLIFT
 62
2
 10
3836.765
 20
-5419.461
 30
1526.000
 70
    32
  0
VERTEX
  8
M38LXLIFT
 62
2
 10
3829.124
 20
-5424.062
 30
1526.000
 70
    32
  0
VERTEX
  8
M38LXLIFT
 62
2
 10
3817.775
 20
-5423.211
 30
1526.000
 70
    32
  0
VERTEX
  8
M38LXLIFT
 62
2
 10
3807.391
 20
-5414.786
 30
1526.000
 70
    32
  0
VERTEX
  8
M38LXLIFT
 62
2
 10
3799.934
 20
-5418.034
 30
1526.000
 70
    32
  0
VERTEX
  8
M38LXLIFT
 62
2
 10
3796.957
 20
-5411.804
 30
1526.000
 70
    32
  0
VERTEX
  8
M38LXLIFT
 62
2
 10
3803.353
 20
-5404.840
 30
1526.000
 70
    32
  0
VERTEX
  8
M38LXLIFT
 62
2
 10
3806.423
 20
-5396.987
 30
1526.000
 70
    32
  0
VERTEX
  8
M38LXLIFT
 62
2
 10
3799.986
 20
-5383.020
 30
1526.000
 70
    32
  0
VERTEX
  8
M38LXLIFT
 62
2
 10
3793.334
 20
-5378.484
 30
1526.000
 70
    32
  0
VERTEX
  8
M38LXLIFT
 62
2
 10
3789.972
 20
-5379.719
 30
1526.000
 70
    32
  0
VERTEX
  8
M38LXLIFT
 62
2
 10
3785.242
 20
-5368.866
 30
1526.000
 70
    32
  0
SEQEND
  8
M38LXLIFT
  0
POLYLINE
  8
M38LXLIFT
 62
4
 66
     1
 70
     9
  0
VERTEX
  8
M38LXLIFT
 62
4
 10
3873.565
 20
-5153.812
 30
1525.000
 70
    32
  0
VERTEX
  8
M38LXLIFT
 62
4
 10
3864.203
 20
-5160.936
 30
1525.000
 70
    32
  0
VERTEX
  8
M38LXLIFT
 62
4
 10
3855.767
 20
-5154.780
 30
1525.000
 70
    32
  0
VERTEX
  8
M38LXLIFT
 62
4
 10
3843.605
 20
-5138.219
 30
1525.000
 70
    32
  0
VERTEX
  8
M38LXLIFT
 62
4
 10
3832.347
 20
-5115.453
 30
1525.000
 70
    32
  0
VERTEX
  8
M38LXLIFT
 62
4
 10
3850.342
 20
-5107.495
 30
1525.000
 70
    32
  0
VERTEX
  8
M38LXLIFT
 62
4
 10
3863.941
 20
-5123.625
 30
1525.000
 70
    32
  0
VERTEX
  8
M38LXLIFT
 62
4
 10
3881.895
 20
-5147.362
 30
1525.000
 70
    32
  0
SEQEND
  8
M38LXLIFT
  0
POLYLINE
  8
M38LXLIFT
 62
11
 66
     1
 70
     9
  0
VERTEX
  8
M38LXLIFT
 62
11
 10
3814.239
 20
-5154.720
 30
1522.000
 70
    32
  0
VERTEX
  8
M38LXLIFT
 62
11
 10
3801.850
 20
-5168.451
 30
1522.000
 70
    32
  0
VERTEX
  8
M38LXLIFT
 62
11
 10
3795.193
 20
-5180.578
 30
1522.000
 70
    32
  0
VERTEX
  8
M38LXLIFT
 62
11
 10
3798.113
 20
-5186.299
 30
1522.000
 70
    32
  0
VERTEX
  8
M38LXLIFT
 62
11
 10
3807.699
 20
-5188.603
 30
1522.000
 70
    32
  0
VERTEX
  8
M38LXLIFT
 62
11
 10
3810.818
 20
-5195.165
 30
1522.000
 70
    32
  0
VERTEX
  8
M38LXLIFT
 62
11
 10
3820.757
 20
-5195.324
 30
1522.000
 70
    32
  0
VERTEX
  8
M38LXLIFT
 62
11
 10
3823.636
 20
-5197.657
 30
1522.000
 70
    32
  0
VERTEX
  8
M38LXLIFT
 62
11
 10
3820.781
 20
-5206.228
 30
1522.000
 70
    32
  0
VERTEX
  8
M38LXLIFT
 62
11
 10
3827.359
 20
-5217.771
 30
1522.000
 70
    32
  0
VERTEX
  8
M38LXLIFT
 62
11
 10
3827.857
 20
-5226.108
 30
1522.000
 70
    32
  0
VERTEX
  8
M38LXLIFT
 62
11
 10
3834.278
 20
-5232.806
 30
1522.000
 70
    32
  0
VERTEX
  8
M38LXLIFT
 62
11
 10
3832.796
 20
-5236.802
 30
1522.000
 70
    32
  0
VERTEX
  8
M38LXLIFT
 62
11
 10
3828.088
 20
-5241.488
 30
1522.000
 70
    32
  0
VERTEX
  8
M38LXLIFT
 62
11
 10
3825.001
 20
-5254.539
 30
1522.000
 70
    32
  0
VERTEX
  8
M38LXLIFT
 62
11
 10
3828.592
 20
-5268.245
 30
1522.000
 70
    32
  0
VERTEX
  8
M38LXLIFT
 62
11
 10
3840.404
 20
-5279.997
 30
1522.000
 70
    32
  0
VERTEX
  8
M38LXLIFT
 62
11
 10
3854.960
 20
-5284.917
 30
1522.000
 70
    32
  0
VERTEX
  8
M38LXLIFT
 62
11
 10
3866.259
 20
-5281.062
 30
1522.000
 70
    32
  0
VERTEX
  8
M38LXLIFT
 62
11
 10
3871.459
 20
-5263.976
 30
1522.000
 70
    32
  0
VERTEX
  8
M38LXLIFT
 62
11
 10
3869.926
 20
-5245.725
 30
1522.000
 70
    32
  0
VERTEX
  8
M38LXLIFT
 62
11
 10
3863.639
 20
-5225.576
 30
1522.000
 70
    32
  0
VERTEX
  8
M38LXLIFT
 62
11
 10
3860.115
 20
-5223.845
 30
1522.000
 70
    32
  0
VERTEX
  8
M38LXLIFT
 62
11
 10
3853.014
 20
-5225.387
 30
1522.000
 70
    32
  0
VERTEX
  8
M38LXLIFT
 62
11
 10
3853.754
 20
-5215.777
 30
1522.000
 70
    32
  0
VERTEX
  8
M38LXLIFT
 62
11
 10
3859.020
 20
-5212.983
 30
1522.000
 70
    32
  0
VERTEX
  8
M38LXLIFT
 62
11
 10
3850.791
 20
-5198.836
 30
1522.000
 70
    32
  0
VERTEX
  8
M38LXLIFT
 62
11
 10
3842.429
 20
-5195.821
 30
1522.000
 70
    32
  0
VERTEX
  8
M38LXLIFT
 62
11
 10
3837.743
 20
-5183.721
 30
1522.000
 70
    32
  0
VERTEX
  8
M38LXLIFT
 62
11
 10
3837.969
 20
-5173.289
 30
1522.000
 70
    32
  0
VERTEX
  8
M38LXLIFT
 62
11
 10
3839.725
 20
-5165.884
 30
1522.000
 70
    32
  0
VERTEX
  8
M38LXLIFT
 62
11
 10
3833.139
 20
-5158.099
 30
1522.000
 70
    32
  0
VERTEX
  8
M38LXLIFT
 62
11
 10
3826.834
 20
-5163.007
 30
1522.000
 70
    32
  0
VERTEX
  8
M38LXLIFT
 62
11
 10
3826.252
 20
-5157.603
 30
1522.000
 70
    32
  0
VERTEX
  8
M38LXLIFT
 62
11
 10
3820.749
 20
-5156.606
 30
1522.000
 70
    32
  0
SEQEND
  8
M38LXLIFT
  0
POLYLINE
  8
M38LXLIFT
 62
7
 66
     1
 70
     9
  0
VERTEX
  8
M38LXLIFT
 62
7
 10
3785.786
 20
-5046.298
 30
1525.000
 70
    32
  0
VERTEX
  8
M38LXLIFT
 62
7
 10
3788.670
 20
-5039.360
 30
1525.000
 70
    32
  0
VERTEX
  8
M38LXLIFT
 62
7
 10
3795.658
 20
-5036.800
 30
1525.000
 70
    32
  0
VERTEX
  8
M38LXLIFT
 62
7
 10
3801.669
 20
-5040.059
 30
1525.000
 70
    32
  0
VERTEX
  8
M38LXLIFT
 62
7
 10
3808.470
 20
-5050.880
 30
1525.000
 70
    32
  0
VERTEX
  8
M38LXLIFT
 62
7
 10
3811.785
 20
-5057.845
 30
1525.000
 70
    32
  0
VERTEX
  8
M38LXLIFT
 62
7
 10
3807.658
 20
-5062.861
 30
1525.000
 70
    32
  0
VERTEX
  8
M38LXLIFT
 62
7
 10
3799.999
 20
-5064.829
 30
1525.000
 70
    32
  0
VERTEX
  8
M38LXLIFT
 62
7
 10
3794.833
 20
-5061.810
 30
1525.000
 70
    32
  0
SEQEND
  8
M38LXLIFT
  0
POLYLINE
  8
M38LXLIFT
 62
11
 66
     1
 70
     9
  0
VERTEX
  8
M38LXLIFT
 62
11
 10
4243.774
 20
-5296.515
 30
1529.000
 70
    32
  0
VERTEX
  8
M38LXLIFT
 62
11
 10
4232.345
 20
-5311.241
 30
1529.000
 70
    32
  0
VERTEX
  8
M38LXLIFT
 62
11
 10
4234.604
 20
-5324.851
 30
1529.000
 70
    32
  0
VERTEX
  8
M38LXLIFT
 62
11
 10
4223.298
 20
-5321.490
 30
1529.000
 70
    32
  0
VERTEX
  8
M38LXLIFT
 62
11
 10
4211.607
 20
-5316.120
 30
1529.000
 70
    32
  0
VERTEX
  8
M38LXLIFT
 62
11
 10
4202.424
 20
-5304.218
 30
1529.000
 70
    32
  0
VERTEX
  8
M38LXLIFT
 62
11
 10
4185.864
 20
-5296.973
 30
1529.000
 70
    32
  0
VERTEX
  8
M38LXLIFT
 62
11
 10
4172.840
 20
-5285.930
 30
1529.000
 70
    32
  0
VERTEX
  8
M38LXLIFT
 62
11
 10
4182.076
 20
-5276.087
 30
1529.000
 70
    32
  0
VERTEX
  8
M38LXLIFT
 62
11
 10
4187.830
 20
-5270.114
 30
1529.000
 70
    32
  0
VERTEX
  8
M38LXLIFT
 62
11
 10
4202.499
 20
-5272.858
 30
1529.000
 70
    32
  0
VERTEX
  8
M38LXLIFT
 62
11
 10
4220.009
 20
-5276.350
 30
1529.000
 70
    32
  0
VERTEX
  8
M38LXLIFT
 62
11
 10
4229.044
 20
-5276.473
 30
1529.000
 70
    32
  0
VERTEX
  8
M38LXLIFT
 62
11
 10
4235.977
 20
-5286.648
 30
1529.000
 70
    32
  0
SEQEND
  8
M38LXLIFT
  0
POLYLINE
  8
M38LXLIFT
 62
2
 66
     1
 70
     9
  0
VERTEX
  8
M38LXLIFT
 62
2
 10
3775.245
 20
-5352.247
 30
1534.000
 70
    32
  0
VERTEX
  8
M38LXLIFT
 62
2
 10
3787.675
 20
-5373.761
 30
1534.000
 70
    32
  0
VERTEX
  8
M38LXLIFT
 62
2
 10
3801.382
 20
-5386.921
 30
1534.000
 70
    32
  0
VERTEX
  8
M38LXLIFT
 62
2
 10
3804.817
 20
-5391.595
 30
1534.000
 70
    32
  0
VERTEX
  8
M38LXLIFT
 62
2
 10
3800.408
 20
-5403.998
 30
1534.000
 70
    32
  0
VERTEX
  8
M38LXLIFT
 62
2
 10
3795.195
 20
-5412.192
 30
1534.000
 70
    32
  0
VERTEX
  8
M38LXLIFT
 62
2
 10
3798.845
 20
-5418.345
 30
1534.000
 70
    32
  0
VERTEX
  8
M38LXLIFT
 62
2
 10
3808.994
 20
-5414.049
 30
1534.000
 70
    32
  0
VERTEX
  8
M38LXLIFT
 62
2
 10
3818.211
 20
-5417.091
 30
1534.000
 70
    32
  0
VERTEX
  8
M38LXLIFT
 62
2
 10
3826.231
 20
-5418.505
 30
1534.000
 70
    32
  0
VERTEX
  8
M38LXLIFT
 62
2
 10
3832.462
 20
-5412.290
 30
1534.000
 70
    32
  0
VERTEX
  8
M38LXLIFT
 62
2
 10
3830.854
 20
-5402.237
 30
1534.000
 70
    32
  0
VERTEX
  8
M38LXLIFT
 62
2
 10
3824.496
 20
-5390.766
 30
1534.000
 70
    32
  0
VERTEX
  8
M38LXLIFT
 62
2
 10
3815.002
 20
-5380.074
 30
1534.000
 70
    32
  0
VERTEX
  8
M38LXLIFT
 62
2
 10
3804.619
 20
-5373.961
 30
1534.000
 70
    32
  0
VERTEX
  8
M38LXLIFT
 62
2
 10
3799.297
 20
-5362.712
 30
1534.000
 70
    32
  0
VERTEX
  8
M38LXLIFT
 62
2
 10
3790.817
 20
-5350.728
 30
1534.000
 70
    32
  0
VERTEX
  8
M38LXLIFT
 62
2
 10
3784.295
 20
-5345.268
 30
1534.000
 70
    32
  0
SEQEND
  8
M38LXLIFT
  0
POLYLINE
  8
M38LXLIFT
 62
11
 66
     1
 70
     9
  0
VERTEX
  8
M38LXLIFT
 62
11
 10
3832.878
 20
-5182.817
 30
1539.000
 70
    32
  0
VERTEX
  8
M38LXLIFT
 62
11
 10
3850.093
 20
-5207.577
 30
1539.000
 70
    32
  0
VERTEX
  8
M38LXLIFT
 62
11
 10
3848.338
 20
-5236.355
 30
1539.000
 70
    32
  0
VERTEX
  8
M38LXLIFT
 62
11
 10
3843.398
 20
-5252.638
 30
1539.000
 70
    32
  0
VERTEX
  8
M38LXLIFT
 62
11
 10
3826.020
 20
-5266.392
 30
1539.000
 70
    32
  0
VERTEX
  8
M38LXLIFT
 62
11
 10
3817.314
 20
-5241.486
 30
1539.000
 70
    32
  0
VERTEX
  8
M38LXLIFT
 62
11
 10
3824.504
 20
-5235.983
 30
1539.000
 70
    32
  0
VERTEX
  8
M38LXLIFT
 62
11
 10
3830.080
 20
-5231.994
 30
1539.000
 70
    32
  0
VERTEX
  8
M38LXLIFT
 62
11
 10
3822.494
 20
-5220.336
 30
1539.000
 70
    32
  0
VERTEX
  8
M38LXLIFT
 62
11
 10
3811.989
 20
-5228.601
 30
1539.000
 70
    32
  0
VERTEX
  8
M38LXLIFT
 62
11
 10
3798.270
 20
-5222.105
 30
1539.000
 70
    32
  0
VERTEX
  8
M38LXLIFT
 62
11
 10
3793.266
 20
-5212.476
 30
1539.000
 70
    32
  0
VERTEX
  8
M38LXLIFT
 62
11
 10
3805.223
 20
-5201.288
 30
1539.000
 70
    32
  0
VERTEX
  8
M38LXLIFT
 62
11
 10
3812.539
 20
-5211.836
 30
1539.000
 70
    32
  0
VERTEX
  8
M38LXLIFT
 62
11
 10
3820.481
 20
-5206.763
 30
1539.000
 70
    32
  0
VERTEX
  8
M38LXLIFT
 62
11
 10
3813.473
 20
-5197.079
 30
1539.000
 70
    32
  0
SEQEND
  8
M38LXLIFT
  0
POLYLINE
  8
M38LXLIFT
 62
11
 66
     1
 70
     9
  0
VERTEX
  8
M38LXLIFT
 62
11
 10
4232.363
 20
-5289.207
 30
1539.000
 70
    32
  0
VERTEX
  8
M38LXLIFT
 62
11
 10
4216.833
 20
-5310.626
 30
1539.000
 70
    32
  0
VERTEX
  8
M38LXLIFT
 62
11
 10
4208.204
 20
-5318.490
 30
1539.000
 70
    32
  0
VERTEX
  8
M38LXLIFT
 62
11
 10
4197.060
 20
-5313.424
 30
1539.000
 70
    32
  0
VERTEX
  8
M38LXLIFT
 62
11
 10
4175.974
 20
-5298.955
 30
1539.000
 70
    32
  0
VERTEX
  8
M38LXLIFT
 62
11
 10
4171.418
 20
-5279.151
 30
1539.000
 70
    32
  0
VERTEX
  8
M38LXLIFT
 62
11
 10
4176.159
 20
-5266.507
 30
1539.000
 70
    32
  0
VERTEX
  8
M38LXLIFT
 62
11
 10
4189.032
 20
-5261.214
 30
1539.000
 70
    32
  0
VERTEX
  8
M38LXLIFT
 62
11
 10
4201.503
 20
-5260.766
 30
1539.000
 70
    32
  0
VERTEX
  8
M38LXLIFT
 62
11
 10
4211.718
 20
-5258.695
 30
1539.000
 70
    32
  0
VERTEX
  8
M38LXLIFT
 62
11
 10
4228.004
 20
-5266.225
 30
1539.000
 70
    32
  0
VERTEX
  8
M38LXLIFT
 62
11
 10
4233.022
 20
-5273.767
 30
1539.000
 70
    32
  0
VERTEX
  8
M38LXLIFT
 62
11
 10
4227.236
 20
-5283.913
 30
1539.000
 70
    32
  0
SEQEND
  8
M38LXLIFT
  0
POLYLINE
  8
M38LXLIFT
 62
2
 66
     1
 70
     9
  0
VERTEX
  8
M38LXLIFT
 62
2
 10
3756.718
 20
-5341.652
 30
1547.000
 70
    32
  0
VERTEX
  8
M38LXLIFT
 62
2
 10
3767.171
 20
-5351.013
 30
1547.000
 70
    32
  0
VERTEX
  8
M38LXLIFT
 62
2
 10
3777.685
 20
-5363.907
 30
1547.000
 70
    32
  0
VERTEX
  8
M38LXLIFT
 62
2
 10
3784.687
 20
-5375.545
 30
1547.000
 70
    32
  0
VERTEX
  8
M38LXLIFT
 62
2
 10
3792.648
 20
-5379.658
 30
1547.000
 70
    32
  0
VERTEX
  8
M38LXLIFT
 62
2
 10
3802.019
 20
-5385.572
 30
1547.000
 70
    32
  0
VERTEX
  8
M38LXLIFT
 62
2
 10
3806.926
 20
-5382.459
 30
1547.000
 70
    32
  0
VERTEX
  8
M38LXLIFT
 62
2
 10
3806.356
 20
-5373.870
 30
1547.000
 70
    32
  0
VERTEX
  8
M38LXLIFT
 62
2
 10
3807.034
 20
-5365.356
 30
1547.000
 70
    32
  0
VERTEX
  8
M38LXLIFT
 62
2
 10
3798.242
 20
-5362.494
 30
1547.000
 70
    32
  0
VERTEX
  8
M38LXLIFT
 62
2
 10
3786.129
 20
-5350.538
 30
1547.000
 70
    32
  0
VERTEX
  8
M38LXLIFT
 62
2
 10
3773.210
 20
-5338.515
 30
1547.000
 70
    32
  0
VERTEX
  8
M38LXLIFT
 62
2
 10
3766.115
 20
-5334.101
 30
1547.000
 70
    32
  0
SEQEND
  8
M38LXLIFT
  0
POLYLINE
  8
M38LXLIFT
 62
8
 66
     1
 70
     9
  0
VERTEX
  8
M38LXLIFT
 62
8
 10
3926.215
 20
-5243.857
 30
1545.000
 70
    32
  0
VERTEX
  8
M38LXLIFT
 62
8
 10
3916.379
 20
-5233.400
 30
1545.000
 70
    32
  0
VERTEX
  8
M38LXLIFT
 62
8
 10
3901.351
 20
-5215.311
 30
1545.000
 70
    32
  0
VERTEX
  8
M38LXLIFT
 62
8
 10
3899.164
 20
-5200.734
 30
1545.000
 70
    32
  0
VERTEX
  8
M38LXLIFT
 62
8
 10
3895.586
 20
-5189.333
 30
1545.000
 70
    32
  0
VERTEX
  8
M38LXLIFT
 62
8
 10
3909.703
 20
-5178.260
 30
1545.000
 70
    32
  0
VERTEX
  8
M38LXLIFT
 62
8
 10
3922.406
 20
-5191.633
 30
1545.000
 70
    32
  0
VERTEX
  8
M38LXLIFT
 62
8
 10
3936.334
 20
-5212.253
 30
1545.000
 70
    32
  0
VERTEX
  8
M38LXLIFT
 62
8
 10
3942.117
 20
-5232.254
 30
1545.000
 70
    32
  0
SEQEND
  8
M38LXLIFT
  0
POLYLINE
  8
M38LXLIFT
 62
11
 66
     1
 70
     9
  0
VERTEX
  8
M38LXLIFT
 62
11
 10
3815.428
 20
-5256.057
 30
1548.000
 70
    32
  0
VERTEX
  8
M38LXLIFT
 62
11
 10
3812.160
 20
-5248.985
 30
1548.000
 70
    32
  0
VERTEX
  8
M38LXLIFT
 62
11
 10
3805.074
 20
-5237.083
 30
1548.000
 70
    32
  0
VERTEX
  8
M38LXLIFT
 62
11
 10
3815.229
 20
-5224.429
 30
1548.000
 70
    32
  0
VERTEX
  8
M38LXLIFT
 62
11
 10
3810.930
 20
-5213.982
 30
1548.000
 70
    32
  0
VERTEX
  8
M38LXLIFT
 62
11
 10
3817.950
 20
-5208.691
 30
1548.000
 70
    32
  0
VERTEX
  8
M38LXLIFT
 62
11
 10
3812.880
 20
-5199.126
 30
1548.000
 70
    32
  0
VERTEX
  8
M38LXLIFT
 62
11
 10
3829.031
 20
-5186.367
 30
1548.000
 70
    32
  0
VERTEX
  8
M38LXLIFT
 62
11
 10
3835.556
 20
-5182.193
 30
1548.000
 70
    32
  0
VERTEX
  8
M38LXLIFT
 62
11
 10
3845.857
 20
-5197.193
 30
1548.000
 70
    32
  0
VERTEX
  8
M38LXLIFT
 62
11
 10
3842.208
 20
-5216.747
 30
1548.000
 70
    32
  0
VERTEX
  8
M38LXLIFT
 62
11
 10
3837.322
 20
-5241.641
 30
1548.000
 70
    32
  0
VERTEX
  8
M38LXLIFT
 62
11
 10
3830.093
 20
-5247.842
 30
1548.000
 70
    32
  0
SEQEND
  8
M38LXLIFT
  0
POLYLINE
  8
M38LXLIFT
 62
7
 66
     1
 70
     9
  0
VERTEX
  8
M38LXLIFT
 62
7
 10
3774.661
 20
-5197.258
 30
1545.000
 70
    32
  0
VERTEX
  8
M38LXLIFT
 62
7
 10
3756.366
 20
-5175.999
 30
1545.000
 70
    32
  0
VERTEX
  8
M38LXLIFT
 62
7
 10
3770.846
 20
-5160.327
 30
1545.000
 70
    32
  0
VERTEX
  8
M38LXLIFT
 62
7
 10
3780.281
 20
-5148.628
 30
1545.000
 70
    32
  0
VERTEX
  8
M38LXLIFT
 62
7
 10
3790.459
 20
-5143.656
 30
1545.000
 70
    32
  0
VERTEX
  8
M38LXLIFT
 62
7
 10
3807.113
 20
-5160.246
 30
1545.000
 70
    32
  0
VERTEX
  8
M38LXLIFT
 62
7
 10
3818.831
 20
-5176.607
 30
1545.000
 70
    32
  0
VERTEX
  8
M38LXLIFT
 62
7
 10
3827.933
 20
-5190.848
 30
1545.000
 70
    32
  0
VERTEX
  8
M38LXLIFT
 62
7
 10
3817.546
 20
-5198.681
 30
1545.000
 70
    32
  0
VERTEX
  8
M38LXLIFT
 62
7
 10
3805.829
 20
-5206.174
 30
1545.000
 70
    32
  0
VERTEX
  8
M38LXLIFT
 62
7
 10
3790.812
 20
-5213.451
 30
1545.000
 70
    32
  0
SEQEND
  8
M38LXLIFT
  0
POLYLINE
  8
M38LXLIFT
 62
4
 66
     1
 70
     9
  0
VERTEX
  8
M38LXLIFT
 62
4
 10
3844.434
 20
-5104.316
 30
1545.000
 70
    32
  0
VERTEX
  8
M38LXLIFT
 62
4
 10
3857.341
 20
-5125.023
 30
1545.000
 70
    32
  0
VERTEX
  8
M38LXLIFT
 62
4
 10
3869.173
 20
-5137.941
 30
1545.000
 70
    32
  0
VERTEX
  8
M38LXLIFT
 62
4
 10
3872.783
 20
-5147.585
 30
1545.000
 70
    32
  0
VERTEX
  8
M38LXLIFT
 62
4
 10
3859.167
 20
-5157.102
 30
1545.000
 70
    32
  0
VERTEX
  8
M38LXLIFT
 62
4
 10
3851.690
 20
-5155.458
 30
1545.000
 70
    32
  0
VERTEX
  8
M38LXLIFT
 62
4
 10
3840.208
 20
-5137.624
 30
1545.000
 70
    32
  0
VERTEX
  8
M38LXLIFT
 62
4
 10
3827.407
 20
-5113.913
 30
1545.000
 70
    32
  0
VERTEX
  8
M38LXLIFT
 62
4
 10
3835.344
 20
-5108.392
 30
1545.000
 70
    32
  0
SEQEND
  8
M38LXLIFT
  0
POLYLINE
  8
M38LXLIFT
 62
7
 66
     1
 70
     9
  0
VERTEX
  8
M38LXLIFT
 62
7
 10
3824.568
 20
-5063.482
 30
1550.000
 70
    32
  0
VERTEX
  8
M38LXLIFT
 62
7
 10
3802.578
 20
-5035.460
 30
1550.000
 70
    32
  0
VERTEX
  8
M38LXLIFT
 62
7
 10
3785.803
 20
-5022.754
 30
1550.000
 70
    32
  0
VERTEX
  8
M38LXLIFT
 62
7
 10
3778.951
 20
-5021.526
 30
1550.000
 70
    32
  0
VERTEX
  8
M38LXLIFT
 62
7
 10
3767.991
 20
-5038.015
 30
1550.000
 70
    32
  0
VERTEX
  8
M38LXLIFT
 62
7
 10
3765.084
 20
-5044.345
 30
1550.000
 70
    32
  0
VERTEX
  8
M38LXLIFT
 62
7
 10
3778.886
 20
-5066.140
 30
1550.000
 70
    32
  0
VERTEX
  8
M38LXLIFT
 62
7
 10
3799.178
 20
-5082.811
 30
1550.000
 70
    32
  0
VERTEX
  8
M38LXLIFT
 62
7
 10
3810.498
 20
-5073.869
 30
1550.000
 70
    32
  0
SEQEND
  8
M38LXLIFT
  0
POLYLINE
  8
M38LXLIFT
 62
2
 66
     1
 70
     9
  0
VERTEX
  8
M38LXLIFT
 62
2
 10
3733.215
 20
-5125.069
 30
1545.000
 70
    32
  0
VERTEX
  8
M38LXLIFT
 62
2
 10
3728.421
 20
-5111.836
 30
1545.000
 70
    32
  0
VERTEX
  8
M38LXLIFT
 62
2
 10
3725.451
 20
-5088.825
 30
1545.000
 70
    32
  0
VERTEX
  8
M38LXLIFT
 62
2
 10
3721.182
 20
-5063.717
 30
1545.000
 70
    32
  0
VERTEX
  8
M38LXLIFT
 62
2
 10
3737.498
 20
-5056.586
 30
1545.000
 70
    32
  0
VERTEX
  8
M38LXLIFT
 62
2
 10
3746.852
 20
-5088.429
 30
1545.000
 70
    32
  0
VERTEX
  8
M38LXLIFT
 62
2
 10
3751.616
 20
-5114.371
 30
1545.000
 70
    32
  0
SEQEND
  8
M38LXLIFT
  0
POLYLINE
  8
M38LXLIFT
 62
6
 66
     1
 70
     9
  0
VERTEX
  8
M38LXLIFT
 62
6
 10
3681.960
 20
-5086.864
 30
1545.000
 70
    32
  0
VERTEX
  8
M38LXLIFT
 62
6
 10
3673.128
 20
-5093.247
 30
1545.000
 70
    32
  0
VERTEX
  8
M38LXLIFT
 62
6
 10
3665.198
 20
-5098.329
 30
1545.000
 70
    32
  0
VERTEX
  8
M38LXLIFT
 62
6
 10
3672.915
 20
-5113.354
 30
1545.000
 70
    32
  0
VERTEX
  8
M38LXLIFT
 62
6
 10
3675.699
 20
-5128.908
 30
1545.000
 70
    32
  0
VERTEX
  8
M38LXLIFT
 62
6
 10
3679.988
 20
-5144.892
 30
1545.000
 70
    32
  0
VERTEX
  8
M38LXLIFT
 62
6
 10
3686.279
 20
-5158.996
 30
1545.000
 70
    32
  0
VERTEX
  8
M38LXLIFT
 62
6
 10
3694.199
 20
-5159.452
 30
1545.000
 70
    32
  0
VERTEX
  8
M38LXLIFT
 62
6
 10
3689.280
 20
-5140.345
 30
1545.000
 70
    32
  0
VERTEX
  8
M38LXLIFT
 62
6
 10
3698.971
 20
-5145.051
 30
1545.000
 70
    32
  0
VERTEX
  8
M38LXLIFT
 62
6
 10
3711.132
 20
-5140.273
 30
1545.000
 70
    32
  0
VERTEX
  8
M38LXLIFT
 62
6
 10
3721.237
 20
-5131.450
 30
1545.000
 70
    32
  0
VERTEX
  8
M38LXLIFT
 62
6
 10
3709.881
 20
-5119.490
 30
1545.000
 70
    32
  0
VERTEX
  8
M38LXLIFT
 62
6
 10
3699.110
 20
-5106.239
 30
1545.000
 70
    32
  0
SEQEND
  8
M38LXLIFT
  0
POLYLINE
  8
M38LXLIFT
 62
3
 66
     1
 70
     9
  0
VERTEX
  8
M38LXLIFT
 62
3
 10
3748.855
 20
-5001.641
 30
1545.000
 70
    32
  0
VERTEX
  8
M38LXLIFT
 62
3
 10
3739.643
 20
-5007.649
 30
1545.000
 70
    32
  0
VERTEX
  8
M38LXLIFT
 62
3
 10
3728.185
 20
-4997.497
 30
1545.000
 70
    32
  0
VERTEX
  8
M38LXLIFT
 62
3
 10
3721.360
 20
-4984.756
 30
1545.000
 70
    32
  0
VERTEX
  8
M38LXLIFT
 62
3
 10
3716.149
 20
-4970.196
 30
1545.000
 70
    32
  0
VERTEX
  8
M38LXLIFT
 62
3
 10
3717.339
 20
-4956.541
 30
1545.000
 70
    32
  0
VERTEX
  8
M38LXLIFT
 62
3
 10
3724.757
 20
-4949.552
 30
1545.000
 70
    32
  0
VERTEX
  8
M38LXLIFT
 62
3
 10
3733.354
 20
-4959.495
 30
1545.000
 70
    32
  0
VERTEX
  8
M38LXLIFT
 62
3
 10
3745.964
 20
-4978.140
 30
1545.000
 70
    32
  0
VERTEX
  8
M38LXLIFT
 62
3
 10
3756.515
 20
-4995.887
 30
1545.000
 70
    32
  0
SEQEND
  8
M38LXLIFT
  0
POLYLINE
  8
M38LXLIFT
 62
13
 66
     1
 70
     9
  0
VERTEX
  8
M38LXLIFT
 62
13
 10
3607.296
 20
-4908.563
 30
1545.000
 70
    32
  0
VERTEX
  8
M38LXLIFT
 62
13
 10
3625.220
 20
-4894.956
 30
1545.000
 70
    32
  0
VERTEX
  8
M38LXLIFT
 62
13
 10
3641.734
 20
-4908.502
 30
1545.000
 70
    32
  0
VERTEX
  8
M38LXLIFT
 62
13
 10
3647.830
 20
-4909.734
 30
1545.000
 70
    32
  0
VERTEX
  8
M38LXLIFT
 62
13
 10
3654.250
 20
-4919.515
 30
1545.000
 70
    32
  0
VERTEX
  8
M38LXLIFT
 62
13
 10
3639.918
 20
-4930.742
 30
1545.000
 70
    32
  0
VERTEX
  8
M38LXLIFT
 62
13
 10
3629.890
 20
-4933.220
 30
1545.000
 70
    32
  0
VERTEX
  8
M38LXLIFT
 62
13
 10
3623.032
 20
-4927.333
 30
1545.000
 70
    32
  0
VERTEX
  8
M38LXLIFT
 62
13
 10
3615.457
 20
-4917.303
 30
1545.000
 70
    32
  0
SEQEND
  8
M38LXLIFT
  0
POLYLINE
  8
M38LXLIFT
 62
2
 66
     1
 70
     9
  0
VERTEX
  8
M38LXLIFT
 62
2
 10
3762.430
 20
-5332.539
 30
1555.000
 70
    32
  0
VERTEX
  8
M38LXLIFT
 62
2
 10
3769.998
 20
-5332.049
 30
1555.000
 70
    32
  0
VERTEX
  8
M38LXLIFT
 62
2
 10
3781.693
 20
-5339.203
 30
1555.000
 70
    32
  0
VERTEX
  8
M38LXLIFT
 62
2
 10
3792.227
 20
-5352.843
 30
1555.000
 70
    32
  0
VERTEX
  8
M38LXLIFT
 62
2
 10
3790.612
 20
-5363.346
 30
1555.000
 70
    32
  0
VERTEX
  8
M38LXLIFT
 62
2
 10
3786.963
 20
-5366.099
 30
1555.000
 70
    32
  0
VERTEX
  8
M38LXLIFT
 62
2
 10
3783.002
 20
-5369.620
 30
1555.000
 70
    32
  0
VERTEX
  8
M38LXLIFT
 62
2
 10
3772.619
 20
-5358.584
 30
1555.000
 70
    32
  0
VERTEX
  8
M38LXLIFT
 62
2
 10
3766.904
 20
-5349.050
 30
1555.000
 70
    32
  0
VERTEX
  8
M38LXLIFT
 62
2
 10
3758.445
 20
-5335.427
 30
1555.000
 70
    32
  0
SEQEND
  8
M38LXLIFT
  0
POLYLINE
  8
M38LXLIFT
 62
11
 66
     1
 70
     9
  0
VERTEX
  8
M38LXLIFT
 62
11
 10
3823.470
 20
-5268.343
 30
1556.000
 70
    32
  0
VERTEX
  8
M38LXLIFT
 62
11
 10
3825.548
 20
-5252.186
 30
1556.000
 70
    32
  0
VERTEX
  8
M38LXLIFT
 62
11
 10
3831.399
 20
-5224.612
 30
1556.000
 70
    32
  0
VERTEX
  8
M38LXLIFT
 62
11
 10
3832.027
 20
-5205.707
 30
1556.000
 70
    32
  0
VERTEX
  8
M38LXLIFT
 62
11
 10
3802.569
 20
-5227.811
 30
1556.000
 70
    32
  0
VERTEX
  8
M38LXLIFT
 62
11
 10
3808.478
 20
-5240.460
 30
1556.000
 70
    32
  0
VERTEX
  8
M38LXLIFT
 62
11
 10
3811.482
 20
-5248.052
 30
1556.000
 70
    32
  0
VERTEX
  8
M38LXLIFT
 62
11
 10
3812.435
 20
-5260.602
 30
1556.000
 70
    32
  0
VERTEX
  8
M38LXLIFT
 62
11
 10
3816.626
 20
-5272.976
 30
1556.000
 70
    32
  0
SEQEND
  8
M38LXLIFT
  0
POLYLINE
  8
M38LXLIFT
 62
1
 66
     1
 70
     9
  0
VERTEX
  8
M38LXLIFT
 62
1
 10
3609.296
 20
-4906.563
 30
1555.000
 70
    32
  0
VERTEX
  8
M38LXLIFT
 62
1
 10
3627.220
 20
-4892.956
 30
1555.000
 70
    32
  0
VERTEX
  8
M38LXLIFT
 62
1
 10
3643.734
 20
-4906.502
 30
1555.000
 70
    32
  0
VERTEX
  8
M38LXLIFT
 62
1
 10
3649.830
 20
-4907.734
 30
1555.000
 70
    32
  0
VERTEX
  8
M38LXLIFT
 62
1
 10
3656.250
 20
-4917.515
 30
1555.000
 70
    32
  0
VERTEX
  8
M38LXLIFT
 62
1
 10
3641.918
 20
-4928.742
 30
1555.000
 70
    32
  0
VERTEX
  8
M38LXLIFT
 62
1
 10
3631.890
 20
-4931.220
 30
1555.000
 70
    32
  0
VERTEX
  8
M38LXLIFT
 62
1
 10
3625.032
 20
-4925.333
 30
1555.000
 70
    32
  0
VERTEX
  8
M38LXLIFT
 62
1
 10
3617.457
 20
-4915.303
 30
1555.000
 70
    32
  0
SEQEND
  8
M38LXLIFT
  0
POLYLINE
  8
M38LXLIFT
 62
1
 66
     1
 70
     9
  0
VERTEX
  8
M38LXLIFT
 62
1
 10
3750.855
 20
-4999.641
 30
1555.000
 70
    32
  0
VERTEX
  8
M38LXLIFT
 62
1
 10
3741.643
 20
-5005.649
 30
1555.000
 70
    32
  0
VERTEX
  8
M38LXLIFT
 62
1
 10
3730.185
 20
-4995.497
 30
1555.000
 70
    32
  0
VERTEX
  8
M38LXLIFT
 62
1
 10
3723.360
 20
-4982.756
 30
1555.000
 70
    32
  0
VERTEX
  8
M38LXLIFT
 62
1
 10
3718.149
 20
-4968.196
 30
1555.000
 70
    32
  0
VERTEX
  8
M38LXLIFT
 62
1
 10
3719.339
 20
-4954.541
 30
1555.000
 70
    32
  0
VERTEX
  8
M38LXLIFT
 62
1
 10
3726.757
 20
-4947.552
 30
1555.000
 70
    32
  0
VERTEX
  8
M38LXLIFT
 62
1
 10
3735.354
 20
-4957.495
 30
1555.000
 70
    32
  0
VERTEX
  8
M38LXLIFT
 62
1
 10
3747.964
 20
-4976.140
 30
1555.000
 70
    32
  0
VERTEX
  8
M38LXLIFT
 62
1
 10
3758.515
 20
-4993.887
 30
1555.000
 70
    32
  0
SEQEND
  8
M38LXLIFT
  0
POLYLINE
  8
M38LXLIFT
 62
1
 66
     1
 70
     9
  0
VERTEX
  8
M38LXLIFT
 62
1
 10
3735.215
 20
-5123.069
 30
1555.000
 70
    32
  0
VERTEX
  8
M38LXLIFT
 62
1
 10
3730.421
 20
-5109.836
 30
1555.000
 70
    32
  0
VERTEX
  8
M38LXLIFT
 62
1
 10
3727.451
 20
-5086.825
 30
1555.000
 70
    32
  0
VERTEX
  8
M38LXLIFT
 62
1
 10
3723.182
 20
-5061.717
 30
1555.000
 70
    32
  0
VERTEX
  8
M38LXLIFT
 62
1
 10
3739.498
 20
-5054.586
 30
1555.000
 70
    32
  0
VERTEX
  8
M38LXLIFT
 62
1
 10
3748.852
 20
-5086.429
 30
1555.000
 70
    32
  0
VERTEX
  8
M38LXLIFT
 62
1
 10
3753.616
 20
-5112.371
 30
1555.000
 70
    32
  0
SEQEND
  8
M38LXLIFT
  0
POLYLINE
  8
M38LXLIFT
 62
1
 66
     1
 70
     9
  0
VERTEX
  8
M38LXLIFT
 62
1
 10
3701.110
 20
-5104.239
 30
1555.000
 70
    32
  0
VERTEX
  8
M38LXLIFT
 62
1
 10
3711.881
 20
-5117.490
 30
1555.000
 70
    32
  0
VERTEX
  8
M38LXLIFT
 62
1
 10
3723.237
 20
-5129.450
 30
1555.000
 70
    32
  0
VERTEX
  8
M38LXLIFT
 62
1
 10
3713.132
 20
-5138.273
 30
1555.000
 70
    32
  0
VERTEX
  8
M38LXLIFT
 62
1
 10
3700.971
 20
-5143.051
 30
1555.000
 70
    32
  0
VERTEX
  8
M38LXLIFT
 62
1
 10
3691.280
 20
-5138.345
 30
1555.000
 70
    32
  0
VERTEX
  8
M38LXLIFT
 62
1
 10
3696.199
 20
-5157.452
 30
1555.000
 70
    32
  0
VERTEX
  8
M38LXLIFT
 62
1
 10
3688.279
 20
-5156.996
 30
1555.000
 70
    32
  0
VERTEX
  8
M38LXLIFT
 62
1
 10
3681.988
 20
-5142.892
 30
1555.000
 70
    32
  0
VERTEX
  8
M38LXLIFT
 62
1
 10
3677.699
 20
-5126.908
 30
1555.000
 70
    32
  0
VERTEX
  8
M38LXLIFT
 62
1
 10
3674.915
 20
-5111.354
 30
1555.000
 70
    32
  0
VERTEX
  8
M38LXLIFT
 62
1
 10
3667.198
 20
-5096.329
 30
1555.000
 70
    32
  0
VERTEX
  8
M38LXLIFT
 62
1
 10
3675.128
 20
-5091.247
 30
1555.000
 70
    32
  0
VERTEX
  8
M38LXLIFT
 62
1
 10
3683.960
 20
-5084.864
 30
1555.000
 70
    32
  0
SEQEND
  8
M38LXLIFT
  0
POLYLINE
  8
M38LXLIFT
 62
1
 66
     1
 70
     9
  0
VERTEX
  8
M38LXLIFT
 62
1
 10
3812.498
 20
-5071.869
 30
1560.000
 70
    32
  0
VERTEX
  8
M38LXLIFT
 62
1
 10
3801.178
 20
-5080.811
 30
1560.000
 70
    32
  0
VERTEX
  8
M38LXLIFT
 62
1
 10
3780.886
 20
-5064.140
 30
1560.000
 70
    32
  0
VERTEX
  8
M38LXLIFT
 62
1
 10
3767.084
 20
-5042.345
 30
1560.000
 70
    32
  0
VERTEX
  8
M38LXLIFT
 62
1
 10
3769.991
 20
-5036.015
 30
1560.000
 70
    32
  0
VERTEX
  8
M38LXLIFT
 62
1
 10
3780.951
 20
-5019.526
 30
1560.000
 70
    32
  0
VERTEX
  8
M38LXLIFT
 62
1
 10
3787.803
 20
-5020.754
 30
1560.000
 70
    32
  0
VERTEX
  8
M38LXLIFT
 62
1
 10
3804.578
 20
-5033.460
 30
1560.000
 70
    32
  0
VERTEX
  8
M38LXLIFT
 62
1
 10
3826.568
 20
-5061.482
 30
1560.000
 70
    32
  0
SEQEND
  8
M38LXLIFT
  0
POLYLINE
  8
M38LXLIFT
 62
1
 66
     1
 70
     9
  0
VERTEX
  8
M38LXLIFT
 62
1
 10
3776.661
 20
-5195.258
 30
1555.000
 70
    32
  0
VERTEX
  8
M38LXLIFT
 62
1
 10
3758.366
 20
-5173.999
 30
1555.000
 70
    32
  0
VERTEX
  8
M38LXLIFT
 62
1
 10
3772.846
 20
-5158.327
 30
1555.000
 70
    32
  0
VERTEX
  8
M38LXLIFT
 62
1
 10
3782.281
 20
-5146.628
 30
1555.000
 70
    32
  0
VERTEX
  8
M38LXLIFT
 62
1
 10
3792.459
 20
-5141.656
 30
1555.000
 70
    32
  0
VERTEX
  8
M38LXLIFT
 62
1
 10
3809.113
 20
-5158.246
 30
1555.000
 70
    32
  0
VERTEX
  8
M38LXLIFT
 62
1
 10
3820.831
 20
-5174.607
 30
1555.000
 70
    32
  0
VERTEX
  8
M38LXLIFT
 62
1
 10
3829.933
 20
-5188.848
 30
1555.000
 70
    32
  0
VERTEX
  8
M38LXLIFT
 62
1
 10
3819.546
 20
-5196.681
 30
1555.000
 70
    32
  0
VERTEX
  8
M38LXLIFT
 62
1
 10
3807.829
 20
-5204.174
 30
1555.000
 70
    32
  0
VERTEX
  8
M38LXLIFT
 62
1
 10
3792.812
 20
-5211.451
 30
1555.000
 70
    32
  0
SEQEND
  8
M38LXLIFT
  0
POLYLINE
  8
M38LXLIFT
 62
1
 66
     1
 70
     9
  0
VERTEX
  8
M38LXLIFT
 62
1
 10
3846.434
 20
-5102.316
 30
1555.000
 70
    32
  0
VERTEX
  8
M38LXLIFT
 62
1
 10
3859.341
 20
-5123.023
 30
1555.000
 70
    32
  0
VERTEX
  8
M38LXLIFT
 62
1
 10
3871.173
 20
-5135.941
 30
1555.000
 70
    32
  0
VERTEX
  8
M38LXLIFT
 62
1
 10
3874.783
 20
-5145.585
 30
1555.000
 70
    32
  0
VERTEX
  8
M38LXLIFT
 62
1
 10
3861.167
 20
-5155.102
 30
1555.000
 70
    32
  0
VERTEX
  8
M38LXLIFT
 62
1
 10
3853.690
 20
-5153.458
 30
1555.000
 70
    32
  0
VERTEX
  8
M38LXLIFT
 62
1
 10
3842.208
 20
-5135.624
 30
1555.000
 70
    32
  0
VERTEX
  8
M38LXLIFT
 62
1
 10
3829.407
 20
-5111.913
 30
1555.000
 70
    32
  0
VERTEX
  8
M38LXLIFT
 62
1
 10
3837.344
 20
-5106.392
 30
1555.000
 70
    32
  0
SEQEND
  8
M38LXLIFT
  0
POLYLINE
  8
M38LXLIFT
 62
1
 66
     1
 70
     9
  0
VERTEX
  8
M38LXLIFT
 62
1
 10
3751.917
 20
-5236.458
 30
1503.000
 70
    32
  0
VERTEX
  8
M38LXLIFT
 62
1
 10
3761.474
 20
-5255.004
 30
1503.000
 70
    32
  0
VERTEX
  8
M38LXLIFT
 62
1
 10
3769.687
 20
-5266.522
 30
1503.000
 70
    32
  0
VERTEX
  8
M38LXLIFT
 62
1
 10
3774.000
 20
-5276.504
 30
1503.000
 70
    32
  0
VERTEX
  8
M38LXLIFT
 62
1
 10
3779.293
 20
-5288.163
 30
1503.000
 70
    32
  0
VERTEX
  8
M38LXLIFT
 62
1
 10
3784.975
 20
-5297.493
 30
1503.000
 70
    32
  0
VERTEX
  8
M38LXLIFT
 62
1
 10
3793.598
 20
-5308.827
 30
1503.000
 70
    32
  0
VERTEX
  8
M38LXLIFT
 62
1
 10
3786.728
 20
-5315.992
 30
1503.000
 70
    32
  0
VERTEX
  8
M38LXLIFT
 62
1
 10
3777.141
 20
-5324.340
 30
1503.000
 70
    32
  0
VERTEX
  8
M38LXLIFT
 62
1
 10
3776.032
 20
-5331.714
 30
1503.000
 70
    32
  0
VERTEX
  8
M38LXLIFT
 62
1
 10
3769.173
 20
-5339.196
 30
1503.000
 70
    32
  0
VERTEX
  8
M38LXLIFT
 62
1
 10
3773.487
 20
-5347.667
 30
1503.000
 70
    32
  0
VERTEX
  8
M38LXLIFT
 62
1
 10
3778.523
 20
-5360.479
 30
1503.000
 70
    32
  0
VERTEX
  8
M38LXLIFT
 62
1
 10
3775.126
 20
-5368.730
 30
1503.000
 70
    32
  0
VERTEX
  8
M38LXLIFT
 62
1
 10
3774.659
 20
-5378.668
 30
1503.000
 70
    32
  0
VERTEX
  8
M38LXLIFT
 62
1
 10
3769.599
 20
-5383.680
 30
1503.000
 70
    32
  0
VERTEX
  8
M38LXLIFT
 62
1
 10
3763.440
 20
-5370.049
 30
1503.000
 70
    32
  0
VERTEX
  8
M38LXLIFT
 62
1
 10
3757.716
 20
-5360.964
 30
1503.000
 70
    32
  0
VERTEX
  8
M38LXLIFT
 62
1
 10
3745.852
 20
-5341.150
 30
1503.000
 70
    32
  0
VERTEX
  8
M38LXLIFT
 62
1
 10
3733.637
 20
-5325.686
 30
1503.000
 70
    32
  0
VERTEX
  8
M38LXLIFT
 62
1
 10
3719.608
 20
-5305.257
 30
1503.000
 70
    32
  0
VERTEX
  8
M38LXLIFT
 62
1
 10
3712.827
 20
-5289.696
 30
1503.000
 70
    32
  0
VERTEX
  8
M38LXLIFT
 62
1
 10
3698.592
 20
-5271.248
 30
1503.000
 70
    32
  0
VERTEX
  8
M38LXLIFT
 62
1
 10
3697.837
 20
-5256.570
 30
1503.000
 70
    32
  0
VERTEX
  8
M38LXLIFT
 62
1
 10
3708.186
 20
-5267.752
 30
1503.000
 70
    32
  0
VERTEX
  8
M38LXLIFT
 62
1
 10
3713.016
 20
-5269.380
 30
1503.000
 70
    32
  0
VERTEX
  8
M38LXLIFT
 62
1
 10
3717.205
 20
-5281.609
 30
1503.000
 70
    32
  0
VERTEX
  8
M38LXLIFT
 62
1
 10
3723.669
 20
-5297.181
 30
1503.000
 70
    32
  0
VERTEX
  8
M38LXLIFT
 62
1
 10
3733.049
 20
-5306.248
 30
1503.000
 70
    32
  0
VERTEX
  8
M38LXLIFT
 62
1
 10
3745.054
 20
-5315.818
 30
1503.000
 70
    32
  0
VERTEX
  8
M38LXLIFT
 62
1
 10
3755.291
 20
-5325.784
 30
1503.000
 70
    32
  0
VERTEX
  8
M38LXLIFT
 62
1
 10
3764.112
 20
-5318.631
 30
1503.000
 70
    32
  0
VERTEX
  8
M38LXLIFT
 62
1
 10
3764.661
 20
-5308.958
 30
1503.000
 70
    32
  0
VERTEX
  8
M38LXLIFT
 62
1
 10
3768.367
 20
-5296.602
 30
1503.000
 70
    32
  0
VERTEX
  8
M38LXLIFT
 62
1
 10
3764.202
 20
-5280.470
 30
1503.000
 70
    32
  0
VERTEX
  8
M38LXLIFT
 62
1
 10
3759.116
 20
-5265.319
 30
1503.000
 70
    32
  0
VERTEX
  8
M38LXLIFT
 62
1
 10
3749.016
 20
-5249.642
 30
1503.000
 70
    32
  0
VERTEX
  8
M38LXLIFT
 62
1
 10
3743.242
 20
-5240.486
 30
1503.000
 70
    32
  0
SEQEND
  8
M38LXLIFT
  0
POLYLINE
  8
M38LXLIFT
 62
1
 66
     1
 70
     9
  0
VERTEX
  8
M38LXLIFT
 62
1
 10
3764.430
 20
-5330.539
 30
1565.000
 70
    32
  0
VERTEX
  8
M38LXLIFT
 62
1
 10
3771.998
 20
-5330.049
 30
1565.000
 70
    32
  0
VERTEX
  8
M38LXLIFT
 62
1
 10
3783.693
 20
-5337.203
 30
1565.000
 70
    32
  0
VERTEX
  8
M38LXLIFT
 62
1
 10
3794.227
 20
-5350.843
 30
1565.000
 70
    32
  0
VERTEX
  8
M38LXLIFT
 62
1
 10
3792.612
 20
-5361.346
 30
1565.000
 70
    32
  0
VERTEX
  8
M38LXLIFT
 62
1
 10
3788.963
 20
-5364.099
 30
1565.000
 70
    32
  0
VERTEX
  8
M38LXLIFT
 62
1
 10
3785.002
 20
-5367.620
 30
1565.000
 70
    32
  0
VERTEX
  8
M38LXLIFT
 62
1
 10
3774.619
 20
-5356.584
 30
1565.000
 70
    32
  0
VERTEX
  8
M38LXLIFT
 62
1
 10
3768.904
 20
-5347.050
 30
1565.000
 70
    32
  0
VERTEX
  8
M38LXLIFT
 62
1
 10
3760.445
 20
-5333.427
 30
1565.000
 70
    32
  0
SEQEND
  8
M38LXLIFT
  0
POLYLINE
  8
M38LXLIFT
 62
1
 66
     1
 70
     9
  0
VERTEX
  8
M38LXLIFT
 62
1
 10
3818.626
 20
-5270.976
 30
1566.000
 70
    32
  0
VERTEX
  8
M38LXLIFT
 62
1
 10
3814.435
 20
-5258.602
 30
1566.000
 70
    32
  0
VERTEX
  8
M38LXLIFT
 62
1
 10
3813.482
 20
-5246.052
 30
1566.000
 70
    32
  0
VERTEX
  8
M38LXLIFT
 62
1
 10
3810.478
 20
-5238.460
 30
1566.000
 70
    32
  0
VERTEX
  8
M38LXLIFT
 62
1
 10
3804.569
 20
-5225.811
 30
1566.000
 70
    32
  0
VERTEX
  8
M38LXLIFT
 62
1
 10
3834.027
 20
-5203.707
 30
1566.000
 70
    32
  0
VERTEX
  8
M38LXLIFT
 62
1
 10
3833.399
 20
-5222.612
 30
1566.000
 70
    32
  0
VERTEX
  8
M38LXLIFT
 62
1
 10
3827.548
 20
-5250.186
 30
1566.000
 70
    32
  0
VERTEX
  8
M38LXLIFT
 62
1
 10
3825.470
 20
-5266.343
 30
1566.000
 70
    32
  0
SEQEND
  8
M38LXLIFT
  0
POLYLINE
  8
M38LXLIFT
 62
1
 66
     1
 70
     9
  0
VERTEX
  8
M38LXLIFT
 62
1
 10
3800.181
 20
-5139.336
 30
1501.000
 70
    32
  0
VERTEX
  8
M38LXLIFT
 62
1
 10
3795.923
 20
-5124.890
 30
1501.000
 70
    32
  0
VERTEX
  8
M38LXLIFT
 62
1
 10
3791.775
 20
-5112.415
 30
1501.000
 70
    32
  0
VERTEX
  8
M38LXLIFT
 62
1
 10
3800.552
 20
-5107.774
 30
1501.000
 70
    32
  0
VERTEX
  8
M38LXLIFT
 62
1
 10
3809.117
 20
-5114.185
 30
1501.000
 70
    32
  0
VERTEX
  8
M38LXLIFT
 62
1
 10
3814.726
 20
-5113.423
 30
1501.000
 70
    32
  0
VERTEX
  8
M38LXLIFT
 62
1
 10
3820.652
 20
-5110.384
 30
1501.000
 70
    32
  0
VERTEX
  8
M38LXLIFT
 62
1
 10
3822.992
 20
-5122.745
 30
1501.000
 70
    32
  0
SEQEND
  8
M38LXLIFT
  0
POLYLINE
  8
M38LXLIFT
 62
1
 66
     1
 70
     9
  0
VERTEX
  8
M38LXLIFT
 62
1
 10
3851.625
 20
-5182.886
 30
1464.000
 70
    32
  0
VERTEX
  8
M38LXLIFT
 62
1
 10
3849.250
 20
-5176.535
 30
1464.000
 70
    32
  0
VERTEX
  8
M38LXLIFT
 62
1
 10
3839.864
 20
-5169.646
 30
1464.000
 70
    32
  0
VERTEX
  8
M38LXLIFT
 62
1
 10
3840.719
 20
-5162.617
 30
1464.000
 70
    32
  0
VERTEX
  8
M38LXLIFT
 62
1
 10
3846.271
 20
-5157.873
 30
1464.000
 70
    32
  0
VERTEX
  8
M38LXLIFT
 62
1
 10
3851.734
 20
-5152.427
 30
1464.000
 70
    32
  0
VERTEX
  8
M38LXLIFT
 62
1
 10
3859.516
 20
-5157.776
 30
1464.000
 70
    32
  0
VERTEX
  8
M38LXLIFT
 62
1
 10
3857.944
 20
-5165.897
 30
1464.000
 70
    32
  0
VERTEX
  8
M38LXLIFT
 62
1
 10
3861.760
 20
-5172.260
 30
1464.000
 70
    32
  0
VERTEX
  8
M38LXLIFT
 62
1
 10
3867.486
 20
-5177.511
 30
1464.000
 70
    32
  0
VERTEX
  8
M38LXLIFT
 62
1
 10
3865.545
 20
-5185.580
 30
1464.000
 70
    32
  0
VERTEX
  8
M38LXLIFT
 62
1
 10
3858.518
 20
-5190.557
 30
1464.000
 70
    32
  0
VERTEX
  8
M38LXLIFT
 62
1
 10
3853.387
 20
-5190.029
 30
1464.000
 70
    32
  0
SEQEND
  8
M38LXLIFT
  0
POLYLINE
  8
M38LXLIFT
 62
1
 66
     1
 70
     9
  0
VERTEX
  8
M38LXLIFT
 62
1
 10
3928.215
 20
-5241.857
 30
1555.000
 70
    32
  0
VERTEX
  8
M38LXLIFT
 62
1
 10
3918.379
 20
-5231.400
 30
1555.000
 70
    32
  0
VERTEX
  8
M38LXLIFT
 62
1
 10
3903.351
 20
-5213.311
 30
1555.000
 70
    32
  0
VERTEX
  8
M38LXLIFT
 62
1
 10
3901.164
 20
-5198.734
 30
1555.000
 70
    32
  0
VERTEX
  8
M38LXLIFT
 62
1
 10
3897.586
 20
-5187.333
 30
1555.000
 70
    32
  0
VERTEX
  8
M38LXLIFT
 62
1
 10
3911.703
 20
-5176.260
 30
1555.000
 70
    32
  0
VERTEX
  8
M38LXLIFT
 62
1
 10
3924.406
 20
-5189.633
 30
1555.000
 70
    32
  0
VERTEX
  8
M38LXLIFT
 62
1
 10
3938.334
 20
-5210.253
 30
1555.000
 70
    32
  0
VERTEX
  8
M38LXLIFT
 62
1
 10
3944.117
 20
-5230.254
 30
1555.000
 70
    32
  0
SEQEND
  8
M38LXLIFT
  0
POLYLINE
  8
M38LXLIFT
 62
1
 66
     1
 70
     9
  0
VERTEX
  8
M38LXLIFT
 62
1
 10
4014.072
 20
-5176.809
 30
1535.000
 70
    32
  0
VERTEX
  8
M38LXLIFT
 62
1
 10
4022.151
 20
-5169.448
 30
1535.000
 70
    32
  0
VERTEX
  8
M38LXLIFT
 62
1
 10
4031.453
 20
-5173.842
 30
1535.000
 70
    32
  0
VERTEX
  8
M38LXLIFT
 62
1
 10
4035.064
 20
-5185.547
 30
1535.000
 70
    32
  0
VERTEX
  8
M38LXLIFT
 62
1
 10
4039.273
 20
-5199.775
 30
1535.000
 70
    32
  0
VERTEX
  8
M38LXLIFT
 62
1
 10
4039.274
 20
-5209.924
 30
1535.000
 70
    32
  0
VERTEX
  8
M38LXLIFT
 62
1
 10
4029.928
 20
-5219.244
 30
1535.000
 70
    32
  0
VERTEX
  8
M38LXLIFT
 62
1
 10
4016.391
 20
-5229.435
 30
1535.000
 70
    32
  0
VERTEX
  8
M38LXLIFT
 62
1
 10
3999.486
 20
-5232.592
 30
1535.000
 70
    32
  0
VERTEX
  8
M38LXLIFT
 62
1
 10
3991.945
 20
-5231.381
 30
1535.000
 70
    32
  0
VERTEX
  8
M38LXLIFT
 62
1
 10
3983.451
 20
-5219.640
 30
1535.000
 70
    32
  0
VERTEX
  8
M38LXLIFT
 62
1
 10
3980.728
 20
-5206.929
 30
1535.000
 70
    32
  0
VERTEX
  8
M38LXLIFT
 62
1
 10
3983.394
 20
-5196.515
 30
1535.000
 70
    32
  0
VERTEX
  8
M38LXLIFT
 62
1
 10
3994.252
 20
-5189.907
 30
1535.000
 70
    32
  0
VERTEX
  8
M38LXLIFT
 62
1
 10
4001.913
 20
-5185.621
 30
1535.000
 70
    32
  0
SEQEND
  8
M38LXLIFT
  0
POLYLINE
  8
M38LXLIFT
 62
1
 66
     1
 70
     9
  0
VERTEX
  8
M38LXLIFT
 62
1
 10
4007.116
 20
-5308.868
 30
1535.000
 70
    32
  0
VERTEX
  8
M38LXLIFT
 62
1
 10
3992.685
 20
-5294.255
 30
1535.000
 70
    32
  0
VERTEX
  8
M38LXLIFT
 62
1
 10
3985.595
 20
-5287.404
 30
1535.000
 70
    32
  0
VERTEX
  8
M38LXLIFT
 62
1
 10
3966.881
 20
-5302.970
 30
1535.000
 70
    32
  0
VERTEX
  8
M38LXLIFT
 62
1
 10
3951.090
 20
-5277.146
 30
1535.000
 70
    32
  0
VERTEX
  8
M38LXLIFT
 62
1
 10
3955.277
 20
-5270.760
 30
1535.000
 70
    32
  0
VERTEX
  8
M38LXLIFT
 62
1
 10
3970.187
 20
-5261.068
 30
1535.000
 70
    32
  0
VERTEX
  8
M38LXLIFT
 62
1
 10
3976.750
 20
-5250.557
 30
1535.000
 70
    32
  0
VERTEX
  8
M38LXLIFT
 62
1
 10
3993.251
 20
-5249.914
 30
1535.000
 70
    32
  0
VERTEX
  8
M38LXLIFT
 62
1
 10
4007.321
 20
-5250.570
 30
1535.000
 70
    32
  0
VERTEX
  8
M38LXLIFT
 62
1
 10
4020.242
 20
-5265.229
 30
1535.000
 70
    32
  0
VERTEX
  8
M38LXLIFT
 62
1
 10
4025.947
 20
-5267.507
 30
1535.000
 70
    32
  0
VERTEX
  8
M38LXLIFT
 62
1
 10
4035.187
 20
-5252.973
 30
1535.000
 70
    32
  0
VERTEX
  8
M38LXLIFT
 62
1
 10
4039.439
 20
-5230.871
 30
1535.000
 70
    32
  0
VERTEX
  8
M38LXLIFT
 62
1
 10
4054.110
 20
-5227.098
 30
1535.000
 70
    32
  0
VERTEX
  8
M38LXLIFT
 62
1
 10
4074.995
 20
-5205.687
 30
1535.000
 70
    32
  0
VERTEX
  8
M38LXLIFT
 62
1
 10
4068.637
 20
-5192.984
 30
1535.000
 70
    32
  0
VERTEX
  8
M38LXLIFT
 62
1
 10
4094.858
 20
-5163.652
 30
1535.000
 70
    32
  0
VERTEX
  8
M38LXLIFT
 62
1
 10
4112.247
 20
-5156.927
 30
1535.000
 70
    32
  0
VERTEX
  8
M38LXLIFT
 62
1
 10
4127.609
 20
-5171.604
 30
1535.000
 70
    32
  0
VERTEX
  8
M38LXLIFT
 62
1
 10
4125.527
 20
-5190.179
 30
1535.000
 70
    32
  0
VERTEX
  8
M38LXLIFT
 62
1
 10
4131.571
 20
-5218.126
 30
1535.000
 70
    32
  0
VERTEX
  8
M38LXLIFT
 62
1
 10
4094.945
 20
-5246.109
 30
1535.000
 70
    32
  0
VERTEX
  8
M38LXLIFT
 62
1
 10
4029.755
 20
-5292.081
 30
1535.000
 70
    32
  0
SEQEND
  8
M38LXLIFT
  0
POLYLINE
  8
M38LXLIFT
 62
1
 66
     1
 70
     9
  0
VERTEX
  8
M38LXLIFT
 62
1
 10
4035.591
 20
-5454.211
 30
1506.000
 70
    32
  0
VERTEX
  8
M38LXLIFT
 62
1
 10
4045.391
 20
-5472.992
 30
1506.000
 70
    32
  0
VERTEX
  8
M38LXLIFT
 62
1
 10
4049.855
 20
-5487.839
 30
1506.000
 70
    32
  0
VERTEX
  8
M38LXLIFT
 62
1
 10
4060.140
 20
-5500.857
 30
1506.000
 70
    32
  0
VERTEX
  8
M38LXLIFT
 62
1
 10
4068.278
 20
-5521.381
 30
1506.000
 70
    32
  0
VERTEX
  8
M38LXLIFT
 62
1
 10
4063.580
 20
-5523.265
 30
1506.000
 70
    32
  0
VERTEX
  8
M38LXLIFT
 62
1
 10
4049.275
 20
-5506.337
 30
1506.000
 70
    32
  0
VERTEX
  8
M38LXLIFT
 62
1
 10
4037.363
 20
-5488.976
 30
1506.000
 70
    32
  0
VERTEX
  8
M38LXLIFT
 62
1
 10
4032.115
 20
-5467.659
 30
1506.000
 70
    32
  0
VERTEX
  8
M38LXLIFT
 62
1
 10
4029.567
 20
-5457.704
 30
1506.000
 70
    32
  0
SEQEND
  8
M38LXLIFT
  0
POLYLINE
  8
M38LXLIFT
 62
1
 66
     1
 70
     9
  0
VERTEX
  8
M38LXLIFT
 62
1
 10
4057.618
 20
-5331.189
 30
1469.000
 70
    32
  0
VERTEX
  8
M38LXLIFT
 62
1
 10
4070.947
 20
-5346.215
 30
1469.000
 70
    32
  0
VERTEX
  8
M38LXLIFT
 62
1
 10
4073.412
 20
-5353.268
 30
1469.000
 70
    32
  0
VERTEX
  8
M38LXLIFT
 62
1
 10
4067.222
 20
-5361.685
 30
1469.000
 70
    32
  0
VERTEX
  8
M38LXLIFT
 62
1
 10
4068.725
 20
-5375.188
 30
1469.000
 70
    32
  0
VERTEX
  8
M38LXLIFT
 62
1
 10
4070.937
 20
-5385.404
 30
1469.000
 70
    32
  0
VERTEX
  8
M38LXLIFT
 62
1
 10
4066.572
 20
-5393.323
 30
1469.000
 70
    32
  0
VERTEX
  8
M38LXLIFT
 62
1
 10
4057.362
 20
-5396.867
 30
1469.000
 70
    32
  0
VERTEX
  8
M38LXLIFT
 62
1
 10
4050.951
 20
-5396.976
 30
1469.000
 70
    32
  0
VERTEX
  8
M38LXLIFT
 62
1
 10
4041.786
 20
-5387.609
 30
1469.000
 70
    32
  0
VERTEX
  8
M38LXLIFT
 62
1
 10
4036.590
 20
-5388.452
 30
1469.000
 70
    32
  0
VERTEX
  8
M38LXLIFT
 62
1
 10
4035.726
 20
-5377.108
 30
1469.000
 70
    32
  0
VERTEX
  8
M38LXLIFT
 62
1
 10
4029.881
 20
-5367.765
 30
1469.000
 70
    32
  0
VERTEX
  8
M38LXLIFT
 62
1
 10
4028.583
 20
-5363.132
 30
1469.000
 70
    32
  0
VERTEX
  8
M38LXLIFT
 62
1
 10
4031.097
 20
-5353.199
 30
1469.000
 70
    32
  0
VERTEX
  8
M38LXLIFT
 62
1
 10
4041.677
 20
-5344.328
 30
1469.000
 70
    32
  0
SEQEND
  8
M38LXLIFT
  0
POLYLINE
  8
M38LXLIFT
 62
1
 66
     1
 70
     9
  0
VERTEX
  8
M38LXLIFT
 62
1
 10
4100.131
 20
-5389.199
 30
1479.000
 70
    32
  0
VERTEX
  8
M38LXLIFT
 62
1
 10
4111.049
 20
-5395.577
 30
1479.000
 70
    32
  0
VERTEX
  8
M38LXLIFT
 62
1
 10
4118.071
 20
-5404.822
 30
1479.000
 70
    32
  0
VERTEX
  8
M38LXLIFT
 62
1
 10
4111.363
 20
-5413.363
 30
1479.000
 70
    32
  0
VERTEX
  8
M38LXLIFT
 62
1
 10
4099.181
 20
-5420.253
 30
1479.000
 70
    32
  0
VERTEX
  8
M38LXLIFT
 62
1
 10
4088.250
 20
-5411.483
 30
1479.000
 70
    32
  0
VERTEX
  8
M38LXLIFT
 62
1
 10
4083.871
 20
-5399.746
 30
1479.000
 70
    32
  0
VERTEX
  8
M38LXLIFT
 62
1
 10
4079.454
 20
-5394.043
 30
1479.000
 70
    32
  0
VERTEX
  8
M38LXLIFT
 62
1
 10
4067.669
 20
-5392.124
 30
1479.000
 70
    32
  0
VERTEX
  8
M38LXLIFT
 62
1
 10
4062.292
 20
-5385.708
 30
1479.000
 70
    32
  0
VERTEX
  8
M38LXLIFT
 62
1
 10
4066.846
 20
-5378.098
 30
1479.000
 70
    32
  0
VERTEX
  8
M38LXLIFT
 62
1
 10
4080.926
 20
-5375.270
 30
1479.000
 70
    32
  0
VERTEX
  8
M38LXLIFT
 62
1
 10
4088.080
 20
-5375.792
 30
1479.000
 70
    32
  0
VERTEX
  8
M38LXLIFT
 62
1
 10
4094.145
 20
-5383.886
 30
1479.000
 70
    32
  0
SEQEND
  8
M38LXLIFT
  0
POLYLINE
  8
M38LXLIFT
 62
1
 66
     1
 70
     9
  0
VERTEX
  8
M38LXLIFT
 62
1
 10
4056.429
 20
-5316.317
 30
1475.000
 70
    32
  0
VERTEX
  8
M38LXLIFT
 62
1
 10
4039.079
 20
-5303.426
 30
1475.000
 70
    32
  0
VERTEX
  8
M38LXLIFT
 62
1
 10
4031.788
 20
-5294.706
 30
1475.000
 70
    32
  0
VERTEX
  8
M38LXLIFT
 62
1
 10
4029.709
 20
-5287.282
 30
1475.000
 70
    32
  0
VERTEX
  8
M38LXLIFT
 62
1
 10
4024.263
 20
-5276.767
 30
1475.000
 70
    32
  0
VERTEX
  8
M38LXLIFT
 62
1
 10
4036.889
 20
-5275.227
 30
1475.000
 70
    32
  0
VERTEX
  8
M38LXLIFT
 62
1
 10
4049.382
 20
-5270.837
 30
1475.000
 70
    32
  0
VERTEX
  8
M38LXLIFT
 62
1
 10
4059.044
 20
-5272.244
 30
1475.000
 70
    32
  0
VERTEX
  8
M38LXLIFT
 62
1
 10
4067.984
 20
-5277.567
 30
1475.000
 70
    32
  0
VERTEX
  8
M38LXLIFT
 62
1
 10
4078.083
 20
-5283.128
 30
1475.000
 70
    32
  0
VERTEX
  8
M38LXLIFT
 62
1
 10
4083.474
 20
-5270.425
 30
1475.000
 70
    32
  0
VERTEX
  8
M38LXLIFT
 62
1
 10
4089.782
 20
-5265.345
 30
1475.000
 70
    32
  0
VERTEX
  8
M38LXLIFT
 62
1
 10
4099.429
 20
-5266.435
 30
1475.000
 70
    32
  0
VERTEX
  8
M38LXLIFT
 62
1
 10
4105.110
 20
-5276.231
 30
1475.000
 70
    32
  0
VERTEX
  8
M38LXLIFT
 62
1
 10
4101.665
 20
-5285.646
 30
1475.000
 70
    32
  0
VERTEX
  8
M38LXLIFT
 62
1
 10
4084.234
 20
-5297.273
 30
1475.000
 70
    32
  0
SEQEND
  8
M38LXLIFT
  0
POLYLINE
  8
M38LXLIFT
 62
1
 66
     1
 70
     9
  0
VERTEX
  8
M38LXLIFT
 62
1
 10
4023.823
 20
-5357.496
 30
1535.000
 70
    32
  0
VERTEX
  8
M38LXLIFT
 62
1
 10
4034.412
 20
-5350.099
 30
1535.000
 70
    32
  0
VERTEX
  8
M38LXLIFT
 62
1
 10
4054.722
 20
-5334.311
 30
1535.000
 70
    32
  0
VERTEX
  8
M38LXLIFT
 62
1
 10
4073.303
 20
-5319.729
 30
1535.000
 70
    32
  0
VERTEX
  8
M38LXLIFT
 62
1
 10
4095.301
 20
-5301.664
 30
1535.000
 70
    32
  0
VERTEX
  8
M38LXLIFT
 62
1
 10
4115.847
 20
-5286.911
 30
1535.000
 70
    32
  0
VERTEX
  8
M38LXLIFT
 62
1
 10
4132.914
 20
-5271.936
 30
1535.000
 70
    32
  0
VERTEX
  8
M38LXLIFT
 62
1
 10
4148.207
 20
-5261.732
 30
1535.000
 70
    32
  0
VERTEX
  8
M38LXLIFT
 62
1
 10
4162.171
 20
-5249.781
 30
1535.000
 70
    32
  0
VERTEX
  8
M38LXLIFT
 62
1
 10
4166.114
 20
-5251.193
 30
1535.000
 70
    32
  0
VERTEX
  8
M38LXLIFT
 62
1
 10
4180.336
 20
-5246.107
 30
1535.000
 70
    32
  0
VERTEX
  8
M38LXLIFT
 62
1
 10
4201.105
 20
-5238.024
 30
1535.000
 70
    32
  0
VERTEX
  8
M38LXLIFT
 62
1
 10
4209.004
 20
-5247.679
 30
1535.000
 70
    32
  0
VERTEX
  8
M38LXLIFT
 62
1
 10
4203.846
 20
-5253.369
 30
1535.000
 70
    32
  0
VERTEX
  8
M38LXLIFT
 62
1
 10
4194.960
 20
-5260.683
 30
1535.000
 70
    32
  0
VERTEX
  8
M38LXLIFT
 62
1
 10
4184.411
 20
-5273.786
 30
1535.000
 70
    32
  0
VERTEX
  8
M38LXLIFT
 62
1
 10
4179.462
 20
-5286.710
 30
1535.000
 70
    32
  0
VERTEX
  8
M38LXLIFT
 62
1
 10
4166.941
 20
-5288.957
 30
1535.000
 70
    32
  0
VERTEX
  8
M38LXLIFT
 62
1
 10
4157.545
 20
-5291.253
 30
1535.000
 70
    32
  0
VERTEX
  8
M38LXLIFT
 62
1
 10
4147.929
 20
-5302.102
 30
1535.000
 70
    32
  0
VERTEX
  8
M38LXLIFT
 62
1
 10
4138.898
 20
-5311.402
 30
1535.000
 70
    32
  0
VERTEX
  8
M38LXLIFT
 62
1
 10
4129.232
 20
-5310.153
 30
1535.000
 70
    32
  0
VERTEX
  8
M38LXLIFT
 62
1
 10
4117.718
 20
-5313.289
 30
1535.000
 70
    32
  0
VERTEX
  8
M38LXLIFT
 62
1
 10
4107.736
 20
-5317.134
 30
1535.000
 70
    32
  0
VERTEX
  8
M38LXLIFT
 62
1
 10
4095.912
 20
-5326.243
 30
1535.000
 70
    32
  0
VERTEX
  8
M38LXLIFT
 62
1
 10
4086.379
 20
-5336.477
 30
1535.000
 70
    32
  0
VERTEX
  8
M38LXLIFT
 62
1
 10
4086.948
 20
-5342.443
 30
1535.000
 70
    32
  0
VERTEX
  8
M38LXLIFT
 62
1
 10
4084.230
 20
-5350.469
 30
1535.000
 70
    32
  0
VERTEX
  8
M38LXLIFT
 62
1
 10
4091.722
 20
-5357.124
 30
1535.000
 70
    32
  0
VERTEX
  8
M38LXLIFT
 62
1
 10
4103.057
 20
-5365.929
 30
1535.000
 70
    32
  0
VERTEX
  8
M38LXLIFT
 62
1
 10
4100.770
 20
-5370.318
 30
1535.000
 70
    32
  0
VERTEX
  8
M38LXLIFT
 62
1
 10
4092.029
 20
-5378.404
 30
1535.000
 70
    32
  0
VERTEX
  8
M38LXLIFT
 62
1
 10
4078.886
 20
-5379.690
 30
1535.000
 70
    32
  0
VERTEX
  8
M38LXLIFT
 62
1
 10
4065.137
 20
-5372.060
 30
1535.000
 70
    32
  0
VERTEX
  8
M38LXLIFT
 62
1
 10
4051.153
 20
-5366.153
 30
1535.000
 70
    32
  0
VERTEX
  8
M38LXLIFT
 62
1
 10
4053.680
 20
-5373.388
 30
1535.000
 70
    32
  0
VERTEX
  8
M38LXLIFT
 62
1
 10
4042.973
 20
-5383.963
 30
1535.000
 70
    32
  0
VERTEX
  8
M38LXLIFT
 62
1
 10
4027.561
 20
-5374.730
 30
1535.000
 70
    32
  0
VERTEX
  8
M38LXLIFT
 62
1
 10
4017.045
 20
-5364.971
 30
1535.000
 70
    32
  0
SEQEND
  8
M38LXLIFT
  0
POLYLINE
  8
M38LXLIFT
 62
1
 66
     1
 70
     9
  0
VERTEX
  8
M38LXLIFT
 62
1
 10
4234.363
 20
-5287.207
 30
1549.000
 70
    32
  0
VERTEX
  8
M38LXLIFT
 62
1
 10
4218.833
 20
-5308.626
 30
1549.000
 70
    32
  0
VERTEX
  8
M38LXLIFT
 62
1
 10
4210.204
 20
-5316.490
 30
1549.000
 70
    32
  0
VERTEX
  8
M38LXLIFT
 62
1
 10
4199.060
 20
-5311.424
 30
1549.000
 70
    32
  0
VERTEX
  8
M38LXLIFT
 62
1
 10
4177.974
 20
-5296.955
 30
1549.000
 70
    32
  0
VERTEX
  8
M38LXLIFT
 62
1
 10
4173.418
 20
-5277.151
 30
1549.000
 70
    32
  0
VERTEX
  8
M38LXLIFT
 62
1
 10
4178.159
 20
-5264.507
 30
1549.000
 70
    32
  0
VERTEX
  8
M38LXLIFT
 62
1
 10
4191.032
 20
-5259.214
 30
1549.000
 70
    32
  0
VERTEX
  8
M38LXLIFT
 62
1
 10
4203.503
 20
-5258.766
 30
1549.000
 70
    32
  0
VERTEX
  8
M38LXLIFT
 62
1
 10
4213.718
 20
-5256.695
 30
1549.000
 70
    32
  0
VERTEX
  8
M38LXLIFT
 62
1
 10
4230.004
 20
-5264.225
 30
1549.000
 70
    32
  0
VERTEX
  8
M38LXLIFT
 62
1
 10
4235.022
 20
-5271.767
 30
1549.000
 70
    32
  0
VERTEX
  8
M38LXLIFT
 62
1
 10
4229.236
 20
-5281.913
 30
1549.000
 70
    32
  0
SEQEND
  8
M38LXLIFT
  0
POLYLINE
  8
M38LXLIFT
 62
1
 66
     1
 70
     9
  0
VERTEX
  8
M38LXLIFT
 62
1
 10
4252.985
 20
-5258.922
 30
1465.000
 70
    32
  0
VERTEX
  8
M38LXLIFT
 62
1
 10
4242.789
 20
-5256.497
 30
1465.000
 70
    32
  0
VERTEX
  8
M38LXLIFT
 62
1
 10
4227.965
 20
-5251.734
 30
1465.000
 70
    32
  0
VERTEX
  8
M38LXLIFT
 62
1
 10
4216.567
 20
-5257.481
 30
1465.000
 70
    32
  0
VERTEX
  8
M38LXLIFT
 62
1
 10
4202.271
 20
-5263.325
 30
1465.000
 70
    32
  0
VERTEX
  8
M38LXLIFT
 62
1
 10
4185.656
 20
-5274.552
 30
1465.000
 70
    32
  0
VERTEX
  8
M38LXLIFT
 62
1
 10
4174.200
 20
-5278.911
 30
1465.000
 70
    32
  0
VERTEX
  8
M38LXLIFT
 62
1
 10
4161.780
 20
-5273.103
 30
1465.000
 70
    32
  0
VERTEX
  8
M38LXLIFT
 62
1
 10
4157.783
 20
-5264.896
 30
1465.000
 70
    32
  0
VERTEX
  8
M38LXLIFT
 62
1
 10
4160.742
 20
-5256.718
 30
1465.000
 70
    32
  0
VERTEX
  8
M38LXLIFT
 62
1
 10
4169.461
 20
-5248.153
 30
1465.000
 70
    32
  0
VERTEX
  8
M38LXLIFT
 62
1
 10
4184.413
 20
-5238.951
 30
1465.000
 70
    32
  0
VERTEX
  8
M38LXLIFT
 62
1
 10
4196.980
 20
-5236.063
 30
1465.000
 70
    32
  0
VERTEX
  8
M38LXLIFT
 62
1
 10
4209.335
 20
-5227.503
 30
1465.000
 70
    32
  0
VERTEX
  8
M38LXLIFT
 62
1
 10
4225.490
 20
-5225.868
 30
1465.000
 70
    32
  0
VERTEX
  8
M38LXLIFT
 62
1
 10
4236.795
 20
-5228.887
 30
1465.000
 70
    32
  0
VERTEX
  8
M38LXLIFT
 62
1
 10
4248.895
 20
-5238.789
 30
1465.000
 70
    32
  0
VERTEX
  8
M38LXLIFT
 62
1
 10
4257.713
 20
-5249.298
 30
1465.000
 70
    32
  0
SEQEND
  8
M38LXLIFT
  0
POLYLINE
  8
M38LXLIFT
 62
1
 66
     1
 70
     9
  0
VERTEX
  8
M38LXLIFT
 62
1
 10
4220.957
 20
-5405.214
 30
1491.000
 70
    32
  0
VERTEX
  8
M38LXLIFT
 62
1
 10
4213.966
 20
-5394.846
 30
1491.000
 70
    32
  0
VERTEX
  8
M38LXLIFT
 62
1
 10
4204.276
 20
-5391.880
 30
1491.000
 70
    32
  0
VERTEX
  8
M38LXLIFT
 62
1
 10
4192.801
 20
-5396.073
 30
1491.000
 70
    32
  0
VERTEX
  8
M38LXLIFT
 62
1
 10
4185.667
 20
-5388.009
 30
1491.000
 70
    32
  0
VERTEX
  8
M38LXLIFT
 62
1
 10
4186.271
 20
-5382.943
 30
1491.000
 70
    32
  0
VERTEX
  8
M38LXLIFT
 62
1
 10
4192.003
 20
-5368.435
 30
1491.000
 70
    32
  0
VERTEX
  8
M38LXLIFT
 62
1
 10
4194.387
 20
-5358.850
 30
1491.000
 70
    32
  0
VERTEX
  8
M38LXLIFT
 62
1
 10
4199.035
 20
-5355.372
 30
1491.000
 70
    32
  0
VERTEX
  8
M38LXLIFT
 62
1
 10
4200.872
 20
-5365.313
 30
1491.000
 70
    32
  0
VERTEX
  8
M38LXLIFT
 62
1
 10
4213.198
 20
-5371.799
 30
1491.000
 70
    32
  0
VERTEX
  8
M38LXLIFT
 62
1
 10
4225.150
 20
-5381.751
 30
1491.000
 70
    32
  0
VERTEX
  8
M38LXLIFT
 62
1
 10
4235.442
 20
-5398.879
 30
1491.000
 70
    32
  0
SEQEND
  8
M38LXLIFT
  0
POLYLINE
  8
M38LXLIFT
 62
3
 66
     1
 70
     9
  0
VERTEX
  8
M38LXLIFT
 62
3
 10
4186.606
 20
-5389.757
 30
1425.729
 70
    32
  0
VERTEX
  8
M38LXLIFT
 62
3
 10
4183.604
 20
-5386.240
 30
1425.736
 70
    32
  0
VERTEX
  8
M38LXLIFT
 62
3
 10
4193.188
 20
-5377.939
 30
1425.808
 70
    32
  0
VERTEX
  8
M38LXLIFT
 62
3
 10
4195.749
 20
-5381.105
 30
1425.802
 70
    32
  0
VERTEX
  8
M38LXLIFT
 62
3
 10
4201.635
 20
-5373.252
 30
1425.859
 70
    32
  0
VERTEX
  8
M38LXLIFT
 62
3
 10
4203.535
 20
-5355.542
 30
1425.951
 70
    32
  0
VERTEX
  8
M38LXLIFT
 62
3
 10
4228.187
 20
-5349.236
 30
1426.065
 70
    32
  0
VERTEX
  8
M38LXLIFT
 62
3
 10
4239.991
 20
-5349.211
 30
1426.105
 70
    32
  0
VERTEX
  8
M38LXLIFT
 62
3
 10
4263.919
 20
-5332.997
 30
1426.264
 70
    32
  0
VERTEX
  8
M38LXLIFT
 62
3
 10
4280.530
 20
-5321.741
 30
1426.374
 70
    32
  0
VERTEX
  8
M38LXLIFT
 62
3
 10
4285.757
 20
-5329.646
 30
1426.353
 70
    32
  0
VERTEX
  8
M38LXLIFT
 62
3
 10
4292.732
 20
-5337.119
 30
1426.341
 70
    32
  0
VERTEX
  8
M38LXLIFT
 62
3
 10
4305.686
 20
-5339.470
 30
1426.373
 70
    32
  0
VERTEX
  8
M38LXLIFT
 62
3
 10
4316.974
 20
-5345.172
 30
1426.384
 70
    32
  0
VERTEX
  8
M38LXLIFT
 62
3
 10
4314.605
 20
-5349.846
 30
1426.353
 70
    32
  0
VERTEX
  8
M38LXLIFT
 62
3
 10
4310.641
 20
-5349.942
 30
1426.339
 70
    32
  0
VERTEX
  8
M38LXLIFT
 62
3
 10
4309.317
 20
-5348.712
 30
1426.341
 70
    32
  0
VERTEX
  8
M38LXLIFT
 62
3
 10
4298.131
 20
-5349.440
 30
1426.299
 70
    32
  0
VERTEX
  8
M38LXLIFT
 62
3
 10
4295.133
 20
-5347.861
 30
1426.297
 70
    32
  0
VERTEX
  8
M38LXLIFT
 62
3
 10
4284.299
 20
-5348.236
 30
1426.259
 70
    32
  0
VERTEX
  8
M38LXLIFT
 62
3
 10
4274.613
 20
-5350.459
 30
1426.215
 70
    32
  0
VERTEX
  8
M38LXLIFT
 62
3
 10
4256.393
 20
-5357.192
 30
1426.121
 70
    32
  0
VERTEX
  8
M38LXLIFT
 62
3
 10
4243.461
 20
-5365.412
 30
1426.038
 70
    32
  0
VERTEX
  8
M38LXLIFT
 62
3
 10
4243.142
 20
-5381.269
 30
1425.960
 70
    32
  0
VERTEX
  8
M38LXLIFT
 62
3
 10
4259.011
 20
-5387.049
 30
1425.986
 70
    32
  0
VERTEX
  8
M38LXLIFT
 62
3
 10
4266.493
 20
-5384.479
 30
1426.023
 70
    32
  0
VERTEX
  8
M38LXLIFT
 62
3
 10
4275.923
 20
-5386.749
 30
1426.044
 70
    32
  0
VERTEX
  8
M38LXLIFT
 62
3
 10
4281.921
 20
-5390.524
 30
1426.046
 70
    32
  0
VERTEX
  8
M38LXLIFT
 62
3
 10
4290.996
 20
-5391.210
 30
1426.073
 70
    32
  0
VERTEX
  8
M38LXLIFT
 62
3
 10
4292.071
 20
-5399.488
 30
1426.037
 70
    32
  0
VERTEX
  8
M38LXLIFT
 62
3
 10
4284.317
 20
-5398.624
 30
1426.015
 70
    32
  0
VERTEX
  8
M38LXLIFT
 62
3
 10
4282.199
 20
-5396.866
 30
1426.016
 70
    32
  0
VERTEX
  8
M38LXLIFT
 62
3
 10
4279.824
 20
-5398.193
 30
1426.002
 70
    32
  0
VERTEX
  8
M38LXLIFT
 62
3
 10
4265.190
 20
-5393.379
 30
1425.976
 70
    32
  0
VERTEX
  8
M38LXLIFT
 62
3
 10
4249.332
 20
-5392.531
 30
1425.927
 70
    32
  0
VERTEX
  8
M38LXLIFT
 62
3
 10
4236.995
 20
-5390.267
 30
1425.896
 70
    32
  0
VERTEX
  8
M38LXLIFT
 62
3
 10
4225.486
 20
-5404.738
 30
1425.787
 70
    32
  0
VERTEX
  8
M38LXLIFT
 62
3
 10
4222.424
 20
-5414.875
 30
1425.728
 70
    32
  0
VERTEX
  8
M38LXLIFT
 62
3
 10
4222.608
 20
-5418.398
 30
1425.712
 70
    32
  0
VERTEX
  8
M38LXLIFT
 62
3
 10
4219.081
 20
-5458.839
 30
1425.504
 70
    32
  0
VERTEX
  8
M38LXLIFT
 62
3
 10
4194.531
 20
-5471.312
 30
1425.361
 70
    32
  0
VERTEX
  8
M38LXLIFT
 62
3
 10
4187.806
 20
-5457.143
 30
1425.407
 70
    32
  0
VERTEX
  8
M38LXLIFT
 62
3
 10
4194.877
 20
-5426.649
 30
1425.578
 70
    32
  0
VERTEX
  8
M38LXLIFT
 62
3
 10
4180.383
 20
-5404.481
 30
1425.637
 70
    32
  0
SEQEND
  8
M38LXLIFT
  0
POLYLINE
  8
M38LXLIFT
 62
13
 66
     1
 70
     9
  0
VERTEX
  8
M38LXLIFT
 62
13
 10
4119.292
 20
-5553.820
 30
1425.143
 70
    32
  0
VERTEX
  8
M38LXLIFT
 62
13
 10
4120.461
 20
-5568.355
 30
1425.200
 70
    32
  0
VERTEX
  8
M38LXLIFT
 62
13
 10
4129.738
 20
-5585.081
 30
1425.283
 70
    32
  0
VERTEX
  8
M38LXLIFT
 62
13
 10
4129.388
 20
-5586.138
 30
1425.286
 70
    32
  0
VERTEX
  8
M38LXLIFT
 62
13
 10
4125.513
 20
-5587.290
 30
1425.283
 70
    32
  0
VERTEX
  8
M38LXLIFT
 62
13
 10
4124.283
 20
-5589.495
 30
1425.288
 70
    32
  0
VERTEX
  8
M38LXLIFT
 62
13
 10
4122.962
 20
-5590.025
 30
1425.288
 70
    32
  0
VERTEX
  8
M38LXLIFT
 62
13
 10
4111.047
 20
-5576.916
 30
1425.212
 70
    32
  0
VERTEX
  8
M38LXLIFT
 62
13
 10
4103.113
 20
-5574.021
 30
1425.185
 70
    32
  0
VERTEX
  8
M38LXLIFT
 62
13
 10
4091.734
 20
-5565.317
 30
1425.127
 70
    32
  0
VERTEX
  8
M38LXLIFT
 62
13
 10
4072.030
 20
-5529.842
 30
1424.963
 70
    32
  0
VERTEX
  8
M38LXLIFT
 62
13
 10
4082.602
 20
-5529.296
 30
1424.990
 70
    32
  0
VERTEX
  8
M38LXLIFT
 62
13
 10
4089.585
 20
-5543.646
 30
1425.041
 70
    32
  0
VERTEX
  8
M38LXLIFT
 62
13
 10
4096.385
 20
-5553.768
 30
1425.093
 70
    32
  0
VERTEX
  8
M38LXLIFT
 62
13
 10
4101.492
 20
-5552.086
 30
1425.098
 70
    32
  0
VERTEX
  8
M38LXLIFT
 62
13
 10
4104.745
 20
-5547.675
 30
1425.091
 70
    32
  0
VERTEX
  8
M38LXLIFT
 62
13
 10
4104.124
 20
-5545.033
 30
1425.083
 70
    32
  0
VERTEX
  8
M38LXLIFT
 62
13
 10
4092.643
 20
-5527.959
 30
1425.014
 70
    32
  0
VERTEX
  8
M38LXLIFT
 62
13
 10
4111.586
 20
-5527.664
 30
1425.064
 70
    32
  0
VERTEX
  8
M38LXLIFT
 62
13
 10
4115.027
 20
-5531.095
 30
1425.081
 70
    32
  0
VERTEX
  8
M38LXLIFT
 62
13
 10
4117.250
 20
-5543.867
 30
1425.115
 70
    32
  0
SEQEND
  8
M38LXLIFT
  0
POLYLINE
  8
M38LXLIFT
 62
6
 66
     1
 70
     9
  0
VERTEX
  8
M38LXLIFT
 62
6
 10
4115.800
 20
-5439.942
 30
1425.051
 70
    32
  0
VERTEX
  8
M38LXLIFT
 62
6
 10
4108.731
 20
-5429.650
 30
1424.996
 70
    32
  0
VERTEX
  8
M38LXLIFT
 62
6
 10
4102.353
 20
-5412.839
 30
1424.961
 70
    32
  0
VERTEX
  8
M38LXLIFT
 62
6
 10
4114.576
 20
-5402.947
 30
1425.105
 70
    32
  0
VERTEX
  8
M38LXLIFT
 62
6
 10
4118.732
 20
-5410.073
 30
1425.135
 70
    32
  0
VERTEX
  8
M38LXLIFT
 62
6
 10
4126.399
 20
-5417.830
 30
1425.200
 70
    32
  0
VERTEX
  8
M38LXLIFT
 62
6
 10
4135.328
 20
-5426.863
 30
1425.276
 70
    32
  0
VERTEX
  8
M38LXLIFT
 62
6
 10
4140.186
 20
-5433.196
 30
1425.315
 70
    32
  0
VERTEX
  8
M38LXLIFT
 62
6
 10
4147.350
 20
-5446.482
 30
1425.322
 70
    32
  0
VERTEX
  8
M38LXLIFT
 62
6
 10
4150.280
 20
-5457.223
 30
1425.280
 70
    32
  0
VERTEX
  8
M38LXLIFT
 62
6
 10
4137.085
 20
-5466.412
 30
1425.192
 70
    32
  0
VERTEX
  8
M38LXLIFT
 62
6
 10
4135.323
 20
-5466.063
 30
1425.187
 70
    32
  0
VERTEX
  8
M38LXLIFT
 62
6
 10
4115.468
 20
-5449.809
 30
1425.030
 70
    32
  0
SEQEND
  8
M38LXLIFT
  0
POLYLINE
  8
M38LXLIFT
 62
7
 66
     1
 70
     9
  0
VERTEX
  8
M38LXLIFT
 62
7
 10
4050.955
 20
-5361.633
 30
1424.906
 70
    32
  0
VERTEX
  8
M38LXLIFT
 62
7
 10
4041.850
 20
-5340.880
 30
1424.890
 70
    32
  0
VERTEX
  8
M38LXLIFT
 62
7
 10
4044.047
 20
-5338.940
 30
1424.891
 70
    32
  0
VERTEX
  8
M38LXLIFT
 62
7
 10
4045.184
 20
-5335.681
 30
1424.890
 70
    32
  0
VERTEX
  8
M38LXLIFT
 62
7
 10
4047.822
 20
-5334.092
 30
1424.891
 70
    32
  0
VERTEX
  8
M38LXLIFT
 62
7
 10
4052.487
 20
-5334.611
 30
1424.894
 70
    32
  0
VERTEX
  8
M38LXLIFT
 62
7
 10
4055.828
 20
-5332.404
 30
1424.895
 70
    32
  0
VERTEX
  8
M38LXLIFT
 62
7
 10
4058.194
 20
-5327.470
 30
1424.894
 70
    32
  0
VERTEX
  8
M38LXLIFT
 62
7
 10
4062.061
 20
-5324.295
 30
1424.895
 70
    32
  0
VERTEX
  8
M38LXLIFT
 62
7
 10
4078.682
 20
-5317.309
 30
1424.901
 70
    32
  0
VERTEX
  8
M38LXLIFT
 62
7
 10
4091.969
 20
-5316.227
 30
1425.026
 70
    32
  0
VERTEX
  8
M38LXLIFT
 62
7
 10
4104.391
 20
-5322.540
 30
1425.143
 70
    32
  0
VERTEX
  8
M38LXLIFT
 62
7
 10
4125.846
 20
-5316.859
 30
1425.376
 70
    32
  0
VERTEX
  8
M38LXLIFT
 62
7
 10
4125.421
 20
-5324.347
 30
1425.358
 70
    32
  0
VERTEX
  8
M38LXLIFT
 62
7
 10
4127.985
 20
-5328.482
 30
1425.377
 70
    32
  0
VERTEX
  8
M38LXLIFT
 62
7
 10
4134.667
 20
-5322.566
 30
1425.457
 70
    32
  0
VERTEX
  8
M38LXLIFT
 62
7
 10
4134.673
 20
-5325.297
 30
1425.452
 70
    32
  0
VERTEX
  8
M38LXLIFT
 62
7
 10
4142.366
 20
-5338.934
 30
1425.507
 70
    32
  0
VERTEX
  8
M38LXLIFT
 62
7
 10
4127.695
 20
-5351.644
 30
1425.332
 70
    32
  0
VERTEX
  8
M38LXLIFT
 62
7
 10
4113.027
 20
-5362.077
 30
1425.162
 70
    32
  0
VERTEX
  8
M38LXLIFT
 62
7
 10
4092.138
 20
-5372.955
 30
1424.936
 70
    32
  0
VERTEX
  8
M38LXLIFT
 62
7
 10
4084.723
 20
-5365.571
 30
1424.928
 70
    32
  0
VERTEX
  8
M38LXLIFT
 62
7
 10
4083.481
 20
-5361.698
 30
1424.925
 70
    32
  0
VERTEX
  8
M38LXLIFT
 62
7
 10
4076.680
 20
-5352.903
 30
1424.917
 70
    32
  0
VERTEX
  8
M38LXLIFT
 62
7
 10
4068.157
 20
-5363.316
 30
1424.917
 70
    32
  0
VERTEX
  8
M38LXLIFT
 62
7
 10
4072.135
 20
-5369.914
 30
1424.922
 70
    32
  0
VERTEX
  8
M38LXLIFT
 62
7
 10
4066.509
 20
-5375.476
 30
1424.922
 70
    32
  0
VERTEX
  8
M38LXLIFT
 62
7
 10
4053.459
 20
-5369.337
 30
1424.911
 70
    32
  0
SEQEND
  8
M38LXLIFT
  0
POLYLINE
  8
M38LXLIFT
 62
8
 66
     1
 70
     9
  0
VERTEX
  8
M38LXLIFT
 62
8
 10
3957.502
 20
-5237.059
 30
1424.454
 70
    32
  0
VERTEX
  8
M38LXLIFT
 62
8
 10
3954.536
 20
-5233.232
 30
1424.422
 70
    32
  0
VERTEX
  8
M38LXLIFT
 62
8
 10
3955.563
 20
-5232.567
 30
1424.423
 70
    32
  0
VERTEX
  8
M38LXLIFT
 62
8
 10
3950.972
 20
-5225.183
 30
1424.366
 70
    32
  0
VERTEX
  8
M38LXLIFT
 62
8
 10
3943.905
 20
-5218.423
 30
1424.302
 70
    32
  0
VERTEX
  8
M38LXLIFT
 62
8
 10
3950.603
 20
-5213.030
 30
1424.302
 70
    32
  0
VERTEX
  8
M38LXLIFT
 62
8
 10
3966.614
 20
-5230.578
 30
1424.458
 70
    32
  0
VERTEX
  8
M38LXLIFT
 62
8
 10
3971.922
 20
-5237.233
 30
1424.514
 70
    32
  0
VERTEX
  8
M38LXLIFT
 62
8
 10
3978.792
 20
-5246.063
 30
1424.588
 70
    32
  0
VERTEX
  8
M38LXLIFT
 62
8
 10
3978.841
 20
-5249.146
 30
1424.604
 70
    32
  0
VERTEX
  8
M38LXLIFT
 62
8
 10
3977.207
 20
-5251.639
 30
1424.610
 70
    32
  0
VERTEX
  8
M38LXLIFT
 62
8
 10
3971.256
 20
-5254.200
 30
1424.599
 70
    32
  0
VERTEX
  8
M38LXLIFT
 62
8
 10
3968.945
 20
-5252.915
 30
1424.583
 70
    32
  0
VERTEX
  8
M38LXLIFT
 62
8
 10
3962.531
 20
-5244.028
 30
1424.511
 70
    32
  0
SEQEND
  8
M38LXLIFT
  0
POLYLINE
  8
M38LXLIFT
 62
2
 66
     1
 70
     9
  0
VERTEX
  8
M38LXLIFT
 62
2
 10
3813.322
 20
-5289.283
 30
1424.887
 70
    32
  0
VERTEX
  8
M38LXLIFT
 62
2
 10
3820.402
 20
-5309.007
 30
1424.766
 70
    32
  0
VERTEX
  8
M38LXLIFT
 62
2
 10
3832.834
 20
-5314.626
 30
1424.719
 70
    32
  0
VERTEX
  8
M38LXLIFT
 62
2
 10
3839.185
 20
-5319.638
 30
1424.678
 70
    32
  0
VERTEX
  8
M38LXLIFT
 62
2
 10
3854.641
 20
-5342.962
 30
1424.494
 70
    32
  0
VERTEX
  8
M38LXLIFT
 62
2
 10
3856.516
 20
-5358.906
 30
1424.371
 70
    32
  0
VERTEX
  8
M38LXLIFT
 62
2
 10
3863.607
 20
-5385.326
 30
1424.307
 70
    32
  0
VERTEX
  8
M38LXLIFT
 62
2
 10
3864.966
 20
-5408.937
 30
1424.277
 70
    32
  0
VERTEX
  8
M38LXLIFT
 62
2
 10
3864.267
 20
-5412.726
 30
1424.269
 70
    32
  0
VERTEX
  8
M38LXLIFT
 62
2
 10
3850.330
 20
-5419.973
 30
1424.212
 70
    32
  0
VERTEX
  8
M38LXLIFT
 62
2
 10
3844.009
 20
-5417.076
 30
1424.195
 70
    32
  0
VERTEX
  8
M38LXLIFT
 62
2
 10
3834.414
 20
-5422.377
 30
1424.155
 70
    32
  0
VERTEX
  8
M38LXLIFT
 62
2
 10
3831.162
 20
-5426.964
 30
1424.137
 70
    32
  0
VERTEX
  8
M38LXLIFT
 62
2
 10
3832.673
 20
-5435.331
 30
1424.130
 70
    32
  0
VERTEX
  8
M38LXLIFT
 62
2
 10
3828.889
 20
-5438.333
 30
1424.113
 70
    32
  0
VERTEX
  8
M38LXLIFT
 62
2
 10
3820.696
 20
-5439.139
 30
1424.088
 70
    32
  0
VERTEX
  8
M38LXLIFT
 62
2
 10
3809.222
 20
-5425.853
 30
1424.065
 70
    32
  0
VERTEX
  8
M38LXLIFT
 62
2
 10
3806.483
 20
-5421.100
 30
1424.063
 70
    32
  0
VERTEX
  8
M38LXLIFT
 62
2
 10
3804.710
 20
-5414.319
 30
1424.067
 70
    32
  0
VERTEX
  8
M38LXLIFT
 62
2
 10
3797.747
 20
-5379.654
 30
1424.258
 70
    32
  0
VERTEX
  8
M38LXLIFT
 62
2
 10
3795.563
 20
-5368.782
 30
1424.318
 70
    32
  0
VERTEX
  8
M38LXLIFT
 62
2
 10
3794.319
 20
-5355.076
 30
1424.423
 70
    32
  0
VERTEX
  8
M38LXLIFT
 62
2
 10
3792.693
 20
-5337.157
 30
1424.561
 70
    32
  0
VERTEX
  8
M38LXLIFT
 62
2
 10
3789.235
 20
-5323.242
 30
1424.685
 70
    32
  0
VERTEX
  8
M38LXLIFT
 62
2
 10
3789.235
 20
-5323.242
 30
1424.685
 70
    32
  0
VERTEX
  8
M38LXLIFT
 62
2
 10
3787.823
 20
-5307.771
 30
1424.870
 70
    32
  0
VERTEX
  8
M38LXLIFT
 62
2
 10
3792.539
 20
-5295.659
 30
1424.908
 70
    32
  0
VERTEX
  8
M38LXLIFT
 62
2
 10
3793.147
 20
-5290.196
 30
1424.871
 70
    32
  0
VERTEX
  8
M38LXLIFT
 62
2
 10
3791.994
 20
-5285.352
 30
1424.831
 70
    32
  0
VERTEX
  8
M38LXLIFT
 62
2
 10
3787.402
 20
-5278.487
 30
1424.782
 70
    32
  0
VERTEX
  8
M38LXLIFT
 62
2
 10
3785.439
 20
-5262.631
 30
1424.735
 70
    32
  0
VERTEX
  8
M38LXLIFT
 62
2
 10
3776.702
 20
-5253.922
 30
1424.653
 70
    32
  0
VERTEX
  8
M38LXLIFT
 62
2
 10
3779.854
 20
-5241.054
 30
1424.650
 70
    32
  0
VERTEX
  8
M38LXLIFT
 62
2
 10
3787.446
 20
-5229.360
 30
1424.683
 70
    32
  0
VERTEX
  8
M38LXLIFT
 62
2
 10
3795.218
 20
-5229.979
 30
1424.742
 70
    32
  0
VERTEX
  8
M38LXLIFT
 62
2
 10
3799.595
 20
-5235.601
 30
1424.786
 70
    32
  0
VERTEX
  8
M38LXLIFT
 62
2
 10
3800.575
 20
-5245.881
 30
1424.814
 70
    32
  0
VERTEX
  8
M38LXLIFT
 62
2
 10
3802.344
 20
-5264.456
 30
1424.864
 70
    32
  0
VERTEX
  8
M38LXLIFT
 62
2
 10
3806.179
 20
-5278.492
 30
1424.878
 70
    32
  0
VERTEX
  8
M38LXLIFT
 62
2
 10
3809.688
 20
-5283.106
 30
1424.851
 70
    32
  0
SEQEND
  8
M38LXLIFT
  0
POLYLINE
  8
M38LXLIFT
 62
2
 66
     1
 70
     9
  0
VERTEX
  8
M38LXLIFT
 62
2
 10
3820.632
 20
-5372.188
 30
1424.282
 70
    32
  0
VERTEX
  8
M38LXLIFT
 62
2
 10
3825.496
 20
-5374.459
 30
1424.263
 70
    32
  0
VERTEX
  8
M38LXLIFT
 62
2
 10
3832.111
 20
-5392.694
 30
1424.191
 70
    32
  0
VERTEX
  8
M38LXLIFT
 62
2
 10
3825.588
 20
-5394.136
 30
1424.167
 70
    32
  0
VERTEX
  8
M38LXLIFT
 62
2
 10
3821.343
 20
-5392.038
 30
1424.156
 70
    32
  0
VERTEX
  8
M38LXLIFT
 62
2
 10
3817.072
 20
-5384.470
 30
1424.190
 70
    32
  0
SEQEND
  8
M38LXLIFT
  0
POLYLINE
  8
M38LXLIFT
 62
1
 66
     1
 70
     9
  0
VERTEX
  8
M38LXLIFT
 62
1
 10
3970.255
 20
-5346.255
 30
1511.000
 70
    32
  0
VERTEX
  8
M38LXLIFT
 62
1
 10
3964.172
 20
-5350.116
 30
1511.000
 70
    32
  0
VERTEX
  8
M38LXLIFT
 62
1
 10
3949.298
 20
-5328.511
 30
1511.000
 70
    32
  0
VERTEX
  8
M38LXLIFT
 62
1
 10
3940.863
 20
-5331.366
 30
1511.000
 70
    32
  0
VERTEX
  8
M38LXLIFT
 62
1
 10
3937.648
 20
-5322.434
 30
1511.000
 70
    32
  0
VERTEX
  8
M38LXLIFT
 62
1
 10
3937.289
 20
-5313.710
 30
1511.000
 70
    32
  0
VERTEX
  8
M38LXLIFT
 62
1
 10
3927.885
 20
-5304.602
 30
1511.000
 70
    32
  0
VERTEX
  8
M38LXLIFT
 62
1
 10
3930.107
 20
-5297.798
 30
1511.000
 70
    32
  0
VERTEX
  8
M38LXLIFT
 62
1
 10
3940.480
 20
-5303.607
 30
1511.000
 70
    32
  0
VERTEX
  8
M38LXLIFT
 62
1
 10
3949.186
 20
-5313.545
 30
1511.000
 70
    32
  0
VERTEX
  8
M38LXLIFT
 62
1
 10
3961.759
 20
-5332.269
 30
1511.000
 70
    32
  0
SEQEND
  8
M38LXLIFT
  0
POLYLINE
  8
M38LXLIFT
 62
6
 66
     1
 70
     9
  0
VERTEX
  8
M38LXLIFT
 62
6
 10
3797.276
 20
-5176.061
 30
1424.649
 70
    32
  0
VERTEX
  8
M38LXLIFT
 62
6
 10
3798.354
 20
-5184.355
 30
1424.674
 70
    32
  0
VERTEX
  8
M38LXLIFT
 62
6
 10
3800.980
 20
-5189.861
 30
1424.704
 70
    32
  0
VERTEX
  8
M38LXLIFT
 62
6
 10
3806.142
 20
-5196.294
 30
1424.756
 70
    32
  0
VERTEX
  8
M38LXLIFT
 62
6
 10
3807.138
 20
-5199.569
 30
1424.770
 70
    32
  0
VERTEX
  8
M38LXLIFT
 62
6
 10
3806.227
 20
-5201.225
 30
1424.766
 70
    32
  0
VERTEX
  8
M38LXLIFT
 62
6
 10
3784.181
 20
-5217.627
 30
1424.636
 70
    32
  0
VERTEX
  8
M38LXLIFT
 62
6
 10
3776.937
 20
-5204.818
 30
1424.556
 70
    32
  0
VERTEX
  8
M38LXLIFT
 62
6
 10
3775.321
 20
-5197.042
 30
1424.528
 70
    32
  0
VERTEX
  8
M38LXLIFT
 62
6
 10
3772.217
 20
-5193.551
 30
1424.498
 70
    32
  0
VERTEX
  8
M38LXLIFT
 62
6
 10
3770.973
 20
-5184.726
 30
1424.471
 70
    32
  0
VERTEX
  8
M38LXLIFT
 62
6
 10
3770.973
 20
-5184.726
 30
1424.471
 70
    32
  0
VERTEX
  8
M38LXLIFT
 62
6
 10
3770.517
 20
-5180.845
 30
1424.460
 70
    32
  0
VERTEX
  8
M38LXLIFT
 62
6
 10
3772.225
 20
-5178.940
 30
1424.469
 70
    32
  0
VERTEX
  8
M38LXLIFT
 62
6
 10
3778.527
 20
-5176.065
 30
1424.510
 70
    32
  0
VERTEX
  8
M38LXLIFT
 62
6
 10
3778.527
 20
-5176.065
 30
1424.510
 70
    32
  0
VERTEX
  8
M38LXLIFT
 62
6
 10
3784.260
 20
-5170.714
 30
1424.542
 70
    32
  0
VERTEX
  8
M38LXLIFT
 62
6
 10
3788.156
 20
-5169.466
 30
1424.568
 70
    32
  0
VERTEX
  8
M38LXLIFT
 62
6
 10
3790.411
 20
-5171.268
 30
1424.589
 70
    32
  0
SEQEND
  8
M38LXLIFT
  0
POLYLINE
  8
M38LXLIFT
 62
1
 66
     1
 70
     9
  0
VERTEX
  8
M38LXLIFT
 62
1
 10
3819.181
 20
-5188.593
 30
1468.000
 70
    32
  0
VERTEX
  8
M38LXLIFT
 62
1
 10
3827.006
 20
-5201.724
 30
1468.000
 70
    32
  0
VERTEX
  8
M38LXLIFT
 62
1
 10
3842.132
 20
-5218.255
 30
1468.000
 70
    32
  0
VERTEX
  8
M38LXLIFT
 62
1
 10
3855.413
 20
-5234.529
 30
1468.000
 70
    32
  0
VERTEX
  8
M38LXLIFT
 62
1
 10
3859.301
 20
-5246.671
 30
1468.000
 70
    32
  0
VERTEX
  8
M38LXLIFT
 62
1
 10
3855.377
 20
-5250.074
 30
1468.000
 70
    32
  0
VERTEX
  8
M38LXLIFT
 62
1
 10
3843.862
 20
-5236.429
 30
1468.000
 70
    32
  0
VERTEX
  8
M38LXLIFT
 62
1
 10
3836.007
 20
-5219.909
 30
1468.000
 70
    32
  0
VERTEX
  8
M38LXLIFT
 62
1
 10
3822.767
 20
-5215.931
 30
1468.000
 70
    32
  0
VERTEX
  8
M38LXLIFT
 62
1
 10
3815.547
 20
-5215.551
 30
1468.000
 70
    32
  0
VERTEX
  8
M38LXLIFT
 62
1
 10
3809.753
 20
-5211.231
 30
1468.000
 70
    32
  0
VERTEX
  8
M38LXLIFT
 62
1
 10
3805.563
 20
-5197.667
 30
1468.000
 70
    32
  0
SEQEND
  8
M38LXLIFT
  0
ENDSEC
  0
EOF
