999
********************************
999
*   DXF File - Entities Only   *
999
*        3D Data Format        *
999
*     Output from ENVISAGE     *
999
*     31-Dec-2007 15:00:24     *
999
********************************
  0
SECTION 
  2
HEADER
  9
$ACADVER
  1
AC1009
  9
$EXTMIN
 10
-290000.000
 20
-250000.000
 30
-4000.000
  9
$EXTMAX
 10
320000.000
 20
160000.000
 30
6000.000
  0
ENDSEC
  0
SECTION
  2
ENTITIES
  0
POLYLINE
  8
M39LALIFT
 62
6
 66
     1
 70
     9
  0
VERTEX
  8
M39LALIFT
 62
6
 10
4795.022
 20
-6347.187
 30
1337.000
 70
    32
  0
VERTEX
  8
M39LALIFT
 62
6
 10
4803.789
 20
-6351.348
 30
1337.000
 70
    32
  0
VERTEX
  8
M39LALIFT
 62
6
 10
4806.641
 20
-6356.171
 30
1337.000
 70
    32
  0
VERTEX
  8
M39LALIFT
 62
6
 10
4812.007
 20
-6372.031
 30
1337.000
 70
    32
  0
VERTEX
  8
M39LALIFT
 62
6
 10
4817.632
 20
-6383.685
 30
1337.000
 70
    32
  0
VERTEX
  8
M39LALIFT
 62
6
 10
4819.669
 20
-6388.036
 30
1337.000
 70
    32
  0
VERTEX
  8
M39LALIFT
 62
6
 10
4823.820
 20
-6399.433
 30
1337.000
 70
    32
  0
VERTEX
  8
M39LALIFT
 62
6
 10
4832.438
 20
-6412.563
 30
1337.000
 70
    32
  0
VERTEX
  8
M39LALIFT
 62
6
 10
4836.779
 20
-6418.828
 30
1337.000
 70
    32
  0
VERTEX
  8
M39LALIFT
 62
6
 10
4844.722
 20
-6427.824
 30
1337.000
 70
    32
  0
VERTEX
  8
M39LALIFT
 62
6
 10
4837.077
 20
-6432.573
 30
1337.000
 70
    32
  0
VERTEX
  8
M39LALIFT
 62
6
 10
4832.880
 20
-6423.415
 30
1337.000
 70
    32
  0
VERTEX
  8
M39LALIFT
 62
6
 10
4829.861
 20
-6423.087
 30
1337.000
 70
    32
  0
VERTEX
  8
M39LALIFT
 62
6
 10
4821.937
 20
-6409.259
 30
1337.000
 70
    32
  0
VERTEX
  8
M39LALIFT
 62
6
 10
4818.269
 20
-6402.047
 30
1337.000
 70
    32
  0
VERTEX
  8
M39LALIFT
 62
6
 10
4811.894
 20
-6390.861
 30
1337.000
 70
    32
  0
VERTEX
  8
M39LALIFT
 62
6
 10
4809.505
 20
-6386.007
 30
1337.000
 70
    32
  0
VERTEX
  8
M39LALIFT
 62
6
 10
4803.037
 20
-6376.018
 30
1337.000
 70
    32
  0
VERTEX
  8
M39LALIFT
 62
6
 10
4798.920
 20
-6368.759
 30
1337.000
 70
    32
  0
VERTEX
  8
M39LALIFT
 62
6
 10
4792.180
 20
-6359.636
 30
1337.000
 70
    32
  0
VERTEX
  8
M39LALIFT
 62
6
 10
4788.107
 20
-6356.307
 30
1337.000
 70
    32
  0
SEQEND
  8
M39LALIFT
  0
POLYLINE
  8
M39LALIFT
 62
6
 66
     1
 70
     9
  0
VERTEX
  8
M39LALIFT
 62
6
 10
4838.278
 20
-6351.710
 30
1337.000
 70
    32
  0
VERTEX
  8
M39LALIFT
 62
6
 10
4838.051
 20
-6348.294
 30
1337.000
 70
    32
  0
VERTEX
  8
M39LALIFT
 62
6
 10
4834.470
 20
-6341.623
 30
1337.000
 70
    32
  0
VERTEX
  8
M39LALIFT
 62
6
 10
4834.458
 20
-6338.973
 30
1337.000
 70
    32
  0
VERTEX
  8
M39LALIFT
 62
6
 10
4833.503
 20
-6333.720
 30
1337.000
 70
    32
  0
VERTEX
  8
M39LALIFT
 62
6
 10
4830.017
 20
-6327.386
 30
1337.000
 70
    32
  0
VERTEX
  8
M39LALIFT
 62
6
 10
4836.441
 20
-6324.598
 30
1337.000
 70
    32
  0
VERTEX
  8
M39LALIFT
 62
6
 10
4838.840
 20
-6329.658
 30
1337.000
 70
    32
  0
VERTEX
  8
M39LALIFT
 62
6
 10
4846.196
 20
-6341.960
 30
1337.000
 70
    32
  0
VERTEX
  8
M39LALIFT
 62
6
 10
4849.819
 20
-6344.601
 30
1337.000
 70
    32
  0
VERTEX
  8
M39LALIFT
 62
6
 10
4856.358
 20
-6354.630
 30
1337.000
 70
    32
  0
VERTEX
  8
M39LALIFT
 62
6
 10
4855.873
 20
-6361.151
 30
1337.000
 70
    32
  0
VERTEX
  8
M39LALIFT
 62
6
 10
4864.143
 20
-6365.176
 30
1337.000
 70
    32
  0
VERTEX
  8
M39LALIFT
 62
6
 10
4864.797
 20
-6367.770
 30
1337.000
 70
    32
  0
VERTEX
  8
M39LALIFT
 62
6
 10
4870.502
 20
-6373.022
 30
1337.000
 70
    32
  0
VERTEX
  8
M39LALIFT
 62
6
 10
4869.042
 20
-6375.051
 30
1337.000
 70
    32
  0
VERTEX
  8
M39LALIFT
 62
6
 10
4884.295
 20
-6392.791
 30
1337.000
 70
    32
  0
VERTEX
  8
M39LALIFT
 62
6
 10
4890.422
 20
-6398.861
 30
1337.000
 70
    32
  0
VERTEX
  8
M39LALIFT
 62
6
 10
4890.399
 20
-6398.883
 30
1337.000
 70
    32
  0
VERTEX
  8
M39LALIFT
 62
6
 10
4906.880
 20
-6415.090
 30
1337.000
 70
    32
  0
VERTEX
  8
M39LALIFT
 62
6
 10
4930.530
 20
-6438.291
 30
1337.000
 70
    32
  0
VERTEX
  8
M39LALIFT
 62
6
 10
4930.690
 20
-6440.717
 30
1337.000
 70
    32
  0
VERTEX
  8
M39LALIFT
 62
6
 10
4933.434
 20
-6446.931
 30
1337.000
 70
    32
  0
VERTEX
  8
M39LALIFT
 62
6
 10
4939.102
 20
-6460.337
 30
1337.000
 70
    32
  0
VERTEX
  8
M39LALIFT
 62
6
 10
4941.543
 20
-6472.512
 30
1337.000
 70
    32
  0
VERTEX
  8
M39LALIFT
 62
6
 10
4945.422
 20
-6485.600
 30
1337.000
 70
    32
  0
VERTEX
  8
M39LALIFT
 62
6
 10
4947.604
 20
-6493.257
 30
1337.000
 70
    32
  0
VERTEX
  8
M39LALIFT
 62
6
 10
4938.961
 20
-6495.226
 30
1337.000
 70
    32
  0
VERTEX
  8
M39LALIFT
 62
6
 10
4927.323
 20
-6448.878
 30
1337.000
 70
    32
  0
VERTEX
  8
M39LALIFT
 62
6
 10
4918.769
 20
-6435.532
 30
1337.000
 70
    32
  0
VERTEX
  8
M39LALIFT
 62
6
 10
4906.885
 20
-6426.107
 30
1337.000
 70
    32
  0
VERTEX
  8
M39LALIFT
 62
6
 10
4885.006
 20
-6404.185
 30
1337.000
 70
    32
  0
VERTEX
  8
M39LALIFT
 62
6
 10
4884.414
 20
-6404.767
 30
1337.000
 70
    32
  0
VERTEX
  8
M39LALIFT
 62
6
 10
4877.842
 20
-6397.719
 30
1337.000
 70
    32
  0
VERTEX
  8
M39LALIFT
 62
6
 10
4868.978
 20
-6386.348
 30
1337.000
 70
    32
  0
VERTEX
  8
M39LALIFT
 62
6
 10
4864.338
 20
-6385.357
 30
1337.000
 70
    32
  0
VERTEX
  8
M39LALIFT
 62
6
 10
4860.635
 20
-6377.448
 30
1337.000
 70
    32
  0
VERTEX
  8
M39LALIFT
 62
6
 10
4856.203
 20
-6372.952
 30
1337.000
 70
    32
  0
VERTEX
  8
M39LALIFT
 62
6
 10
4851.212
 20
-6368.960
 30
1337.000
 70
    32
  0
SEQEND
  8
M39LALIFT
  0
POLYLINE
  8
M39LALIFT
 62
6
 66
     1
 70
     9
  0
VERTEX
  8
M39LALIFT
 62
6
 10
4755.969
 20
-6347.612
 30
1335.000
 70
    32
  0
VERTEX
  8
M39LALIFT
 62
6
 10
4753.036
 20
-6339.015
 30
1335.000
 70
    32
  0
VERTEX
  8
M39LALIFT
 62
6
 10
4753.563
 20
-6333.047
 30
1335.000
 70
    32
  0
VERTEX
  8
M39LALIFT
 62
6
 10
4760.763
 20
-6329.497
 30
1335.000
 70
    32
  0
VERTEX
  8
M39LALIFT
 62
6
 10
4768.548
 20
-6342.483
 30
1335.000
 70
    32
  0
VERTEX
  8
M39LALIFT
 62
6
 10
4774.142
 20
-6346.912
 30
1335.000
 70
    32
  0
VERTEX
  8
M39LALIFT
 62
6
 10
4774.190
 20
-6347.099
 30
1335.000
 70
    32
  0
VERTEX
  8
M39LALIFT
 62
6
 10
4776.262
 20
-6355.343
 30
1335.000
 70
    32
  0
VERTEX
  8
M39LALIFT
 62
6
 10
4774.987
 20
-6361.009
 30
1335.000
 70
    32
  0
VERTEX
  8
M39LALIFT
 62
6
 10
4783.532
 20
-6373.664
 30
1335.000
 70
    32
  0
VERTEX
  8
M39LALIFT
 62
6
 10
4788.509
 20
-6385.078
 30
1335.000
 70
    32
  0
VERTEX
  8
M39LALIFT
 62
6
 10
4793.827
 20
-6398.227
 30
1335.000
 70
    32
  0
VERTEX
  8
M39LALIFT
 62
6
 10
4795.145
 20
-6406.492
 30
1335.000
 70
    32
  0
VERTEX
  8
M39LALIFT
 62
6
 10
4786.723
 20
-6410.282
 30
1335.000
 70
    32
  0
VERTEX
  8
M39LALIFT
 62
6
 10
4781.574
 20
-6400.353
 30
1335.000
 70
    32
  0
VERTEX
  8
M39LALIFT
 62
6
 10
4779.604
 20
-6391.092
 30
1335.000
 70
    32
  0
VERTEX
  8
M39LALIFT
 62
6
 10
4778.411
 20
-6391.672
 30
1335.000
 70
    32
  0
VERTEX
  8
M39LALIFT
 62
6
 10
4774.944
 20
-6385.738
 30
1335.000
 70
    32
  0
VERTEX
  8
M39LALIFT
 62
6
 10
4771.645
 20
-6381.545
 30
1335.000
 70
    32
  0
VERTEX
  8
M39LALIFT
 62
6
 10
4769.699
 20
-6374.624
 30
1335.000
 70
    32
  0
VERTEX
  8
M39LALIFT
 62
6
 10
4771.028
 20
-6373.928
 30
1335.000
 70
    32
  0
VERTEX
  8
M39LALIFT
 62
6
 10
4771.764
 20
-6372.271
 30
1335.000
 70
    32
  0
VERTEX
  8
M39LALIFT
 62
6
 10
4766.497
 20
-6365.554
 30
1335.000
 70
    32
  0
VERTEX
  8
M39LALIFT
 62
6
 10
4761.504
 20
-6361.921
 30
1335.000
 70
    32
  0
SEQEND
  8
M39LALIFT
  0
POLYLINE
  8
M39LALIFT
 62
6
 66
     1
 70
     9
  0
VERTEX
  8
M39LALIFT
 62
6
 10
4721.487
 20
-6358.482
 30
1332.481
 70
    32
  0
VERTEX
  8
M39LALIFT
 62
6
 10
4721.502
 20
-6355.465
 30
1332.481
 70
    32
  0
VERTEX
  8
M39LALIFT
 62
6
 10
4717.483
 20
-6323.282
 30
1332.481
 70
    32
  0
VERTEX
  8
M39LALIFT
 62
6
 10
4714.407
 20
-6311.760
 30
1332.481
 70
    32
  0
VERTEX
  8
M39LALIFT
 62
6
 10
4722.124
 20
-6306.199
 30
1332.481
 70
    32
  0
VERTEX
  8
M39LALIFT
 62
6
 10
4723.515
 20
-6300.078
 30
1332.481
 70
    32
  0
VERTEX
  8
M39LALIFT
 62
6
 10
4730.037
 20
-6302.545
 30
1332.481
 70
    32
  0
VERTEX
  8
M39LALIFT
 62
6
 10
4731.460
 20
-6308.495
 30
1332.481
 70
    32
  0
VERTEX
  8
M39LALIFT
 62
6
 10
4732.227
 20
-6314.428
 30
1332.481
 70
    32
  0
VERTEX
  8
M39LALIFT
 62
6
 10
4729.560
 20
-6322.077
 30
1332.481
 70
    32
  0
VERTEX
  8
M39LALIFT
 62
6
 10
4733.275
 20
-6337.193
 30
1332.481
 70
    32
  0
VERTEX
  8
M39LALIFT
 62
6
 10
4731.041
 20
-6341.045
 30
1332.481
 70
    32
  0
VERTEX
  8
M39LALIFT
 62
6
 10
4731.444
 20
-6343.413
 30
1332.481
 70
    32
  0
VERTEX
  8
M39LALIFT
 62
6
 10
4735.575
 20
-6352.744
 30
1332.481
 70
    32
  0
VERTEX
  8
M39LALIFT
 62
6
 10
4739.107
 20
-6354.632
 30
1332.481
 70
    32
  0
VERTEX
  8
M39LALIFT
 62
6
 10
4741.101
 20
-6364.506
 30
1332.481
 70
    32
  0
VERTEX
  8
M39LALIFT
 62
6
 10
4741.075
 20
-6368.155
 30
1332.481
 70
    32
  0
VERTEX
  8
M39LALIFT
 62
6
 10
4743.176
 20
-6373.459
 30
1332.481
 70
    32
  0
VERTEX
  8
M39LALIFT
 62
6
 10
4744.922
 20
-6384.279
 30
1332.481
 70
    32
  0
VERTEX
  8
M39LALIFT
 62
6
 10
4748.863
 20
-6399.553
 30
1332.481
 70
    32
  0
VERTEX
  8
M39LALIFT
 62
6
 10
4757.662
 20
-6421.019
 30
1332.481
 70
    32
  0
VERTEX
  8
M39LALIFT
 62
6
 10
4756.878
 20
-6424.230
 30
1332.481
 70
    32
  0
VERTEX
  8
M39LALIFT
 62
6
 10
4760.400
 20
-6435.074
 30
1332.481
 70
    32
  0
VERTEX
  8
M39LALIFT
 62
6
 10
4765.745
 20
-6445.976
 30
1332.481
 70
    32
  0
VERTEX
  8
M39LALIFT
 62
6
 10
4769.471
 20
-6458.601
 30
1332.481
 70
    32
  0
VERTEX
  8
M39LALIFT
 62
6
 10
4778.831
 20
-6478.430
 30
1332.481
 70
    32
  0
VERTEX
  8
M39LALIFT
 62
6
 10
4783.132
 20
-6490.274
 30
1332.481
 70
    32
  0
VERTEX
  8
M39LALIFT
 62
6
 10
4795.539
 20
-6518.657
 30
1332.481
 70
    32
  0
VERTEX
  8
M39LALIFT
 62
6
 10
4796.425
 20
-6524.927
 30
1332.481
 70
    32
  0
VERTEX
  8
M39LALIFT
 62
6
 10
4799.155
 20
-6537.424
 30
1332.481
 70
    32
  0
VERTEX
  8
M39LALIFT
 62
6
 10
4793.502
 20
-6540.915
 30
1332.481
 70
    32
  0
VERTEX
  8
M39LALIFT
 62
6
 10
4785.839
 20
-6536.885
 30
1332.481
 70
    32
  0
VERTEX
  8
M39LALIFT
 62
6
 10
4783.989
 20
-6528.865
 30
1332.481
 70
    32
  0
VERTEX
  8
M39LALIFT
 62
6
 10
4782.129
 20
-6520.776
 30
1332.481
 70
    32
  0
VERTEX
  8
M39LALIFT
 62
6
 10
4782.766
 20
-6512.213
 30
1332.481
 70
    32
  0
VERTEX
  8
M39LALIFT
 62
6
 10
4774.431
 20
-6499.480
 30
1332.481
 70
    32
  0
VERTEX
  8
M39LALIFT
 62
6
 10
4764.497
 20
-6479.940
 30
1332.481
 70
    32
  0
VERTEX
  8
M39LALIFT
 62
6
 10
4761.799
 20
-6461.717
 30
1332.481
 70
    32
  0
VERTEX
  8
M39LALIFT
 62
6
 10
4752.082
 20
-6439.403
 30
1332.481
 70
    32
  0
VERTEX
  8
M39LALIFT
 62
6
 10
4747.404
 20
-6425.772
 30
1332.481
 70
    32
  0
VERTEX
  8
M39LALIFT
 62
6
 10
4744.146
 20
-6414.965
 30
1332.481
 70
    32
  0
VERTEX
  8
M39LALIFT
 62
6
 10
4742.315
 20
-6410.192
 30
1332.481
 70
    32
  0
VERTEX
  8
M39LALIFT
 62
6
 10
4739.987
 20
-6398.119
 30
1332.481
 70
    32
  0
VERTEX
  8
M39LALIFT
 62
6
 10
4733.600
 20
-6378.808
 30
1332.481
 70
    32
  0
VERTEX
  8
M39LALIFT
 62
6
 10
4725.463
 20
-6367.254
 30
1332.481
 70
    32
  0
SEQEND
  8
M39LALIFT
  0
POLYLINE
  8
M39LALIFT
 62
6
 66
     1
 70
     9
  0
VERTEX
  8
M39LALIFT
 62
6
 10
4904.362
 20
-6566.511
 30
1390.000
 70
    32
  0
VERTEX
  8
M39LALIFT
 62
6
 10
4898.532
 20
-6555.402
 30
1390.000
 70
    32
  0
VERTEX
  8
M39LALIFT
 62
6
 10
4891.752
 20
-6544.880
 30
1390.000
 70
    32
  0
VERTEX
  8
M39LALIFT
 62
6
 10
4868.945
 20
-6521.320
 30
1390.000
 70
    32
  0
VERTEX
  8
M39LALIFT
 62
6
 10
4876.257
 20
-6517.747
 30
1390.000
 70
    32
  0
VERTEX
  8
M39LALIFT
 62
6
 10
4883.330
 20
-6524.605
 30
1390.000
 70
    32
  0
VERTEX
  8
M39LALIFT
 62
6
 10
4888.427
 20
-6528.175
 30
1390.000
 70
    32
  0
VERTEX
  8
M39LALIFT
 62
6
 10
4890.540
 20
-6527.208
 30
1390.000
 70
    32
  0
VERTEX
  8
M39LALIFT
 62
6
 10
4902.224
 20
-6537.641
 30
1390.000
 70
    32
  0
VERTEX
  8
M39LALIFT
 62
6
 10
4910.835
 20
-6540.602
 30
1390.000
 70
    32
  0
VERTEX
  8
M39LALIFT
 62
6
 10
4916.215
 20
-6542.653
 30
1390.000
 70
    32
  0
VERTEX
  8
M39LALIFT
 62
6
 10
4922.577
 20
-6546.639
 30
1390.000
 70
    32
  0
VERTEX
  8
M39LALIFT
 62
6
 10
4928.286
 20
-6551.984
 30
1390.000
 70
    32
  0
VERTEX
  8
M39LALIFT
 62
6
 10
4931.281
 20
-6559.590
 30
1390.000
 70
    32
  0
VERTEX
  8
M39LALIFT
 62
6
 10
4936.382
 20
-6563.246
 30
1390.000
 70
    32
  0
VERTEX
  8
M39LALIFT
 62
6
 10
4934.320
 20
-6570.010
 30
1390.000
 70
    32
  0
VERTEX
  8
M39LALIFT
 62
6
 10
4922.459
 20
-6575.134
 30
1390.000
 70
    32
  0
VERTEX
  8
M39LALIFT
 62
6
 10
4916.093
 20
-6573.117
 30
1390.000
 70
    32
  0
SEQEND
  8
M39LALIFT
  0
POLYLINE
  8
M39LALIFT
 62
6
 66
     1
 70
     9
  0
VERTEX
  8
M39LALIFT
 62
6
 10
4635.687
 20
-6152.443
 30
1303.799
 70
    32
  0
VERTEX
  8
M39LALIFT
 62
6
 10
4649.047
 20
-6171.783
 30
1307.259
 70
    32
  0
VERTEX
  8
M39LALIFT
 62
6
 10
4650.433
 20
-6175.717
 30
1307.876
 70
    32
  0
VERTEX
  8
M39LALIFT
 62
6
 10
4651.363
 20
-6178.355
 30
1309.457
 70
    32
  0
VERTEX
  8
M39LALIFT
 62
6
 10
4651.627
 20
-6179.105
 30
1310.143
 70
    32
  0
VERTEX
  8
M39LALIFT
 62
6
 10
4651.974
 20
-6180.089
 30
1310.141
 70
    32
  0
VERTEX
  8
M39LALIFT
 62
6
 10
4662.691
 20
-6197.598
 30
1310.128
 70
    32
  0
VERTEX
  8
M39LALIFT
 62
6
 10
4669.888
 20
-6214.771
 30
1310.101
 70
    32
  0
VERTEX
  8
M39LALIFT
 62
6
 10
4672.392
 20
-6222.448
 30
1310.086
 70
    32
  0
VERTEX
  8
M39LALIFT
 62
6
 10
4673.012
 20
-6224.349
 30
1310.088
 70
    32
  0
VERTEX
  8
M39LALIFT
 62
6
 10
4681.796
 20
-6243.817
 30
1310.108
 70
    32
  0
VERTEX
  8
M39LALIFT
 62
6
 10
4682.896
 20
-6246.255
 30
1310.108
 70
    32
  0
VERTEX
  8
M39LALIFT
 62
6
 10
4678.239
 20
-6250.204
 30
1310.108
 70
    32
  0
VERTEX
  8
M39LALIFT
 62
6
 10
4675.344
 20
-6248.421
 30
1310.108
 70
    32
  0
VERTEX
  8
M39LALIFT
 62
6
 10
4674.732
 20
-6247.069
 30
1310.108
 70
    32
  0
VERTEX
  8
M39LALIFT
 62
6
 10
4672.755
 20
-6242.699
 30
1310.104
 70
    32
  0
VERTEX
  8
M39LALIFT
 62
6
 10
4669.791
 20
-6239.630
 30
1310.100
 70
    32
  0
VERTEX
  8
M39LALIFT
 62
6
 10
4665.017
 20
-6223.746
 30
1310.085
 70
    32
  0
VERTEX
  8
M39LALIFT
 62
6
 10
4657.721
 20
-6209.058
 30
1310.070
 70
    32
  0
VERTEX
  8
M39LALIFT
 62
6
 10
4656.061
 20
-6205.717
 30
1310.074
 70
    32
  0
VERTEX
  8
M39LALIFT
 62
6
 10
4644.182
 20
-6182.698
 30
1310.100
 70
    32
  0
VERTEX
  8
M39LALIFT
 62
6
 10
4643.530
 20
-6181.434
 30
1308.865
 70
    32
  0
VERTEX
  8
M39LALIFT
 62
6
 10
4642.809
 20
-6180.037
 30
1307.965
 70
    32
  0
VERTEX
  8
M39LALIFT
 62
6
 10
4641.296
 20
-6177.105
 30
1307.474
 70
    32
  0
VERTEX
  8
M39LALIFT
 62
6
 10
4634.908
 20
-6167.720
 30
1305.801
 70
    32
  0
VERTEX
  8
M39LALIFT
 62
6
 10
4633.970
 20
-6166.570
 30
1305.586
 70
    32
  0
VERTEX
  8
M39LALIFT
 62
6
 10
4627.924
 20
-6159.162
 30
1304.242
 70
    32
  0
VERTEX
  8
M39LALIFT
 62
6
 10
4612.862
 20
-6142.859
 30
1301.182
 70
    32
  0
VERTEX
  8
M39LALIFT
 62
6
 10
4610.954
 20
-6139.755
 30
1300.655
 70
    32
  0
VERTEX
  8
M39LALIFT
 62
6
 10
4604.519
 20
-6129.285
 30
1301.000
 70
    32
  0
VERTEX
  8
M39LALIFT
 62
6
 10
4606.399
 20
-6126.142
 30
1301.144
 70
    32
  0
VERTEX
  8
M39LALIFT
 62
6
 10
4607.272
 20
-6124.682
 30
1301.134
 70
    32
  0
VERTEX
  8
M39LALIFT
 62
6
 10
4610.785
 20
-6118.808
 30
1301.116
 70
    32
  0
VERTEX
  8
M39LALIFT
 62
6
 10
4611.117
 20
-6113.594
 30
1301.101
 70
    32
  0
VERTEX
  8
M39LALIFT
 62
6
 10
4611.238
 20
-6111.698
 30
1301.100
 70
    32
  0
VERTEX
  8
M39LALIFT
 62
6
 10
4610.489
 20
-6106.825
 30
1301.095
 70
    32
  0
VERTEX
  8
M39LALIFT
 62
6
 10
4606.688
 20
-6103.286
 30
1301.089
 70
    32
  0
VERTEX
  8
M39LALIFT
 62
6
 10
4602.059
 20
-6098.975
 30
1301.089
 70
    32
  0
VERTEX
  8
M39LALIFT
 62
6
 10
4601.555
 20
-6098.506
 30
1301.089
 70
    32
  0
VERTEX
  8
M39LALIFT
 62
6
 10
4595.305
 20
-6093.852
 30
1301.087
 70
    32
  0
VERTEX
  8
M39LALIFT
 62
6
 10
4591.146
 20
-6091.662
 30
1301.086
 70
    32
  0
VERTEX
  8
M39LALIFT
 62
6
 10
4588.961
 20
-6090.511
 30
1301.086
 70
    32
  0
VERTEX
  8
M39LALIFT
 62
6
 10
4584.609
 20
-6088.219
 30
1301.086
 70
    32
  0
VERTEX
  8
M39LALIFT
 62
6
 10
4578.774
 20
-6086.968
 30
1301.086
 70
    32
  0
VERTEX
  8
M39LALIFT
 62
6
 10
4565.766
 20
-6084.178
 30
1301.086
 70
    32
  0
VERTEX
  8
M39LALIFT
 62
6
 10
4565.835
 20
-6081.583
 30
1301.086
 70
    32
  0
VERTEX
  8
M39LALIFT
 62
6
 10
4566.440
 20
-6076.825
 30
1301.086
 70
    32
  0
VERTEX
  8
M39LALIFT
 62
6
 10
4572.092
 20
-6077.831
 30
1301.086
 70
    32
  0
VERTEX
  8
M39LALIFT
 62
6
 10
4573.029
 20
-6077.740
 30
1301.086
 70
    32
  0
VERTEX
  8
M39LALIFT
 62
6
 10
4576.540
 20
-6077.400
 30
1301.086
 70
    32
  0
VERTEX
  8
M39LALIFT
 62
6
 10
4582.582
 20
-6079.460
 30
1301.086
 70
    32
  0
VERTEX
  8
M39LALIFT
 62
6
 10
4585.886
 20
-6073.792
 30
1301.086
 70
    32
  0
VERTEX
  8
M39LALIFT
 62
6
 10
4583.151
 20
-6069.204
 30
1301.086
 70
    32
  0
VERTEX
  8
M39LALIFT
 62
6
 10
4579.444
 20
-6062.984
 30
1301.086
 70
    32
  0
VERTEX
  8
M39LALIFT
 62
6
 10
4578.250
 20
-6060.127
 30
1301.086
 70
    32
  0
VERTEX
  8
M39LALIFT
 62
6
 10
4574.880
 20
-6052.061
 30
1301.086
 70
    32
  0
VERTEX
  8
M39LALIFT
 62
6
 10
4574.045
 20
-6049.792
 30
1301.086
 70
    32
  0
VERTEX
  8
M39LALIFT
 62
6
 10
4568.990
 20
-6036.059
 30
1301.086
 70
    32
  0
VERTEX
  8
M39LALIFT
 62
6
 10
4569.773
 20
-6033.544
 30
1301.086
 70
    32
  0
VERTEX
  8
M39LALIFT
 62
6
 10
4570.528
 20
-6031.118
 30
1301.086
 70
    32
  0
VERTEX
  8
M39LALIFT
 62
6
 10
4570.431
 20
-6029.037
 30
1301.086
 70
    32
  0
VERTEX
  8
M39LALIFT
 62
6
 10
4570.050
 20
-6020.848
 30
1301.086
 70
    32
  0
VERTEX
  8
M39LALIFT
 62
6
 10
4571.395
 20
-6018.770
 30
1301.086
 70
    32
  0
VERTEX
  8
M39LALIFT
 62
6
 10
4572.922
 20
-6016.410
 30
1301.086
 70
    32
  0
VERTEX
  8
M39LALIFT
 62
6
 10
4572.482
 20
-6013.377
 30
1301.086
 70
    32
  0
VERTEX
  8
M39LALIFT
 62
6
 10
4571.562
 20
-6007.035
 30
1301.086
 70
    32
  0
VERTEX
  8
M39LALIFT
 62
6
 10
4570.217
 20
-5997.771
 30
1301.086
 70
    32
  0
VERTEX
  8
M39LALIFT
 62
6
 10
4569.727
 20
-5994.392
 30
1301.086
 70
    32
  0
VERTEX
  8
M39LALIFT
 62
6
 10
4577.157
 20
-5993.374
 30
1301.086
 70
    32
  0
VERTEX
  8
M39LALIFT
 62
6
 10
4577.684
 20
-5996.700
 30
1301.086
 70
    32
  0
VERTEX
  8
M39LALIFT
 62
6
 10
4578.549
 20
-6002.170
 30
1301.086
 70
    32
  0
VERTEX
  8
M39LALIFT
 62
6
 10
4580.223
 20
-6012.743
 30
1301.086
 70
    32
  0
VERTEX
  8
M39LALIFT
 62
6
 10
4581.546
 20
-6021.100
 30
1301.086
 70
    32
  0
VERTEX
  8
M39LALIFT
 62
6
 10
4581.438
 20
-6023.129
 30
1301.086
 70
    32
  0
VERTEX
  8
M39LALIFT
 62
6
 10
4581.167
 20
-6028.226
 30
1301.086
 70
    32
  0
VERTEX
  8
M39LALIFT
 62
6
 10
4581.087
 20
-6029.729
 30
1301.086
 70
    32
  0
VERTEX
  8
M39LALIFT
 62
6
 10
4581.186
 20
-6030.229
 30
1301.086
 70
    32
  0
VERTEX
  8
M39LALIFT
 62
6
 10
4581.720
 20
-6039.031
 30
1301.086
 70
    32
  0
VERTEX
  8
M39LALIFT
 62
6
 10
4581.882
 20
-6041.707
 30
1301.086
 70
    32
  0
VERTEX
  8
M39LALIFT
 62
6
 10
4583.723
 20
-6047.175
 30
1301.086
 70
    32
  0
VERTEX
  8
M39LALIFT
 62
6
 10
4585.576
 20
-6052.681
 30
1301.086
 70
    32
  0
VERTEX
  8
M39LALIFT
 62
6
 10
4588.375
 20
-6060.997
 30
1301.086
 70
    32
  0
VERTEX
  8
M39LALIFT
 62
6
 10
4593.259
 20
-6068.521
 30
1301.086
 70
    32
  0
VERTEX
  8
M39LALIFT
 62
6
 10
4598.171
 20
-6076.087
 30
1301.086
 70
    32
  0
VERTEX
  8
M39LALIFT
 62
6
 10
4599.242
 20
-6077.738
 30
1301.086
 70
    32
  0
VERTEX
  8
M39LALIFT
 62
6
 10
4601.992
 20
-6079.002
 30
1301.086
 70
    32
  0
VERTEX
  8
M39LALIFT
 62
6
 10
4602.975
 20
-6081.825
 30
1301.086
 70
    32
  0
VERTEX
  8
M39LALIFT
 62
6
 10
4605.219
 20
-6088.270
 30
1301.088
 70
    32
  0
VERTEX
  8
M39LALIFT
 62
6
 10
4606.486
 20
-6091.909
 30
1301.088
 70
    32
  0
VERTEX
  8
M39LALIFT
 62
6
 10
4611.276
 20
-6093.470
 30
1301.088
 70
    32
  0
VERTEX
  8
M39LALIFT
 62
6
 10
4614.397
 20
-6094.015
 30
1301.088
 70
    32
  0
VERTEX
  8
M39LALIFT
 62
6
 10
4615.757
 20
-6097.105
 30
1301.088
 70
    32
  0
VERTEX
  8
M39LALIFT
 62
6
 10
4619.173
 20
-6104.862
 30
1301.097
 70
    32
  0
VERTEX
  8
M39LALIFT
 62
6
 10
4619.173
 20
-6104.862
 30
1301.097
 70
    32
  0
VERTEX
  8
M39LALIFT
 62
6
 10
4624.359
 20
-6117.436
 30
1301.111
 70
    32
  0
VERTEX
  8
M39LALIFT
 62
6
 10
4624.459
 20
-6119.547
 30
1301.113
 70
    32
  0
VERTEX
  8
M39LALIFT
 62
6
 10
4624.700
 20
-6124.613
 30
1301.127
 70
    32
  0
VERTEX
  8
M39LALIFT
 62
6
 10
4624.940
 20
-6129.680
 30
1301.161
 70
    32
  0
VERTEX
  8
M39LALIFT
 62
6
 10
4625.403
 20
-6130.660
 30
1301.167
 70
    32
  0
VERTEX
  8
M39LALIFT
 62
6
 10
4627.553
 20
-6135.216
 30
1301.010
 70
    32
  0
VERTEX
  8
M39LALIFT
 62
6
 10
4634.693
 20
-6150.337
 30
1303.452
 70
    32
  0
VERTEX
  8
M39LALIFT
 62
6
 10
4635.687
 20
-6152.443
 30
1303.799
 70
    32
  0
SEQEND
  8
M39LALIFT
  0
POLYLINE
  8
M39LALIFT
 62
6
 66
     1
 70
     9
  0
VERTEX
  8
M39LALIFT
 62
6
 10
4704.561
 20
-6070.886
 30
1322.000
 70
    32
  0
VERTEX
  8
M39LALIFT
 62
6
 10
4709.673
 20
-6078.392
 30
1322.000
 70
    32
  0
VERTEX
  8
M39LALIFT
 62
6
 10
4717.374
 20
-6073.304
 30
1322.000
 70
    32
  0
VERTEX
  8
M39LALIFT
 62
6
 10
4711.929
 20
-6057.779
 30
1322.000
 70
    32
  0
VERTEX
  8
M39LALIFT
 62
6
 10
4704.395
 20
-6043.853
 30
1322.000
 70
    32
  0
VERTEX
  8
M39LALIFT
 62
6
 10
4698.138
 20
-6027.179
 30
1322.000
 70
    32
  0
VERTEX
  8
M39LALIFT
 62
6
 10
4687.716
 20
-6031.489
 30
1322.000
 70
    32
  0
VERTEX
  8
M39LALIFT
 62
6
 10
4691.452
 20
-6040.630
 30
1322.000
 70
    32
  0
VERTEX
  8
M39LALIFT
 62
6
 10
4689.185
 20
-6045.120
 30
1322.000
 70
    32
  0
VERTEX
  8
M39LALIFT
 62
6
 10
4694.706
 20
-6054.319
 30
1322.000
 70
    32
  0
SEQEND
  8
M39LALIFT
  0
POLYLINE
  8
M39LALIFT
 62
1
 66
     1
 70
     9
  0
VERTEX
  8
M39LALIFT
 62
1
 10
4728.985
 20
-6366.645
 30
1344.000
 70
    32
  0
VERTEX
  8
M39LALIFT
 62
1
 10
4733.994
 20
-6367.785
 30
1344.500
 70
    32
  0
VERTEX
  8
M39LALIFT
 62
1
 10
4734.724
 20
-6368.600
 30
1345.000
 70
    32
  0
VERTEX
  8
M39LALIFT
 62
1
 10
4741.722
 20
-6382.801
 30
1344.000
 70
    32
  0
VERTEX
  8
M39LALIFT
 62
1
 10
4745.988
 20
-6393.990
 30
1344.000
 70
    32
  0
VERTEX
  8
M39LALIFT
 62
1
 10
4750.124
 20
-6409.448
 30
1344.000
 70
    32
  0
VERTEX
  8
M39LALIFT
 62
1
 10
4753.773
 20
-6423.579
 30
1346.000
 70
    32
  0
VERTEX
  8
M39LALIFT
 62
1
 10
4760.818
 20
-6440.006
 30
1346.700
 70
    32
  0
VERTEX
  8
M39LALIFT
 62
1
 10
4768.902
 20
-6463.064
 30
1348.000
 70
    32
  0
VERTEX
  8
M39LALIFT
 62
1
 10
4778.305
 20
-6481.878
 30
1348.500
 70
    32
  0
VERTEX
  8
M39LALIFT
 62
1
 10
4785.415
 20
-6496.167
 30
1349.000
 70
    32
  0
VERTEX
  8
M39LALIFT
 62
1
 10
4789.965
 20
-6507.795
 30
1350.000
 70
    32
  0
VERTEX
  8
M39LALIFT
 62
1
 10
4801.242
 20
-6497.406
 30
1350.500
 70
    32
  0
VERTEX
  8
M39LALIFT
 62
1
 10
4785.132
 20
-6468.538
 30
1349.000
 70
    32
  0
VERTEX
  8
M39LALIFT
 62
1
 10
4777.370
 20
-6454.545
 30
1347.500
 70
    32
  0
VERTEX
  8
M39LALIFT
 62
1
 10
4769.968
 20
-6436.672
 30
1347.000
 70
    32
  0
VERTEX
  8
M39LALIFT
 62
1
 10
4765.873
 20
-6426.941
 30
1346.500
 70
    32
  0
VERTEX
  8
M39LALIFT
 62
1
 10
4764.335
 20
-6421.138
 30
1346.500
 70
    32
  0
VERTEX
  8
M39LALIFT
 62
1
 10
4760.572
 20
-6408.727
 30
1344.000
 70
    32
  0
VERTEX
  8
M39LALIFT
 62
1
 10
4750.771
 20
-6382.324
 30
1343.000
 70
    32
  0
VERTEX
  8
M39LALIFT
 62
1
 10
4753.697
 20
-6380.404
 30
1343.000
 70
    32
  0
VERTEX
  8
M39LALIFT
 62
1
 10
4750.533
 20
-6372.494
 30
1343.000
 70
    32
  0
VERTEX
  8
M39LALIFT
 62
1
 10
4753.152
 20
-6362.743
 30
1345.000
 70
    32
  0
VERTEX
  8
M39LALIFT
 62
1
 10
4759.817
 20
-6357.877
 30
1346.000
 70
    32
  0
VERTEX
  8
M39LALIFT
 62
1
 10
4763.550
 20
-6360.507
 30
1346.500
 70
    32
  0
VERTEX
  8
M39LALIFT
 62
1
 10
4769.095
 20
-6369.369
 30
1350.500
 70
    32
  0
VERTEX
  8
M39LALIFT
 62
1
 10
4772.467
 20
-6379.319
 30
1352.000
 70
    32
  0
VERTEX
  8
M39LALIFT
 62
1
 10
4770.070
 20
-6390.490
 30
1354.000
 70
    32
  0
VERTEX
  8
M39LALIFT
 62
1
 10
4764.372
 20
-6395.470
 30
1355.000
 70
    32
  0
VERTEX
  8
M39LALIFT
 62
1
 10
4761.707
 20
-6403.946
 30
1356.000
 70
    32
  0
VERTEX
  8
M39LALIFT
 62
1
 10
4762.383
 20
-6410.724
 30
1356.000
 70
    32
  0
VERTEX
  8
M39LALIFT
 62
1
 10
4756.982
 20
-6416.513
 30
1357.000
 70
    32
  0
VERTEX
  8
M39LALIFT
 62
1
 10
4762.065
 20
-6420.678
 30
1357.000
 70
    32
  0
VERTEX
  8
M39LALIFT
 62
1
 10
4761.924
 20
-6432.512
 30
1357.500
 70
    32
  0
VERTEX
  8
M39LALIFT
 62
1
 10
4765.217
 20
-6434.072
 30
1357.500
 70
    32
  0
VERTEX
  8
M39LALIFT
 62
1
 10
4767.499
 20
-6440.467
 30
1357.500
 70
    32
  0
VERTEX
  8
M39LALIFT
 62
1
 10
4770.191
 20
-6448.080
 30
1357.500
 70
    32
  0
VERTEX
  8
M39LALIFT
 62
1
 10
4780.546
 20
-6463.627
 30
1357.500
 70
    32
  0
VERTEX
  8
M39LALIFT
 62
1
 10
4784.073
 20
-6471.171
 30
1358.000
 70
    32
  0
VERTEX
  8
M39LALIFT
 62
1
 10
4791.754
 20
-6480.288
 30
1358.000
 70
    32
  0
VERTEX
  8
M39LALIFT
 62
1
 10
4796.579
 20
-6477.141
 30
1358.000
 70
    32
  0
VERTEX
  8
M39LALIFT
 62
1
 10
4792.283
 20
-6467.107
 30
1358.000
 70
    32
  0
VERTEX
  8
M39LALIFT
 62
1
 10
4779.305
 20
-6442.615
 30
1358.000
 70
    32
  0
VERTEX
  8
M39LALIFT
 62
1
 10
4774.959
 20
-6427.259
 30
1358.000
 70
    32
  0
VERTEX
  8
M39LALIFT
 62
1
 10
4773.319
 20
-6415.526
 30
1357.000
 70
    32
  0
VERTEX
  8
M39LALIFT
 62
1
 10
4778.132
 20
-6411.226
 30
1356.000
 70
    32
  0
VERTEX
  8
M39LALIFT
 62
1
 10
4777.845
 20
-6401.054
 30
1355.000
 70
    32
  0
VERTEX
  8
M39LALIFT
 62
1
 10
4777.845
 20
-6401.054
 30
1355.500
 70
    32
  0
VERTEX
  8
M39LALIFT
 62
1
 10
4782.165
 20
-6397.619
 30
1355.000
 70
    32
  0
VERTEX
  8
M39LALIFT
 62
1
 10
4783.544
 20
-6381.581
 30
1354.500
 70
    32
  0
VERTEX
  8
M39LALIFT
 62
1
 10
4783.544
 20
-6381.581
 30
1354.000
 70
    32
  0
VERTEX
  8
M39LALIFT
 62
1
 10
4781.000
 20
-6373.124
 30
1353.000
 70
    32
  0
VERTEX
  8
M39LALIFT
 62
1
 10
4780.982
 20
-6369.587
 30
1352.000
 70
    32
  0
VERTEX
  8
M39LALIFT
 62
1
 10
4777.691
 20
-6361.739
 30
1349.000
 70
    32
  0
VERTEX
  8
M39LALIFT
 62
1
 10
4779.740
 20
-6356.626
 30
1346.000
 70
    32
  0
VERTEX
  8
M39LALIFT
 62
1
 10
4794.175
 20
-6359.575
 30
1346.000
 70
    32
  0
VERTEX
  8
M39LALIFT
 62
1
 10
4800.681
 20
-6363.124
 30
1346.000
 70
    32
  0
VERTEX
  8
M39LALIFT
 62
1
 10
4806.016
 20
-6369.692
 30
1346.000
 70
    32
  0
VERTEX
  8
M39LALIFT
 62
1
 10
4813.386
 20
-6382.267
 30
1346.000
 70
    32
  0
VERTEX
  8
M39LALIFT
 62
1
 10
4818.527
 20
-6392.066
 30
1348.000
 70
    32
  0
VERTEX
  8
M39LALIFT
 62
1
 10
4818.962
 20
-6391.906
 30
1348.000
 70
    32
  0
VERTEX
  8
M39LALIFT
 62
1
 10
4831.851
 20
-6413.460
 30
1354.000
 70
    32
  0
VERTEX
  8
M39LALIFT
 62
1
 10
4842.676
 20
-6433.240
 30
1359.000
 70
    32
  0
VERTEX
  8
M39LALIFT
 62
1
 10
4842.806
 20
-6443.172
 30
1359.000
 70
    32
  0
VERTEX
  8
M39LALIFT
 62
1
 10
4848.797
 20
-6444.175
 30
1359.000
 70
    32
  0
VERTEX
  8
M39LALIFT
 62
1
 10
4858.215
 20
-6439.308
 30
1359.000
 70
    32
  0
VERTEX
  8
M39LALIFT
 62
1
 10
4843.336
 20
-6414.347
 30
1354.000
 70
    32
  0
VERTEX
  8
M39LALIFT
 62
1
 10
4840.483
 20
-6404.752
 30
1353.000
 70
    32
  0
VERTEX
  8
M39LALIFT
 62
1
 10
4840.851
 20
-6401.022
 30
1353.000
 70
    32
  0
VERTEX
  8
M39LALIFT
 62
1
 10
4843.193
 20
-6397.450
 30
1352.000
 70
    32
  0
VERTEX
  8
M39LALIFT
 62
1
 10
4844.516
 20
-6387.843
 30
1350.000
 70
    32
  0
VERTEX
  8
M39LALIFT
 62
1
 10
4827.368
 20
-6384.509
 30
1348.000
 70
    32
  0
VERTEX
  8
M39LALIFT
 62
1
 10
4822.984
 20
-6374.675
 30
1346.000
 70
    32
  0
VERTEX
  8
M39LALIFT
 62
1
 10
4827.142
 20
-6370.543
 30
1346.500
 70
    32
  0
VERTEX
  8
M39LALIFT
 62
1
 10
4839.224
 20
-6365.316
 30
1347.000
 70
    32
  0
VERTEX
  8
M39LALIFT
 62
1
 10
4856.510
 20
-6359.312
 30
1347.000
 70
    32
  0
VERTEX
  8
M39LALIFT
 62
1
 10
4858.907
 20
-6352.963
 30
1347.000
 70
    32
  0
VERTEX
  8
M39LALIFT
 62
1
 10
4852.388
 20
-6342.463
 30
1347.000
 70
    32
  0
VERTEX
  8
M39LALIFT
 62
1
 10
4832.157
 20
-6344.581
 30
1347.000
 70
    32
  0
VERTEX
  8
M39LALIFT
 62
1
 10
4829.197
 20
-6353.963
 30
1347.000
 70
    32
  0
VERTEX
  8
M39LALIFT
 62
1
 10
4823.432
 20
-6354.019
 30
1347.000
 70
    32
  0
VERTEX
  8
M39LALIFT
 62
1
 10
4822.176
 20
-6352.706
 30
1347.000
 70
    32
  0
VERTEX
  8
M39LALIFT
 62
1
 10
4819.157
 20
-6347.097
 30
1346.000
 70
    32
  0
VERTEX
  8
M39LALIFT
 62
1
 10
4817.926
 20
-6337.039
 30
1357.000
 70
    32
  0
VERTEX
  8
M39LALIFT
 62
1
 10
4838.660
 20
-6332.594
 30
1357.000
 70
    32
  0
VERTEX
  8
M39LALIFT
 62
1
 10
4845.686
 20
-6326.617
 30
1357.000
 70
    32
  0
VERTEX
  8
M39LALIFT
 62
1
 10
4833.125
 20
-6305.657
 30
1357.000
 70
    32
  0
VERTEX
  8
M39LALIFT
 62
1
 10
4822.095
 20
-6296.365
 30
1357.000
 70
    32
  0
VERTEX
  8
M39LALIFT
 62
1
 10
4804.189
 20
-6291.953
 30
1357.000
 70
    32
  0
VERTEX
  8
M39LALIFT
 62
1
 10
4803.134
 20
-6331.183
 30
1357.000
 70
    32
  0
VERTEX
  8
M39LALIFT
 62
1
 10
4807.159
 20
-6343.202
 30
1346.000
 70
    32
  0
VERTEX
  8
M39LALIFT
 62
1
 10
4796.222
 20
-6349.826
 30
1346.000
 70
    32
  0
VERTEX
  8
M39LALIFT
 62
1
 10
4780.343
 20
-6345.439
 30
1345.000
 70
    32
  0
VERTEX
  8
M39LALIFT
 62
1
 10
4777.807
 20
-6345.779
 30
1345.000
 70
    32
  0
VERTEX
  8
M39LALIFT
 62
1
 10
4769.842
 20
-6344.262
 30
1345.000
 70
    32
  0
VERTEX
  8
M39LALIFT
 62
1
 10
4758.857
 20
-6344.250
 30
1344.000
 70
    32
  0
VERTEX
  8
M39LALIFT
 62
1
 10
4753.804
 20
-6337.119
 30
1344.000
 70
    32
  0
VERTEX
  8
M39LALIFT
 62
1
 10
4749.417
 20
-6339.827
 30
1344.000
 70
    32
  0
VERTEX
  8
M39LALIFT
 62
1
 10
4745.207
 20
-6341.417
 30
1344.000
 70
    32
  0
VERTEX
  8
M39LALIFT
 62
1
 10
4741.664
 20
-6340.571
 30
1344.000
 70
    32
  0
VERTEX
  8
M39LALIFT
 62
1
 10
4734.860
 20
-6343.299
 30
1344.000
 70
    32
  0
VERTEX
  8
M39LALIFT
 62
1
 10
4735.311
 20
-6350.731
 30
1343.000
 70
    32
  0
VERTEX
  8
M39LALIFT
 62
1
 10
4732.897
 20
-6353.638
 30
1343.000
 70
    32
  0
VERTEX
  8
M39LALIFT
 62
1
 10
4725.233
 20
-6355.607
 30
1342.000
 70
    32
  0
SEQEND
  8
M39LALIFT
  0
POLYLINE
  8
M39LALIFT
 62
1
 66
     1
 70
     9
  0
VERTEX
  8
M39LALIFT
 62
1
 10
4794.805
 20
-6426.229
 30
1366.000
 70
    32
  0
VERTEX
  8
M39LALIFT
 62
1
 10
4805.260
 20
-6439.629
 30
1366.000
 70
    32
  0
VERTEX
  8
M39LALIFT
 62
1
 10
4812.641
 20
-6447.830
 30
1366.000
 70
    32
  0
VERTEX
  8
M39LALIFT
 62
1
 10
4813.299
 20
-6455.290
 30
1366.000
 70
    32
  0
VERTEX
  8
M39LALIFT
 62
1
 10
4815.287
 20
-6471.397
 30
1366.000
 70
    32
  0
VERTEX
  8
M39LALIFT
 62
1
 10
4802.847
 20
-6470.979
 30
1366.000
 70
    32
  0
VERTEX
  8
M39LALIFT
 62
1
 10
4801.502
 20
-6478.184
 30
1366.000
 70
    32
  0
VERTEX
  8
M39LALIFT
 62
1
 10
4794.371
 20
-6479.312
 30
1366.000
 70
    32
  0
VERTEX
  8
M39LALIFT
 62
1
 10
4776.071
 20
-6448.196
 30
1366.000
 70
    32
  0
VERTEX
  8
M39LALIFT
 62
1
 10
4771.655
 20
-6431.703
 30
1366.000
 70
    32
  0
SEQEND
  8
M39LALIFT
  0
POLYLINE
  8
M39LALIFT
 62
1
 66
     1
 70
     9
  0
VERTEX
  8
M39LALIFT
 62
1
 10
4708.542
 20
-6043.553
 30
1324.000
 70
    32
  0
VERTEX
  8
M39LALIFT
 62
1
 10
4700.131
 20
-6029.982
 30
1327.000
 70
    32
  0
VERTEX
  8
M39LALIFT
 62
1
 10
4695.761
 20
-6028.101
 30
1328.000
 70
    32
  0
VERTEX
  8
M39LALIFT
 62
1
 10
4685.569
 20
-6015.705
 30
1336.000
 70
    32
  0
VERTEX
  8
M39LALIFT
 62
1
 10
4674.097
 20
-5995.698
 30
1337.000
 70
    32
  0
VERTEX
  8
M39LALIFT
 62
1
 10
4666.198
 20
-5976.227
 30
1337.000
 70
    32
  0
VERTEX
  8
M39LALIFT
 62
1
 10
4660.774
 20
-5968.566
 30
1337.000
 70
    32
  0
VERTEX
  8
M39LALIFT
 62
1
 10
4659.391
 20
-5963.273
 30
1337.000
 70
    32
  0
VERTEX
  8
M39LALIFT
 62
1
 10
4654.841
 20
-5959.254
 30
1337.000
 70
    32
  0
VERTEX
  8
M39LALIFT
 62
1
 10
4649.352
 20
-5949.353
 30
1337.000
 70
    32
  0
VERTEX
  8
M39LALIFT
 62
1
 10
4642.668
 20
-5933.200
 30
1336.500
 70
    32
  0
VERTEX
  8
M39LALIFT
 62
1
 10
4638.191
 20
-5916.805
 30
1336.000
 70
    32
  0
VERTEX
  8
M39LALIFT
 62
1
 10
4629.465
 20
-5901.910
 30
1336.000
 70
    32
  0
VERTEX
  8
M39LALIFT
 62
1
 10
4619.680
 20
-5882.510
 30
1335.000
 70
    32
  0
VERTEX
  8
M39LALIFT
 62
1
 10
4612.177
 20
-5870.372
 30
1335.000
 70
    32
  0
VERTEX
  8
M39LALIFT
 62
1
 10
4602.332
 20
-5853.684
 30
1335.000
 70
    32
  0
VERTEX
  8
M39LALIFT
 62
1
 10
4598.406
 20
-5849.346
 30
1335.000
 70
    32
  0
VERTEX
  8
M39LALIFT
 62
1
 10
4593.233
 20
-5841.804
 30
1335.000
 70
    32
  0
VERTEX
  8
M39LALIFT
 62
1
 10
4592.157
 20
-5838.941
 30
1335.000
 70
    32
  0
VERTEX
  8
M39LALIFT
 62
1
 10
4593.428
 20
-5829.539
 30
1336.000
 70
    32
  0
VERTEX
  8
M39LALIFT
 62
1
 10
4592.103
 20
-5820.401
 30
1337.500
 70
    32
  0
VERTEX
  8
M39LALIFT
 62
1
 10
4589.670
 20
-5800.084
 30
1338.000
 70
    32
  0
VERTEX
  8
M39LALIFT
 62
1
 10
4585.322
 20
-5781.144
 30
1342.000
 70
    32
  0
VERTEX
  8
M39LALIFT
 62
1
 10
4581.771
 20
-5767.667
 30
1344.000
 70
    32
  0
VERTEX
  8
M39LALIFT
 62
1
 10
4581.353
 20
-5758.788
 30
1345.000
 70
    32
  0
VERTEX
  8
M39LALIFT
 62
1
 10
4580.012
 20
-5750.007
 30
1346.000
 70
    32
  0
VERTEX
  8
M39LALIFT
 62
1
 10
4569.214
 20
-5752.106
 30
1346.000
 70
    32
  0
VERTEX
  8
M39LALIFT
 62
1
 10
4571.854
 20
-5765.682
 30
1343.000
 70
    32
  0
VERTEX
  8
M39LALIFT
 62
1
 10
4567.955
 20
-5765.307
 30
1342.000
 70
    32
  0
VERTEX
  8
M39LALIFT
 62
1
 10
4566.399
 20
-5763.596
 30
1342.000
 70
    32
  0
VERTEX
  8
M39LALIFT
 62
1
 10
4563.441
 20
-5760.345
 30
1342.000
 70
    32
  0
VERTEX
  8
M39LALIFT
 62
1
 10
4557.783
 20
-5754.126
 30
1342.000
 70
    32
  0
VERTEX
  8
M39LALIFT
 62
1
 10
4549.588
 20
-5741.400
 30
1341.000
 70
    32
  0
VERTEX
  8
M39LALIFT
 62
1
 10
4546.422
 20
-5726.571
 30
1339.500
 70
    32
  0
VERTEX
  8
M39LALIFT
 62
1
 10
4535.548
 20
-5728.825
 30
1339.500
 70
    32
  0
VERTEX
  8
M39LALIFT
 62
1
 10
4537.744
 20
-5735.627
 30
1340.500
 70
    32
  0
VERTEX
  8
M39LALIFT
 62
1
 10
4540.416
 20
-5748.257
 30
1341.000
 70
    32
  0
VERTEX
  8
M39LALIFT
 62
1
 10
4552.172
 20
-5762.462
 30
1342.000
 70
    32
  0
VERTEX
  8
M39LALIFT
 62
1
 10
4558.529
 20
-5771.516
 30
1342.000
 70
    32
  0
VERTEX
  8
M39LALIFT
 62
1
 10
4560.807
 20
-5775.436
 30
1342.000
 70
    32
  0
VERTEX
  8
M39LALIFT
 62
1
 10
4563.084
 20
-5780.488
 30
1342.000
 70
    32
  0
VERTEX
  8
M39LALIFT
 62
1
 10
4563.629
 20
-5781.611
 30
1342.000
 70
    32
  0
VERTEX
  8
M39LALIFT
 62
1
 10
4569.857
 20
-5786.366
 30
1342.000
 70
    32
  0
VERTEX
  8
M39LALIFT
 62
1
 10
4577.372
 20
-5793.301
 30
1341.000
 70
    32
  0
VERTEX
  8
M39LALIFT
 62
1
 10
4578.356
 20
-5800.713
 30
1338.000
 70
    32
  0
VERTEX
  8
M39LALIFT
 62
1
 10
4581.446
 20
-5822.001
 30
1337.500
 70
    32
  0
VERTEX
  8
M39LALIFT
 62
1
 10
4581.957
 20
-5829.382
 30
1336.000
 70
    32
  0
VERTEX
  8
M39LALIFT
 62
1
 10
4579.085
 20
-5830.250
 30
1334.000
 70
    32
  0
VERTEX
  8
M39LALIFT
 62
1
 10
4573.245
 20
-5824.886
 30
1333.000
 70
    32
  0
VERTEX
  8
M39LALIFT
 62
1
 10
4567.281
 20
-5818.492
 30
1332.000
 70
    32
  0
VERTEX
  8
M39LALIFT
 62
1
 10
4560.830
 20
-5809.062
 30
1331.000
 70
    32
  0
VERTEX
  8
M39LALIFT
 62
1
 10
4542.389
 20
-5785.559
 30
1325.000
 70
    32
  0
VERTEX
  8
M39LALIFT
 62
1
 10
4538.182
 20
-5776.338
 30
1326.000
 70
    32
  0
VERTEX
  8
M39LALIFT
 62
1
 10
4526.592
 20
-5762.247
 30
1328.000
 70
    32
  0
VERTEX
  8
M39LALIFT
 62
1
 10
4520.571
 20
-5757.163
 30
1328.000
 70
    32
  0
VERTEX
  8
M39LALIFT
 62
1
 10
4512.547
 20
-5752.288
 30
1328.000
 70
    32
  0
VERTEX
  8
M39LALIFT
 62
1
 10
4511.539
 20
-5741.748
 30
1328.000
 70
    32
  0
VERTEX
  8
M39LALIFT
 62
1
 10
4506.332
 20
-5730.907
 30
1328.000
 70
    32
  0
VERTEX
  8
M39LALIFT
 62
1
 10
4494.626
 20
-5730.155
 30
1328.000
 70
    32
  0
VERTEX
  8
M39LALIFT
 62
1
 10
4491.406
 20
-5726.634
 30
1328.000
 70
    32
  0
VERTEX
  8
M39LALIFT
 62
1
 10
4480.925
 20
-5714.937
 30
1329.000
 70
    32
  0
VERTEX
  8
M39LALIFT
 62
1
 10
4462.267
 20
-5702.552
 30
1329.000
 70
    32
  0
VERTEX
  8
M39LALIFT
 62
1
 10
4450.868
 20
-5680.138
 30
1329.000
 70
    32
  0
VERTEX
  8
M39LALIFT
 62
1
 10
4436.411
 20
-5683.755
 30
1329.000
 70
    32
  0
VERTEX
  8
M39LALIFT
 62
1
 10
4426.820
 20
-5692.761
 30
1329.000
 70
    32
  0
VERTEX
  8
M39LALIFT
 62
1
 10
4445.726
 20
-5723.745
 30
1329.000
 70
    32
  0
VERTEX
  8
M39LALIFT
 62
1
 10
4460.167
 20
-5732.081
 30
1329.000
 70
    32
  0
VERTEX
  8
M39LALIFT
 62
1
 10
4484.889
 20
-5740.802
 30
1328.000
 70
    32
  0
VERTEX
  8
M39LALIFT
 62
1
 10
4486.218
 20
-5742.623
 30
1328.000
 70
    32
  0
VERTEX
  8
M39LALIFT
 62
1
 10
4502.711
 20
-5759.042
 30
1328.000
 70
    32
  0
VERTEX
  8
M39LALIFT
 62
1
 10
4519.146
 20
-5777.053
 30
1328.000
 70
    32
  0
VERTEX
  8
M39LALIFT
 62
1
 10
4525.017
 20
-5782.799
 30
1326.000
 70
    32
  0
VERTEX
  8
M39LALIFT
 62
1
 10
4530.786
 20
-5791.340
 30
1326.000
 70
    32
  0
VERTEX
  8
M39LALIFT
 62
1
 10
4551.900
 20
-5816.492
 30
1330.000
 70
    32
  0
VERTEX
  8
M39LALIFT
 62
1
 10
4557.759
 20
-5824.846
 30
1332.000
 70
    32
  0
VERTEX
  8
M39LALIFT
 62
1
 10
4563.825
 20
-5832.961
 30
1333.000
 70
    32
  0
VERTEX
  8
M39LALIFT
 62
1
 10
4569.357
 20
-5838.389
 30
1334.000
 70
    32
  0
VERTEX
  8
M39LALIFT
 62
1
 10
4568.939
 20
-5843.252
 30
1335.000
 70
    32
  0
VERTEX
  8
M39LALIFT
 62
1
 10
4574.739
 20
-5849.185
 30
1335.000
 70
    32
  0
VERTEX
  8
M39LALIFT
 62
1
 10
4582.605
 20
-5852.495
 30
1335.000
 70
    32
  0
VERTEX
  8
M39LALIFT
 62
1
 10
4593.662
 20
-5861.671
 30
1335.000
 70
    32
  0
VERTEX
  8
M39LALIFT
 62
1
 10
4612.880
 20
-5890.624
 30
1335.000
 70
    32
  0
VERTEX
  8
M39LALIFT
 62
1
 10
4619.813
 20
-5903.566
 30
1336.000
 70
    32
  0
VERTEX
  8
M39LALIFT
 62
1
 10
4626.670
 20
-5924.186
 30
1336.000
 70
    32
  0
VERTEX
  8
M39LALIFT
 62
1
 10
4632.704
 20
-5939.651
 30
1336.500
 70
    32
  0
VERTEX
  8
M39LALIFT
 62
1
 10
4634.454
 20
-5943.555
 30
1337.000
 70
    32
  0
VERTEX
  8
M39LALIFT
 62
1
 10
4647.050
 20
-5971.911
 30
1337.000
 70
    32
  0
VERTEX
  8
M39LALIFT
 62
1
 10
4658.465
 20
-5988.335
 30
1337.000
 70
    32
  0
VERTEX
  8
M39LALIFT
 62
1
 10
4665.921
 20
-6000.424
 30
1337.000
 70
    32
  0
VERTEX
  8
M39LALIFT
 62
1
 10
4672.942
 20
-6011.109
 30
1336.500
 70
    32
  0
VERTEX
  8
M39LALIFT
 62
1
 10
4680.107
 20
-6020.903
 30
1336.000
 70
    32
  0
VERTEX
  8
M39LALIFT
 62
1
 10
4690.389
 20
-6034.125
 30
1327.000
 70
    32
  0
SEQEND
  8
M39LALIFT
  0
ENDSEC
  0
EOF
