999
********************************
999
*   DXF File - Entities Only   *
999
*        3D Data Format        *
999
*     Output from ENVISAGE     *
999
*     31-Dec-2007 15:08:22     *
999
********************************
  0
SECTION 
  2
HEADER
  9
$ACADVER
  1
AC1009
  9
$EXTMIN
 10
-290000.000
 20
-250000.000
 30
-4000.000
  9
$EXTMAX
 10
320000.000
 20
160000.000
 30
6000.000
  0
ENDSEC
  0
SECTION
  2
ENTITIES
  0
POLYLINE
  8
M44LXLIFT
 62
7
 66
     1
 70
     9
  0
VERTEX
  8
M44LXLIFT
 62
7
 10
4606.326
 20
-6256.613
 30
964.000
 70
    32
  0
VERTEX
  8
M44LXLIFT
 62
7
 10
4599.171
 20
-6245.305
 30
964.000
 70
    32
  0
VERTEX
  8
M44LXLIFT
 62
7
 10
4587.247
 20
-6231.929
 30
964.000
 70
    32
  0
VERTEX
  8
M44LXLIFT
 62
7
 10
4573.938
 20
-6228.584
 30
964.000
 70
    32
  0
VERTEX
  8
M44LXLIFT
 62
7
 10
4561.320
 20
-6200.386
 30
964.000
 70
    32
  0
VERTEX
  8
M44LXLIFT
 62
7
 10
4557.724
 20
-6189.636
 30
964.000
 70
    32
  0
VERTEX
  8
M44LXLIFT
 62
7
 10
4552.850
 20
-6191.449
 30
964.000
 70
    32
  0
VERTEX
  8
M44LXLIFT
 62
7
 10
4543.661
 20
-6181.080
 30
964.000
 70
    32
  0
VERTEX
  8
M44LXLIFT
 62
7
 10
4533.210
 20
-6174.348
 30
964.000
 70
    32
  0
VERTEX
  8
M44LXLIFT
 62
7
 10
4527.612
 20
-6181.581
 30
964.000
 70
    32
  0
VERTEX
  8
M44LXLIFT
 62
7
 10
4527.048
 20
-6191.993
 30
964.000
 70
    32
  0
VERTEX
  8
M44LXLIFT
 62
7
 10
4519.498
 20
-6204.453
 30
964.000
 70
    32
  0
VERTEX
  8
M44LXLIFT
 62
7
 10
4514.751
 20
-6211.066
 30
964.000
 70
    32
  0
VERTEX
  8
M44LXLIFT
 62
7
 10
4527.305
 20
-6233.658
 30
964.000
 70
    32
  0
VERTEX
  8
M44LXLIFT
 62
7
 10
4535.862
 20
-6251.663
 30
964.000
 70
    32
  0
VERTEX
  8
M44LXLIFT
 62
7
 10
4545.699
 20
-6269.930
 30
964.000
 70
    32
  0
VERTEX
  8
M44LXLIFT
 62
7
 10
4556.471
 20
-6281.429
 30
964.000
 70
    32
  0
VERTEX
  8
M44LXLIFT
 62
7
 10
4564.502
 20
-6283.945
 30
964.000
 70
    32
  0
VERTEX
  8
M44LXLIFT
 62
7
 10
4581.132
 20
-6276.933
 30
964.000
 70
    32
  0
SEQEND
  8
M44LXLIFT
  0
POLYLINE
  8
M44LXLIFT
 62
7
 66
     1
 70
     9
  0
VERTEX
  8
M44LXLIFT
 62
7
 10
4514.276
 20
-6185.180
 30
954.000
 70
    32
  0
VERTEX
  8
M44LXLIFT
 62
7
 10
4510.070
 20
-6212.070
 30
954.000
 70
    32
  0
VERTEX
  8
M44LXLIFT
 62
7
 10
4508.923
 20
-6221.574
 30
954.000
 70
    32
  0
VERTEX
  8
M44LXLIFT
 62
7
 10
4521.230
 20
-6241.661
 30
954.000
 70
    32
  0
VERTEX
  8
M44LXLIFT
 62
7
 10
4525.074
 20
-6255.667
 30
954.000
 70
    32
  0
VERTEX
  8
M44LXLIFT
 62
7
 10
4536.841
 20
-6270.461
 30
954.000
 70
    32
  0
VERTEX
  8
M44LXLIFT
 62
7
 10
4548.076
 20
-6277.766
 30
954.000
 70
    32
  0
VERTEX
  8
M44LXLIFT
 62
7
 10
4559.993
 20
-6290.259
 30
954.000
 70
    32
  0
VERTEX
  8
M44LXLIFT
 62
7
 10
4565.391
 20
-6285.589
 30
954.000
 70
    32
  0
VERTEX
  8
M44LXLIFT
 62
7
 10
4582.389
 20
-6276.344
 30
954.000
 70
    32
  0
VERTEX
  8
M44LXLIFT
 62
7
 10
4588.011
 20
-6272.712
 30
954.000
 70
    32
  0
VERTEX
  8
M44LXLIFT
 62
7
 10
4592.557
 20
-6265.718
 30
954.000
 70
    32
  0
VERTEX
  8
M44LXLIFT
 62
7
 10
4598.540
 20
-6259.627
 30
954.000
 70
    32
  0
VERTEX
  8
M44LXLIFT
 62
7
 10
4594.080
 20
-6245.970
 30
954.000
 70
    32
  0
VERTEX
  8
M44LXLIFT
 62
7
 10
4587.459
 20
-6232.058
 30
954.000
 70
    32
  0
VERTEX
  8
M44LXLIFT
 62
7
 10
4580.230
 20
-6233.381
 30
954.000
 70
    32
  0
VERTEX
  8
M44LXLIFT
 62
7
 10
4579.625
 20
-6222.552
 30
954.000
 70
    32
  0
VERTEX
  8
M44LXLIFT
 62
7
 10
4573.608
 20
-6202.826
 30
954.000
 70
    32
  0
VERTEX
  8
M44LXLIFT
 62
7
 10
4566.009
 20
-6187.451
 30
954.000
 70
    32
  0
VERTEX
  8
M44LXLIFT
 62
7
 10
4555.717
 20
-6177.144
 30
954.000
 70
    32
  0
VERTEX
  8
M44LXLIFT
 62
7
 10
4536.682
 20
-6164.798
 30
954.000
 70
    32
  0
VERTEX
  8
M44LXLIFT
 62
7
 10
4530.069
 20
-6165.772
 30
954.000
 70
    32
  0
VERTEX
  8
M44LXLIFT
 62
7
 10
4529.029
 20
-6170.706
 30
954.000
 70
    32
  0
SEQEND
  8
M44LXLIFT
  0
POLYLINE
  8
M44LXLIFT
 62
7
 66
     1
 70
     9
  0
VERTEX
  8
M44LXLIFT
 62
7
 10
4572.861
 20
-6185.045
 30
913.000
 70
    32
  0
VERTEX
  8
M44LXLIFT
 62
7
 10
4565.584
 20
-6187.295
 30
913.000
 70
    32
  0
VERTEX
  8
M44LXLIFT
 62
7
 10
4558.211
 20
-6191.354
 30
913.000
 70
    32
  0
VERTEX
  8
M44LXLIFT
 62
7
 10
4552.543
 20
-6195.367
 30
913.000
 70
    32
  0
VERTEX
  8
M44LXLIFT
 62
7
 10
4553.972
 20
-6207.045
 30
913.000
 70
    32
  0
VERTEX
  8
M44LXLIFT
 62
7
 10
4555.589
 20
-6221.521
 30
913.000
 70
    32
  0
VERTEX
  8
M44LXLIFT
 62
7
 10
4555.415
 20
-6230.996
 30
913.000
 70
    32
  0
VERTEX
  8
M44LXLIFT
 62
7
 10
4561.737
 20
-6241.180
 30
913.000
 70
    32
  0
VERTEX
  8
M44LXLIFT
 62
7
 10
4557.000
 20
-6248.865
 30
913.000
 70
    32
  0
VERTEX
  8
M44LXLIFT
 62
7
 10
4549.795
 20
-6255.845
 30
913.000
 70
    32
  0
VERTEX
  8
M44LXLIFT
 62
7
 10
4555.360
 20
-6264.840
 30
913.000
 70
    32
  0
VERTEX
  8
M44LXLIFT
 62
7
 10
4570.722
 20
-6269.970
 30
913.000
 70
    32
  0
VERTEX
  8
M44LXLIFT
 62
7
 10
4577.094
 20
-6270.661
 30
913.000
 70
    32
  0
VERTEX
  8
M44LXLIFT
 62
7
 10
4587.550
 20
-6261.426
 30
913.000
 70
    32
  0
VERTEX
  8
M44LXLIFT
 62
7
 10
4601.004
 20
-6251.530
 30
913.000
 70
    32
  0
VERTEX
  8
M44LXLIFT
 62
7
 10
4597.229
 20
-6241.559
 30
913.000
 70
    32
  0
VERTEX
  8
M44LXLIFT
 62
7
 10
4598.418
 20
-6234.825
 30
913.000
 70
    32
  0
VERTEX
  8
M44LXLIFT
 62
7
 10
4592.976
 20
-6223.457
 30
913.000
 70
    32
  0
VERTEX
  8
M44LXLIFT
 62
7
 10
4589.252
 20
-6213.557
 30
913.000
 70
    32
  0
VERTEX
  8
M44LXLIFT
 62
7
 10
4587.287
 20
-6204.878
 30
913.000
 70
    32
  0
VERTEX
  8
M44LXLIFT
 62
7
 10
4583.525
 20
-6198.810
 30
913.000
 70
    32
  0
SEQEND
  8
M44LXLIFT
  0
POLYLINE
  8
M44LXLIFT
 62
7
 66
     1
 70
     9
  0
VERTEX
  8
M44LXLIFT
 62
7
 10
4569.912
 20
-6287.063
 30
944.000
 70
    32
  0
VERTEX
  8
M44LXLIFT
 62
7
 10
4549.215
 20
-6276.503
 30
944.000
 70
    32
  0
VERTEX
  8
M44LXLIFT
 62
7
 10
4543.597
 20
-6273.673
 30
944.000
 70
    32
  0
VERTEX
  8
M44LXLIFT
 62
7
 10
4542.112
 20
-6259.321
 30
944.000
 70
    32
  0
VERTEX
  8
M44LXLIFT
 62
7
 10
4538.178
 20
-6252.276
 30
944.000
 70
    32
  0
VERTEX
  8
M44LXLIFT
 62
7
 10
4530.089
 20
-6240.980
 30
944.000
 70
    32
  0
VERTEX
  8
M44LXLIFT
 62
7
 10
4527.327
 20
-6235.803
 30
944.000
 70
    32
  0
VERTEX
  8
M44LXLIFT
 62
7
 10
4531.486
 20
-6227.112
 30
944.000
 70
    32
  0
VERTEX
  8
M44LXLIFT
 62
7
 10
4539.772
 20
-6214.250
 30
944.000
 70
    32
  0
VERTEX
  8
M44LXLIFT
 62
7
 10
4534.916
 20
-6198.024
 30
944.000
 70
    32
  0
VERTEX
  8
M44LXLIFT
 62
7
 10
4531.093
 20
-6183.331
 30
944.000
 70
    32
  0
VERTEX
  8
M44LXLIFT
 62
7
 10
4525.825
 20
-6175.526
 30
944.000
 70
    32
  0
VERTEX
  8
M44LXLIFT
 62
7
 10
4539.848
 20
-6166.391
 30
944.000
 70
    32
  0
VERTEX
  8
M44LXLIFT
 62
7
 10
4549.251
 20
-6179.009
 30
944.000
 70
    32
  0
VERTEX
  8
M44LXLIFT
 62
7
 10
4561.771
 20
-6184.480
 30
944.000
 70
    32
  0
VERTEX
  8
M44LXLIFT
 62
7
 10
4569.778
 20
-6187.722
 30
944.000
 70
    32
  0
VERTEX
  8
M44LXLIFT
 62
7
 10
4575.464
 20
-6191.379
 30
944.000
 70
    32
  0
VERTEX
  8
M44LXLIFT
 62
7
 10
4584.314
 20
-6189.279
 30
944.000
 70
    32
  0
VERTEX
  8
M44LXLIFT
 62
7
 10
4594.666
 20
-6190.665
 30
944.000
 70
    32
  0
VERTEX
  8
M44LXLIFT
 62
7
 10
4606.355
 20
-6197.523
 30
944.000
 70
    32
  0
VERTEX
  8
M44LXLIFT
 62
7
 10
4614.994
 20
-6212.793
 30
944.000
 70
    32
  0
VERTEX
  8
M44LXLIFT
 62
7
 10
4619.108
 20
-6218.608
 30
944.000
 70
    32
  0
VERTEX
  8
M44LXLIFT
 62
7
 10
4610.086
 20
-6242.106
 30
944.000
 70
    32
  0
VERTEX
  8
M44LXLIFT
 62
7
 10
4607.798
 20
-6254.336
 30
944.000
 70
    32
  0
VERTEX
  8
M44LXLIFT
 62
7
 10
4609.077
 20
-6261.496
 30
944.000
 70
    32
  0
VERTEX
  8
M44LXLIFT
 62
7
 10
4593.132
 20
-6272.172
 30
944.000
 70
    32
  0
SEQEND
  8
M44LXLIFT
  0
POLYLINE
  8
M44LXLIFT
 62
7
 66
     1
 70
     9
  0
VERTEX
  8
M44LXLIFT
 62
7
 10
4537.155
 20
-6270.667
 30
934.000
 70
    32
  0
VERTEX
  8
M44LXLIFT
 62
7
 10
4549.042
 20
-6282.116
 30
934.000
 70
    32
  0
VERTEX
  8
M44LXLIFT
 62
7
 10
4554.901
 20
-6292.230
 30
934.000
 70
    32
  0
VERTEX
  8
M44LXLIFT
 62
7
 10
4559.031
 20
-6293.220
 30
934.000
 70
    32
  0
VERTEX
  8
M44LXLIFT
 62
7
 10
4574.320
 20
-6280.456
 30
934.000
 70
    32
  0
VERTEX
  8
M44LXLIFT
 62
7
 10
4589.342
 20
-6268.218
 30
934.000
 70
    32
  0
VERTEX
  8
M44LXLIFT
 62
7
 10
4605.208
 20
-6256.231
 30
934.000
 70
    32
  0
VERTEX
  8
M44LXLIFT
 62
7
 10
4614.381
 20
-6248.661
 30
934.000
 70
    32
  0
VERTEX
  8
M44LXLIFT
 62
7
 10
4619.478
 20
-6243.128
 30
934.000
 70
    32
  0
VERTEX
  8
M44LXLIFT
 62
7
 10
4623.571
 20
-6231.219
 30
934.000
 70
    32
  0
VERTEX
  8
M44LXLIFT
 62
7
 10
4619.679
 20
-6225.233
 30
934.000
 70
    32
  0
VERTEX
  8
M44LXLIFT
 62
7
 10
4614.702
 20
-6218.080
 30
934.000
 70
    32
  0
VERTEX
  8
M44LXLIFT
 62
7
 10
4608.727
 20
-6213.420
 30
934.000
 70
    32
  0
VERTEX
  8
M44LXLIFT
 62
7
 10
4598.757
 20
-6211.941
 30
934.000
 70
    32
  0
VERTEX
  8
M44LXLIFT
 62
7
 10
4588.125
 20
-6206.025
 30
934.000
 70
    32
  0
VERTEX
  8
M44LXLIFT
 62
7
 10
4584.919
 20
-6200.078
 30
934.000
 70
    32
  0
VERTEX
  8
M44LXLIFT
 62
7
 10
4577.227
 20
-6184.094
 30
934.000
 70
    32
  0
VERTEX
  8
M44LXLIFT
 62
7
 10
4572.246
 20
-6184.173
 30
934.000
 70
    32
  0
VERTEX
  8
M44LXLIFT
 62
7
 10
4559.073
 20
-6179.704
 30
934.000
 70
    32
  0
VERTEX
  8
M44LXLIFT
 62
7
 10
4548.643
 20
-6175.390
 30
934.000
 70
    32
  0
VERTEX
  8
M44LXLIFT
 62
7
 10
4544.457
 20
-6171.813
 30
934.000
 70
    32
  0
VERTEX
  8
M44LXLIFT
 62
7
 10
4542.400
 20
-6164.904
 30
934.000
 70
    32
  0
VERTEX
  8
M44LXLIFT
 62
7
 10
4537.388
 20
-6160.954
 30
934.000
 70
    32
  0
VERTEX
  8
M44LXLIFT
 62
7
 10
4531.936
 20
-6160.397
 30
934.000
 70
    32
  0
VERTEX
  8
M44LXLIFT
 62
7
 10
4530.071
 20
-6163.642
 30
934.000
 70
    32
  0
VERTEX
  8
M44LXLIFT
 62
7
 10
4531.981
 20
-6178.328
 30
934.000
 70
    32
  0
VERTEX
  8
M44LXLIFT
 62
7
 10
4534.796
 20
-6194.972
 30
934.000
 70
    32
  0
VERTEX
  8
M44LXLIFT
 62
7
 10
4538.190
 20
-6208.557
 30
934.000
 70
    32
  0
VERTEX
  8
M44LXLIFT
 62
7
 10
4540.180
 20
-6224.827
 30
934.000
 70
    32
  0
VERTEX
  8
M44LXLIFT
 62
7
 10
4536.377
 20
-6231.810
 30
934.000
 70
    32
  0
VERTEX
  8
M44LXLIFT
 62
7
 10
4537.547
 20
-6243.430
 30
934.000
 70
    32
  0
VERTEX
  8
M44LXLIFT
 62
7
 10
4541.351
 20
-6255.944
 30
934.000
 70
    32
  0
VERTEX
  8
M44LXLIFT
 62
7
 10
4540.079
 20
-6260.283
 30
934.000
 70
    32
  0
SEQEND
  8
M44LXLIFT
  0
POLYLINE
  8
M44LXLIFT
 62
7
 66
     1
 70
     9
  0
VERTEX
  8
M44LXLIFT
 62
7
 10
4605.979
 20
-6209.076
 30
902.000
 70
    32
  0
VERTEX
  8
M44LXLIFT
 62
7
 10
4592.803
 20
-6194.670
 30
902.000
 70
    32
  0
VERTEX
  8
M44LXLIFT
 62
7
 10
4579.333
 20
-6202.586
 30
902.000
 70
    32
  0
VERTEX
  8
M44LXLIFT
 62
7
 10
4572.524
 20
-6210.083
 30
902.000
 70
    32
  0
VERTEX
  8
M44LXLIFT
 62
7
 10
4571.338
 20
-6219.011
 30
902.000
 70
    32
  0
VERTEX
  8
M44LXLIFT
 62
7
 10
4577.503
 20
-6230.390
 30
902.000
 70
    32
  0
VERTEX
  8
M44LXLIFT
 62
7
 10
4580.544
 20
-6233.497
 30
902.000
 70
    32
  0
VERTEX
  8
M44LXLIFT
 62
7
 10
4577.894
 20
-6246.220
 30
902.000
 70
    32
  0
VERTEX
  8
M44LXLIFT
 62
7
 10
4572.119
 20
-6253.939
 30
902.000
 70
    32
  0
VERTEX
  8
M44LXLIFT
 62
7
 10
4582.496
 20
-6264.081
 30
902.000
 70
    32
  0
VERTEX
  8
M44LXLIFT
 62
7
 10
4592.727
 20
-6261.698
 30
902.000
 70
    32
  0
VERTEX
  8
M44LXLIFT
 62
7
 10
4613.270
 20
-6249.467
 30
902.000
 70
    32
  0
VERTEX
  8
M44LXLIFT
 62
7
 10
4620.560
 20
-6242.924
 30
902.000
 70
    32
  0
VERTEX
  8
M44LXLIFT
 62
7
 10
4613.787
 20
-6227.744
 30
902.000
 70
    32
  0
SEQEND
  8
M44LXLIFT
  0
POLYLINE
  8
M44LXLIFT
 62
6
 66
     1
 70
     9
  0
VERTEX
  8
M44LXLIFT
 62
6
 10
4707.333
 20
-6330.711
 30
885.000
 70
    32
  0
VERTEX
  8
M44LXLIFT
 62
6
 10
4707.162
 20
-6341.446
 30
885.000
 70
    32
  0
VERTEX
  8
M44LXLIFT
 62
6
 10
4710.241
 20
-6357.744
 30
885.000
 70
    32
  0
VERTEX
  8
M44LXLIFT
 62
6
 10
4714.671
 20
-6372.311
 30
885.000
 70
    32
  0
VERTEX
  8
M44LXLIFT
 62
6
 10
4717.627
 20
-6378.519
 30
885.000
 70
    32
  0
VERTEX
  8
M44LXLIFT
 62
6
 10
4716.195
 20
-6385.399
 30
885.000
 70
    32
  0
VERTEX
  8
M44LXLIFT
 62
6
 10
4710.532
 20
-6391.968
 30
885.000
 70
    32
  0
VERTEX
  8
M44LXLIFT
 62
6
 10
4702.903
 20
-6402.121
 30
885.000
 70
    32
  0
VERTEX
  8
M44LXLIFT
 62
6
 10
4689.986
 20
-6410.344
 30
885.000
 70
    32
  0
VERTEX
  8
M44LXLIFT
 62
6
 10
4681.604
 20
-6411.185
 30
885.000
 70
    32
  0
VERTEX
  8
M44LXLIFT
 62
6
 10
4672.610
 20
-6404.562
 30
885.000
 70
    32
  0
VERTEX
  8
M44LXLIFT
 62
6
 10
4657.967
 20
-6392.804
 30
885.000
 70
    32
  0
VERTEX
  8
M44LXLIFT
 62
6
 10
4648.406
 20
-6387.348
 30
885.000
 70
    32
  0
VERTEX
  8
M44LXLIFT
 62
6
 10
4638.172
 20
-6384.867
 30
885.000
 70
    32
  0
VERTEX
  8
M44LXLIFT
 62
6
 10
4628.485
 20
-6378.635
 30
885.000
 70
    32
  0
VERTEX
  8
M44LXLIFT
 62
6
 10
4618.826
 20
-6371.841
 30
885.000
 70
    32
  0
VERTEX
  8
M44LXLIFT
 62
6
 10
4611.525
 20
-6372.228
 30
885.000
 70
    32
  0
VERTEX
  8
M44LXLIFT
 62
6
 10
4607.144
 20
-6369.754
 30
885.000
 70
    32
  0
VERTEX
  8
M44LXLIFT
 62
6
 10
4602.194
 20
-6352.962
 30
885.000
 70
    32
  0
VERTEX
  8
M44LXLIFT
 62
6
 10
4594.920
 20
-6329.940
 30
885.000
 70
    32
  0
VERTEX
  8
M44LXLIFT
 62
6
 10
4592.396
 20
-6306.745
 30
885.000
 70
    32
  0
VERTEX
  8
M44LXLIFT
 62
6
 10
4593.054
 20
-6292.627
 30
885.000
 70
    32
  0
VERTEX
  8
M44LXLIFT
 62
6
 10
4602.282
 20
-6268.762
 30
885.000
 70
    32
  0
VERTEX
  8
M44LXLIFT
 62
6
 10
4609.037
 20
-6254.691
 30
885.000
 70
    32
  0
VERTEX
  8
M44LXLIFT
 62
6
 10
4616.782
 20
-6250.411
 30
885.000
 70
    32
  0
VERTEX
  8
M44LXLIFT
 62
6
 10
4627.078
 20
-6250.574
 30
885.000
 70
    32
  0
VERTEX
  8
M44LXLIFT
 62
6
 10
4641.731
 20
-6267.305
 30
885.000
 70
    32
  0
VERTEX
  8
M44LXLIFT
 62
6
 10
4646.046
 20
-6278.707
 30
885.000
 70
    32
  0
VERTEX
  8
M44LXLIFT
 62
6
 10
4652.825
 20
-6288.116
 30
885.000
 70
    32
  0
VERTEX
  8
M44LXLIFT
 62
6
 10
4665.258
 20
-6301.466
 30
885.000
 70
    32
  0
VERTEX
  8
M44LXLIFT
 62
6
 10
4671.673
 20
-6304.208
 30
885.000
 70
    32
  0
VERTEX
  8
M44LXLIFT
 62
6
 10
4683.275
 20
-6304.079
 30
885.000
 70
    32
  0
VERTEX
  8
M44LXLIFT
 62
6
 10
4693.793
 20
-6313.719
 30
885.000
 70
    32
  0
SEQEND
  8
M44LXLIFT
  0
POLYLINE
  8
M44LXLIFT
 62
7
 66
     1
 70
     9
  0
VERTEX
  8
M44LXLIFT
 62
7
 10
4531.867
 20
-6158.896
 30
923.000
 70
    32
  0
VERTEX
  8
M44LXLIFT
 62
7
 10
4537.203
 20
-6167.193
 30
923.000
 70
    32
  0
VERTEX
  8
M44LXLIFT
 62
7
 10
4537.515
 20
-6175.521
 30
923.000
 70
    32
  0
VERTEX
  8
M44LXLIFT
 62
7
 10
4543.361
 20
-6183.326
 30
923.000
 70
    32
  0
VERTEX
  8
M44LXLIFT
 62
7
 10
4546.767
 20
-6247.515
 30
923.000
 70
    32
  0
VERTEX
  8
M44LXLIFT
 62
7
 10
4553.788
 20
-6258.501
 30
923.000
 70
    32
  0
VERTEX
  8
M44LXLIFT
 62
7
 10
4535.293
 20
-6275.868
 30
923.000
 70
    32
  0
VERTEX
  8
M44LXLIFT
 62
7
 10
4549.850
 20
-6292.077
 30
923.000
 70
    32
  0
VERTEX
  8
M44LXLIFT
 62
7
 10
4555.685
 20
-6290.341
 30
923.000
 70
    32
  0
VERTEX
  8
M44LXLIFT
 62
7
 10
4569.257
 20
-6277.540
 30
923.000
 70
    32
  0
VERTEX
  8
M44LXLIFT
 62
7
 10
4598.066
 20
-6260.021
 30
923.000
 70
    32
  0
VERTEX
  8
M44LXLIFT
 62
7
 10
4623.783
 20
-6242.185
 30
923.000
 70
    32
  0
VERTEX
  8
M44LXLIFT
 62
7
 10
4629.462
 20
-6237.602
 30
923.000
 70
    32
  0
VERTEX
  8
M44LXLIFT
 62
7
 10
4614.961
 20
-6216.631
 30
923.000
 70
    32
  0
VERTEX
  8
M44LXLIFT
 62
7
 10
4600.581
 20
-6227.622
 30
923.000
 70
    32
  0
VERTEX
  8
M44LXLIFT
 62
7
 10
4595.441
 20
-6213.140
 30
923.000
 70
    32
  0
VERTEX
  8
M44LXLIFT
 62
7
 10
4577.451
 20
-6179.745
 30
923.000
 70
    32
  0
VERTEX
  8
M44LXLIFT
 62
7
 10
4567.980
 20
-6180.583
 30
923.000
 70
    32
  0
VERTEX
  8
M44LXLIFT
 62
7
 10
4550.347
 20
-6167.007
 30
923.000
 70
    32
  0
VERTEX
  8
M44LXLIFT
 62
7
 10
4547.118
 20
-6158.887
 30
923.000
 70
    32
  0
VERTEX
  8
M44LXLIFT
 62
7
 10
4541.465
 20
-6151.926
 30
923.000
 70
    32
  0
SEQEND
  8
M44LXLIFT
  0
POLYLINE
  8
M44LXLIFT
 62
7
 66
     1
 70
     9
  0
VERTEX
  8
M44LXLIFT
 62
7
 10
4578.209
 20
-6243.287
 30
870.000
 70
    32
  0
VERTEX
  8
M44LXLIFT
 62
7
 10
4594.283
 20
-6232.376
 30
870.000
 70
    32
  0
VERTEX
  8
M44LXLIFT
 62
7
 10
4602.523
 20
-6230.495
 30
870.000
 70
    32
  0
VERTEX
  8
M44LXLIFT
 62
7
 10
4614.076
 20
-6223.509
 30
870.000
 70
    32
  0
VERTEX
  8
M44LXLIFT
 62
7
 10
4620.510
 20
-6229.774
 30
870.000
 70
    32
  0
VERTEX
  8
M44LXLIFT
 62
7
 10
4625.149
 20
-6237.598
 30
870.000
 70
    32
  0
VERTEX
  8
M44LXLIFT
 62
7
 10
4609.777
 20
-6248.862
 30
870.000
 70
    32
  0
VERTEX
  8
M44LXLIFT
 62
7
 10
4594.814
 20
-6257.738
 30
870.000
 70
    32
  0
VERTEX
  8
M44LXLIFT
 62
7
 10
4588.111
 20
-6254.195
 30
870.000
 70
    32
  0
VERTEX
  8
M44LXLIFT
 62
7
 10
4582.291
 20
-6257.995
 30
870.000
 70
    32
  0
VERTEX
  8
M44LXLIFT
 62
7
 10
4572.411
 20
-6262.964
 30
870.000
 70
    32
  0
VERTEX
  8
M44LXLIFT
 62
7
 10
4564.912
 20
-6253.220
 30
870.000
 70
    32
  0
SEQEND
  8
M44LXLIFT
  0
POLYLINE
  8
M44LXLIFT
 62
7
 66
     1
 70
     9
  0
VERTEX
  8
M44LXLIFT
 62
7
 10
4595.494
 20
-6253.401
 30
881.000
 70
    32
  0
VERTEX
  8
M44LXLIFT
 62
7
 10
4599.504
 20
-6259.176
 30
881.000
 70
    32
  0
VERTEX
  8
M44LXLIFT
 62
7
 10
4606.991
 20
-6253.043
 30
881.000
 70
    32
  0
VERTEX
  8
M44LXLIFT
 62
7
 10
4616.470
 20
-6247.847
 30
881.000
 70
    32
  0
VERTEX
  8
M44LXLIFT
 62
7
 10
4625.550
 20
-6245.229
 30
881.000
 70
    32
  0
VERTEX
  8
M44LXLIFT
 62
7
 10
4625.358
 20
-6233.067
 30
881.000
 70
    32
  0
VERTEX
  8
M44LXLIFT
 62
7
 10
4627.150
 20
-6225.550
 30
881.000
 70
    32
  0
VERTEX
  8
M44LXLIFT
 62
7
 10
4622.943
 20
-6218.612
 30
881.000
 70
    32
  0
VERTEX
  8
M44LXLIFT
 62
7
 10
4609.278
 20
-6219.578
 30
881.000
 70
    32
  0
VERTEX
  8
M44LXLIFT
 62
7
 10
4592.059
 20
-6234.577
 30
881.000
 70
    32
  0
VERTEX
  8
M44LXLIFT
 62
7
 10
4572.168
 20
-6252.620
 30
881.000
 70
    32
  0
VERTEX
  8
M44LXLIFT
 62
7
 10
4575.294
 20
-6258.824
 30
881.000
 70
    32
  0
SEQEND
  8
M44LXLIFT
  0
POLYLINE
  8
M44LXLIFT
 62
7
 66
     1
 70
     9
  0
VERTEX
  8
M44LXLIFT
 62
7
 10
4620.285
 20
-6242.798
 30
892.000
 70
    32
  0
VERTEX
  8
M44LXLIFT
 62
7
 10
4615.787
 20
-6229.038
 30
892.000
 70
    32
  0
VERTEX
  8
M44LXLIFT
 62
7
 10
4611.469
 20
-6219.588
 30
892.000
 70
    32
  0
VERTEX
  8
M44LXLIFT
 62
7
 10
4606.380
 20
-6213.726
 30
892.000
 70
    32
  0
VERTEX
  8
M44LXLIFT
 62
7
 10
4597.365
 20
-6214.589
 30
892.000
 70
    32
  0
VERTEX
  8
M44LXLIFT
 62
7
 10
4590.044
 20
-6217.806
 30
892.000
 70
    32
  0
VERTEX
  8
M44LXLIFT
 62
7
 10
4585.392
 20
-6223.973
 30
892.000
 70
    32
  0
VERTEX
  8
M44LXLIFT
 62
7
 10
4585.017
 20
-6239.836
 30
892.000
 70
    32
  0
VERTEX
  8
M44LXLIFT
 62
7
 10
4578.500
 20
-6242.365
 30
892.000
 70
    32
  0
VERTEX
  8
M44LXLIFT
 62
7
 10
4573.038
 20
-6250.414
 30
892.000
 70
    32
  0
VERTEX
  8
M44LXLIFT
 62
7
 10
4573.516
 20
-6254.835
 30
892.000
 70
    32
  0
VERTEX
  8
M44LXLIFT
 62
7
 10
4580.798
 20
-6259.984
 30
892.000
 70
    32
  0
VERTEX
  8
M44LXLIFT
 62
7
 10
4591.031
 20
-6259.758
 30
892.000
 70
    32
  0
VERTEX
  8
M44LXLIFT
 62
7
 10
4601.004
 20
-6255.714
 30
892.000
 70
    32
  0
VERTEX
  8
M44LXLIFT
 62
7
 10
4614.001
 20
-6247.001
 30
892.000
 70
    32
  0
SEQEND
  8
M44LXLIFT
  0
POLYLINE
  8
M44LXLIFT
 62
6
 66
     1
 70
     9
  0
VERTEX
  8
M44LXLIFT
 62
6
 10
4728.563
 20
-6384.441
 30
856.000
 70
    32
  0
VERTEX
  8
M44LXLIFT
 62
6
 10
4720.026
 20
-6371.846
 30
856.000
 70
    32
  0
VERTEX
  8
M44LXLIFT
 62
6
 10
4709.650
 20
-6355.029
 30
856.000
 70
    32
  0
VERTEX
  8
M44LXLIFT
 62
6
 10
4705.249
 20
-6348.995
 30
856.000
 70
    32
  0
VERTEX
  8
M44LXLIFT
 62
6
 10
4692.127
 20
-6345.968
 30
856.000
 70
    32
  0
VERTEX
  8
M44LXLIFT
 62
6
 10
4682.745
 20
-6344.424
 30
856.000
 70
    32
  0
VERTEX
  8
M44LXLIFT
 62
6
 10
4670.358
 20
-6332.402
 30
856.000
 70
    32
  0
VERTEX
  8
M44LXLIFT
 62
6
 10
4664.078
 20
-6325.908
 30
856.000
 70
    32
  0
VERTEX
  8
M44LXLIFT
 62
6
 10
4660.533
 20
-6312.213
 30
856.000
 70
    32
  0
VERTEX
  8
M44LXLIFT
 62
6
 10
4657.541
 20
-6303.808
 30
856.000
 70
    32
  0
VERTEX
  8
M44LXLIFT
 62
6
 10
4650.249
 20
-6293.024
 30
856.000
 70
    32
  0
VERTEX
  8
M44LXLIFT
 62
6
 10
4644.247
 20
-6277.216
 30
856.000
 70
    32
  0
VERTEX
  8
M44LXLIFT
 62
6
 10
4637.909
 20
-6262.427
 30
856.000
 70
    32
  0
VERTEX
  8
M44LXLIFT
 62
6
 10
4628.007
 20
-6245.805
 30
856.000
 70
    32
  0
VERTEX
  8
M44LXLIFT
 62
6
 10
4613.887
 20
-6251.423
 30
856.000
 70
    32
  0
VERTEX
  8
M44LXLIFT
 62
6
 10
4601.895
 20
-6256.219
 30
856.000
 70
    32
  0
VERTEX
  8
M44LXLIFT
 62
6
 10
4602.345
 20
-6271.350
 30
856.000
 70
    32
  0
VERTEX
  8
M44LXLIFT
 62
6
 10
4606.418
 20
-6284.430
 30
856.000
 70
    32
  0
VERTEX
  8
M44LXLIFT
 62
6
 10
4609.382
 20
-6299.108
 30
856.000
 70
    32
  0
VERTEX
  8
M44LXLIFT
 62
6
 10
4617.238
 20
-6319.892
 30
856.000
 70
    32
  0
VERTEX
  8
M44LXLIFT
 62
6
 10
4621.814
 20
-6337.314
 30
856.000
 70
    32
  0
VERTEX
  8
M44LXLIFT
 62
6
 10
4622.355
 20
-6350.952
 30
856.000
 70
    32
  0
VERTEX
  8
M44LXLIFT
 62
6
 10
4621.245
 20
-6363.409
 30
856.000
 70
    32
  0
VERTEX
  8
M44LXLIFT
 62
6
 10
4630.119
 20
-6374.547
 30
856.000
 70
    32
  0
VERTEX
  8
M44LXLIFT
 62
6
 10
4641.208
 20
-6385.126
 30
856.000
 70
    32
  0
VERTEX
  8
M44LXLIFT
 62
6
 10
4654.023
 20
-6392.879
 30
856.000
 70
    32
  0
VERTEX
  8
M44LXLIFT
 62
6
 10
4669.901
 20
-6397.684
 30
856.000
 70
    32
  0
VERTEX
  8
M44LXLIFT
 62
6
 10
4683.995
 20
-6408.321
 30
856.000
 70
    32
  0
VERTEX
  8
M44LXLIFT
 62
6
 10
4696.823
 20
-6408.606
 30
856.000
 70
    32
  0
VERTEX
  8
M44LXLIFT
 62
6
 10
4724.332
 20
-6404.169
 30
856.000
 70
    32
  0
SEQEND
  8
M44LXLIFT
  0
POLYLINE
  8
M44LXLIFT
 62
6
 66
     1
 70
     9
  0
VERTEX
  8
M44LXLIFT
 62
6
 10
4675.690
 20
-6408.542
 30
849.000
 70
    32
  0
VERTEX
  8
M44LXLIFT
 62
6
 10
4682.551
 20
-6412.476
 30
849.000
 70
    32
  0
VERTEX
  8
M44LXLIFT
 62
6
 10
4688.214
 20
-6413.680
 30
849.000
 70
    32
  0
VERTEX
  8
M44LXLIFT
 62
6
 10
4696.805
 20
-6409.454
 30
849.000
 70
    32
  0
VERTEX
  8
M44LXLIFT
 62
6
 10
4701.823
 20
-6408.942
 30
849.000
 70
    32
  0
VERTEX
  8
M44LXLIFT
 62
6
 10
4704.943
 20
-6410.429
 30
849.000
 70
    32
  0
VERTEX
  8
M44LXLIFT
 62
6
 10
4712.741
 20
-6408.351
 30
849.000
 70
    32
  0
VERTEX
  8
M44LXLIFT
 62
6
 10
4717.823
 20
-6404.590
 30
849.000
 70
    32
  0
VERTEX
  8
M44LXLIFT
 62
6
 10
4720.082
 20
-6394.370
 30
849.000
 70
    32
  0
VERTEX
  8
M44LXLIFT
 62
6
 10
4718.546
 20
-6386.269
 30
849.000
 70
    32
  0
VERTEX
  8
M44LXLIFT
 62
6
 10
4710.349
 20
-6375.074
 30
849.000
 70
    32
  0
VERTEX
  8
M44LXLIFT
 62
6
 10
4697.473
 20
-6362.808
 30
849.000
 70
    32
  0
VERTEX
  8
M44LXLIFT
 62
6
 10
4687.586
 20
-6348.817
 30
849.000
 70
    32
  0
VERTEX
  8
M44LXLIFT
 62
6
 10
4675.110
 20
-6328.962
 30
849.000
 70
    32
  0
VERTEX
  8
M44LXLIFT
 62
6
 10
4665.842
 20
-6315.492
 30
849.000
 70
    32
  0
VERTEX
  8
M44LXLIFT
 62
6
 10
4651.786
 20
-6293.419
 30
849.000
 70
    32
  0
VERTEX
  8
M44LXLIFT
 62
6
 10
4643.685
 20
-6274.093
 30
849.000
 70
    32
  0
VERTEX
  8
M44LXLIFT
 62
6
 10
4638.232
 20
-6263.457
 30
849.000
 70
    32
  0
VERTEX
  8
M44LXLIFT
 62
6
 10
4622.891
 20
-6264.328
 30
849.000
 70
    32
  0
VERTEX
  8
M44LXLIFT
 62
6
 10
4615.268
 20
-6268.810
 30
849.000
 70
    32
  0
VERTEX
  8
M44LXLIFT
 62
6
 10
4611.749
 20
-6274.913
 30
849.000
 70
    32
  0
VERTEX
  8
M44LXLIFT
 62
6
 10
4613.065
 20
-6288.811
 30
849.000
 70
    32
  0
VERTEX
  8
M44LXLIFT
 62
6
 10
4612.838
 20
-6307.637
 30
849.000
 70
    32
  0
VERTEX
  8
M44LXLIFT
 62
6
 10
4616.977
 20
-6325.676
 30
849.000
 70
    32
  0
VERTEX
  8
M44LXLIFT
 62
6
 10
4620.525
 20
-6344.386
 30
849.000
 70
    32
  0
VERTEX
  8
M44LXLIFT
 62
6
 10
4617.963
 20
-6363.336
 30
849.000
 70
    32
  0
VERTEX
  8
M44LXLIFT
 62
6
 10
4613.226
 20
-6373.346
 30
849.000
 70
    32
  0
VERTEX
  8
M44LXLIFT
 62
6
 10
4623.536
 20
-6380.503
 30
849.000
 70
    32
  0
VERTEX
  8
M44LXLIFT
 62
6
 10
4630.669
 20
-6387.983
 30
849.000
 70
    32
  0
VERTEX
  8
M44LXLIFT
 62
6
 10
4639.451
 20
-6395.310
 30
849.000
 70
    32
  0
VERTEX
  8
M44LXLIFT
 62
6
 10
4646.705
 20
-6395.413
 30
849.000
 70
    32
  0
VERTEX
  8
M44LXLIFT
 62
6
 10
4656.828
 20
-6398.849
 30
849.000
 70
    32
  0
SEQEND
  8
M44LXLIFT
  0
POLYLINE
  8
M44LXLIFT
 62
6
 66
     1
 70
     9
  0
VERTEX
  8
M44LXLIFT
 62
6
 10
4630.412
 20
-6279.683
 30
838.000
 70
    32
  0
VERTEX
  8
M44LXLIFT
 62
6
 10
4644.938
 20
-6285.759
 30
838.000
 70
    32
  0
VERTEX
  8
M44LXLIFT
 62
6
 10
4659.474
 20
-6300.866
 30
838.000
 70
    32
  0
VERTEX
  8
M44LXLIFT
 62
6
 10
4676.810
 20
-6327.519
 30
838.000
 70
    32
  0
VERTEX
  8
M44LXLIFT
 62
6
 10
4689.175
 20
-6347.469
 30
838.000
 70
    32
  0
VERTEX
  8
M44LXLIFT
 62
6
 10
4708.180
 20
-6374.289
 30
838.000
 70
    32
  0
VERTEX
  8
M44LXLIFT
 62
6
 10
4717.911
 20
-6391.054
 30
838.000
 70
    32
  0
VERTEX
  8
M44LXLIFT
 62
6
 10
4726.903
 20
-6397.246
 30
838.000
 70
    32
  0
VERTEX
  8
M44LXLIFT
 62
6
 10
4729.112
 20
-6399.870
 30
838.000
 70
    32
  0
VERTEX
  8
M44LXLIFT
 62
6
 10
4710.564
 20
-6414.811
 30
838.000
 70
    32
  0
VERTEX
  8
M44LXLIFT
 62
6
 10
4698.645
 20
-6420.317
 30
838.000
 70
    32
  0
VERTEX
  8
M44LXLIFT
 62
6
 10
4683.322
 20
-6420.026
 30
838.000
 70
    32
  0
VERTEX
  8
M44LXLIFT
 62
6
 10
4657.725
 20
-6406.469
 30
838.000
 70
    32
  0
VERTEX
  8
M44LXLIFT
 62
6
 10
4639.034
 20
-6393.298
 30
838.000
 70
    32
  0
VERTEX
  8
M44LXLIFT
 62
6
 10
4629.274
 20
-6377.658
 30
838.000
 70
    32
  0
VERTEX
  8
M44LXLIFT
 62
6
 10
4624.072
 20
-6342.580
 30
838.000
 70
    32
  0
VERTEX
  8
M44LXLIFT
 62
6
 10
4619.801
 20
-6328.510
 30
838.000
 70
    32
  0
VERTEX
  8
M44LXLIFT
 62
6
 10
4620.107
 20
-6312.626
 30
838.000
 70
    32
  0
VERTEX
  8
M44LXLIFT
 62
6
 10
4619.210
 20
-6295.008
 30
838.000
 70
    32
  0
SEQEND
  8
M44LXLIFT
  0
POLYLINE
  8
M44LXLIFT
 62
6
 66
     1
 70
     9
  0
VERTEX
  8
M44LXLIFT
 62
6
 10
4698.709
 20
-6409.438
 30
867.000
 70
    32
  0
VERTEX
  8
M44LXLIFT
 62
6
 10
4706.320
 20
-6405.834
 30
867.000
 70
    32
  0
VERTEX
  8
M44LXLIFT
 62
6
 10
4720.618
 20
-6405.019
 30
867.000
 70
    32
  0
VERTEX
  8
M44LXLIFT
 62
6
 10
4728.350
 20
-6403.189
 30
867.000
 70
    32
  0
VERTEX
  8
M44LXLIFT
 62
6
 10
4726.206
 20
-6394.597
 30
867.000
 70
    32
  0
VERTEX
  8
M44LXLIFT
 62
6
 10
4720.949
 20
-6388.440
 30
867.000
 70
    32
  0
VERTEX
  8
M44LXLIFT
 62
6
 10
4722.973
 20
-6377.062
 30
867.000
 70
    32
  0
VERTEX
  8
M44LXLIFT
 62
6
 10
4724.588
 20
-6368.073
 30
867.000
 70
    32
  0
VERTEX
  8
M44LXLIFT
 62
6
 10
4722.610
 20
-6355.740
 30
867.000
 70
    32
  0
VERTEX
  8
M44LXLIFT
 62
6
 10
4719.750
 20
-6345.161
 30
867.000
 70
    32
  0
VERTEX
  8
M44LXLIFT
 62
6
 10
4709.897
 20
-6335.641
 30
867.000
 70
    32
  0
VERTEX
  8
M44LXLIFT
 62
6
 10
4702.495
 20
-6330.867
 30
867.000
 70
    32
  0
VERTEX
  8
M44LXLIFT
 62
6
 10
4697.148
 20
-6334.861
 30
867.000
 70
    32
  0
VERTEX
  8
M44LXLIFT
 62
6
 10
4689.599
 20
-6333.266
 30
867.000
 70
    32
  0
VERTEX
  8
M44LXLIFT
 62
6
 10
4683.431
 20
-6334.694
 30
867.000
 70
    32
  0
VERTEX
  8
M44LXLIFT
 62
6
 10
4675.345
 20
-6329.445
 30
867.000
 70
    32
  0
VERTEX
  8
M44LXLIFT
 62
6
 10
4664.986
 20
-6318.220
 30
867.000
 70
    32
  0
VERTEX
  8
M44LXLIFT
 62
6
 10
4652.353
 20
-6302.775
 30
867.000
 70
    32
  0
VERTEX
  8
M44LXLIFT
 62
6
 10
4646.860
 20
-6290.874
 30
867.000
 70
    32
  0
VERTEX
  8
M44LXLIFT
 62
6
 10
4640.796
 20
-6266.028
 30
867.000
 70
    32
  0
VERTEX
  8
M44LXLIFT
 62
6
 10
4638.234
 20
-6255.556
 30
867.000
 70
    32
  0
VERTEX
  8
M44LXLIFT
 62
6
 10
4630.567
 20
-6251.308
 30
867.000
 70
    32
  0
VERTEX
  8
M44LXLIFT
 62
6
 10
4624.590
 20
-6245.360
 30
867.000
 70
    32
  0
VERTEX
  8
M44LXLIFT
 62
6
 10
4617.040
 20
-6243.765
 30
867.000
 70
    32
  0
VERTEX
  8
M44LXLIFT
 62
6
 10
4608.587
 20
-6246.682
 30
867.000
 70
    32
  0
VERTEX
  8
M44LXLIFT
 62
6
 10
4600.761
 20
-6252.199
 30
867.000
 70
    32
  0
VERTEX
  8
M44LXLIFT
 62
6
 10
4594.333
 20
-6261.057
 30
867.000
 70
    32
  0
VERTEX
  8
M44LXLIFT
 62
6
 10
4592.774
 20
-6267.921
 30
867.000
 70
    32
  0
VERTEX
  8
M44LXLIFT
 62
6
 10
4588.736
 20
-6276.747
 30
867.000
 70
    32
  0
VERTEX
  8
M44LXLIFT
 62
6
 10
4586.470
 20
-6285.894
 30
867.000
 70
    32
  0
VERTEX
  8
M44LXLIFT
 62
6
 10
4589.578
 20
-6304.727
 30
867.000
 70
    32
  0
VERTEX
  8
M44LXLIFT
 62
6
 10
4596.935
 20
-6324.114
 30
867.000
 70
    32
  0
VERTEX
  8
M44LXLIFT
 62
6
 10
4604.926
 20
-6342.588
 30
867.000
 70
    32
  0
VERTEX
  8
M44LXLIFT
 62
6
 10
4609.430
 20
-6366.079
 30
867.000
 70
    32
  0
VERTEX
  8
M44LXLIFT
 62
6
 10
4612.475
 20
-6371.916
 30
867.000
 70
    32
  0
VERTEX
  8
M44LXLIFT
 62
6
 10
4618.923
 20
-6370.716
 30
867.000
 70
    32
  0
VERTEX
  8
M44LXLIFT
 62
6
 10
4629.514
 20
-6379.465
 30
867.000
 70
    32
  0
VERTEX
  8
M44LXLIFT
 62
6
 10
4653.636
 20
-6394.001
 30
867.000
 70
    32
  0
VERTEX
  8
M44LXLIFT
 62
6
 10
4682.031
 20
-6405.454
 30
867.000
 70
    32
  0
SEQEND
  8
M44LXLIFT
  0
POLYLINE
  8
M44LXLIFT
 62
6
 66
     1
 70
     9
  0
VERTEX
  8
M44LXLIFT
 62
6
 10
4708.467
 20
-6340.662
 30
876.000
 70
    32
  0
VERTEX
  8
M44LXLIFT
 62
6
 10
4705.262
 20
-6338.217
 30
876.000
 70
    32
  0
VERTEX
  8
M44LXLIFT
 62
6
 10
4693.804
 20
-6338.329
 30
876.000
 70
    32
  0
VERTEX
  8
M44LXLIFT
 62
6
 10
4684.912
 20
-6336.890
 30
876.000
 70
    32
  0
VERTEX
  8
M44LXLIFT
 62
6
 10
4675.965
 20
-6332.551
 30
876.000
 70
    32
  0
VERTEX
  8
M44LXLIFT
 62
6
 10
4664.128
 20
-6318.461
 30
876.000
 70
    32
  0
VERTEX
  8
M44LXLIFT
 62
6
 10
4648.493
 20
-6293.977
 30
876.000
 70
    32
  0
VERTEX
  8
M44LXLIFT
 62
6
 10
4642.745
 20
-6283.596
 30
876.000
 70
    32
  0
VERTEX
  8
M44LXLIFT
 62
6
 10
4639.556
 20
-6273.736
 30
876.000
 70
    32
  0
VERTEX
  8
M44LXLIFT
 62
6
 10
4631.382
 20
-6261.973
 30
876.000
 70
    32
  0
VERTEX
  8
M44LXLIFT
 62
6
 10
4620.162
 20
-6249.173
 30
876.000
 70
    32
  0
VERTEX
  8
M44LXLIFT
 62
6
 10
4612.676
 20
-6249.208
 30
876.000
 70
    32
  0
VERTEX
  8
M44LXLIFT
 62
6
 10
4603.833
 20
-6255.572
 30
876.000
 70
    32
  0
VERTEX
  8
M44LXLIFT
 62
6
 10
4599.259
 20
-6263.602
 30
876.000
 70
    32
  0
VERTEX
  8
M44LXLIFT
 62
6
 10
4594.647
 20
-6276.340
 30
876.000
 70
    32
  0
VERTEX
  8
M44LXLIFT
 62
6
 10
4593.628
 20
-6291.458
 30
876.000
 70
    32
  0
VERTEX
  8
M44LXLIFT
 62
6
 10
4594.126
 20
-6304.484
 30
876.000
 70
    32
  0
VERTEX
  8
M44LXLIFT
 62
6
 10
4600.965
 20
-6325.281
 30
876.000
 70
    32
  0
VERTEX
  8
M44LXLIFT
 62
6
 10
4602.939
 20
-6336.902
 30
876.000
 70
    32
  0
VERTEX
  8
M44LXLIFT
 62
6
 10
4610.669
 20
-6349.099
 30
876.000
 70
    32
  0
VERTEX
  8
M44LXLIFT
 62
6
 10
4615.855
 20
-6359.457
 30
876.000
 70
    32
  0
VERTEX
  8
M44LXLIFT
 62
6
 10
4618.129
 20
-6372.381
 30
876.000
 70
    32
  0
VERTEX
  8
M44LXLIFT
 62
6
 10
4630.336
 20
-6380.430
 30
876.000
 70
    32
  0
VERTEX
  8
M44LXLIFT
 62
6
 10
4643.966
 20
-6391.466
 30
876.000
 70
    32
  0
VERTEX
  8
M44LXLIFT
 62
6
 10
4654.677
 20
-6392.118
 30
876.000
 70
    32
  0
VERTEX
  8
M44LXLIFT
 62
6
 10
4666.880
 20
-6398.973
 30
876.000
 70
    32
  0
VERTEX
  8
M44LXLIFT
 62
6
 10
4680.519
 20
-6410.764
 30
876.000
 70
    32
  0
VERTEX
  8
M44LXLIFT
 62
6
 10
4692.657
 20
-6411.134
 30
876.000
 70
    32
  0
VERTEX
  8
M44LXLIFT
 62
6
 10
4706.317
 20
-6410.608
 30
876.000
 70
    32
  0
VERTEX
  8
M44LXLIFT
 62
6
 10
4716.196
 20
-6411.760
 30
876.000
 70
    32
  0
VERTEX
  8
M44LXLIFT
 62
6
 10
4723.099
 20
-6398.433
 30
876.000
 70
    32
  0
VERTEX
  8
M44LXLIFT
 62
6
 10
4725.257
 20
-6388.143
 30
876.000
 70
    32
  0
VERTEX
  8
M44LXLIFT
 62
6
 10
4715.159
 20
-6372.562
 30
876.000
 70
    32
  0
VERTEX
  8
M44LXLIFT
 62
6
 10
4709.837
 20
-6355.772
 30
876.000
 70
    32
  0
SEQEND
  8
M44LXLIFT
  0
POLYLINE
  8
M44LXLIFT
 62
4
 66
     1
 70
     9
  0
VERTEX
  8
M44LXLIFT
 62
4
 10
4719.732
 20
-6435.586
 30
949.000
 70
    32
  0
VERTEX
  8
M44LXLIFT
 62
4
 10
4721.107
 20
-6451.555
 30
949.000
 70
    32
  0
VERTEX
  8
M44LXLIFT
 62
4
 10
4714.308
 20
-6455.525
 30
949.000
 70
    32
  0
VERTEX
  8
M44LXLIFT
 62
4
 10
4703.944
 20
-6458.096
 30
949.000
 70
    32
  0
VERTEX
  8
M44LXLIFT
 62
4
 10
4695.729
 20
-6442.510
 30
949.000
 70
    32
  0
VERTEX
  8
M44LXLIFT
 62
4
 10
4685.539
 20
-6433.986
 30
949.000
 70
    32
  0
VERTEX
  8
M44LXLIFT
 62
4
 10
4683.622
 20
-6428.618
 30
949.000
 70
    32
  0
VERTEX
  8
M44LXLIFT
 62
4
 10
4682.633
 20
-6418.610
 30
949.000
 70
    32
  0
VERTEX
  8
M44LXLIFT
 62
4
 10
4683.025
 20
-6411.192
 30
949.000
 70
    32
  0
VERTEX
  8
M44LXLIFT
 62
4
 10
4685.298
 20
-6403.797
 30
949.000
 70
    32
  0
VERTEX
  8
M44LXLIFT
 62
4
 10
4689.205
 20
-6396.828
 30
949.000
 70
    32
  0
VERTEX
  8
M44LXLIFT
 62
4
 10
4694.913
 20
-6399.044
 30
949.000
 70
    32
  0
VERTEX
  8
M44LXLIFT
 62
4
 10
4703.359
 20
-6402.727
 30
949.000
 70
    32
  0
VERTEX
  8
M44LXLIFT
 62
4
 10
4708.117
 20
-6410.583
 30
949.000
 70
    32
  0
VERTEX
  8
M44LXLIFT
 62
4
 10
4712.441
 20
-6416.680
 30
949.000
 70
    32
  0
VERTEX
  8
M44LXLIFT
 62
4
 10
4719.329
 20
-6418.125
 30
949.000
 70
    32
  0
SEQEND
  8
M44LXLIFT
  0
POLYLINE
  8
M44LXLIFT
 62
3
 66
     1
 70
     9
  0
VERTEX
  8
M44LXLIFT
 62
3
 10
4739.798
 20
-6456.145
 30
847.000
 70
    32
  0
VERTEX
  8
M44LXLIFT
 62
3
 10
4745.670
 20
-6456.765
 30
847.000
 70
    32
  0
VERTEX
  8
M44LXLIFT
 62
3
 10
4748.569
 20
-6460.300
 30
847.000
 70
    32
  0
VERTEX
  8
M44LXLIFT
 62
3
 10
4751.331
 20
-6464.379
 30
847.000
 70
    32
  0
VERTEX
  8
M44LXLIFT
 62
3
 10
4759.578
 20
-6462.317
 30
847.000
 70
    32
  0
VERTEX
  8
M44LXLIFT
 62
3
 10
4763.466
 20
-6456.394
 30
847.000
 70
    32
  0
VERTEX
  8
M44LXLIFT
 62
3
 10
4763.838
 20
-6450.049
 30
847.000
 70
    32
  0
VERTEX
  8
M44LXLIFT
 62
3
 10
4760.609
 20
-6443.899
 30
847.000
 70
    32
  0
VERTEX
  8
M44LXLIFT
 62
3
 10
4756.886
 20
-6426.770
 30
847.000
 70
    32
  0
VERTEX
  8
M44LXLIFT
 62
3
 10
4749.467
 20
-6422.362
 30
847.000
 70
    32
  0
VERTEX
  8
M44LXLIFT
 62
3
 10
4745.845
 20
-6414.966
 30
847.000
 70
    32
  0
VERTEX
  8
M44LXLIFT
 62
3
 10
4749.747
 20
-6398.009
 30
847.000
 70
    32
  0
VERTEX
  8
M44LXLIFT
 62
3
 10
4752.685
 20
-6391.704
 30
847.000
 70
    32
  0
VERTEX
  8
M44LXLIFT
 62
3
 10
4750.035
 20
-6385.445
 30
847.000
 70
    32
  0
VERTEX
  8
M44LXLIFT
 62
3
 10
4742.374
 20
-6381.882
 30
847.000
 70
    32
  0
VERTEX
  8
M44LXLIFT
 62
3
 10
4732.120
 20
-6383.041
 30
847.000
 70
    32
  0
VERTEX
  8
M44LXLIFT
 62
3
 10
4725.269
 20
-6386.800
 30
847.000
 70
    32
  0
VERTEX
  8
M44LXLIFT
 62
3
 10
4725.559
 20
-6395.619
 30
847.000
 70
    32
  0
VERTEX
  8
M44LXLIFT
 62
3
 10
4724.932
 20
-6407.007
 30
847.000
 70
    32
  0
VERTEX
  8
M44LXLIFT
 62
3
 10
4718.812
 20
-6416.385
 30
847.000
 70
    32
  0
VERTEX
  8
M44LXLIFT
 62
3
 10
4719.436
 20
-6425.062
 30
847.000
 70
    32
  0
VERTEX
  8
M44LXLIFT
 62
3
 10
4727.786
 20
-6436.369
 30
847.000
 70
    32
  0
VERTEX
  8
M44LXLIFT
 62
3
 10
4734.973
 20
-6447.015
 30
847.000
 70
    32
  0
SEQEND
  8
M44LXLIFT
  0
POLYLINE
  8
M44LXLIFT
 62
8
 66
     1
 70
     9
  0
VERTEX
  8
M44LXLIFT
 62
8
 10
4926.764
 20
-6898.781
 30
952.000
 70
    32
  0
VERTEX
  8
M44LXLIFT
 62
8
 10
4926.082
 20
-6909.047
 30
952.000
 70
    32
  0
VERTEX
  8
M44LXLIFT
 62
8
 10
4922.700
 20
-6916.720
 30
952.000
 70
    32
  0
VERTEX
  8
M44LXLIFT
 62
8
 10
4915.644
 20
-6918.580
 30
952.000
 70
    32
  0
VERTEX
  8
M44LXLIFT
 62
8
 10
4906.803
 20
-6912.012
 30
952.000
 70
    32
  0
VERTEX
  8
M44LXLIFT
 62
8
 10
4896.894
 20
-6903.718
 30
952.000
 70
    32
  0
VERTEX
  8
M44LXLIFT
 62
8
 10
4892.651
 20
-6894.052
 30
952.000
 70
    32
  0
VERTEX
  8
M44LXLIFT
 62
8
 10
4887.293
 20
-6886.862
 30
952.000
 70
    32
  0
VERTEX
  8
M44LXLIFT
 62
8
 10
4877.708
 20
-6876.353
 30
952.000
 70
    32
  0
VERTEX
  8
M44LXLIFT
 62
8
 10
4869.896
 20
-6866.606
 30
952.000
 70
    32
  0
VERTEX
  8
M44LXLIFT
 62
8
 10
4867.908
 20
-6855.699
 30
952.000
 70
    32
  0
VERTEX
  8
M44LXLIFT
 62
8
 10
4877.842
 20
-6850.051
 30
952.000
 70
    32
  0
VERTEX
  8
M44LXLIFT
 62
8
 10
4885.759
 20
-6853.908
 30
952.000
 70
    32
  0
VERTEX
  8
M44LXLIFT
 62
8
 10
4893.386
 20
-6861.052
 30
952.000
 70
    32
  0
VERTEX
  8
M44LXLIFT
 62
8
 10
4904.358
 20
-6866.361
 30
952.000
 70
    32
  0
VERTEX
  8
M44LXLIFT
 62
8
 10
4916.380
 20
-6873.519
 30
952.000
 70
    32
  0
VERTEX
  8
M44LXLIFT
 62
8
 10
4925.961
 20
-6874.163
 30
952.000
 70
    32
  0
VERTEX
  8
M44LXLIFT
 62
8
 10
4934.651
 20
-6872.731
 30
952.000
 70
    32
  0
VERTEX
  8
M44LXLIFT
 62
8
 10
4930.093
 20
-6879.855
 30
952.000
 70
    32
  0
VERTEX
  8
M44LXLIFT
 62
8
 10
4927.615
 20
-6885.210
 30
952.000
 70
    32
  0
SEQEND
  8
M44LXLIFT
  0
POLYLINE
  8
M44LXLIFT
 62
8
 66
     1
 70
     9
  0
VERTEX
  8
M44LXLIFT
 62
8
 10
4930.757
 20
-6874.722
 30
942.000
 70
    32
  0
VERTEX
  8
M44LXLIFT
 62
8
 10
4932.300
 20
-6886.281
 30
942.000
 70
    32
  0
VERTEX
  8
M44LXLIFT
 62
8
 10
4932.461
 20
-6892.340
 30
942.000
 70
    32
  0
VERTEX
  8
M44LXLIFT
 62
8
 10
4927.036
 20
-6897.567
 30
942.000
 70
    32
  0
VERTEX
  8
M44LXLIFT
 62
8
 10
4926.338
 20
-6909.773
 30
942.000
 70
    32
  0
VERTEX
  8
M44LXLIFT
 62
8
 10
4924.510
 20
-6925.506
 30
942.000
 70
    32
  0
VERTEX
  8
M44LXLIFT
 62
8
 10
4912.091
 20
-6928.105
 30
942.000
 70
    32
  0
VERTEX
  8
M44LXLIFT
 62
8
 10
4899.086
 20
-6926.902
 30
942.000
 70
    32
  0
VERTEX
  8
M44LXLIFT
 62
8
 10
4887.923
 20
-6915.374
 30
942.000
 70
    32
  0
VERTEX
  8
M44LXLIFT
 62
8
 10
4877.498
 20
-6902.769
 30
942.000
 70
    32
  0
VERTEX
  8
M44LXLIFT
 62
8
 10
4868.586
 20
-6885.819
 30
942.000
 70
    32
  0
VERTEX
  8
M44LXLIFT
 62
8
 10
4864.109
 20
-6873.350
 30
942.000
 70
    32
  0
VERTEX
  8
M44LXLIFT
 62
8
 10
4863.179
 20
-6861.889
 30
942.000
 70
    32
  0
VERTEX
  8
M44LXLIFT
 62
8
 10
4869.180
 20
-6858.954
 30
942.000
 70
    32
  0
VERTEX
  8
M44LXLIFT
 62
8
 10
4879.810
 20
-6874.985
 30
942.000
 70
    32
  0
VERTEX
  8
M44LXLIFT
 62
8
 10
4888.717
 20
-6879.805
 30
942.000
 70
    32
  0
VERTEX
  8
M44LXLIFT
 62
8
 10
4908.689
 20
-6884.197
 30
942.000
 70
    32
  0
VERTEX
  8
M44LXLIFT
 62
8
 10
4918.773
 20
-6881.664
 30
942.000
 70
    32
  0
SEQEND
  8
M44LXLIFT
  0
POLYLINE
  8
M44LXLIFT
 62
8
 66
     1
 70
     9
  0
VERTEX
  8
M44LXLIFT
 62
8
 10
4838.000
 20
-6798.618
 30
962.000
 70
    32
  0
VERTEX
  8
M44LXLIFT
 62
8
 10
4844.473
 20
-6814.392
 30
962.000
 70
    32
  0
VERTEX
  8
M44LXLIFT
 62
8
 10
4855.480
 20
-6834.351
 30
962.000
 70
    32
  0
VERTEX
  8
M44LXLIFT
 62
8
 10
4863.032
 20
-6856.879
 30
962.000
 70
    32
  0
VERTEX
  8
M44LXLIFT
 62
8
 10
4873.477
 20
-6876.817
 30
962.000
 70
    32
  0
VERTEX
  8
M44LXLIFT
 62
8
 10
4887.840
 20
-6892.747
 30
962.000
 70
    32
  0
VERTEX
  8
M44LXLIFT
 62
8
 10
4897.876
 20
-6909.485
 30
962.000
 70
    32
  0
VERTEX
  8
M44LXLIFT
 62
8
 10
4911.623
 20
-6925.764
 30
962.000
 70
    32
  0
VERTEX
  8
M44LXLIFT
 62
8
 10
4920.025
 20
-6925.430
 30
962.000
 70
    32
  0
VERTEX
  8
M44LXLIFT
 62
8
 10
4931.795
 20
-6909.890
 30
962.000
 70
    32
  0
VERTEX
  8
M44LXLIFT
 62
8
 10
4939.827
 20
-6897.128
 30
962.000
 70
    32
  0
VERTEX
  8
M44LXLIFT
 62
8
 10
4937.529
 20
-6883.287
 30
962.000
 70
    32
  0
VERTEX
  8
M44LXLIFT
 62
8
 10
4932.716
 20
-6878.434
 30
962.000
 70
    32
  0
VERTEX
  8
M44LXLIFT
 62
8
 10
4916.165
 20
-6873.110
 30
962.000
 70
    32
  0
VERTEX
  8
M44LXLIFT
 62
8
 10
4899.856
 20
-6864.430
 30
962.000
 70
    32
  0
VERTEX
  8
M44LXLIFT
 62
8
 10
4884.395
 20
-6846.141
 30
962.000
 70
    32
  0
VERTEX
  8
M44LXLIFT
 62
8
 10
4866.430
 20
-6817.120
 30
962.000
 70
    32
  0
VERTEX
  8
M44LXLIFT
 62
8
 10
4857.334
 20
-6802.530
 30
962.000
 70
    32
  0
VERTEX
  8
M44LXLIFT
 62
8
 10
4847.469
 20
-6795.300
 30
962.000
 70
    32
  0
SEQEND
  8
M44LXLIFT
  0
POLYLINE
  8
M44LXLIFT
 62
8
 66
     1
 70
     9
  0
VERTEX
  8
M44LXLIFT
 62
8
 10
4901.144
 20
-6926.975
 30
931.000
 70
    32
  0
VERTEX
  8
M44LXLIFT
 62
8
 10
4895.960
 20
-6932.244
 30
931.000
 70
    32
  0
VERTEX
  8
M44LXLIFT
 62
8
 10
4892.865
 20
-6931.910
 30
931.000
 70
    32
  0
VERTEX
  8
M44LXLIFT
 62
8
 10
4888.128
 20
-6922.717
 30
931.000
 70
    32
  0
VERTEX
  8
M44LXLIFT
 62
8
 10
4887.847
 20
-6909.342
 30
931.000
 70
    32
  0
VERTEX
  8
M44LXLIFT
 62
8
 10
4888.170
 20
-6898.258
 30
931.000
 70
    32
  0
VERTEX
  8
M44LXLIFT
 62
8
 10
4892.486
 20
-6890.785
 30
931.000
 70
    32
  0
VERTEX
  8
M44LXLIFT
 62
8
 10
4902.158
 20
-6885.364
 30
931.000
 70
    32
  0
VERTEX
  8
M44LXLIFT
 62
8
 10
4918.417
 20
-6878.782
 30
931.000
 70
    32
  0
VERTEX
  8
M44LXLIFT
 62
8
 10
4927.936
 20
-6875.665
 30
931.000
 70
    32
  0
VERTEX
  8
M44LXLIFT
 62
8
 10
4931.979
 20
-6876.390
 30
931.000
 70
    32
  0
VERTEX
  8
M44LXLIFT
 62
8
 10
4933.724
 20
-6882.435
 30
931.000
 70
    32
  0
VERTEX
  8
M44LXLIFT
 62
8
 10
4924.581
 20
-6891.079
 30
931.000
 70
    32
  0
VERTEX
  8
M44LXLIFT
 62
8
 10
4916.162
 20
-6899.076
 30
931.000
 70
    32
  0
VERTEX
  8
M44LXLIFT
 62
8
 10
4912.985
 20
-6910.743
 30
931.000
 70
    32
  0
SEQEND
  8
M44LXLIFT
  0
POLYLINE
  8
M44LXLIFT
 62
3
 66
     1
 70
     9
  0
VERTEX
  8
M44LXLIFT
 62
3
 10
5221.282
 20
-7016.813
 30
944.000
 70
    32
  0
VERTEX
  8
M44LXLIFT
 62
3
 10
5211.613
 20
-7025.778
 30
944.000
 70
    32
  0
VERTEX
  8
M44LXLIFT
 62
3
 10
5202.751
 20
-7038.589
 30
944.000
 70
    32
  0
VERTEX
  8
M44LXLIFT
 62
3
 10
5188.077
 20
-7059.119
 30
944.000
 70
    32
  0
VERTEX
  8
M44LXLIFT
 62
3
 10
5178.828
 20
-7071.993
 30
944.000
 70
    32
  0
VERTEX
  8
M44LXLIFT
 62
3
 10
5171.402
 20
-7076.548
 30
944.000
 70
    32
  0
VERTEX
  8
M44LXLIFT
 62
3
 10
5162.891
 20
-7076.267
 30
944.000
 70
    32
  0
VERTEX
  8
M44LXLIFT
 62
3
 10
5150.634
 20
-7056.863
 30
944.000
 70
    32
  0
VERTEX
  8
M44LXLIFT
 62
3
 10
5139.263
 20
-7031.000
 30
944.000
 70
    32
  0
VERTEX
  8
M44LXLIFT
 62
3
 10
5134.434
 20
-7009.307
 30
944.000
 70
    32
  0
VERTEX
  8
M44LXLIFT
 62
3
 10
5130.091
 20
-6997.196
 30
944.000
 70
    32
  0
VERTEX
  8
M44LXLIFT
 62
3
 10
5137.355
 20
-6993.620
 30
944.000
 70
    32
  0
VERTEX
  8
M44LXLIFT
 62
3
 10
5148.971
 20
-6999.452
 30
944.000
 70
    32
  0
VERTEX
  8
M44LXLIFT
 62
3
 10
5168.496
 20
-7025.096
 30
944.000
 70
    32
  0
VERTEX
  8
M44LXLIFT
 62
3
 10
5178.008
 20
-7026.928
 30
944.000
 70
    32
  0
VERTEX
  8
M44LXLIFT
 62
3
 10
5192.987
 20
-7023.124
 30
944.000
 70
    32
  0
VERTEX
  8
M44LXLIFT
 62
3
 10
5200.869
 20
-7010.149
 30
944.000
 70
    32
  0
VERTEX
  8
M44LXLIFT
 62
3
 10
5208.068
 20
-7000.900
 30
944.000
 70
    32
  0
SEQEND
  8
M44LXLIFT
  0
POLYLINE
  8
M44LXLIFT
 62
3
 66
     1
 70
     9
  0
VERTEX
  8
M44LXLIFT
 62
3
 10
5171.666
 20
-7082.617
 30
934.000
 70
    32
  0
VERTEX
  8
M44LXLIFT
 62
3
 10
5159.851
 20
-7070.189
 30
934.000
 70
    32
  0
VERTEX
  8
M44LXLIFT
 62
3
 10
5138.525
 20
-7031.187
 30
934.000
 70
    32
  0
VERTEX
  8
M44LXLIFT
 62
3
 10
5133.931
 20
-7025.420
 30
934.000
 70
    32
  0
VERTEX
  8
M44LXLIFT
 62
3
 10
5142.796
 20
-7019.407
 30
934.000
 70
    32
  0
VERTEX
  8
M44LXLIFT
 62
3
 10
5148.025
 20
-7024.705
 30
934.000
 70
    32
  0
VERTEX
  8
M44LXLIFT
 62
3
 10
5161.758
 20
-7014.653
 30
934.000
 70
    32
  0
VERTEX
  8
M44LXLIFT
 62
3
 10
5173.625
 20
-7016.240
 30
934.000
 70
    32
  0
VERTEX
  8
M44LXLIFT
 62
3
 10
5190.343
 20
-7024.823
 30
934.000
 70
    32
  0
VERTEX
  8
M44LXLIFT
 62
3
 10
5198.301
 20
-7015.225
 30
934.000
 70
    32
  0
VERTEX
  8
M44LXLIFT
 62
3
 10
5190.460
 20
-6993.418
 30
934.000
 70
    32
  0
VERTEX
  8
M44LXLIFT
 62
3
 10
5194.921
 20
-6990.008
 30
934.000
 70
    32
  0
VERTEX
  8
M44LXLIFT
 62
3
 10
5182.382
 20
-6975.715
 30
934.000
 70
    32
  0
VERTEX
  8
M44LXLIFT
 62
3
 10
5178.345
 20
-6967.899
 30
934.000
 70
    32
  0
VERTEX
  8
M44LXLIFT
 62
3
 10
5176.237
 20
-6960.182
 30
934.000
 70
    32
  0
VERTEX
  8
M44LXLIFT
 62
3
 10
5182.422
 20
-6956.152
 30
934.000
 70
    32
  0
VERTEX
  8
M44LXLIFT
 62
3
 10
5193.654
 20
-6969.121
 30
934.000
 70
    32
  0
VERTEX
  8
M44LXLIFT
 62
3
 10
5208.644
 20
-6984.220
 30
934.000
 70
    32
  0
VERTEX
  8
M44LXLIFT
 62
3
 10
5224.562
 20
-6996.886
 30
934.000
 70
    32
  0
VERTEX
  8
M44LXLIFT
 62
3
 10
5236.997
 20
-7011.039
 30
934.000
 70
    32
  0
VERTEX
  8
M44LXLIFT
 62
3
 10
5233.407
 20
-7020.788
 30
934.000
 70
    32
  0
VERTEX
  8
M44LXLIFT
 62
3
 10
5223.450
 20
-7024.881
 30
934.000
 70
    32
  0
VERTEX
  8
M44LXLIFT
 62
3
 10
5216.703
 20
-7026.381
 30
934.000
 70
    32
  0
VERTEX
  8
M44LXLIFT
 62
3
 10
5207.358
 20
-7036.022
 30
934.000
 70
    32
  0
VERTEX
  8
M44LXLIFT
 62
3
 10
5202.122
 20
-7047.972
 30
934.000
 70
    32
  0
VERTEX
  8
M44LXLIFT
 62
3
 10
5194.885
 20
-7057.364
 30
934.000
 70
    32
  0
VERTEX
  8
M44LXLIFT
 62
3
 10
5188.528
 20
-7060.866
 30
934.000
 70
    32
  0
VERTEX
  8
M44LXLIFT
 62
3
 10
5189.545
 20
-7071.681
 30
934.000
 70
    32
  0
SEQEND
  8
M44LXLIFT
  0
POLYLINE
  8
M44LXLIFT
 62
3
 66
     1
 70
     9
  0
VERTEX
  8
M44LXLIFT
 62
3
 10
5203.337
 20
-6949.331
 30
925.000
 70
    32
  0
VERTEX
  8
M44LXLIFT
 62
3
 10
5213.282
 20
-6957.556
 30
925.000
 70
    32
  0
VERTEX
  8
M44LXLIFT
 62
3
 10
5221.868
 20
-6981.870
 30
925.000
 70
    32
  0
VERTEX
  8
M44LXLIFT
 62
3
 10
5229.037
 20
-6996.204
 30
925.000
 70
    32
  0
VERTEX
  8
M44LXLIFT
 62
3
 10
5243.508
 20
-7012.862
 30
925.000
 70
    32
  0
VERTEX
  8
M44LXLIFT
 62
3
 10
5238.235
 20
-7021.047
 30
925.000
 70
    32
  0
VERTEX
  8
M44LXLIFT
 62
3
 10
5228.679
 20
-7021.273
 30
925.000
 70
    32
  0
VERTEX
  8
M44LXLIFT
 62
3
 10
5216.694
 20
-7033.360
 30
925.000
 70
    32
  0
VERTEX
  8
M44LXLIFT
 62
3
 10
5204.472
 20
-7043.220
 30
925.000
 70
    32
  0
VERTEX
  8
M44LXLIFT
 62
3
 10
5194.899
 20
-7057.227
 30
925.000
 70
    32
  0
VERTEX
  8
M44LXLIFT
 62
3
 10
5185.723
 20
-7068.097
 30
925.000
 70
    32
  0
VERTEX
  8
M44LXLIFT
 62
3
 10
5189.758
 20
-7072.197
 30
925.000
 70
    32
  0
VERTEX
  8
M44LXLIFT
 62
3
 10
5191.087
 20
-7082.353
 30
925.000
 70
    32
  0
VERTEX
  8
M44LXLIFT
 62
3
 10
5185.549
 20
-7086.365
 30
925.000
 70
    32
  0
VERTEX
  8
M44LXLIFT
 62
3
 10
5174.749
 20
-7081.836
 30
925.000
 70
    32
  0
VERTEX
  8
M44LXLIFT
 62
3
 10
5169.480
 20
-7075.048
 30
925.000
 70
    32
  0
VERTEX
  8
M44LXLIFT
 62
3
 10
5159.777
 20
-7063.037
 30
925.000
 70
    32
  0
VERTEX
  8
M44LXLIFT
 62
3
 10
5159.072
 20
-7050.341
 30
925.000
 70
    32
  0
VERTEX
  8
M44LXLIFT
 62
3
 10
5164.312
 20
-7041.525
 30
925.000
 70
    32
  0
VERTEX
  8
M44LXLIFT
 62
3
 10
5160.891
 20
-7032.816
 30
925.000
 70
    32
  0
VERTEX
  8
M44LXLIFT
 62
3
 10
5170.045
 20
-7027.643
 30
925.000
 70
    32
  0
VERTEX
  8
M44LXLIFT
 62
3
 10
5185.876
 20
-7037.171
 30
925.000
 70
    32
  0
VERTEX
  8
M44LXLIFT
 62
3
 10
5205.348
 20
-7020.168
 30
925.000
 70
    32
  0
VERTEX
  8
M44LXLIFT
 62
3
 10
5197.325
 20
-7004.394
 30
925.000
 70
    32
  0
VERTEX
  8
M44LXLIFT
 62
3
 10
5188.428
 20
-6992.877
 30
925.000
 70
    32
  0
VERTEX
  8
M44LXLIFT
 62
3
 10
5178.936
 20
-6985.407
 30
925.000
 70
    32
  0
VERTEX
  8
M44LXLIFT
 62
3
 10
5171.059
 20
-6972.912
 30
925.000
 70
    32
  0
VERTEX
  8
M44LXLIFT
 62
3
 10
5188.271
 20
-6960.214
 30
925.000
 70
    32
  0
SEQEND
  8
M44LXLIFT
  0
POLYLINE
  8
M44LXLIFT
 62
3
 66
     1
 70
     9
  0
VERTEX
  8
M44LXLIFT
 62
3
 10
5206.503
 20
-6954.765
 30
912.000
 70
    32
  0
VERTEX
  8
M44LXLIFT
 62
3
 10
5225.830
 20
-6975.427
 30
912.000
 70
    32
  0
VERTEX
  8
M44LXLIFT
 62
3
 10
5234.574
 20
-6995.097
 30
912.000
 70
    32
  0
VERTEX
  8
M44LXLIFT
 62
3
 10
5242.056
 20
-7012.430
 30
912.000
 70
    32
  0
VERTEX
  8
M44LXLIFT
 62
3
 10
5238.244
 20
-7023.758
 30
912.000
 70
    32
  0
VERTEX
  8
M44LXLIFT
 62
3
 10
5229.258
 20
-7030.495
 30
912.000
 70
    32
  0
VERTEX
  8
M44LXLIFT
 62
3
 10
5218.316
 20
-7033.340
 30
912.000
 70
    32
  0
VERTEX
  8
M44LXLIFT
 62
3
 10
5209.421
 20
-7038.709
 30
912.000
 70
    32
  0
VERTEX
  8
M44LXLIFT
 62
3
 10
5195.245
 20
-7049.646
 30
912.000
 70
    32
  0
VERTEX
  8
M44LXLIFT
 62
3
 10
5187.786
 20
-7057.442
 30
912.000
 70
    32
  0
VERTEX
  8
M44LXLIFT
 62
3
 10
5184.675
 20
-7071.080
 30
912.000
 70
    32
  0
VERTEX
  8
M44LXLIFT
 62
3
 10
5180.757
 20
-7084.653
 30
912.000
 70
    32
  0
VERTEX
  8
M44LXLIFT
 62
3
 10
5173.921
 20
-7089.722
 30
912.000
 70
    32
  0
VERTEX
  8
M44LXLIFT
 62
3
 10
5167.860
 20
-7082.413
 30
912.000
 70
    32
  0
VERTEX
  8
M44LXLIFT
 62
3
 10
5163.575
 20
-7072.624
 30
912.000
 70
    32
  0
VERTEX
  8
M44LXLIFT
 62
3
 10
5154.417
 20
-7065.828
 30
912.000
 70
    32
  0
VERTEX
  8
M44LXLIFT
 62
3
 10
5153.399
 20
-7059.196
 30
912.000
 70
    32
  0
VERTEX
  8
M44LXLIFT
 62
3
 10
5158.147
 20
-7047.514
 30
912.000
 70
    32
  0
VERTEX
  8
M44LXLIFT
 62
3
 10
5179.772
 20
-7037.135
 30
912.000
 70
    32
  0
VERTEX
  8
M44LXLIFT
 62
3
 10
5194.046
 20
-7025.586
 30
912.000
 70
    32
  0
VERTEX
  8
M44LXLIFT
 62
3
 10
5197.257
 20
-7015.669
 30
912.000
 70
    32
  0
VERTEX
  8
M44LXLIFT
 62
3
 10
5194.102
 20
-7004.301
 30
912.000
 70
    32
  0
VERTEX
  8
M44LXLIFT
 62
3
 10
5183.705
 20
-6998.187
 30
912.000
 70
    32
  0
VERTEX
  8
M44LXLIFT
 62
3
 10
5168.159
 20
-6988.114
 30
912.000
 70
    32
  0
VERTEX
  8
M44LXLIFT
 62
3
 10
5188.167
 20
-6971.321
 30
912.000
 70
    32
  0
SEQEND
  8
M44LXLIFT
  0
POLYLINE
  8
M44LXLIFT
 62
6
 66
     1
 70
     9
  0
VERTEX
  8
M44LXLIFT
 62
6
 10
5298.127
 20
-7006.823
 30
962.000
 70
    32
  0
VERTEX
  8
M44LXLIFT
 62
6
 10
5290.350
 20
-7003.946
 30
962.000
 70
    32
  0
VERTEX
  8
M44LXLIFT
 62
6
 10
5281.795
 20
-7001.191
 30
962.000
 70
    32
  0
VERTEX
  8
M44LXLIFT
 62
6
 10
5271.704
 20
-7005.365
 30
962.000
 70
    32
  0
VERTEX
  8
M44LXLIFT
 62
6
 10
5261.181
 20
-7012.115
 30
962.000
 70
    32
  0
VERTEX
  8
M44LXLIFT
 62
6
 10
5258.160
 20
-7019.995
 30
962.000
 70
    32
  0
VERTEX
  8
M44LXLIFT
 62
6
 10
5253.502
 20
-7030.878
 30
962.000
 70
    32
  0
VERTEX
  8
M44LXLIFT
 62
6
 10
5242.182
 20
-7037.117
 30
962.000
 70
    32
  0
VERTEX
  8
M44LXLIFT
 62
6
 10
5240.807
 20
-7045.335
 30
962.000
 70
    32
  0
VERTEX
  8
M44LXLIFT
 62
6
 10
5241.914
 20
-7057.183
 30
962.000
 70
    32
  0
VERTEX
  8
M44LXLIFT
 62
6
 10
5245.515
 20
-7068.440
 30
962.000
 70
    32
  0
VERTEX
  8
M44LXLIFT
 62
6
 10
5254.175
 20
-7081.489
 30
962.000
 70
    32
  0
VERTEX
  8
M44LXLIFT
 62
6
 10
5259.733
 20
-7085.950
 30
962.000
 70
    32
  0
VERTEX
  8
M44LXLIFT
 62
6
 10
5267.501
 20
-7087.754
 30
962.000
 70
    32
  0
VERTEX
  8
M44LXLIFT
 62
6
 10
5282.705
 20
-7082.417
 30
962.000
 70
    32
  0
VERTEX
  8
M44LXLIFT
 62
6
 10
5293.471
 20
-7078.734
 30
962.000
 70
    32
  0
VERTEX
  8
M44LXLIFT
 62
6
 10
5302.456
 20
-7080.426
 30
962.000
 70
    32
  0
VERTEX
  8
M44LXLIFT
 62
6
 10
5308.078
 20
-7080.736
 30
962.000
 70
    32
  0
VERTEX
  8
M44LXLIFT
 62
6
 10
5312.179
 20
-7076.946
 30
962.000
 70
    32
  0
VERTEX
  8
M44LXLIFT
 62
6
 10
5307.135
 20
-7067.150
 30
962.000
 70
    32
  0
VERTEX
  8
M44LXLIFT
 62
6
 10
5300.537
 20
-7059.868
 30
962.000
 70
    32
  0
VERTEX
  8
M44LXLIFT
 62
6
 10
5296.585
 20
-7052.209
 30
962.000
 70
    32
  0
VERTEX
  8
M44LXLIFT
 62
6
 10
5296.105
 20
-7035.485
 30
962.000
 70
    32
  0
SEQEND
  8
M44LXLIFT
  0
POLYLINE
  8
M44LXLIFT
 62
3
 66
     1
 70
     9
  0
VERTEX
  8
M44LXLIFT
 62
3
 10
5188.912
 20
-6971.095
 30
886.000
 70
    32
  0
VERTEX
  8
M44LXLIFT
 62
3
 10
5190.046
 20
-6992.832
 30
886.000
 70
    32
  0
VERTEX
  8
M44LXLIFT
 62
3
 10
5193.273
 20
-7011.019
 30
886.000
 70
    32
  0
VERTEX
  8
M44LXLIFT
 62
3
 10
5207.032
 20
-7021.326
 30
886.000
 70
    32
  0
VERTEX
  8
M44LXLIFT
 62
3
 10
5196.004
 20
-7031.071
 30
886.000
 70
    32
  0
VERTEX
  8
M44LXLIFT
 62
3
 10
5187.533
 20
-7040.923
 30
886.000
 70
    32
  0
VERTEX
  8
M44LXLIFT
 62
3
 10
5174.409
 20
-7052.711
 30
886.000
 70
    32
  0
VERTEX
  8
M44LXLIFT
 62
3
 10
5159.781
 20
-7061.801
 30
886.000
 70
    32
  0
VERTEX
  8
M44LXLIFT
 62
3
 10
5156.928
 20
-7072.264
 30
886.000
 70
    32
  0
VERTEX
  8
M44LXLIFT
 62
3
 10
5162.381
 20
-7077.308
 30
886.000
 70
    32
  0
VERTEX
  8
M44LXLIFT
 62
3
 10
5169.147
 20
-7071.699
 30
886.000
 70
    32
  0
VERTEX
  8
M44LXLIFT
 62
3
 10
5179.195
 20
-7066.002
 30
886.000
 70
    32
  0
VERTEX
  8
M44LXLIFT
 62
3
 10
5192.897
 20
-7052.613
 30
886.000
 70
    32
  0
VERTEX
  8
M44LXLIFT
 62
3
 10
5205.565
 20
-7041.693
 30
886.000
 70
    32
  0
VERTEX
  8
M44LXLIFT
 62
3
 10
5219.437
 20
-7031.850
 30
886.000
 70
    32
  0
VERTEX
  8
M44LXLIFT
 62
3
 10
5228.929
 20
-7028.386
 30
886.000
 70
    32
  0
VERTEX
  8
M44LXLIFT
 62
3
 10
5237.211
 20
-7036.472
 30
886.000
 70
    32
  0
VERTEX
  8
M44LXLIFT
 62
3
 10
5246.091
 20
-7032.908
 30
886.000
 70
    32
  0
VERTEX
  8
M44LXLIFT
 62
3
 10
5254.140
 20
-7021.415
 30
886.000
 70
    32
  0
VERTEX
  8
M44LXLIFT
 62
3
 10
5255.971
 20
-7004.564
 30
886.000
 70
    32
  0
VERTEX
  8
M44LXLIFT
 62
3
 10
5254.842
 20
-6985.090
 30
886.000
 70
    32
  0
VERTEX
  8
M44LXLIFT
 62
3
 10
5248.176
 20
-6969.479
 30
886.000
 70
    32
  0
VERTEX
  8
M44LXLIFT
 62
3
 10
5241.220
 20
-6956.773
 30
886.000
 70
    32
  0
VERTEX
  8
M44LXLIFT
 62
3
 10
5233.092
 20
-6943.937
 30
886.000
 70
    32
  0
VERTEX
  8
M44LXLIFT
 62
3
 10
5220.254
 20
-6951.311
 30
886.000
 70
    32
  0
SEQEND
  8
M44LXLIFT
  0
POLYLINE
  8
M44LXLIFT
 62
3
 66
     1
 70
     9
  0
VERTEX
  8
M44LXLIFT
 62
3
 10
5269.278
 20
-6924.429
 30
874.000
 70
    32
  0
VERTEX
  8
M44LXLIFT
 62
3
 10
5251.915
 20
-6930.923
 30
874.000
 70
    32
  0
VERTEX
  8
M44LXLIFT
 62
3
 10
5239.762
 20
-6935.954
 30
874.000
 70
    32
  0
VERTEX
  8
M44LXLIFT
 62
3
 10
5220.934
 20
-6945.978
 30
874.000
 70
    32
  0
VERTEX
  8
M44LXLIFT
 62
3
 10
5210.672
 20
-6954.403
 30
874.000
 70
    32
  0
VERTEX
  8
M44LXLIFT
 62
3
 10
5197.471
 20
-6961.586
 30
874.000
 70
    32
  0
VERTEX
  8
M44LXLIFT
 62
3
 10
5191.579
 20
-6975.514
 30
874.000
 70
    32
  0
VERTEX
  8
M44LXLIFT
 62
3
 10
5191.103
 20
-6998.514
 30
874.000
 70
    32
  0
VERTEX
  8
M44LXLIFT
 62
3
 10
5190.819
 20
-7010.478
 30
874.000
 70
    32
  0
VERTEX
  8
M44LXLIFT
 62
3
 10
5202.632
 20
-7023.062
 30
874.000
 70
    32
  0
VERTEX
  8
M44LXLIFT
 62
3
 10
5218.561
 20
-7030.543
 30
874.000
 70
    32
  0
VERTEX
  8
M44LXLIFT
 62
3
 10
5239.793
 20
-7037.895
 30
874.000
 70
    32
  0
VERTEX
  8
M44LXLIFT
 62
3
 10
5247.616
 20
-7038.122
 30
874.000
 70
    32
  0
VERTEX
  8
M44LXLIFT
 62
3
 10
5256.955
 20
-7024.640
 30
874.000
 70
    32
  0
VERTEX
  8
M44LXLIFT
 62
3
 10
5263.151
 20
-7009.630
 30
874.000
 70
    32
  0
VERTEX
  8
M44LXLIFT
 62
3
 10
5265.112
 20
-6991.718
 30
874.000
 70
    32
  0
VERTEX
  8
M44LXLIFT
 62
3
 10
5259.372
 20
-6983.096
 30
874.000
 70
    32
  0
VERTEX
  8
M44LXLIFT
 62
3
 10
5250.737
 20
-6966.510
 30
874.000
 70
    32
  0
VERTEX
  8
M44LXLIFT
 62
3
 10
5244.938
 20
-6961.273
 30
874.000
 70
    32
  0
VERTEX
  8
M44LXLIFT
 62
3
 10
5256.461
 20
-6948.278
 30
874.000
 70
    32
  0
VERTEX
  8
M44LXLIFT
 62
3
 10
5268.574
 20
-6945.002
 30
874.000
 70
    32
  0
VERTEX
  8
M44LXLIFT
 62
3
 10
5269.380
 20
-6934.822
 30
874.000
 70
    32
  0
SEQEND
  8
M44LXLIFT
  0
POLYLINE
  8
M44LXLIFT
 62
6
 66
     1
 70
     9
  0
VERTEX
  8
M44LXLIFT
 62
6
 10
5314.099
 20
-7015.104
 30
926.000
 70
    32
  0
VERTEX
  8
M44LXLIFT
 62
6
 10
5311.016
 20
-7033.208
 30
926.000
 70
    32
  0
VERTEX
  8
M44LXLIFT
 62
6
 10
5302.803
 20
-7062.963
 30
926.000
 70
    32
  0
VERTEX
  8
M44LXLIFT
 62
6
 10
5302.884
 20
-7077.526
 30
926.000
 70
    32
  0
VERTEX
  8
M44LXLIFT
 62
6
 10
5304.154
 20
-7084.552
 30
926.000
 70
    32
  0
VERTEX
  8
M44LXLIFT
 62
6
 10
5314.887
 20
-7093.307
 30
926.000
 70
    32
  0
VERTEX
  8
M44LXLIFT
 62
6
 10
5319.968
 20
-7097.077
 30
926.000
 70
    32
  0
VERTEX
  8
M44LXLIFT
 62
6
 10
5321.859
 20
-7100.371
 30
926.000
 70
    32
  0
VERTEX
  8
M44LXLIFT
 62
6
 10
5312.333
 20
-7102.835
 30
926.000
 70
    32
  0
VERTEX
  8
M44LXLIFT
 62
6
 10
5298.891
 20
-7105.905
 30
926.000
 70
    32
  0
VERTEX
  8
M44LXLIFT
 62
6
 10
5282.564
 20
-7110.238
 30
926.000
 70
    32
  0
VERTEX
  8
M44LXLIFT
 62
6
 10
5276.890
 20
-7092.393
 30
926.000
 70
    32
  0
VERTEX
  8
M44LXLIFT
 62
6
 10
5266.412
 20
-7076.902
 30
926.000
 70
    32
  0
VERTEX
  8
M44LXLIFT
 62
6
 10
5272.223
 20
-7068.238
 30
926.000
 70
    32
  0
VERTEX
  8
M44LXLIFT
 62
6
 10
5281.494
 20
-7045.665
 30
926.000
 70
    32
  0
VERTEX
  8
M44LXLIFT
 62
6
 10
5289.511
 20
-7024.347
 30
926.000
 70
    32
  0
VERTEX
  8
M44LXLIFT
 62
6
 10
5290.682
 20
-7011.477
 30
926.000
 70
    32
  0
SEQEND
  8
M44LXLIFT
  0
POLYLINE
  8
M44LXLIFT
 62
6
 66
     1
 70
     9
  0
VERTEX
  8
M44LXLIFT
 62
6
 10
5324.958
 20
-7109.205
 30
897.000
 70
    32
  0
VERTEX
  8
M44LXLIFT
 62
6
 10
5319.027
 20
-7119.438
 30
897.000
 70
    32
  0
VERTEX
  8
M44LXLIFT
 62
6
 10
5316.477
 20
-7128.205
 30
897.000
 70
    32
  0
VERTEX
  8
M44LXLIFT
 62
6
 10
5315.781
 20
-7138.342
 30
897.000
 70
    32
  0
VERTEX
  8
M44LXLIFT
 62
6
 10
5320.906
 20
-7145.144
 30
897.000
 70
    32
  0
VERTEX
  8
M44LXLIFT
 62
6
 10
5324.841
 20
-7152.697
 30
897.000
 70
    32
  0
VERTEX
  8
M44LXLIFT
 62
6
 10
5326.123
 20
-7166.926
 30
897.000
 70
    32
  0
VERTEX
  8
M44LXLIFT
 62
6
 10
5322.486
 20
-7168.035
 30
897.000
 70
    32
  0
VERTEX
  8
M44LXLIFT
 62
6
 10
5313.233
 20
-7162.263
 30
897.000
 70
    32
  0
VERTEX
  8
M44LXLIFT
 62
6
 10
5303.611
 20
-7151.779
 30
897.000
 70
    32
  0
VERTEX
  8
M44LXLIFT
 62
6
 10
5296.324
 20
-7143.181
 30
897.000
 70
    32
  0
VERTEX
  8
M44LXLIFT
 62
6
 10
5289.797
 20
-7133.385
 30
897.000
 70
    32
  0
VERTEX
  8
M44LXLIFT
 62
6
 10
5283.072
 20
-7114.315
 30
897.000
 70
    32
  0
VERTEX
  8
M44LXLIFT
 62
6
 10
5278.717
 20
-7091.478
 30
897.000
 70
    32
  0
VERTEX
  8
M44LXLIFT
 62
6
 10
5285.227
 20
-7085.048
 30
897.000
 70
    32
  0
VERTEX
  8
M44LXLIFT
 62
6
 10
5291.846
 20
-7073.669
 30
897.000
 70
    32
  0
VERTEX
  8
M44LXLIFT
 62
6
 10
5296.042
 20
-7061.332
 30
897.000
 70
    32
  0
VERTEX
  8
M44LXLIFT
 62
6
 10
5297.218
 20
-7047.060
 30
897.000
 70
    32
  0
VERTEX
  8
M44LXLIFT
 62
6
 10
5295.316
 20
-7029.273
 30
897.000
 70
    32
  0
VERTEX
  8
M44LXLIFT
 62
6
 10
5293.305
 20
-7016.435
 30
897.000
 70
    32
  0
VERTEX
  8
M44LXLIFT
 62
6
 10
5300.344
 20
-7013.738
 30
897.000
 70
    32
  0
VERTEX
  8
M44LXLIFT
 62
6
 10
5309.521
 20
-7010.255
 30
897.000
 70
    32
  0
VERTEX
  8
M44LXLIFT
 62
6
 10
5323.524
 20
-7010.759
 30
897.000
 70
    32
  0
VERTEX
  8
M44LXLIFT
 62
6
 10
5324.833
 20
-7030.273
 30
897.000
 70
    32
  0
VERTEX
  8
M44LXLIFT
 62
6
 10
5324.614
 20
-7042.122
 30
897.000
 70
    32
  0
VERTEX
  8
M44LXLIFT
 62
6
 10
5318.957
 20
-7068.936
 30
897.000
 70
    32
  0
VERTEX
  8
M44LXLIFT
 62
6
 10
5320.426
 20
-7092.124
 30
897.000
 70
    32
  0
VERTEX
  8
M44LXLIFT
 62
6
 10
5320.106
 20
-7101.881
 30
897.000
 70
    32
  0
SEQEND
  8
M44LXLIFT
  0
POLYLINE
  8
M44LXLIFT
 62
6
 66
     1
 70
     9
  0
VERTEX
  8
M44LXLIFT
 62
6
 10
5314.948
 20
-7136.560
 30
870.000
 70
    32
  0
VERTEX
  8
M44LXLIFT
 62
6
 10
5324.905
 20
-7118.966
 30
870.000
 70
    32
  0
VERTEX
  8
M44LXLIFT
 62
6
 10
5334.976
 20
-7092.336
 30
870.000
 70
    32
  0
VERTEX
  8
M44LXLIFT
 62
6
 10
5335.561
 20
-7085.767
 30
870.000
 70
    32
  0
VERTEX
  8
M44LXLIFT
 62
6
 10
5333.446
 20
-7082.210
 30
870.000
 70
    32
  0
VERTEX
  8
M44LXLIFT
 62
6
 10
5335.869
 20
-7077.454
 30
870.000
 70
    32
  0
VERTEX
  8
M44LXLIFT
 62
6
 10
5347.248
 20
-7074.057
 30
870.000
 70
    32
  0
VERTEX
  8
M44LXLIFT
 62
6
 10
5358.632
 20
-7065.692
 30
870.000
 70
    32
  0
VERTEX
  8
M44LXLIFT
 62
6
 10
5365.785
 20
-7058.953
 30
870.000
 70
    32
  0
VERTEX
  8
M44LXLIFT
 62
6
 10
5359.022
 20
-7048.149
 30
870.000
 70
    32
  0
VERTEX
  8
M44LXLIFT
 62
6
 10
5356.680
 20
-7031.159
 30
870.000
 70
    32
  0
VERTEX
  8
M44LXLIFT
 62
6
 10
5357.028
 20
-7011.597
 30
870.000
 70
    32
  0
VERTEX
  8
M44LXLIFT
 62
6
 10
5353.726
 20
-7003.818
 30
870.000
 70
    32
  0
VERTEX
  8
M44LXLIFT
 62
6
 10
5337.032
 20
-6996.022
 30
870.000
 70
    32
  0
VERTEX
  8
M44LXLIFT
 62
6
 10
5340.759
 20
-6990.225
 30
870.000
 70
    32
  0
VERTEX
  8
M44LXLIFT
 62
6
 10
5334.463
 20
-6987.610
 30
870.000
 70
    32
  0
VERTEX
  8
M44LXLIFT
 62
6
 10
5323.743
 20
-6996.902
 30
870.000
 70
    32
  0
VERTEX
  8
M44LXLIFT
 62
6
 10
5320.984
 20
-7001.790
 30
870.000
 70
    32
  0
VERTEX
  8
M44LXLIFT
 62
6
 10
5314.086
 20
-7029.386
 30
870.000
 70
    32
  0
VERTEX
  8
M44LXLIFT
 62
6
 10
5306.410
 20
-7054.087
 30
870.000
 70
    32
  0
VERTEX
  8
M44LXLIFT
 62
6
 10
5295.134
 20
-7068.632
 30
870.000
 70
    32
  0
VERTEX
  8
M44LXLIFT
 62
6
 10
5291.590
 20
-7074.082
 30
870.000
 70
    32
  0
VERTEX
  8
M44LXLIFT
 62
6
 10
5297.460
 20
-7089.518
 30
870.000
 70
    32
  0
VERTEX
  8
M44LXLIFT
 62
6
 10
5295.370
 20
-7100.617
 30
870.000
 70
    32
  0
VERTEX
  8
M44LXLIFT
 62
6
 10
5294.542
 20
-7108.654
 30
870.000
 70
    32
  0
VERTEX
  8
M44LXLIFT
 62
6
 10
5305.511
 20
-7133.928
 30
870.000
 70
    32
  0
SEQEND
  8
M44LXLIFT
  0
POLYLINE
  8
M44LXLIFT
 62
6
 66
     1
 70
     9
  0
VERTEX
  8
M44LXLIFT
 62
6
 10
5268.388
 20
-7093.763
 30
950.000
 70
    32
  0
VERTEX
  8
M44LXLIFT
 62
6
 10
5281.169
 20
-7089.481
 30
950.000
 70
    32
  0
VERTEX
  8
M44LXLIFT
 62
6
 10
5297.254
 20
-7087.599
 30
950.000
 70
    32
  0
VERTEX
  8
M44LXLIFT
 62
6
 10
5311.823
 20
-7084.635
 30
950.000
 70
    32
  0
VERTEX
  8
M44LXLIFT
 62
6
 10
5319.560
 20
-7086.918
 30
950.000
 70
    32
  0
VERTEX
  8
M44LXLIFT
 62
6
 10
5326.007
 20
-7084.630
 30
950.000
 70
    32
  0
VERTEX
  8
M44LXLIFT
 62
6
 10
5323.646
 20
-7080.061
 30
950.000
 70
    32
  0
VERTEX
  8
M44LXLIFT
 62
6
 10
5313.983
 20
-7072.149
 30
950.000
 70
    32
  0
VERTEX
  8
M44LXLIFT
 62
6
 10
5308.582
 20
-7066.928
 30
950.000
 70
    32
  0
VERTEX
  8
M44LXLIFT
 62
6
 10
5307.557
 20
-7057.548
 30
950.000
 70
    32
  0
VERTEX
  8
M44LXLIFT
 62
6
 10
5307.410
 20
-7041.637
 30
950.000
 70
    32
  0
VERTEX
  8
M44LXLIFT
 62
6
 10
5309.571
 20
-7025.496
 30
950.000
 70
    32
  0
VERTEX
  8
M44LXLIFT
 62
6
 10
5309.303
 20
-7014.292
 30
950.000
 70
    32
  0
VERTEX
  8
M44LXLIFT
 62
6
 10
5305.971
 20
-7001.487
 30
950.000
 70
    32
  0
VERTEX
  8
M44LXLIFT
 62
6
 10
5301.917
 20
-6988.115
 30
950.000
 70
    32
  0
VERTEX
  8
M44LXLIFT
 62
6
 10
5297.790
 20
-6976.622
 30
950.000
 70
    32
  0
VERTEX
  8
M44LXLIFT
 62
6
 10
5289.745
 20
-6976.491
 30
950.000
 70
    32
  0
VERTEX
  8
M44LXLIFT
 62
6
 10
5289.966
 20
-6988.696
 30
950.000
 70
    32
  0
VERTEX
  8
M44LXLIFT
 62
6
 10
5287.252
 20
-7003.292
 30
950.000
 70
    32
  0
VERTEX
  8
M44LXLIFT
 62
6
 10
5284.358
 20
-7015.650
 30
950.000
 70
    32
  0
VERTEX
  8
M44LXLIFT
 62
6
 10
5276.215
 20
-7023.004
 30
950.000
 70
    32
  0
VERTEX
  8
M44LXLIFT
 62
6
 10
5267.537
 20
-7029.445
 30
950.000
 70
    32
  0
VERTEX
  8
M44LXLIFT
 62
6
 10
5262.479
 20
-7046.662
 30
950.000
 70
    32
  0
VERTEX
  8
M44LXLIFT
 62
6
 10
5260.627
 20
-7067.206
 30
950.000
 70
    32
  0
VERTEX
  8
M44LXLIFT
 62
6
 10
5264.278
 20
-7082.903
 30
950.000
 70
    32
  0
SEQEND
  8
M44LXLIFT
  0
POLYLINE
  8
M44LXLIFT
 62
6
 66
     1
 70
     9
  0
VERTEX
  8
M44LXLIFT
 62
6
 10
5325.289
 20
-7005.440
 30
914.000
 70
    32
  0
VERTEX
  8
M44LXLIFT
 62
6
 10
5323.088
 20
-7026.417
 30
914.000
 70
    32
  0
VERTEX
  8
M44LXLIFT
 62
6
 10
5312.913
 20
-7069.718
 30
914.000
 70
    32
  0
VERTEX
  8
M44LXLIFT
 62
6
 10
5310.884
 20
-7086.962
 30
914.000
 70
    32
  0
VERTEX
  8
M44LXLIFT
 62
6
 10
5319.475
 20
-7091.606
 30
914.000
 70
    32
  0
VERTEX
  8
M44LXLIFT
 62
6
 10
5322.667
 20
-7095.896
 30
914.000
 70
    32
  0
VERTEX
  8
M44LXLIFT
 62
6
 10
5309.415
 20
-7104.664
 30
914.000
 70
    32
  0
VERTEX
  8
M44LXLIFT
 62
6
 10
5301.872
 20
-7110.386
 30
914.000
 70
    32
  0
VERTEX
  8
M44LXLIFT
 62
6
 10
5291.263
 20
-7110.960
 30
914.000
 70
    32
  0
VERTEX
  8
M44LXLIFT
 62
6
 10
5277.759
 20
-7107.349
 30
914.000
 70
    32
  0
VERTEX
  8
M44LXLIFT
 62
6
 10
5269.667
 20
-7095.888
 30
914.000
 70
    32
  0
VERTEX
  8
M44LXLIFT
 62
6
 10
5266.070
 20
-7087.529
 30
914.000
 70
    32
  0
VERTEX
  8
M44LXLIFT
 62
6
 10
5268.280
 20
-7078.017
 30
914.000
 70
    32
  0
VERTEX
  8
M44LXLIFT
 62
6
 10
5276.579
 20
-7067.144
 30
914.000
 70
    32
  0
VERTEX
  8
M44LXLIFT
 62
6
 10
5280.079
 20
-7059.513
 30
914.000
 70
    32
  0
VERTEX
  8
M44LXLIFT
 62
6
 10
5281.382
 20
-7044.230
 30
914.000
 70
    32
  0
VERTEX
  8
M44LXLIFT
 62
6
 10
5285.052
 20
-7028.605
 30
914.000
 70
    32
  0
VERTEX
  8
M44LXLIFT
 62
6
 10
5298.310
 20
-7023.220
 30
914.000
 70
    32
  0
VERTEX
  8
M44LXLIFT
 62
6
 10
5305.779
 20
-7018.427
 30
914.000
 70
    32
  0
VERTEX
  8
M44LXLIFT
 62
6
 10
5313.932
 20
-7004.275
 30
914.000
 70
    32
  0
SEQEND
  8
M44LXLIFT
  0
POLYLINE
  8
M44LXLIFT
 62
6
 66
     1
 70
     9
  0
VERTEX
  8
M44LXLIFT
 62
6
 10
5345.890
 20
-6996.496
 30
880.000
 70
    32
  0
VERTEX
  8
M44LXLIFT
 62
6
 10
5343.057
 20
-7022.481
 30
880.000
 70
    32
  0
VERTEX
  8
M44LXLIFT
 62
6
 10
5342.616
 20
-7041.572
 30
880.000
 70
    32
  0
VERTEX
  8
M44LXLIFT
 62
6
 10
5338.033
 20
-7058.347
 30
880.000
 70
    32
  0
VERTEX
  8
M44LXLIFT
 62
6
 10
5328.363
 20
-7085.028
 30
880.000
 70
    32
  0
VERTEX
  8
M44LXLIFT
 62
6
 10
5322.528
 20
-7107.880
 30
880.000
 70
    32
  0
VERTEX
  8
M44LXLIFT
 62
6
 10
5315.210
 20
-7133.630
 30
880.000
 70
    32
  0
VERTEX
  8
M44LXLIFT
 62
6
 10
5300.445
 20
-7135.157
 30
880.000
 70
    32
  0
VERTEX
  8
M44LXLIFT
 62
6
 10
5291.411
 20
-7122.864
 30
880.000
 70
    32
  0
VERTEX
  8
M44LXLIFT
 62
6
 10
5294.085
 20
-7109.293
 30
880.000
 70
    32
  0
VERTEX
  8
M44LXLIFT
 62
6
 10
5292.649
 20
-7089.391
 30
880.000
 70
    32
  0
VERTEX
  8
M44LXLIFT
 62
6
 10
5291.541
 20
-7065.584
 30
880.000
 70
    32
  0
VERTEX
  8
M44LXLIFT
 62
6
 10
5294.233
 20
-7056.100
 30
880.000
 70
    32
  0
VERTEX
  8
M44LXLIFT
 62
6
 10
5303.235
 20
-7046.838
 30
880.000
 70
    32
  0
VERTEX
  8
M44LXLIFT
 62
6
 10
5307.423
 20
-7036.281
 30
880.000
 70
    32
  0
VERTEX
  8
M44LXLIFT
 62
6
 10
5307.061
 20
-7023.593
 30
880.000
 70
    32
  0
VERTEX
  8
M44LXLIFT
 62
6
 10
5312.274
 20
-7005.288
 30
880.000
 70
    32
  0
VERTEX
  8
M44LXLIFT
 62
6
 10
5316.312
 20
-6996.025
 30
880.000
 70
    32
  0
VERTEX
  8
M44LXLIFT
 62
6
 10
5328.617
 20
-6993.024
 30
880.000
 70
    32
  0
SEQEND
  8
M44LXLIFT
  0
POLYLINE
  8
M44LXLIFT
 62
3
 66
     1
 70
     9
  0
VERTEX
  8
M44LXLIFT
 62
3
 10
5264.026
 20
-6894.131
 30
956.000
 70
    32
  0
VERTEX
  8
M44LXLIFT
 62
3
 10
5277.510
 20
-6908.377
 30
956.000
 70
    32
  0
VERTEX
  8
M44LXLIFT
 62
3
 10
5292.544
 20
-6927.871
 30
956.000
 70
    32
  0
VERTEX
  8
M44LXLIFT
 62
3
 10
5301.550
 20
-6941.405
 30
956.000
 70
    32
  0
VERTEX
  8
M44LXLIFT
 62
3
 10
5306.831
 20
-6956.061
 30
956.000
 70
    32
  0
VERTEX
  8
M44LXLIFT
 62
3
 10
5310.565
 20
-6968.368
 30
956.000
 70
    32
  0
VERTEX
  8
M44LXLIFT
 62
3
 10
5313.492
 20
-6972.215
 30
956.000
 70
    32
  0
VERTEX
  8
M44LXLIFT
 62
3
 10
5309.312
 20
-6974.518
 30
956.000
 70
    32
  0
VERTEX
  8
M44LXLIFT
 62
3
 10
5307.429
 20
-6990.140
 30
956.000
 70
    32
  0
VERTEX
  8
M44LXLIFT
 62
3
 10
5301.975
 20
-6998.715
 30
956.000
 70
    32
  0
VERTEX
  8
M44LXLIFT
 62
3
 10
5296.888
 20
-7005.526
 30
956.000
 70
    32
  0
VERTEX
  8
M44LXLIFT
 62
3
 10
5291.678
 20
-7007.587
 30
956.000
 70
    32
  0
VERTEX
  8
M44LXLIFT
 62
3
 10
5289.430
 20
-6996.167
 30
956.000
 70
    32
  0
VERTEX
  8
M44LXLIFT
 62
3
 10
5286.438
 20
-6986.131
 30
956.000
 70
    32
  0
VERTEX
  8
M44LXLIFT
 62
3
 10
5286.835
 20
-6971.449
 30
956.000
 70
    32
  0
VERTEX
  8
M44LXLIFT
 62
3
 10
5287.076
 20
-6962.036
 30
956.000
 70
    32
  0
VERTEX
  8
M44LXLIFT
 62
3
 10
5277.255
 20
-6964.876
 30
956.000
 70
    32
  0
VERTEX
  8
M44LXLIFT
 62
3
 10
5274.941
 20
-6959.306
 30
956.000
 70
    32
  0
VERTEX
  8
M44LXLIFT
 62
3
 10
5286.775
 20
-6949.566
 30
956.000
 70
    32
  0
VERTEX
  8
M44LXLIFT
 62
3
 10
5279.743
 20
-6932.275
 30
956.000
 70
    32
  0
VERTEX
  8
M44LXLIFT
 62
3
 10
5274.932
 20
-6920.727
 30
956.000
 70
    32
  0
VERTEX
  8
M44LXLIFT
 62
3
 10
5263.510
 20
-6911.691
 30
956.000
 70
    32
  0
VERTEX
  8
M44LXLIFT
 62
3
 10
5256.965
 20
-6906.525
 30
956.000
 70
    32
  0
VERTEX
  8
M44LXLIFT
 62
3
 10
5255.661
 20
-6897.664
 30
956.000
 70
    32
  0
SEQEND
  8
M44LXLIFT
  0
POLYLINE
  8
M44LXLIFT
 62
3
 66
     1
 70
     9
  0
VERTEX
  8
M44LXLIFT
 62
3
 10
5295.678
 20
-6903.011
 30
906.000
 70
    32
  0
VERTEX
  8
M44LXLIFT
 62
3
 10
5299.353
 20
-6924.606
 30
906.000
 70
    32
  0
VERTEX
  8
M44LXLIFT
 62
3
 10
5299.835
 20
-6935.625
 30
906.000
 70
    32
  0
VERTEX
  8
M44LXLIFT
 62
3
 10
5303.362
 20
-6943.363
 30
906.000
 70
    32
  0
VERTEX
  8
M44LXLIFT
 62
3
 10
5317.151
 20
-6954.522
 30
906.000
 70
    32
  0
VERTEX
  8
M44LXLIFT
 62
3
 10
5320.015
 20
-6970.641
 30
906.000
 70
    32
  0
VERTEX
  8
M44LXLIFT
 62
3
 10
5326.740
 20
-6987.763
 30
906.000
 70
    32
  0
VERTEX
  8
M44LXLIFT
 62
3
 10
5313.514
 20
-6981.285
 30
906.000
 70
    32
  0
VERTEX
  8
M44LXLIFT
 62
3
 10
5292.446
 20
-6963.039
 30
906.000
 70
    32
  0
VERTEX
  8
M44LXLIFT
 62
3
 10
5271.747
 20
-6940.954
 30
906.000
 70
    32
  0
VERTEX
  8
M44LXLIFT
 62
3
 10
5269.516
 20
-6924.811
 30
906.000
 70
    32
  0
VERTEX
  8
M44LXLIFT
 62
3
 10
5279.779
 20
-6915.782
 30
906.000
 70
    32
  0
SEQEND
  8
M44LXLIFT
  0
POLYLINE
  8
M44LXLIFT
 62
3
 66
     1
 70
     9
  0
VERTEX
  8
M44LXLIFT
 62
3
 10
5279.611
 20
-6882.501
 30
939.000
 70
    32
  0
VERTEX
  8
M44LXLIFT
 62
3
 10
5289.685
 20
-6884.760
 30
939.000
 70
    32
  0
VERTEX
  8
M44LXLIFT
 62
3
 10
5297.825
 20
-6884.848
 30
939.000
 70
    32
  0
VERTEX
  8
M44LXLIFT
 62
3
 10
5302.460
 20
-6897.897
 30
939.000
 70
    32
  0
VERTEX
  8
M44LXLIFT
 62
3
 10
5304.896
 20
-6914.317
 30
939.000
 70
    32
  0
VERTEX
  8
M44LXLIFT
 62
3
 10
5306.988
 20
-6932.630
 30
939.000
 70
    32
  0
VERTEX
  8
M44LXLIFT
 62
3
 10
5307.460
 20
-6946.248
 30
939.000
 70
    32
  0
VERTEX
  8
M44LXLIFT
 62
3
 10
5308.593
 20
-6955.449
 30
939.000
 70
    32
  0
VERTEX
  8
M44LXLIFT
 62
3
 10
5323.212
 20
-6976.388
 30
939.000
 70
    32
  0
VERTEX
  8
M44LXLIFT
 62
3
 10
5328.006
 20
-6983.754
 30
939.000
 70
    32
  0
VERTEX
  8
M44LXLIFT
 62
3
 10
5315.523
 20
-6990.480
 30
939.000
 70
    32
  0
VERTEX
  8
M44LXLIFT
 62
3
 10
5305.949
 20
-6994.944
 30
939.000
 70
    32
  0
VERTEX
  8
M44LXLIFT
 62
3
 10
5299.813
 20
-6978.095
 30
939.000
 70
    32
  0
VERTEX
  8
M44LXLIFT
 62
3
 10
5292.109
 20
-6959.570
 30
939.000
 70
    32
  0
VERTEX
  8
M44LXLIFT
 62
3
 10
5285.074
 20
-6943.278
 30
939.000
 70
    32
  0
VERTEX
  8
M44LXLIFT
 62
3
 10
5276.939
 20
-6920.925
 30
939.000
 70
    32
  0
VERTEX
  8
M44LXLIFT
 62
3
 10
5274.499
 20
-6910.399
 30
939.000
 70
    32
  0
VERTEX
  8
M44LXLIFT
 62
3
 10
5284.046
 20
-6901.917
 30
939.000
 70
    32
  0
VERTEX
  8
M44LXLIFT
 62
3
 10
5267.944
 20
-6890.478
 30
939.000
 70
    32
  0
SEQEND
  8
M44LXLIFT
  0
POLYLINE
  8
M44LXLIFT
 62
3
 66
     1
 70
     9
  0
VERTEX
  8
M44LXLIFT
 62
3
 10
5301.865
 20
-6910.516
 30
947.000
 70
    32
  0
VERTEX
  8
M44LXLIFT
 62
3
 10
5302.792
 20
-6926.150
 30
947.000
 70
    32
  0
VERTEX
  8
M44LXLIFT
 62
3
 10
5299.618
 20
-6945.255
 30
947.000
 70
    32
  0
VERTEX
  8
M44LXLIFT
 62
3
 10
5302.135
 20
-6957.377
 30
947.000
 70
    32
  0
VERTEX
  8
M44LXLIFT
 62
3
 10
5312.602
 20
-6970.505
 30
947.000
 70
    32
  0
VERTEX
  8
M44LXLIFT
 62
3
 10
5310.681
 20
-6985.477
 30
947.000
 70
    32
  0
VERTEX
  8
M44LXLIFT
 62
3
 10
5304.839
 20
-6996.022
 30
947.000
 70
    32
  0
VERTEX
  8
M44LXLIFT
 62
3
 10
5301.781
 20
-7002.309
 30
947.000
 70
    32
  0
VERTEX
  8
M44LXLIFT
 62
3
 10
5299.510
 20
-7011.056
 30
947.000
 70
    32
  0
VERTEX
  8
M44LXLIFT
 62
3
 10
5292.846
 20
-7010.641
 30
947.000
 70
    32
  0
VERTEX
  8
M44LXLIFT
 62
3
 10
5293.837
 20
-6994.068
 30
947.000
 70
    32
  0
VERTEX
  8
M44LXLIFT
 62
3
 10
5293.351
 20
-6982.220
 30
947.000
 70
    32
  0
VERTEX
  8
M44LXLIFT
 62
3
 10
5286.319
 20
-6961.671
 30
947.000
 70
    32
  0
VERTEX
  8
M44LXLIFT
 62
3
 10
5275.960
 20
-6939.941
 30
947.000
 70
    32
  0
VERTEX
  8
M44LXLIFT
 62
3
 10
5264.810
 20
-6908.954
 30
947.000
 70
    32
  0
VERTEX
  8
M44LXLIFT
 62
3
 10
5271.463
 20
-6907.542
 30
947.000
 70
    32
  0
VERTEX
  8
M44LXLIFT
 62
3
 10
5272.896
 20
-6915.583
 30
947.000
 70
    32
  0
VERTEX
  8
M44LXLIFT
 62
3
 10
5289.467
 20
-6912.798
 30
947.000
 70
    32
  0
SEQEND
  8
M44LXLIFT
  0
POLYLINE
  8
M44LXLIFT
 62
3
 66
     1
 70
     9
  0
VERTEX
  8
M44LXLIFT
 62
3
 10
5303.857
 20
-6883.897
 30
886.000
 70
    32
  0
VERTEX
  8
M44LXLIFT
 62
3
 10
5303.775
 20
-6904.240
 30
886.000
 70
    32
  0
VERTEX
  8
M44LXLIFT
 62
3
 10
5311.959
 20
-6919.410
 30
886.000
 70
    32
  0
VERTEX
  8
M44LXLIFT
 62
3
 10
5315.841
 20
-6933.997
 30
886.000
 70
    32
  0
VERTEX
  8
M44LXLIFT
 62
3
 10
5323.921
 20
-6953.234
 30
886.000
 70
    32
  0
VERTEX
  8
M44LXLIFT
 62
3
 10
5321.763
 20
-6969.780
 30
886.000
 70
    32
  0
VERTEX
  8
M44LXLIFT
 62
3
 10
5326.229
 20
-6980.819
 30
886.000
 70
    32
  0
VERTEX
  8
M44LXLIFT
 62
3
 10
5318.268
 20
-6985.666
 30
886.000
 70
    32
  0
VERTEX
  8
M44LXLIFT
 62
3
 10
5309.020
 20
-6973.526
 30
886.000
 70
    32
  0
VERTEX
  8
M44LXLIFT
 62
3
 10
5301.895
 20
-6967.955
 30
886.000
 70
    32
  0
VERTEX
  8
M44LXLIFT
 62
3
 10
5298.354
 20
-6955.497
 30
886.000
 70
    32
  0
VERTEX
  8
M44LXLIFT
 62
3
 10
5291.780
 20
-6945.430
 30
886.000
 70
    32
  0
VERTEX
  8
M44LXLIFT
 62
3
 10
5276.579
 20
-6937.776
 30
886.000
 70
    32
  0
VERTEX
  8
M44LXLIFT
 62
3
 10
5264.866
 20
-6936.790
 30
886.000
 70
    32
  0
VERTEX
  8
M44LXLIFT
 62
3
 10
5252.421
 20
-6931.474
 30
886.000
 70
    32
  0
VERTEX
  8
M44LXLIFT
 62
3
 10
5254.194
 20
-6920.708
 30
886.000
 70
    32
  0
VERTEX
  8
M44LXLIFT
 62
3
 10
5263.896
 20
-6915.582
 30
886.000
 70
    32
  0
VERTEX
  8
M44LXLIFT
 62
3
 10
5280.290
 20
-6897.673
 30
886.000
 70
    32
  0
VERTEX
  8
M44LXLIFT
 62
3
 10
5294.034
 20
-6879.830
 30
886.000
 70
    32
  0
SEQEND
  8
M44LXLIFT
  0
POLYLINE
  8
M44LXLIFT
 62
3
 66
     1
 70
     9
  0
VERTEX
  8
M44LXLIFT
 62
3
 10
5334.332
 20
-6997.181
 30
926.000
 70
    32
  0
VERTEX
  8
M44LXLIFT
 62
3
 10
5323.960
 20
-6995.283
 30
926.000
 70
    32
  0
VERTEX
  8
M44LXLIFT
 62
3
 10
5313.490
 20
-6996.190
 30
926.000
 70
    32
  0
VERTEX
  8
M44LXLIFT
 62
3
 10
5300.955
 20
-7000.491
 30
926.000
 70
    32
  0
VERTEX
  8
M44LXLIFT
 62
3
 10
5298.207
 20
-6990.189
 30
926.000
 70
    32
  0
VERTEX
  8
M44LXLIFT
 62
3
 10
5296.567
 20
-6978.735
 30
926.000
 70
    32
  0
VERTEX
  8
M44LXLIFT
 62
3
 10
5292.350
 20
-6972.039
 30
926.000
 70
    32
  0
VERTEX
  8
M44LXLIFT
 62
3
 10
5287.393
 20
-6966.112
 30
926.000
 70
    32
  0
VERTEX
  8
M44LXLIFT
 62
3
 10
5279.160
 20
-6945.796
 30
926.000
 70
    32
  0
VERTEX
  8
M44LXLIFT
 62
3
 10
5266.447
 20
-6923.131
 30
926.000
 70
    32
  0
VERTEX
  8
M44LXLIFT
 62
3
 10
5264.403
 20
-6911.868
 30
926.000
 70
    32
  0
VERTEX
  8
M44LXLIFT
 62
3
 10
5259.159
 20
-6903.205
 30
926.000
 70
    32
  0
VERTEX
  8
M44LXLIFT
 62
3
 10
5272.783
 20
-6893.613
 30
926.000
 70
    32
  0
VERTEX
  8
M44LXLIFT
 62
3
 10
5280.693
 20
-6902.041
 30
926.000
 70
    32
  0
VERTEX
  8
M44LXLIFT
 62
3
 10
5291.302
 20
-6906.166
 30
926.000
 70
    32
  0
VERTEX
  8
M44LXLIFT
 62
3
 10
5300.175
 20
-6919.560
 30
926.000
 70
    32
  0
VERTEX
  8
M44LXLIFT
 62
3
 10
5303.962
 20
-6933.459
 30
926.000
 70
    32
  0
VERTEX
  8
M44LXLIFT
 62
3
 10
5310.187
 20
-6946.965
 30
926.000
 70
    32
  0
VERTEX
  8
M44LXLIFT
 62
3
 10
5318.540
 20
-6963.477
 30
926.000
 70
    32
  0
VERTEX
  8
M44LXLIFT
 62
3
 10
5329.676
 20
-6981.086
 30
926.000
 70
    32
  0
VERTEX
  8
M44LXLIFT
 62
3
 10
5335.802
 20
-6988.438
 30
926.000
 70
    32
  0
SEQEND
  8
M44LXLIFT
  0
POLYLINE
  8
M44LXLIFT
 62
2
 66
     1
 70
     9
  0
VERTEX
  8
M44LXLIFT
 62
2
 10
5280.928
 20
-6858.517
 30
949.000
 70
    32
  0
VERTEX
  8
M44LXLIFT
 62
2
 10
5278.536
 20
-6870.167
 30
949.000
 70
    32
  0
VERTEX
  8
M44LXLIFT
 62
2
 10
5277.497
 20
-6882.014
 30
949.000
 70
    32
  0
VERTEX
  8
M44LXLIFT
 62
2
 10
5273.946
 20
-6887.401
 30
949.000
 70
    32
  0
VERTEX
  8
M44LXLIFT
 62
2
 10
5267.533
 20
-6886.151
 30
949.000
 70
    32
  0
VERTEX
  8
M44LXLIFT
 62
2
 10
5259.278
 20
-6883.312
 30
949.000
 70
    32
  0
VERTEX
  8
M44LXLIFT
 62
2
 10
5250.473
 20
-6887.681
 30
949.000
 70
    32
  0
VERTEX
  8
M44LXLIFT
 62
2
 10
5246.477
 20
-6883.642
 30
949.000
 70
    32
  0
VERTEX
  8
M44LXLIFT
 62
2
 10
5251.253
 20
-6874.162
 30
949.000
 70
    32
  0
VERTEX
  8
M44LXLIFT
 62
2
 10
5249.758
 20
-6862.887
 30
949.000
 70
    32
  0
VERTEX
  8
M44LXLIFT
 62
2
 10
5244.502
 20
-6856.717
 30
949.000
 70
    32
  0
VERTEX
  8
M44LXLIFT
 62
2
 10
5240.452
 20
-6847.456
 30
949.000
 70
    32
  0
VERTEX
  8
M44LXLIFT
 62
2
 10
5242.487
 20
-6837.388
 30
949.000
 70
    32
  0
VERTEX
  8
M44LXLIFT
 62
2
 10
5247.116
 20
-6830.211
 30
949.000
 70
    32
  0
VERTEX
  8
M44LXLIFT
 62
2
 10
5254.819
 20
-6829.514
 30
949.000
 70
    32
  0
VERTEX
  8
M44LXLIFT
 62
2
 10
5266.656
 20
-6822.447
 30
949.000
 70
    32
  0
VERTEX
  8
M44LXLIFT
 62
2
 10
5273.848
 20
-6827.832
 30
949.000
 70
    32
  0
VERTEX
  8
M44LXLIFT
 62
2
 10
5279.960
 20
-6835.886
 30
949.000
 70
    32
  0
VERTEX
  8
M44LXLIFT
 62
2
 10
5283.905
 20
-6845.005
 30
949.000
 70
    32
  0
VERTEX
  8
M44LXLIFT
 62
2
 10
5284.431
 20
-6851.302
 30
949.000
 70
    32
  0
SEQEND
  8
M44LXLIFT
  0
POLYLINE
  8
M44LXLIFT
 62
2
 66
     1
 70
     9
  0
VERTEX
  8
M44LXLIFT
 62
2
 10
5232.733
 20
-6919.055
 30
938.000
 70
    32
  0
VERTEX
  8
M44LXLIFT
 62
2
 10
5243.215
 20
-6911.684
 30
938.000
 70
    32
  0
VERTEX
  8
M44LXLIFT
 62
2
 10
5251.100
 20
-6905.216
 30
938.000
 70
    32
  0
VERTEX
  8
M44LXLIFT
 62
2
 10
5255.216
 20
-6902.670
 30
938.000
 70
    32
  0
VERTEX
  8
M44LXLIFT
 62
2
 10
5260.253
 20
-6903.791
 30
938.000
 70
    32
  0
VERTEX
  8
M44LXLIFT
 62
2
 10
5260.687
 20
-6896.759
 30
938.000
 70
    32
  0
VERTEX
  8
M44LXLIFT
 62
2
 10
5275.128
 20
-6887.822
 30
938.000
 70
    32
  0
VERTEX
  8
M44LXLIFT
 62
2
 10
5279.001
 20
-6877.759
 30
938.000
 70
    32
  0
VERTEX
  8
M44LXLIFT
 62
2
 10
5277.390
 20
-6868.199
 30
938.000
 70
    32
  0
VERTEX
  8
M44LXLIFT
 62
2
 10
5272.541
 20
-6858.059
 30
938.000
 70
    32
  0
VERTEX
  8
M44LXLIFT
 62
2
 10
5266.324
 20
-6847.825
 30
938.000
 70
    32
  0
VERTEX
  8
M44LXLIFT
 62
2
 10
5260.246
 20
-6841.824
 30
938.000
 70
    32
  0
VERTEX
  8
M44LXLIFT
 62
2
 10
5252.325
 20
-6837.916
 30
938.000
 70
    32
  0
VERTEX
  8
M44LXLIFT
 62
2
 10
5247.258
 20
-6841.693
 30
938.000
 70
    32
  0
VERTEX
  8
M44LXLIFT
 62
2
 10
5244.592
 20
-6850.881
 30
938.000
 70
    32
  0
VERTEX
  8
M44LXLIFT
 62
2
 10
5247.714
 20
-6857.289
 30
938.000
 70
    32
  0
VERTEX
  8
M44LXLIFT
 62
2
 10
5253.324
 20
-6865.037
 30
938.000
 70
    32
  0
VERTEX
  8
M44LXLIFT
 62
2
 10
5252.808
 20
-6873.753
 30
938.000
 70
    32
  0
VERTEX
  8
M44LXLIFT
 62
2
 10
5248.959
 20
-6878.164
 30
938.000
 70
    32
  0
VERTEX
  8
M44LXLIFT
 62
2
 10
5242.934
 20
-6880.467
 30
938.000
 70
    32
  0
VERTEX
  8
M44LXLIFT
 62
2
 10
5235.966
 20
-6883.562
 30
938.000
 70
    32
  0
VERTEX
  8
M44LXLIFT
 62
2
 10
5233.514
 20
-6889.454
 30
938.000
 70
    32
  0
VERTEX
  8
M44LXLIFT
 62
2
 10
5234.554
 20
-6897.476
 30
938.000
 70
    32
  0
VERTEX
  8
M44LXLIFT
 62
2
 10
5234.223
 20
-6904.651
 30
938.000
 70
    32
  0
VERTEX
  8
M44LXLIFT
 62
2
 10
5229.955
 20
-6908.932
 30
938.000
 70
    32
  0
VERTEX
  8
M44LXLIFT
 62
2
 10
5228.155
 20
-6911.535
 30
938.000
 70
    32
  0
SEQEND
  8
M44LXLIFT
  0
POLYLINE
  8
M44LXLIFT
 62
2
 66
     1
 70
     9
  0
VERTEX
  8
M44LXLIFT
 62
2
 10
5289.560
 20
-6861.768
 30
906.000
 70
    32
  0
VERTEX
  8
M44LXLIFT
 62
2
 10
5295.467
 20
-6868.993
 30
906.000
 70
    32
  0
VERTEX
  8
M44LXLIFT
 62
2
 10
5283.415
 20
-6881.563
 30
906.000
 70
    32
  0
VERTEX
  8
M44LXLIFT
 62
2
 10
5272.030
 20
-6903.867
 30
906.000
 70
    32
  0
VERTEX
  8
M44LXLIFT
 62
2
 10
5261.840
 20
-6921.388
 30
906.000
 70
    32
  0
VERTEX
  8
M44LXLIFT
 62
2
 10
5255.339
 20
-6922.312
 30
906.000
 70
    32
  0
VERTEX
  8
M44LXLIFT
 62
2
 10
5237.547
 20
-6921.015
 30
906.000
 70
    32
  0
VERTEX
  8
M44LXLIFT
 62
2
 10
5225.668
 20
-6907.373
 30
906.000
 70
    32
  0
VERTEX
  8
M44LXLIFT
 62
2
 10
5240.783
 20
-6896.922
 30
906.000
 70
    32
  0
VERTEX
  8
M44LXLIFT
 62
2
 10
5251.103
 20
-6883.763
 30
906.000
 70
    32
  0
VERTEX
  8
M44LXLIFT
 62
2
 10
5257.300
 20
-6874.799
 30
906.000
 70
    32
  0
VERTEX
  8
M44LXLIFT
 62
2
 10
5279.439
 20
-6856.521
 30
906.000
 70
    32
  0
SEQEND
  8
M44LXLIFT
  0
POLYLINE
  8
M44LXLIFT
 62
2
 66
     1
 70
     9
  0
VERTEX
  8
M44LXLIFT
 62
2
 10
5267.442
 20
-6921.951
 30
917.000
 70
    32
  0
VERTEX
  8
M44LXLIFT
 62
2
 10
5256.355
 20
-6920.926
 30
917.000
 70
    32
  0
VERTEX
  8
M44LXLIFT
 62
2
 10
5237.062
 20
-6921.547
 30
917.000
 70
    32
  0
VERTEX
  8
M44LXLIFT
 62
2
 10
5232.829
 20
-6918.680
 30
917.000
 70
    32
  0
VERTEX
  8
M44LXLIFT
 62
2
 10
5226.964
 20
-6913.194
 30
917.000
 70
    32
  0
VERTEX
  8
M44LXLIFT
 62
2
 10
5231.958
 20
-6905.941
 30
917.000
 70
    32
  0
VERTEX
  8
M44LXLIFT
 62
2
 10
5235.899
 20
-6896.841
 30
917.000
 70
    32
  0
VERTEX
  8
M44LXLIFT
 62
2
 10
5241.841
 20
-6891.731
 30
917.000
 70
    32
  0
VERTEX
  8
M44LXLIFT
 62
2
 10
5246.623
 20
-6888.589
 30
917.000
 70
    32
  0
VERTEX
  8
M44LXLIFT
 62
2
 10
5251.390
 20
-6878.981
 30
917.000
 70
    32
  0
VERTEX
  8
M44LXLIFT
 62
2
 10
5255.228
 20
-6866.666
 30
917.000
 70
    32
  0
VERTEX
  8
M44LXLIFT
 62
2
 10
5255.689
 20
-6859.075
 30
917.000
 70
    32
  0
VERTEX
  8
M44LXLIFT
 62
2
 10
5257.712
 20
-6855.035
 30
917.000
 70
    32
  0
VERTEX
  8
M44LXLIFT
 62
2
 10
5269.171
 20
-6851.721
 30
917.000
 70
    32
  0
VERTEX
  8
M44LXLIFT
 62
2
 10
5279.451
 20
-6848.740
 30
917.000
 70
    32
  0
VERTEX
  8
M44LXLIFT
 62
2
 10
5286.165
 20
-6845.687
 30
917.000
 70
    32
  0
VERTEX
  8
M44LXLIFT
 62
2
 10
5288.483
 20
-6848.781
 30
917.000
 70
    32
  0
VERTEX
  8
M44LXLIFT
 62
2
 10
5286.174
 20
-6860.499
 30
917.000
 70
    32
  0
VERTEX
  8
M44LXLIFT
 62
2
 10
5282.459
 20
-6874.150
 30
917.000
 70
    32
  0
VERTEX
  8
M44LXLIFT
 62
2
 10
5278.619
 20
-6889.540
 30
917.000
 70
    32
  0
VERTEX
  8
M44LXLIFT
 62
2
 10
5279.736
 20
-6902.314
 30
917.000
 70
    32
  0
VERTEX
  8
M44LXLIFT
 62
2
 10
5281.243
 20
-6909.308
 30
917.000
 70
    32
  0
SEQEND
  8
M44LXLIFT
  0
POLYLINE
  8
M44LXLIFT
 62
13
 66
     1
 70
     9
  0
VERTEX
  8
M44LXLIFT
 62
13
 10
5219.312
 20
-6895.004
 30
954.000
 70
    32
  0
VERTEX
  8
M44LXLIFT
 62
13
 10
5226.979
 20
-6911.767
 30
954.000
 70
    32
  0
VERTEX
  8
M44LXLIFT
 62
13
 10
5226.822
 20
-6922.737
 30
954.000
 70
    32
  0
VERTEX
  8
M44LXLIFT
 62
13
 10
5220.158
 20
-6928.800
 30
954.000
 70
    32
  0
VERTEX
  8
M44LXLIFT
 62
13
 10
5208.263
 20
-6931.524
 30
954.000
 70
    32
  0
VERTEX
  8
M44LXLIFT
 62
13
 10
5196.322
 20
-6932.419
 30
954.000
 70
    32
  0
VERTEX
  8
M44LXLIFT
 62
13
 10
5182.532
 20
-6945.546
 30
954.000
 70
    32
  0
VERTEX
  8
M44LXLIFT
 62
13
 10
5177.100
 20
-6956.941
 30
954.000
 70
    32
  0
VERTEX
  8
M44LXLIFT
 62
13
 10
5156.912
 20
-6980.755
 30
954.000
 70
    32
  0
VERTEX
  8
M44LXLIFT
 62
13
 10
5141.828
 20
-6985.966
 30
954.000
 70
    32
  0
VERTEX
  8
M44LXLIFT
 62
13
 10
5133.526
 20
-6986.890
 30
954.000
 70
    32
  0
VERTEX
  8
M44LXLIFT
 62
13
 10
5124.686
 20
-6979.883
 30
954.000
 70
    32
  0
VERTEX
  8
M44LXLIFT
 62
13
 10
5117.227
 20
-6969.873
 30
954.000
 70
    32
  0
VERTEX
  8
M44LXLIFT
 62
13
 10
5113.259
 20
-6956.603
 30
954.000
 70
    32
  0
VERTEX
  8
M44LXLIFT
 62
13
 10
5120.262
 20
-6943.491
 30
954.000
 70
    32
  0
VERTEX
  8
M44LXLIFT
 62
13
 10
5119.957
 20
-6939.552
 30
954.000
 70
    32
  0
VERTEX
  8
M44LXLIFT
 62
13
 10
5116.800
 20
-6931.489
 30
954.000
 70
    32
  0
VERTEX
  8
M44LXLIFT
 62
13
 10
5119.725
 20
-6917.907
 30
954.000
 70
    32
  0
VERTEX
  8
M44LXLIFT
 62
13
 10
5129.994
 20
-6906.088
 30
954.000
 70
    32
  0
VERTEX
  8
M44LXLIFT
 62
13
 10
5143.345
 20
-6892.960
 30
954.000
 70
    32
  0
VERTEX
  8
M44LXLIFT
 62
13
 10
5155.765
 20
-6890.501
 30
954.000
 70
    32
  0
VERTEX
  8
M44LXLIFT
 62
13
 10
5172.060
 20
-6892.063
 30
954.000
 70
    32
  0
VERTEX
  8
M44LXLIFT
 62
13
 10
5188.702
 20
-6894.682
 30
954.000
 70
    32
  0
VERTEX
  8
M44LXLIFT
 62
13
 10
5207.976
 20
-6899.066
 30
954.000
 70
    32
  0
SEQEND
  8
M44LXLIFT
  0
POLYLINE
  8
M44LXLIFT
 62
13
 66
     1
 70
     9
  0
VERTEX
  8
M44LXLIFT
 62
13
 10
5145.129
 20
-6887.382
 30
962.000
 70
    32
  0
VERTEX
  8
M44LXLIFT
 62
13
 10
5152.644
 20
-6893.512
 30
962.000
 70
    32
  0
VERTEX
  8
M44LXLIFT
 62
13
 10
5158.341
 20
-6897.050
 30
962.000
 70
    32
  0
VERTEX
  8
M44LXLIFT
 62
13
 10
5169.985
 20
-6899.014
 30
962.000
 70
    32
  0
VERTEX
  8
M44LXLIFT
 62
13
 10
5182.622
 20
-6898.926
 30
962.000
 70
    32
  0
VERTEX
  8
M44LXLIFT
 62
13
 10
5191.493
 20
-6904.376
 30
962.000
 70
    32
  0
VERTEX
  8
M44LXLIFT
 62
13
 10
5196.919
 20
-6909.759
 30
962.000
 70
    32
  0
VERTEX
  8
M44LXLIFT
 62
13
 10
5206.419
 20
-6911.785
 30
962.000
 70
    32
  0
VERTEX
  8
M44LXLIFT
 62
13
 10
5213.760
 20
-6913.116
 30
962.000
 70
    32
  0
VERTEX
  8
M44LXLIFT
 62
13
 10
5216.367
 20
-6915.886
 30
962.000
 70
    32
  0
VERTEX
  8
M44LXLIFT
 62
13
 10
5224.341
 20
-6912.913
 30
962.000
 70
    32
  0
VERTEX
  8
M44LXLIFT
 62
13
 10
5227.941
 20
-6922.173
 30
962.000
 70
    32
  0
VERTEX
  8
M44LXLIFT
 62
13
 10
5220.169
 20
-6927.185
 30
962.000
 70
    32
  0
VERTEX
  8
M44LXLIFT
 62
13
 10
5209.053
 20
-6925.047
 30
962.000
 70
    32
  0
VERTEX
  8
M44LXLIFT
 62
13
 10
5195.461
 20
-6922.232
 30
962.000
 70
    32
  0
VERTEX
  8
M44LXLIFT
 62
13
 10
5182.517
 20
-6924.410
 30
962.000
 70
    32
  0
VERTEX
  8
M44LXLIFT
 62
13
 10
5168.184
 20
-6930.906
 30
962.000
 70
    32
  0
VERTEX
  8
M44LXLIFT
 62
13
 10
5161.571
 20
-6940.422
 30
962.000
 70
    32
  0
VERTEX
  8
M44LXLIFT
 62
13
 10
5153.658
 20
-6958.351
 30
962.000
 70
    32
  0
VERTEX
  8
M44LXLIFT
 62
13
 10
5150.683
 20
-6967.900
 30
962.000
 70
    32
  0
VERTEX
  8
M44LXLIFT
 62
13
 10
5140.653
 20
-6970.758
 30
962.000
 70
    32
  0
VERTEX
  8
M44LXLIFT
 62
13
 10
5131.103
 20
-6972.494
 30
962.000
 70
    32
  0
VERTEX
  8
M44LXLIFT
 62
13
 10
5123.248
 20
-6976.363
 30
962.000
 70
    32
  0
VERTEX
  8
M44LXLIFT
 62
13
 10
5117.372
 20
-6982.156
 30
962.000
 70
    32
  0
VERTEX
  8
M44LXLIFT
 62
13
 10
5110.282
 20
-6979.543
 30
962.000
 70
    32
  0
VERTEX
  8
M44LXLIFT
 62
13
 10
5104.046
 20
-6970.272
 30
962.000
 70
    32
  0
VERTEX
  8
M44LXLIFT
 62
13
 10
5104.412
 20
-6954.122
 30
962.000
 70
    32
  0
VERTEX
  8
M44LXLIFT
 62
13
 10
5108.164
 20
-6939.287
 30
962.000
 70
    32
  0
VERTEX
  8
M44LXLIFT
 62
13
 10
5108.749
 20
-6929.763
 30
962.000
 70
    32
  0
VERTEX
  8
M44LXLIFT
 62
13
 10
5104.474
 20
-6922.100
 30
962.000
 70
    32
  0
VERTEX
  8
M44LXLIFT
 62
13
 10
5104.160
 20
-6913.135
 30
962.000
 70
    32
  0
VERTEX
  8
M44LXLIFT
 62
13
 10
5114.968
 20
-6904.990
 30
962.000
 70
    32
  0
VERTEX
  8
M44LXLIFT
 62
13
 10
5124.780
 20
-6899.337
 30
962.000
 70
    32
  0
SEQEND
  8
M44LXLIFT
  0
POLYLINE
  8
M44LXLIFT
 62
13
 66
     1
 70
     9
  0
VERTEX
  8
M44LXLIFT
 62
13
 10
5231.682
 20
-6918.950
 30
945.000
 70
    32
  0
VERTEX
  8
M44LXLIFT
 62
13
 10
5219.266
 20
-6928.588
 30
945.000
 70
    32
  0
VERTEX
  8
M44LXLIFT
 62
13
 10
5204.351
 20
-6930.284
 30
945.000
 70
    32
  0
VERTEX
  8
M44LXLIFT
 62
13
 10
5191.838
 20
-6934.251
 30
945.000
 70
    32
  0
VERTEX
  8
M44LXLIFT
 62
13
 10
5179.048
 20
-6941.127
 30
945.000
 70
    32
  0
VERTEX
  8
M44LXLIFT
 62
13
 10
5174.280
 20
-6946.962
 30
945.000
 70
    32
  0
VERTEX
  8
M44LXLIFT
 62
13
 10
5176.481
 20
-6964.220
 30
945.000
 70
    32
  0
VERTEX
  8
M44LXLIFT
 62
13
 10
5169.779
 20
-6975.465
 30
945.000
 70
    32
  0
VERTEX
  8
M44LXLIFT
 62
13
 10
5161.415
 20
-6982.170
 30
945.000
 70
    32
  0
VERTEX
  8
M44LXLIFT
 62
13
 10
5156.145
 20
-6981.326
 30
945.000
 70
    32
  0
VERTEX
  8
M44LXLIFT
 62
13
 10
5151.579
 20
-6977.264
 30
945.000
 70
    32
  0
VERTEX
  8
M44LXLIFT
 62
13
 10
5150.927
 20
-6977.411
 30
945.000
 70
    32
  0
VERTEX
  8
M44LXLIFT
 62
13
 10
5141.006
 20
-6976.576
 30
945.000
 70
    32
  0
VERTEX
  8
M44LXLIFT
 62
13
 10
5133.891
 20
-6972.735
 30
945.000
 70
    32
  0
VERTEX
  8
M44LXLIFT
 62
13
 10
5125.760
 20
-6961.503
 30
945.000
 70
    32
  0
VERTEX
  8
M44LXLIFT
 62
13
 10
5126.597
 20
-6947.245
 30
945.000
 70
    32
  0
VERTEX
  8
M44LXLIFT
 62
13
 10
5126.682
 20
-6934.941
 30
945.000
 70
    32
  0
VERTEX
  8
M44LXLIFT
 62
13
 10
5131.968
 20
-6922.339
 30
945.000
 70
    32
  0
VERTEX
  8
M44LXLIFT
 62
13
 10
5128.778
 20
-6911.647
 30
945.000
 70
    32
  0
VERTEX
  8
M44LXLIFT
 62
13
 10
5138.226
 20
-6902.099
 30
945.000
 70
    32
  0
VERTEX
  8
M44LXLIFT
 62
13
 10
5150.394
 20
-6896.757
 30
945.000
 70
    32
  0
VERTEX
  8
M44LXLIFT
 62
13
 10
5159.534
 20
-6895.016
 30
945.000
 70
    32
  0
VERTEX
  8
M44LXLIFT
 62
13
 10
5163.734
 20
-6900.967
 30
945.000
 70
    32
  0
VERTEX
  8
M44LXLIFT
 62
13
 10
5170.463
 20
-6909.964
 30
945.000
 70
    32
  0
VERTEX
  8
M44LXLIFT
 62
13
 10
5178.296
 20
-6915.994
 30
945.000
 70
    32
  0
VERTEX
  8
M44LXLIFT
 62
13
 10
5189.401
 20
-6918.464
 30
945.000
 70
    32
  0
VERTEX
  8
M44LXLIFT
 62
13
 10
5203.294
 20
-6918.049
 30
945.000
 70
    32
  0
VERTEX
  8
M44LXLIFT
 62
13
 10
5213.559
 20
-6915.168
 30
945.000
 70
    32
  0
VERTEX
  8
M44LXLIFT
 62
13
 10
5217.461
 20
-6912.776
 30
945.000
 70
    32
  0
VERTEX
  8
M44LXLIFT
 62
13
 10
5215.871
 20
-6908.185
 30
945.000
 70
    32
  0
VERTEX
  8
M44LXLIFT
 62
13
 10
5207.955
 20
-6905.032
 30
945.000
 70
    32
  0
VERTEX
  8
M44LXLIFT
 62
13
 10
5198.458
 20
-6901.940
 30
945.000
 70
    32
  0
VERTEX
  8
M44LXLIFT
 62
13
 10
5189.495
 20
-6896.294
 30
945.000
 70
    32
  0
VERTEX
  8
M44LXLIFT
 62
13
 10
5180.944
 20
-6891.217
 30
945.000
 70
    32
  0
VERTEX
  8
M44LXLIFT
 62
13
 10
5174.505
 20
-6887.861
 30
945.000
 70
    32
  0
VERTEX
  8
M44LXLIFT
 62
13
 10
5171.682
 20
-6883.512
 30
945.000
 70
    32
  0
VERTEX
  8
M44LXLIFT
 62
13
 10
5172.578
 20
-6878.314
 30
945.000
 70
    32
  0
VERTEX
  8
M44LXLIFT
 62
13
 10
5178.539
 20
-6875.623
 30
945.000
 70
    32
  0
VERTEX
  8
M44LXLIFT
 62
13
 10
5186.700
 20
-6878.816
 30
945.000
 70
    32
  0
VERTEX
  8
M44LXLIFT
 62
13
 10
5195.193
 20
-6881.118
 30
945.000
 70
    32
  0
VERTEX
  8
M44LXLIFT
 62
13
 10
5203.386
 20
-6884.504
 30
945.000
 70
    32
  0
VERTEX
  8
M44LXLIFT
 62
13
 10
5210.970
 20
-6886.598
 30
945.000
 70
    32
  0
VERTEX
  8
M44LXLIFT
 62
13
 10
5216.960
 20
-6888.437
 30
945.000
 70
    32
  0
VERTEX
  8
M44LXLIFT
 62
13
 10
5224.733
 20
-6897.978
 30
945.000
 70
    32
  0
VERTEX
  8
M44LXLIFT
 62
13
 10
5227.698
 20
-6905.365
 30
945.000
 70
    32
  0
VERTEX
  8
M44LXLIFT
 62
13
 10
5227.800
 20
-6911.792
 30
945.000
 70
    32
  0
SEQEND
  8
M44LXLIFT
  0
POLYLINE
  8
M44LXLIFT
 62
13
 66
     1
 70
     9
  0
VERTEX
  8
M44LXLIFT
 62
13
 10
5155.021
 20
-6887.552
 30
969.000
 70
    32
  0
VERTEX
  8
M44LXLIFT
 62
13
 10
5167.224
 20
-6902.355
 30
969.000
 70
    32
  0
VERTEX
  8
M44LXLIFT
 62
13
 10
5173.856
 20
-6913.393
 30
969.000
 70
    32
  0
VERTEX
  8
M44LXLIFT
 62
13
 10
5180.956
 20
-6915.827
 30
969.000
 70
    32
  0
VERTEX
  8
M44LXLIFT
 62
13
 10
5199.294
 20
-6917.570
 30
969.000
 70
    32
  0
VERTEX
  8
M44LXLIFT
 62
13
 10
5214.959
 20
-6919.524
 30
969.000
 70
    32
  0
VERTEX
  8
M44LXLIFT
 62
13
 10
5218.156
 20
-6925.999
 30
969.000
 70
    32
  0
VERTEX
  8
M44LXLIFT
 62
13
 10
5202.996
 20
-6924.439
 30
969.000
 70
    32
  0
VERTEX
  8
M44LXLIFT
 62
13
 10
5191.200
 20
-6922.274
 30
969.000
 70
    32
  0
VERTEX
  8
M44LXLIFT
 62
13
 10
5182.759
 20
-6922.774
 30
969.000
 70
    32
  0
VERTEX
  8
M44LXLIFT
 62
13
 10
5176.432
 20
-6925.429
 30
969.000
 70
    32
  0
VERTEX
  8
M44LXLIFT
 62
13
 10
5161.198
 20
-6933.163
 30
969.000
 70
    32
  0
VERTEX
  8
M44LXLIFT
 62
13
 10
5146.939
 20
-6941.491
 30
969.000
 70
    32
  0
VERTEX
  8
M44LXLIFT
 62
13
 10
5140.427
 20
-6957.761
 30
969.000
 70
    32
  0
VERTEX
  8
M44LXLIFT
 62
13
 10
5130.319
 20
-6976.108
 30
969.000
 70
    32
  0
VERTEX
  8
M44LXLIFT
 62
13
 10
5126.899
 20
-6985.883
 30
969.000
 70
    32
  0
VERTEX
  8
M44LXLIFT
 62
13
 10
5134.623
 20
-7003.191
 30
969.000
 70
    32
  0
VERTEX
  8
M44LXLIFT
 62
13
 10
5117.886
 20
-7012.890
 30
969.000
 70
    32
  0
VERTEX
  8
M44LXLIFT
 62
13
 10
5107.588
 20
-6998.763
 30
969.000
 70
    32
  0
VERTEX
  8
M44LXLIFT
 62
13
 10
5105.179
 20
-6986.061
 30
969.000
 70
    32
  0
VERTEX
  8
M44LXLIFT
 62
13
 10
5098.864
 20
-6987.837
 30
969.000
 70
    32
  0
VERTEX
  8
M44LXLIFT
 62
13
 10
5092.233
 20
-7002.454
 30
969.000
 70
    32
  0
VERTEX
  8
M44LXLIFT
 62
13
 10
5089.910
 20
-7004.039
 30
969.000
 70
    32
  0
VERTEX
  8
M44LXLIFT
 62
13
 10
5083.218
 20
-6997.393
 30
969.000
 70
    32
  0
VERTEX
  8
M44LXLIFT
 62
13
 10
5072.232
 20
-6991.269
 30
969.000
 70
    32
  0
VERTEX
  8
M44LXLIFT
 62
13
 10
5066.203
 20
-6988.815
 30
969.000
 70
    32
  0
VERTEX
  8
M44LXLIFT
 62
13
 10
5068.580
 20
-6976.864
 30
969.000
 70
    32
  0
VERTEX
  8
M44LXLIFT
 62
13
 10
5075.265
 20
-6964.708
 30
969.000
 70
    32
  0
VERTEX
  8
M44LXLIFT
 62
13
 10
5085.845
 20
-6946.560
 30
969.000
 70
    32
  0
VERTEX
  8
M44LXLIFT
 62
13
 10
5098.357
 20
-6929.722
 30
969.000
 70
    32
  0
VERTEX
  8
M44LXLIFT
 62
13
 10
5115.645
 20
-6909.294
 30
969.000
 70
    32
  0
VERTEX
  8
M44LXLIFT
 62
13
 10
5132.844
 20
-6896.650
 30
969.000
 70
    32
  0
SEQEND
  8
M44LXLIFT
  0
POLYLINE
  8
M44LXLIFT
 62
13
 66
     1
 70
     9
  0
VERTEX
  8
M44LXLIFT
 62
13
 10
5183.178
 20
-6973.284
 30
903.000
 70
    32
  0
VERTEX
  8
M44LXLIFT
 62
13
 10
5208.382
 20
-6950.775
 30
903.000
 70
    32
  0
VERTEX
  8
M44LXLIFT
 62
13
 10
5228.487
 20
-6928.738
 30
903.000
 70
    32
  0
VERTEX
  8
M44LXLIFT
 62
13
 10
5234.870
 20
-6919.919
 30
903.000
 70
    32
  0
VERTEX
  8
M44LXLIFT
 62
13
 10
5229.838
 20
-6909.343
 30
903.000
 70
    32
  0
VERTEX
  8
M44LXLIFT
 62
13
 10
5224.211
 20
-6909.985
 30
903.000
 70
    32
  0
VERTEX
  8
M44LXLIFT
 62
13
 10
5215.339
 20
-6919.866
 30
903.000
 70
    32
  0
VERTEX
  8
M44LXLIFT
 62
13
 10
5201.760
 20
-6921.545
 30
903.000
 70
    32
  0
VERTEX
  8
M44LXLIFT
 62
13
 10
5188.621
 20
-6924.863
 30
903.000
 70
    32
  0
VERTEX
  8
M44LXLIFT
 62
13
 10
5174.754
 20
-6933.724
 30
903.000
 70
    32
  0
VERTEX
  8
M44LXLIFT
 62
13
 10
5159.130
 20
-6947.466
 30
903.000
 70
    32
  0
VERTEX
  8
M44LXLIFT
 62
13
 10
5150.069
 20
-6958.574
 30
903.000
 70
    32
  0
VERTEX
  8
M44LXLIFT
 62
13
 10
5144.397
 20
-6969.702
 30
903.000
 70
    32
  0
VERTEX
  8
M44LXLIFT
 62
13
 10
5140.346
 20
-6972.345
 30
903.000
 70
    32
  0
VERTEX
  8
M44LXLIFT
 62
13
 10
5148.575
 20
-6978.073
 30
903.000
 70
    32
  0
VERTEX
  8
M44LXLIFT
 62
13
 10
5167.711
 20
-6975.804
 30
903.000
 70
    32
  0
VERTEX
  8
M44LXLIFT
 62
13
 10
5176.337
 20
-6970.786
 30
903.000
 70
    32
  0
SEQEND
  8
M44LXLIFT
  0
POLYLINE
  8
M44LXLIFT
 62
13
 66
     1
 70
     9
  0
VERTEX
  8
M44LXLIFT
 62
13
 10
5172.438
 20
-6977.419
 30
923.000
 70
    32
  0
VERTEX
  8
M44LXLIFT
 62
13
 10
5165.460
 20
-6980.560
 30
923.000
 70
    32
  0
VERTEX
  8
M44LXLIFT
 62
13
 10
5156.552
 20
-6979.219
 30
923.000
 70
    32
  0
VERTEX
  8
M44LXLIFT
 62
13
 10
5153.254
 20
-6971.591
 30
923.000
 70
    32
  0
VERTEX
  8
M44LXLIFT
 62
13
 10
5154.437
 20
-6962.034
 30
923.000
 70
    32
  0
VERTEX
  8
M44LXLIFT
 62
13
 10
5154.949
 20
-6957.588
 30
923.000
 70
    32
  0
VERTEX
  8
M44LXLIFT
 62
13
 10
5146.872
 20
-6946.953
 30
923.000
 70
    32
  0
VERTEX
  8
M44LXLIFT
 62
13
 10
5140.957
 20
-6936.565
 30
923.000
 70
    32
  0
VERTEX
  8
M44LXLIFT
 62
13
 10
5139.239
 20
-6930.168
 30
923.000
 70
    32
  0
VERTEX
  8
M44LXLIFT
 62
13
 10
5142.460
 20
-6921.279
 30
923.000
 70
    32
  0
VERTEX
  8
M44LXLIFT
 62
13
 10
5157.256
 20
-6919.636
 30
923.000
 70
    32
  0
VERTEX
  8
M44LXLIFT
 62
13
 10
5171.262
 20
-6915.182
 30
923.000
 70
    32
  0
VERTEX
  8
M44LXLIFT
 62
13
 10
5182.614
 20
-6914.363
 30
923.000
 70
    32
  0
VERTEX
  8
M44LXLIFT
 62
13
 10
5202.116
 20
-6916.219
 30
923.000
 70
    32
  0
VERTEX
  8
M44LXLIFT
 62
13
 10
5212.765
 20
-6915.048
 30
923.000
 70
    32
  0
VERTEX
  8
M44LXLIFT
 62
13
 10
5215.490
 20
-6912.239
 30
923.000
 70
    32
  0
VERTEX
  8
M44LXLIFT
 62
13
 10
5214.280
 20
-6907.986
 30
923.000
 70
    32
  0
VERTEX
  8
M44LXLIFT
 62
13
 10
5209.889
 20
-6905.787
 30
923.000
 70
    32
  0
VERTEX
  8
M44LXLIFT
 62
13
 10
5202.052
 20
-6907.047
 30
923.000
 70
    32
  0
VERTEX
  8
M44LXLIFT
 62
13
 10
5191.577
 20
-6911.381
 30
923.000
 70
    32
  0
VERTEX
  8
M44LXLIFT
 62
13
 10
5186.550
 20
-6913.170
 30
923.000
 70
    32
  0
VERTEX
  8
M44LXLIFT
 62
13
 10
5183.460
 20
-6909.338
 30
923.000
 70
    32
  0
VERTEX
  8
M44LXLIFT
 62
13
 10
5192.179
 20
-6902.807
 30
923.000
 70
    32
  0
VERTEX
  8
M44LXLIFT
 62
13
 10
5201.460
 20
-6897.172
 30
923.000
 70
    32
  0
VERTEX
  8
M44LXLIFT
 62
13
 10
5212.548
 20
-6896.001
 30
923.000
 70
    32
  0
VERTEX
  8
M44LXLIFT
 62
13
 10
5225.896
 20
-6905.761
 30
923.000
 70
    32
  0
VERTEX
  8
M44LXLIFT
 62
13
 10
5231.233
 20
-6913.619
 30
923.000
 70
    32
  0
VERTEX
  8
M44LXLIFT
 62
13
 10
5234.268
 20
-6921.773
 30
923.000
 70
    32
  0
VERTEX
  8
M44LXLIFT
 62
13
 10
5220.416
 20
-6932.150
 30
923.000
 70
    32
  0
VERTEX
  8
M44LXLIFT
 62
13
 10
5205.594
 20
-6947.533
 30
923.000
 70
    32
  0
VERTEX
  8
M44LXLIFT
 62
13
 10
5190.334
 20
-6962.477
 30
923.000
 70
    32
  0
VERTEX
  8
M44LXLIFT
 62
13
 10
5178.433
 20
-6971.940
 30
923.000
 70
    32
  0
SEQEND
  8
M44LXLIFT
  0
POLYLINE
  8
M44LXLIFT
 62
13
 66
     1
 70
     9
  0
VERTEX
  8
M44LXLIFT
 62
13
 10
5202.151
 20
-6917.631
 30
913.000
 70
    32
  0
VERTEX
  8
M44LXLIFT
 62
13
 10
5206.397
 20
-6917.043
 30
913.000
 70
    32
  0
VERTEX
  8
M44LXLIFT
 62
13
 10
5217.803
 20
-6907.768
 30
913.000
 70
    32
  0
VERTEX
  8
M44LXLIFT
 62
13
 10
5223.942
 20
-6906.346
 30
913.000
 70
    32
  0
VERTEX
  8
M44LXLIFT
 62
13
 10
5235.841
 20
-6918.669
 30
913.000
 70
    32
  0
VERTEX
  8
M44LXLIFT
 62
13
 10
5234.949
 20
-6926.709
 30
913.000
 70
    32
  0
VERTEX
  8
M44LXLIFT
 62
13
 10
5222.348
 20
-6931.201
 30
913.000
 70
    32
  0
VERTEX
  8
M44LXLIFT
 62
13
 10
5219.957
 20
-6935.984
 30
913.000
 70
    32
  0
VERTEX
  8
M44LXLIFT
 62
13
 10
5219.673
 20
-6942.168
 30
913.000
 70
    32
  0
VERTEX
  8
M44LXLIFT
 62
13
 10
5207.265
 20
-6950.215
 30
913.000
 70
    32
  0
VERTEX
  8
M44LXLIFT
 62
13
 10
5189.914
 20
-6964.467
 30
913.000
 70
    32
  0
VERTEX
  8
M44LXLIFT
 62
13
 10
5179.601
 20
-6974.795
 30
913.000
 70
    32
  0
VERTEX
  8
M44LXLIFT
 62
13
 10
5169.997
 20
-6976.237
 30
913.000
 70
    32
  0
VERTEX
  8
M44LXLIFT
 62
13
 10
5159.114
 20
-6977.414
 30
913.000
 70
    32
  0
VERTEX
  8
M44LXLIFT
 62
13
 10
5154.086
 20
-6972.593
 30
913.000
 70
    32
  0
VERTEX
  8
M44LXLIFT
 62
13
 10
5150.188
 20
-6963.798
 30
913.000
 70
    32
  0
VERTEX
  8
M44LXLIFT
 62
13
 10
5154.246
 20
-6947.260
 30
913.000
 70
    32
  0
VERTEX
  8
M44LXLIFT
 62
13
 10
5163.822
 20
-6930.837
 30
913.000
 70
    32
  0
VERTEX
  8
M44LXLIFT
 62
13
 10
5174.407
 20
-6917.595
 30
913.000
 70
    32
  0
VERTEX
  8
M44LXLIFT
 62
13
 10
5182.523
 20
-6912.017
 30
913.000
 70
    32
  0
VERTEX
  8
M44LXLIFT
 62
13
 10
5190.925
 20
-6914.601
 30
913.000
 70
    32
  0
SEQEND
  8
M44LXLIFT
  0
POLYLINE
  8
M44LXLIFT
 62
13
 66
     1
 70
     9
  0
VERTEX
  8
M44LXLIFT
 62
13
 10
5212.686
 20
-6947.665
 30
870.000
 70
    32
  0
VERTEX
  8
M44LXLIFT
 62
13
 10
5225.568
 20
-6943.193
 30
870.000
 70
    32
  0
VERTEX
  8
M44LXLIFT
 62
13
 10
5232.600
 20
-6940.133
 30
870.000
 70
    32
  0
VERTEX
  8
M44LXLIFT
 62
13
 10
5240.494
 20
-6926.782
 30
870.000
 70
    32
  0
VERTEX
  8
M44LXLIFT
 62
13
 10
5244.835
 20
-6915.866
 30
870.000
 70
    32
  0
VERTEX
  8
M44LXLIFT
 62
13
 10
5248.037
 20
-6912.817
 30
870.000
 70
    32
  0
VERTEX
  8
M44LXLIFT
 62
13
 10
5253.447
 20
-6912.722
 30
870.000
 70
    32
  0
VERTEX
  8
M44LXLIFT
 62
13
 10
5256.058
 20
-6897.727
 30
870.000
 70
    32
  0
VERTEX
  8
M44LXLIFT
 62
13
 10
5245.906
 20
-6897.638
 30
870.000
 70
    32
  0
VERTEX
  8
M44LXLIFT
 62
13
 10
5239.713
 20
-6903.141
 30
870.000
 70
    32
  0
VERTEX
  8
M44LXLIFT
 62
13
 10
5228.054
 20
-6901.766
 30
870.000
 70
    32
  0
VERTEX
  8
M44LXLIFT
 62
13
 10
5218.919
 20
-6902.890
 30
870.000
 70
    32
  0
VERTEX
  8
M44LXLIFT
 62
13
 10
5212.092
 20
-6909.305
 30
870.000
 70
    32
  0
VERTEX
  8
M44LXLIFT
 62
13
 10
5212.633
 20
-6920.301
 30
870.000
 70
    32
  0
VERTEX
  8
M44LXLIFT
 62
13
 10
5211.474
 20
-6929.168
 30
870.000
 70
    32
  0
VERTEX
  8
M44LXLIFT
 62
13
 10
5203.848
 20
-6931.138
 30
870.000
 70
    32
  0
VERTEX
  8
M44LXLIFT
 62
13
 10
5207.063
 20
-6939.698
 30
870.000
 70
    32
  0
SEQEND
  8
M44LXLIFT
  0
POLYLINE
  8
M44LXLIFT
 62
13
 66
     1
 70
     9
  0
VERTEX
  8
M44LXLIFT
 62
13
 10
5150.804
 20
-6963.622
 30
934.000
 70
    32
  0
VERTEX
  8
M44LXLIFT
 62
13
 10
5157.709
 20
-6972.194
 30
934.000
 70
    32
  0
VERTEX
  8
M44LXLIFT
 62
13
 10
5166.059
 20
-6980.350
 30
934.000
 70
    32
  0
VERTEX
  8
M44LXLIFT
 62
13
 10
5172.017
 20
-6978.341
 30
934.000
 70
    32
  0
VERTEX
  8
M44LXLIFT
 62
13
 10
5181.117
 20
-6971.263
 30
934.000
 70
    32
  0
VERTEX
  8
M44LXLIFT
 62
13
 10
5183.893
 20
-6958.907
 30
934.000
 70
    32
  0
VERTEX
  8
M44LXLIFT
 62
13
 10
5189.732
 20
-6946.251
 30
934.000
 70
    32
  0
VERTEX
  8
M44LXLIFT
 62
13
 10
5198.436
 20
-6917.667
 30
934.000
 70
    32
  0
VERTEX
  8
M44LXLIFT
 62
13
 10
5212.741
 20
-6917.902
 30
934.000
 70
    32
  0
VERTEX
  8
M44LXLIFT
 62
13
 10
5224.059
 20
-6914.109
 30
934.000
 70
    32
  0
VERTEX
  8
M44LXLIFT
 62
13
 10
5228.016
 20
-6907.778
 30
934.000
 70
    32
  0
VERTEX
  8
M44LXLIFT
 62
13
 10
5217.829
 20
-6897.588
 30
934.000
 70
    32
  0
VERTEX
  8
M44LXLIFT
 62
13
 10
5200.558
 20
-6892.762
 30
934.000
 70
    32
  0
VERTEX
  8
M44LXLIFT
 62
13
 10
5183.390
 20
-6891.474
 30
934.000
 70
    32
  0
VERTEX
  8
M44LXLIFT
 62
13
 10
5177.213
 20
-6891.564
 30
934.000
 70
    32
  0
VERTEX
  8
M44LXLIFT
 62
13
 10
5179.145
 20
-6898.895
 30
934.000
 70
    32
  0
VERTEX
  8
M44LXLIFT
 62
13
 10
5183.009
 20
-6910.159
 30
934.000
 70
    32
  0
VERTEX
  8
M44LXLIFT
 62
13
 10
5181.326
 20
-6918.966
 30
934.000
 70
    32
  0
VERTEX
  8
M44LXLIFT
 62
13
 10
5169.316
 20
-6917.248
 30
934.000
 70
    32
  0
VERTEX
  8
M44LXLIFT
 62
13
 10
5160.138
 20
-6915.950
 30
934.000
 70
    32
  0
VERTEX
  8
M44LXLIFT
 62
13
 10
5146.400
 20
-6918.252
 30
934.000
 70
    32
  0
VERTEX
  8
M44LXLIFT
 62
13
 10
5139.099
 20
-6921.258
 30
934.000
 70
    32
  0
VERTEX
  8
M44LXLIFT
 62
13
 10
5135.116
 20
-6929.032
 30
934.000
 70
    32
  0
VERTEX
  8
M44LXLIFT
 62
13
 10
5141.061
 20
-6942.806
 30
934.000
 70
    32
  0
SEQEND
  8
M44LXLIFT
  0
POLYLINE
  8
M44LXLIFT
 62
2
 66
     1
 70
     9
  0
VERTEX
  8
M44LXLIFT
 62
2
 10
5268.415
 20
-6842.322
 30
928.000
 70
    32
  0
VERTEX
  8
M44LXLIFT
 62
2
 10
5281.173
 20
-6855.535
 30
928.000
 70
    32
  0
VERTEX
  8
M44LXLIFT
 62
2
 10
5280.483
 20
-6866.124
 30
928.000
 70
    32
  0
VERTEX
  8
M44LXLIFT
 62
2
 10
5277.570
 20
-6881.101
 30
928.000
 70
    32
  0
VERTEX
  8
M44LXLIFT
 62
2
 10
5277.644
 20
-6890.357
 30
928.000
 70
    32
  0
VERTEX
  8
M44LXLIFT
 62
2
 10
5277.927
 20
-6899.896
 30
928.000
 70
    32
  0
VERTEX
  8
M44LXLIFT
 62
2
 10
5267.983
 20
-6913.516
 30
928.000
 70
    32
  0
VERTEX
  8
M44LXLIFT
 62
2
 10
5258.432
 20
-6915.999
 30
928.000
 70
    32
  0
VERTEX
  8
M44LXLIFT
 62
2
 10
5244.984
 20
-6916.772
 30
928.000
 70
    32
  0
VERTEX
  8
M44LXLIFT
 62
2
 10
5235.043
 20
-6913.411
 30
928.000
 70
    32
  0
VERTEX
  8
M44LXLIFT
 62
2
 10
5229.628
 20
-6905.815
 30
928.000
 70
    32
  0
VERTEX
  8
M44LXLIFT
 62
2
 10
5232.563
 20
-6896.628
 30
928.000
 70
    32
  0
VERTEX
  8
M44LXLIFT
 62
2
 10
5230.542
 20
-6889.473
 30
928.000
 70
    32
  0
VERTEX
  8
M44LXLIFT
 62
2
 10
5246.612
 20
-6882.045
 30
928.000
 70
    32
  0
VERTEX
  8
M44LXLIFT
 62
2
 10
5254.263
 20
-6872.865
 30
928.000
 70
    32
  0
VERTEX
  8
M44LXLIFT
 62
2
 10
5257.738
 20
-6864.701
 30
928.000
 70
    32
  0
VERTEX
  8
M44LXLIFT
 62
2
 10
5253.936
 20
-6851.747
 30
928.000
 70
    32
  0
SEQEND
  8
M44LXLIFT
  0
POLYLINE
  8
M44LXLIFT
 62
2
 66
     1
 70
     9
  0
VERTEX
  8
M44LXLIFT
 62
2
 10
5282.675
 20
-6853.224
 30
960.000
 70
    32
  0
VERTEX
  8
M44LXLIFT
 62
2
 10
5282.474
 20
-6863.557
 30
960.000
 70
    32
  0
VERTEX
  8
M44LXLIFT
 62
2
 10
5279.935
 20
-6869.715
 30
960.000
 70
    32
  0
VERTEX
  8
M44LXLIFT
 62
2
 10
5267.983
 20
-6874.112
 30
960.000
 70
    32
  0
VERTEX
  8
M44LXLIFT
 62
2
 10
5264.578
 20
-6881.462
 30
960.000
 70
    32
  0
VERTEX
  8
M44LXLIFT
 62
2
 10
5254.888
 20
-6882.863
 30
960.000
 70
    32
  0
VERTEX
  8
M44LXLIFT
 62
2
 10
5250.616
 20
-6874.761
 30
960.000
 70
    32
  0
VERTEX
  8
M44LXLIFT
 62
2
 10
5251.508
 20
-6867.418
 30
960.000
 70
    32
  0
VERTEX
  8
M44LXLIFT
 62
2
 10
5249.696
 20
-6863.509
 30
960.000
 70
    32
  0
VERTEX
  8
M44LXLIFT
 62
2
 10
5242.250
 20
-6862.037
 30
960.000
 70
    32
  0
VERTEX
  8
M44LXLIFT
 62
2
 10
5235.296
 20
-6860.637
 30
960.000
 70
    32
  0
VERTEX
  8
M44LXLIFT
 62
2
 10
5234.114
 20
-6853.303
 30
960.000
 70
    32
  0
VERTEX
  8
M44LXLIFT
 62
2
 10
5237.025
 20
-6842.050
 30
960.000
 70
    32
  0
VERTEX
  8
M44LXLIFT
 62
2
 10
5244.258
 20
-6835.577
 30
960.000
 70
    32
  0
VERTEX
  8
M44LXLIFT
 62
2
 10
5252.547
 20
-6833.028
 30
960.000
 70
    32
  0
VERTEX
  8
M44LXLIFT
 62
2
 10
5262.365
 20
-6834.597
 30
960.000
 70
    32
  0
VERTEX
  8
M44LXLIFT
 62
2
 10
5271.228
 20
-6833.263
 30
960.000
 70
    32
  0
VERTEX
  8
M44LXLIFT
 62
2
 10
5276.748
 20
-6841.423
 30
960.000
 70
    32
  0
SEQEND
  8
M44LXLIFT
  0
POLYLINE
  8
M44LXLIFT
 62
3
 66
     1
 70
     9
  0
VERTEX
  8
M44LXLIFT
 62
3
 10
5325.748
 20
-6990.840
 30
896.000
 70
    32
  0
VERTEX
  8
M44LXLIFT
 62
3
 10
5324.083
 20
-6955.800
 30
896.000
 70
    32
  0
VERTEX
  8
M44LXLIFT
 62
3
 10
5317.867
 20
-6925.810
 30
896.000
 70
    32
  0
VERTEX
  8
M44LXLIFT
 62
3
 10
5309.346
 20
-6900.066
 30
896.000
 70
    32
  0
VERTEX
  8
M44LXLIFT
 62
3
 10
5306.989
 20
-6887.688
 30
896.000
 70
    32
  0
VERTEX
  8
M44LXLIFT
 62
3
 10
5303.010
 20
-6882.663
 30
896.000
 70
    32
  0
VERTEX
  8
M44LXLIFT
 62
3
 10
5299.243
 20
-6875.725
 30
896.000
 70
    32
  0
VERTEX
  8
M44LXLIFT
 62
3
 10
5291.887
 20
-6877.174
 30
896.000
 70
    32
  0
VERTEX
  8
M44LXLIFT
 62
3
 10
5270.806
 20
-6891.195
 30
896.000
 70
    32
  0
VERTEX
  8
M44LXLIFT
 62
3
 10
5262.950
 20
-6900.033
 30
896.000
 70
    32
  0
VERTEX
  8
M44LXLIFT
 62
3
 10
5260.608
 20
-6906.719
 30
896.000
 70
    32
  0
VERTEX
  8
M44LXLIFT
 62
3
 10
5269.608
 20
-6927.390
 30
896.000
 70
    32
  0
VERTEX
  8
M44LXLIFT
 62
3
 10
5279.207
 20
-6930.403
 30
896.000
 70
    32
  0
VERTEX
  8
M44LXLIFT
 62
3
 10
5291.825
 20
-6933.787
 30
896.000
 70
    32
  0
VERTEX
  8
M44LXLIFT
 62
3
 10
5300.663
 20
-6942.521
 30
896.000
 70
    32
  0
VERTEX
  8
M44LXLIFT
 62
3
 10
5303.396
 20
-6947.492
 30
896.000
 70
    32
  0
VERTEX
  8
M44LXLIFT
 62
3
 10
5300.429
 20
-6963.744
 30
896.000
 70
    32
  0
VERTEX
  8
M44LXLIFT
 62
3
 10
5301.342
 20
-6979.614
 30
896.000
 70
    32
  0
VERTEX
  8
M44LXLIFT
 62
3
 10
5302.086
 20
-6990.130
 30
896.000
 70
    32
  0
VERTEX
  8
M44LXLIFT
 62
3
 10
5303.256
 20
-6995.064
 30
896.000
 70
    32
  0
VERTEX
  8
M44LXLIFT
 62
3
 10
5313.405
 20
-6993.390
 30
896.000
 70
    32
  0
SEQEND
  8
M44LXLIFT
  0
POLYLINE
  8
M44LXLIFT
 62
3
 66
     1
 70
     9
  0
VERTEX
  8
M44LXLIFT
 62
3
 10
5326.829
 20
-6961.569
 30
874.000
 70
    32
  0
VERTEX
  8
M44LXLIFT
 62
3
 10
5327.809
 20
-6942.740
 30
874.000
 70
    32
  0
VERTEX
  8
M44LXLIFT
 62
3
 10
5329.036
 20
-6925.461
 30
874.000
 70
    32
  0
VERTEX
  8
M44LXLIFT
 62
3
 10
5328.719
 20
-6914.467
 30
874.000
 70
    32
  0
VERTEX
  8
M44LXLIFT
 62
3
 10
5323.236
 20
-6907.710
 30
874.000
 70
    32
  0
VERTEX
  8
M44LXLIFT
 62
3
 10
5314.914
 20
-6908.595
 30
874.000
 70
    32
  0
VERTEX
  8
M44LXLIFT
 62
3
 10
5303.977
 20
-6915.776
 30
874.000
 70
    32
  0
VERTEX
  8
M44LXLIFT
 62
3
 10
5294.728
 20
-6927.576
 30
874.000
 70
    32
  0
VERTEX
  8
M44LXLIFT
 62
3
 10
5292.681
 20
-6940.694
 30
874.000
 70
    32
  0
VERTEX
  8
M44LXLIFT
 62
3
 10
5292.637
 20
-6958.421
 30
874.000
 70
    32
  0
VERTEX
  8
M44LXLIFT
 62
3
 10
5292.179
 20
-6968.784
 30
874.000
 70
    32
  0
VERTEX
  8
M44LXLIFT
 62
3
 10
5301.908
 20
-6978.759
 30
874.000
 70
    32
  0
VERTEX
  8
M44LXLIFT
 62
3
 10
5317.195
 20
-6976.449
 30
874.000
 70
    32
  0
SEQEND
  8
M44LXLIFT
  0
POLYLINE
  8
M44LXLIFT
 62
3
 66
     1
 70
     9
  0
VERTEX
  8
M44LXLIFT
 62
3
 10
5314.891
 20
-6994.052
 30
916.000
 70
    32
  0
VERTEX
  8
M44LXLIFT
 62
3
 10
5305.808
 20
-6983.625
 30
916.000
 70
    32
  0
VERTEX
  8
M44LXLIFT
 62
3
 10
5297.072
 20
-6974.572
 30
916.000
 70
    32
  0
VERTEX
  8
M44LXLIFT
 62
3
 10
5289.757
 20
-6963.296
 30
916.000
 70
    32
  0
VERTEX
  8
M44LXLIFT
 62
3
 10
5279.367
 20
-6951.216
 30
916.000
 70
    32
  0
VERTEX
  8
M44LXLIFT
 62
3
 10
5271.150
 20
-6939.293
 30
916.000
 70
    32
  0
VERTEX
  8
M44LXLIFT
 62
3
 10
5262.377
 20
-6922.572
 30
916.000
 70
    32
  0
VERTEX
  8
M44LXLIFT
 62
3
 10
5274.347
 20
-6912.478
 30
916.000
 70
    32
  0
VERTEX
  8
M44LXLIFT
 62
3
 10
5282.065
 20
-6903.843
 30
916.000
 70
    32
  0
VERTEX
  8
M44LXLIFT
 62
3
 10
5288.681
 20
-6910.423
 30
916.000
 70
    32
  0
VERTEX
  8
M44LXLIFT
 62
3
 10
5294.008
 20
-6923.142
 30
916.000
 70
    32
  0
VERTEX
  8
M44LXLIFT
 62
3
 10
5298.490
 20
-6934.848
 30
916.000
 70
    32
  0
VERTEX
  8
M44LXLIFT
 62
3
 10
5309.616
 20
-6952.572
 30
916.000
 70
    32
  0
VERTEX
  8
M44LXLIFT
 62
3
 10
5316.811
 20
-6966.970
 30
916.000
 70
    32
  0
VERTEX
  8
M44LXLIFT
 62
3
 10
5322.328
 20
-6987.571
 30
916.000
 70
    32
  0
SEQEND
  8
M44LXLIFT
  0
POLYLINE
  8
M44LXLIFT
 62
3
 66
     1
 70
     9
  0
VERTEX
  8
M44LXLIFT
 62
3
 10
5216.857
 20
-7017.305
 30
864.000
 70
    32
  0
VERTEX
  8
M44LXLIFT
 62
3
 10
5233.351
 20
-7019.912
 30
864.000
 70
    32
  0
VERTEX
  8
M44LXLIFT
 62
3
 10
5247.516
 20
-7022.142
 30
864.000
 70
    32
  0
VERTEX
  8
M44LXLIFT
 62
3
 10
5258.741
 20
-7015.344
 30
864.000
 70
    32
  0
VERTEX
  8
M44LXLIFT
 62
3
 10
5260.946
 20
-7004.444
 30
864.000
 70
    32
  0
VERTEX
  8
M44LXLIFT
 62
3
 10
5261.514
 20
-6992.777
 30
864.000
 70
    32
  0
VERTEX
  8
M44LXLIFT
 62
3
 10
5267.712
 20
-6980.511
 30
864.000
 70
    32
  0
VERTEX
  8
M44LXLIFT
 62
3
 10
5281.842
 20
-6977.139
 30
864.000
 70
    32
  0
VERTEX
  8
M44LXLIFT
 62
3
 10
5302.784
 20
-6972.857
 30
864.000
 70
    32
  0
VERTEX
  8
M44LXLIFT
 62
3
 10
5308.474
 20
-6985.097
 30
864.000
 70
    32
  0
VERTEX
  8
M44LXLIFT
 62
3
 10
5310.111
 20
-6992.468
 30
864.000
 70
    32
  0
VERTEX
  8
M44LXLIFT
 62
3
 10
5320.636
 20
-6993.103
 30
864.000
 70
    32
  0
VERTEX
  8
M44LXLIFT
 62
3
 10
5329.929
 20
-6990.079
 30
864.000
 70
    32
  0
VERTEX
  8
M44LXLIFT
 62
3
 10
5329.895
 20
-6980.578
 30
864.000
 70
    32
  0
VERTEX
  8
M44LXLIFT
 62
3
 10
5324.508
 20
-6969.959
 30
864.000
 70
    32
  0
VERTEX
  8
M44LXLIFT
 62
3
 10
5326.664
 20
-6953.140
 30
864.000
 70
    32
  0
VERTEX
  8
M44LXLIFT
 62
3
 10
5327.435
 20
-6939.053
 30
864.000
 70
    32
  0
VERTEX
  8
M44LXLIFT
 62
3
 10
5325.062
 20
-6926.909
 30
864.000
 70
    32
  0
VERTEX
  8
M44LXLIFT
 62
3
 10
5328.431
 20
-6918.525
 30
864.000
 70
    32
  0
VERTEX
  8
M44LXLIFT
 62
3
 10
5325.969
 20
-6909.260
 30
864.000
 70
    32
  0
VERTEX
  8
M44LXLIFT
 62
3
 10
5316.737
 20
-6909.966
 30
864.000
 70
    32
  0
VERTEX
  8
M44LXLIFT
 62
3
 10
5308.369
 20
-6918.925
 30
864.000
 70
    32
  0
VERTEX
  8
M44LXLIFT
 62
3
 10
5299.250
 20
-6928.642
 30
864.000
 70
    32
  0
VERTEX
  8
M44LXLIFT
 62
3
 10
5291.491
 20
-6932.291
 30
864.000
 70
    32
  0
VERTEX
  8
M44LXLIFT
 62
3
 10
5281.088
 20
-6931.677
 30
864.000
 70
    32
  0
VERTEX
  8
M44LXLIFT
 62
3
 10
5265.675
 20
-6926.666
 30
864.000
 70
    32
  0
VERTEX
  8
M44LXLIFT
 62
3
 10
5251.890
 20
-6922.863
 30
864.000
 70
    32
  0
VERTEX
  8
M44LXLIFT
 62
3
 10
5240.074
 20
-6925.541
 30
864.000
 70
    32
  0
VERTEX
  8
M44LXLIFT
 62
3
 10
5233.083
 20
-6934.156
 30
864.000
 70
    32
  0
VERTEX
  8
M44LXLIFT
 62
3
 10
5221.384
 20
-6939.998
 30
864.000
 70
    32
  0
VERTEX
  8
M44LXLIFT
 62
3
 10
5206.472
 20
-6943.935
 30
864.000
 70
    32
  0
VERTEX
  8
M44LXLIFT
 62
3
 10
5192.060
 20
-6950.218
 30
864.000
 70
    32
  0
VERTEX
  8
M44LXLIFT
 62
3
 10
5189.616
 20
-6957.934
 30
864.000
 70
    32
  0
VERTEX
  8
M44LXLIFT
 62
3
 10
5188.682
 20
-6967.593
 30
864.000
 70
    32
  0
VERTEX
  8
M44LXLIFT
 62
3
 10
5180.340
 20
-6973.286
 30
864.000
 70
    32
  0
VERTEX
  8
M44LXLIFT
 62
3
 10
5182.004
 20
-6980.096
 30
864.000
 70
    32
  0
VERTEX
  8
M44LXLIFT
 62
3
 10
5189.320
 20
-6992.788
 30
864.000
 70
    32
  0
VERTEX
  8
M44LXLIFT
 62
3
 10
5190.660
 20
-7006.651
 30
864.000
 70
    32
  0
VERTEX
  8
M44LXLIFT
 62
3
 10
5196.573
 20
-7018.298
 30
864.000
 70
    32
  0
SEQEND
  8
M44LXLIFT
  0
POLYLINE
  8
M44LXLIFT
 62
13
 66
     1
 70
     9
  0
VERTEX
  8
M44LXLIFT
 62
13
 10
5254.859
 20
-6902.303
 30
860.000
 70
    32
  0
VERTEX
  8
M44LXLIFT
 62
13
 10
5256.936
 20
-6910.952
 30
860.000
 70
    32
  0
VERTEX
  8
M44LXLIFT
 62
13
 10
5252.736
 20
-6921.770
 30
860.000
 70
    32
  0
VERTEX
  8
M44LXLIFT
 62
13
 10
5244.235
 20
-6930.209
 30
860.000
 70
    32
  0
VERTEX
  8
M44LXLIFT
 62
13
 10
5234.812
 20
-6932.425
 30
860.000
 70
    32
  0
VERTEX
  8
M44LXLIFT
 62
13
 10
5226.729
 20
-6932.325
 30
860.000
 70
    32
  0
VERTEX
  8
M44LXLIFT
 62
13
 10
5218.005
 20
-6937.090
 30
860.000
 70
    32
  0
VERTEX
  8
M44LXLIFT
 62
13
 10
5212.784
 20
-6938.031
 30
860.000
 70
    32
  0
VERTEX
  8
M44LXLIFT
 62
13
 10
5208.852
 20
-6935.265
 30
860.000
 70
    32
  0
VERTEX
  8
M44LXLIFT
 62
13
 10
5207.788
 20
-6930.466
 30
860.000
 70
    32
  0
VERTEX
  8
M44LXLIFT
 62
13
 10
5217.641
 20
-6923.102
 30
860.000
 70
    32
  0
VERTEX
  8
M44LXLIFT
 62
13
 10
5233.333
 20
-6912.249
 30
860.000
 70
    32
  0
VERTEX
  8
M44LXLIFT
 62
13
 10
5246.052
 20
-6904.169
 30
860.000
 70
    32
  0
SEQEND
  8
M44LXLIFT
  0
POLYLINE
  8
M44LXLIFT
 62
13
 66
     1
 70
     9
  0
VERTEX
  8
M44LXLIFT
 62
13
 10
5169.688
 20
-6970.189
 30
881.000
 70
    32
  0
VERTEX
  8
M44LXLIFT
 62
13
 10
5179.358
 20
-6968.228
 30
881.000
 70
    32
  0
VERTEX
  8
M44LXLIFT
 62
13
 10
5199.076
 20
-6952.925
 30
881.000
 70
    32
  0
VERTEX
  8
M44LXLIFT
 62
13
 10
5240.306
 20
-6923.726
 30
881.000
 70
    32
  0
VERTEX
  8
M44LXLIFT
 62
13
 10
5239.125
 20
-6913.485
 30
881.000
 70
    32
  0
VERTEX
  8
M44LXLIFT
 62
13
 10
5222.544
 20
-6890.238
 30
881.000
 70
    32
  0
VERTEX
  8
M44LXLIFT
 62
13
 10
5201.640
 20
-6906.301
 30
881.000
 70
    32
  0
VERTEX
  8
M44LXLIFT
 62
13
 10
5187.158
 20
-6912.546
 30
881.000
 70
    32
  0
VERTEX
  8
M44LXLIFT
 62
13
 10
5172.811
 20
-6937.419
 30
881.000
 70
    32
  0
VERTEX
  8
M44LXLIFT
 62
13
 10
5162.074
 20
-6960.085
 30
881.000
 70
    32
  0
SEQEND
  8
M44LXLIFT
  0
POLYLINE
  8
M44LXLIFT
 62
13
 66
     1
 70
     9
  0
VERTEX
  8
M44LXLIFT
 62
13
 10
5231.829
 20
-6927.844
 30
892.000
 70
    32
  0
VERTEX
  8
M44LXLIFT
 62
13
 10
5209.311
 20
-6943.633
 30
892.000
 70
    32
  0
VERTEX
  8
M44LXLIFT
 62
13
 10
5184.141
 20
-6960.250
 30
892.000
 70
    32
  0
VERTEX
  8
M44LXLIFT
 62
13
 10
5168.168
 20
-6972.949
 30
892.000
 70
    32
  0
VERTEX
  8
M44LXLIFT
 62
13
 10
5166.520
 20
-6977.276
 30
892.000
 70
    32
  0
VERTEX
  8
M44LXLIFT
 62
13
 10
5162.873
 20
-6979.578
 30
892.000
 70
    32
  0
VERTEX
  8
M44LXLIFT
 62
13
 10
5156.484
 20
-6965.448
 30
892.000
 70
    32
  0
VERTEX
  8
M44LXLIFT
 62
13
 10
5152.407
 20
-6962.646
 30
892.000
 70
    32
  0
VERTEX
  8
M44LXLIFT
 62
13
 10
5148.603
 20
-6953.908
 30
892.000
 70
    32
  0
VERTEX
  8
M44LXLIFT
 62
13
 10
5168.922
 20
-6937.321
 30
892.000
 70
    32
  0
VERTEX
  8
M44LXLIFT
 62
13
 10
5195.156
 20
-6918.422
 30
892.000
 70
    32
  0
VERTEX
  8
M44LXLIFT
 62
13
 10
5205.424
 20
-6911.783
 30
892.000
 70
    32
  0
VERTEX
  8
M44LXLIFT
 62
13
 10
5220.544
 20
-6907.820
 30
892.000
 70
    32
  0
VERTEX
  8
M44LXLIFT
 62
13
 10
5228.153
 20
-6915.225
 30
892.000
 70
    32
  0
SEQEND
  8
M44LXLIFT
  0
POLYLINE
  8
M44LXLIFT
 62
3
 66
     1
 70
     9
  0
VERTEX
  8
M44LXLIFT
 62
3
 10
5118.757
 20
-6975.597
 30
952.000
 70
    32
  0
VERTEX
  8
M44LXLIFT
 62
3
 10
5135.682
 20
-6988.169
 30
952.000
 70
    32
  0
VERTEX
  8
M44LXLIFT
 62
3
 10
5138.988
 20
-6995.296
 30
952.000
 70
    32
  0
VERTEX
  8
M44LXLIFT
 62
3
 10
5139.448
 20
-7003.571
 30
952.000
 70
    32
  0
VERTEX
  8
M44LXLIFT
 62
3
 10
5144.982
 20
-7012.029
 30
952.000
 70
    32
  0
VERTEX
  8
M44LXLIFT
 62
3
 10
5156.429
 20
-7022.015
 30
952.000
 70
    32
  0
VERTEX
  8
M44LXLIFT
 62
3
 10
5168.532
 20
-7036.589
 30
952.000
 70
    32
  0
VERTEX
  8
M44LXLIFT
 62
3
 10
5185.577
 20
-7054.666
 30
952.000
 70
    32
  0
VERTEX
  8
M44LXLIFT
 62
3
 10
5177.419
 20
-7066.114
 30
952.000
 70
    32
  0
VERTEX
  8
M44LXLIFT
 62
3
 10
5171.528
 20
-7071.021
 30
952.000
 70
    32
  0
VERTEX
  8
M44LXLIFT
 62
3
 10
5159.288
 20
-7075.459
 30
952.000
 70
    32
  0
VERTEX
  8
M44LXLIFT
 62
3
 10
5144.979
 20
-7079.099
 30
952.000
 70
    32
  0
VERTEX
  8
M44LXLIFT
 62
3
 10
5139.925
 20
-7074.064
 30
952.000
 70
    32
  0
VERTEX
  8
M44LXLIFT
 62
3
 10
5139.595
 20
-7059.572
 30
952.000
 70
    32
  0
VERTEX
  8
M44LXLIFT
 62
3
 10
5139.915
 20
-7045.696
 30
952.000
 70
    32
  0
VERTEX
  8
M44LXLIFT
 62
3
 10
5135.978
 20
-7034.930
 30
952.000
 70
    32
  0
VERTEX
  8
M44LXLIFT
 62
3
 10
5125.438
 20
-7016.780
 30
952.000
 70
    32
  0
VERTEX
  8
M44LXLIFT
 62
3
 10
5120.062
 20
-7005.954
 30
952.000
 70
    32
  0
VERTEX
  8
M44LXLIFT
 62
3
 10
5117.024
 20
-6995.090
 30
952.000
 70
    32
  0
VERTEX
  8
M44LXLIFT
 62
3
 10
5109.715
 20
-6983.047
 30
952.000
 70
    32
  0
SEQEND
  8
M44LXLIFT
  0
POLYLINE
  8
M44LXLIFT
 62
3
 66
     1
 70
     9
  0
VERTEX
  8
M44LXLIFT
 62
3
 10
5219.020
 20
-6968.393
 30
900.000
 70
    32
  0
VERTEX
  8
M44LXLIFT
 62
3
 10
5208.848
 20
-6977.248
 30
900.000
 70
    32
  0
VERTEX
  8
M44LXLIFT
 62
3
 10
5200.424
 20
-6984.626
 30
900.000
 70
    32
  0
VERTEX
  8
M44LXLIFT
 62
3
 10
5194.560
 20
-6987.450
 30
900.000
 70
    32
  0
VERTEX
  8
M44LXLIFT
 62
3
 10
5193.613
 20
-7000.690
 30
900.000
 70
    32
  0
VERTEX
  8
M44LXLIFT
 62
3
 10
5190.231
 20
-7014.605
 30
900.000
 70
    32
  0
VERTEX
  8
M44LXLIFT
 62
3
 10
5184.722
 20
-7029.622
 30
900.000
 70
    32
  0
VERTEX
  8
M44LXLIFT
 62
3
 10
5170.505
 20
-7039.772
 30
900.000
 70
    32
  0
VERTEX
  8
M44LXLIFT
 62
3
 10
5163.606
 20
-7048.214
 30
900.000
 70
    32
  0
VERTEX
  8
M44LXLIFT
 62
3
 10
5173.076
 20
-7063.138
 30
900.000
 70
    32
  0
VERTEX
  8
M44LXLIFT
 62
3
 10
5180.341
 20
-7067.206
 30
900.000
 70
    32
  0
VERTEX
  8
M44LXLIFT
 62
3
 10
5184.386
 20
-7065.911
 30
900.000
 70
    32
  0
VERTEX
  8
M44LXLIFT
 62
3
 10
5185.729
 20
-7058.771
 30
900.000
 70
    32
  0
VERTEX
  8
M44LXLIFT
 62
3
 10
5195.202
 20
-7048.797
 30
900.000
 70
    32
  0
VERTEX
  8
M44LXLIFT
 62
3
 10
5204.896
 20
-7040.178
 30
900.000
 70
    32
  0
VERTEX
  8
M44LXLIFT
 62
3
 10
5215.759
 20
-7032.881
 30
900.000
 70
    32
  0
VERTEX
  8
M44LXLIFT
 62
3
 10
5221.280
 20
-7028.680
 30
900.000
 70
    32
  0
VERTEX
  8
M44LXLIFT
 62
3
 10
5235.536
 20
-7028.785
 30
900.000
 70
    32
  0
VERTEX
  8
M44LXLIFT
 62
3
 10
5241.323
 20
-7022.553
 30
900.000
 70
    32
  0
VERTEX
  8
M44LXLIFT
 62
3
 10
5243.415
 20
-7010.002
 30
900.000
 70
    32
  0
VERTEX
  8
M44LXLIFT
 62
3
 10
5242.545
 20
-7000.995
 30
900.000
 70
    32
  0
VERTEX
  8
M44LXLIFT
 62
3
 10
5231.119
 20
-6984.560
 30
900.000
 70
    32
  0
SEQEND
  8
M44LXLIFT
  0
POLYLINE
  8
M44LXLIFT
 62
7
 66
     1
 70
     9
  0
VERTEX
  8
M44LXLIFT
 62
7
 10
5225.574
 20
-7114.413
 30
882.000
 70
    32
  0
VERTEX
  8
M44LXLIFT
 62
7
 10
5216.402
 20
-7099.521
 30
882.000
 70
    32
  0
VERTEX
  8
M44LXLIFT
 62
7
 10
5208.158
 20
-7079.755
 30
882.000
 70
    32
  0
VERTEX
  8
M44LXLIFT
 62
7
 10
5204.967
 20
-7068.988
 30
882.000
 70
    32
  0
VERTEX
  8
M44LXLIFT
 62
7
 10
5199.630
 20
-7060.947
 30
882.000
 70
    32
  0
VERTEX
  8
M44LXLIFT
 62
7
 10
5189.211
 20
-7054.394
 30
882.000
 70
    32
  0
VERTEX
  8
M44LXLIFT
 62
7
 10
5174.597
 20
-7070.272
 30
882.000
 70
    32
  0
VERTEX
  8
M44LXLIFT
 62
7
 10
5177.412
 20
-7081.416
 30
882.000
 70
    32
  0
VERTEX
  8
M44LXLIFT
 62
7
 10
5198.755
 20
-7102.145
 30
882.000
 70
    32
  0
VERTEX
  8
M44LXLIFT
 62
7
 10
5210.614
 20
-7120.181
 30
882.000
 70
    32
  0
VERTEX
  8
M44LXLIFT
 62
7
 10
5215.967
 20
-7121.628
 30
882.000
 70
    32
  0
SEQEND
  8
M44LXLIFT
  0
POLYLINE
  8
M44LXLIFT
 62
3
 66
     1
 70
     9
  0
VERTEX
  8
M44LXLIFT
 62
3
 10
5259.349
 20
-6927.545
 30
852.000
 70
    32
  0
VERTEX
  8
M44LXLIFT
 62
3
 10
5266.384
 20
-6932.642
 30
852.000
 70
    32
  0
VERTEX
  8
M44LXLIFT
 62
3
 10
5278.168
 20
-6932.472
 30
852.000
 70
    32
  0
VERTEX
  8
M44LXLIFT
 62
3
 10
5292.578
 20
-6930.839
 30
852.000
 70
    32
  0
VERTEX
  8
M44LXLIFT
 62
3
 10
5307.139
 20
-6924.767
 30
852.000
 70
    32
  0
VERTEX
  8
M44LXLIFT
 62
3
 10
5320.785
 20
-6923.577
 30
852.000
 70
    32
  0
VERTEX
  8
M44LXLIFT
 62
3
 10
5330.122
 20
-6923.765
 30
852.000
 70
    32
  0
VERTEX
  8
M44LXLIFT
 62
3
 10
5337.908
 20
-6928.104
 30
852.000
 70
    32
  0
VERTEX
  8
M44LXLIFT
 62
3
 10
5347.074
 20
-6947.251
 30
852.000
 70
    32
  0
VERTEX
  8
M44LXLIFT
 62
3
 10
5344.565
 20
-6957.722
 30
852.000
 70
    32
  0
VERTEX
  8
M44LXLIFT
 62
3
 10
5338.044
 20
-6967.734
 30
852.000
 70
    32
  0
VERTEX
  8
M44LXLIFT
 62
3
 10
5329.202
 20
-6976.930
 30
852.000
 70
    32
  0
VERTEX
  8
M44LXLIFT
 62
3
 10
5315.204
 20
-6977.183
 30
852.000
 70
    32
  0
VERTEX
  8
M44LXLIFT
 62
3
 10
5297.506
 20
-6978.159
 30
852.000
 70
    32
  0
VERTEX
  8
M44LXLIFT
 62
3
 10
5273.707
 20
-6983.429
 30
852.000
 70
    32
  0
VERTEX
  8
M44LXLIFT
 62
3
 10
5256.822
 20
-6987.931
 30
852.000
 70
    32
  0
VERTEX
  8
M44LXLIFT
 62
3
 10
5250.885
 20
-7000.552
 30
852.000
 70
    32
  0
VERTEX
  8
M44LXLIFT
 62
3
 10
5240.340
 20
-7009.787
 30
852.000
 70
    32
  0
VERTEX
  8
M44LXLIFT
 62
3
 10
5237.365
 20
-7016.914
 30
852.000
 70
    32
  0
VERTEX
  8
M44LXLIFT
 62
3
 10
5227.826
 20
-7019.145
 30
852.000
 70
    32
  0
VERTEX
  8
M44LXLIFT
 62
3
 10
5219.629
 20
-7012.288
 30
852.000
 70
    32
  0
VERTEX
  8
M44LXLIFT
 62
3
 10
5210.494
 20
-7009.680
 30
852.000
 70
    32
  0
VERTEX
  8
M44LXLIFT
 62
3
 10
5200.611
 20
-7012.484
 30
852.000
 70
    32
  0
VERTEX
  8
M44LXLIFT
 62
3
 10
5194.761
 20
-7009.778
 30
852.000
 70
    32
  0
VERTEX
  8
M44LXLIFT
 62
3
 10
5194.422
 20
-6990.863
 30
852.000
 70
    32
  0
VERTEX
  8
M44LXLIFT
 62
3
 10
5190.645
 20
-6969.883
 30
852.000
 70
    32
  0
VERTEX
  8
M44LXLIFT
 62
3
 10
5198.922
 20
-6957.955
 30
852.000
 70
    32
  0
VERTEX
  8
M44LXLIFT
 62
3
 10
5220.782
 20
-6946.398
 30
852.000
 70
    32
  0
VERTEX
  8
M44LXLIFT
 62
3
 10
5241.748
 20
-6935.703
 30
852.000
 70
    32
  0
SEQEND
  8
M44LXLIFT
  0
POLYLINE
  8
M44LXLIFT
 62
3
 66
     1
 70
     9
  0
VERTEX
  8
M44LXLIFT
 62
3
 10
5217.103
 20
-7022.180
 30
838.000
 70
    32
  0
VERTEX
  8
M44LXLIFT
 62
3
 10
5209.131
 20
-7007.780
 30
838.000
 70
    32
  0
VERTEX
  8
M44LXLIFT
 62
3
 10
5208.160
 20
-6984.491
 30
838.000
 70
    32
  0
VERTEX
  8
M44LXLIFT
 62
3
 10
5208.465
 20
-6974.606
 30
838.000
 70
    32
  0
VERTEX
  8
M44LXLIFT
 62
3
 10
5226.539
 20
-6965.266
 30
838.000
 70
    32
  0
VERTEX
  8
M44LXLIFT
 62
3
 10
5248.500
 20
-6950.819
 30
838.000
 70
    32
  0
VERTEX
  8
M44LXLIFT
 62
3
 10
5269.208
 20
-6942.713
 30
838.000
 70
    32
  0
VERTEX
  8
M44LXLIFT
 62
3
 10
5293.543
 20
-6942.284
 30
838.000
 70
    32
  0
VERTEX
  8
M44LXLIFT
 62
3
 10
5311.280
 20
-6939.052
 30
838.000
 70
    32
  0
VERTEX
  8
M44LXLIFT
 62
3
 10
5319.630
 20
-6932.764
 30
838.000
 70
    32
  0
VERTEX
  8
M44LXLIFT
 62
3
 10
5339.607
 20
-6930.075
 30
838.000
 70
    32
  0
VERTEX
  8
M44LXLIFT
 62
3
 10
5348.885
 20
-6929.844
 30
838.000
 70
    32
  0
VERTEX
  8
M44LXLIFT
 62
3
 10
5354.024
 20
-6935.120
 30
838.000
 70
    32
  0
VERTEX
  8
M44LXLIFT
 62
3
 10
5354.346
 20
-6941.835
 30
838.000
 70
    32
  0
VERTEX
  8
M44LXLIFT
 62
3
 10
5345.763
 20
-6951.983
 30
838.000
 70
    32
  0
VERTEX
  8
M44LXLIFT
 62
3
 10
5339.376
 20
-6964.554
 30
838.000
 70
    32
  0
VERTEX
  8
M44LXLIFT
 62
3
 10
5328.604
 20
-6976.620
 30
838.000
 70
    32
  0
VERTEX
  8
M44LXLIFT
 62
3
 10
5310.757
 20
-6981.343
 30
838.000
 70
    32
  0
VERTEX
  8
M44LXLIFT
 62
3
 10
5296.320
 20
-6982.393
 30
838.000
 70
    32
  0
VERTEX
  8
M44LXLIFT
 62
3
 10
5276.336
 20
-6987.911
 30
838.000
 70
    32
  0
VERTEX
  8
M44LXLIFT
 62
3
 10
5256.428
 20
-6996.521
 30
838.000
 70
    32
  0
VERTEX
  8
M44LXLIFT
 62
3
 10
5243.501
 20
-7004.725
 30
838.000
 70
    32
  0
SEQEND
  8
M44LXLIFT
  0
POLYLINE
  8
M44LXLIFT
 62
3
 66
     1
 70
     9
  0
VERTEX
  8
M44LXLIFT
 62
3
 10
5245.285
 20
-7017.505
 30
896.000
 70
    32
  0
VERTEX
  8
M44LXLIFT
 62
3
 10
5248.980
 20
-7009.698
 30
896.000
 70
    32
  0
VERTEX
  8
M44LXLIFT
 62
3
 10
5248.594
 20
-6993.214
 30
896.000
 70
    32
  0
VERTEX
  8
M44LXLIFT
 62
3
 10
5242.824
 20
-6972.318
 30
896.000
 70
    32
  0
VERTEX
  8
M44LXLIFT
 62
3
 10
5236.800
 20
-6959.286
 30
896.000
 70
    32
  0
VERTEX
  8
M44LXLIFT
 62
3
 10
5223.923
 20
-6951.601
 30
896.000
 70
    32
  0
VERTEX
  8
M44LXLIFT
 62
3
 10
5215.464
 20
-6949.818
 30
896.000
 70
    32
  0
VERTEX
  8
M44LXLIFT
 62
3
 10
5200.674
 20
-6958.474
 30
896.000
 70
    32
  0
VERTEX
  8
M44LXLIFT
 62
3
 10
5197.189
 20
-6967.002
 30
896.000
 70
    32
  0
VERTEX
  8
M44LXLIFT
 62
3
 10
5194.136
 20
-6981.674
 30
896.000
 70
    32
  0
VERTEX
  8
M44LXLIFT
 62
3
 10
5192.067
 20
-6995.171
 30
896.000
 70
    32
  0
VERTEX
  8
M44LXLIFT
 62
3
 10
5195.567
 20
-7005.268
 30
896.000
 70
    32
  0
VERTEX
  8
M44LXLIFT
 62
3
 10
5191.695
 20
-7014.744
 30
896.000
 70
    32
  0
VERTEX
  8
M44LXLIFT
 62
3
 10
5185.800
 20
-7027.815
 30
896.000
 70
    32
  0
VERTEX
  8
M44LXLIFT
 62
3
 10
5179.121
 20
-7035.444
 30
896.000
 70
    32
  0
VERTEX
  8
M44LXLIFT
 62
3
 10
5165.347
 20
-7045.751
 30
896.000
 70
    32
  0
VERTEX
  8
M44LXLIFT
 62
3
 10
5156.736
 20
-7054.168
 30
896.000
 70
    32
  0
VERTEX
  8
M44LXLIFT
 62
3
 10
5156.585
 20
-7064.367
 30
896.000
 70
    32
  0
VERTEX
  8
M44LXLIFT
 62
3
 10
5160.082
 20
-7077.097
 30
896.000
 70
    32
  0
VERTEX
  8
M44LXLIFT
 62
3
 10
5166.020
 20
-7088.549
 30
896.000
 70
    32
  0
VERTEX
  8
M44LXLIFT
 62
3
 10
5170.809
 20
-7091.872
 30
896.000
 70
    32
  0
VERTEX
  8
M44LXLIFT
 62
3
 10
5176.557
 20
-7085.050
 30
896.000
 70
    32
  0
VERTEX
  8
M44LXLIFT
 62
3
 10
5180.450
 20
-7072.380
 30
896.000
 70
    32
  0
VERTEX
  8
M44LXLIFT
 62
3
 10
5187.540
 20
-7057.975
 30
896.000
 70
    32
  0
VERTEX
  8
M44LXLIFT
 62
3
 10
5197.592
 20
-7048.261
 30
896.000
 70
    32
  0
VERTEX
  8
M44LXLIFT
 62
3
 10
5223.275
 20
-7030.577
 30
896.000
 70
    32
  0
SEQEND
  8
M44LXLIFT
  0
POLYLINE
  8
M44LXLIFT
 62
7
 66
     1
 70
     9
  0
VERTEX
  8
M44LXLIFT
 62
7
 10
5211.579
 20
-7046.392
 30
841.000
 70
    32
  0
VERTEX
  8
M44LXLIFT
 62
7
 10
5199.574
 20
-7055.119
 30
841.000
 70
    32
  0
VERTEX
  8
M44LXLIFT
 62
7
 10
5207.003
 20
-7072.954
 30
841.000
 70
    32
  0
VERTEX
  8
M44LXLIFT
 62
7
 10
5218.500
 20
-7090.111
 30
841.000
 70
    32
  0
VERTEX
  8
M44LXLIFT
 62
7
 10
5225.303
 20
-7105.143
 30
841.000
 70
    32
  0
VERTEX
  8
M44LXLIFT
 62
7
 10
5234.934
 20
-7121.377
 30
841.000
 70
    32
  0
VERTEX
  8
M44LXLIFT
 62
7
 10
5231.221
 20
-7125.380
 30
841.000
 70
    32
  0
VERTEX
  8
M44LXLIFT
 62
7
 10
5220.863
 20
-7132.041
 30
841.000
 70
    32
  0
VERTEX
  8
M44LXLIFT
 62
7
 10
5205.995
 20
-7118.312
 30
841.000
 70
    32
  0
VERTEX
  8
M44LXLIFT
 62
7
 10
5190.604
 20
-7106.701
 30
841.000
 70
    32
  0
VERTEX
  8
M44LXLIFT
 62
7
 10
5172.486
 20
-7071.774
 30
841.000
 70
    32
  0
VERTEX
  8
M44LXLIFT
 62
7
 10
5160.667
 20
-7051.485
 30
841.000
 70
    32
  0
VERTEX
  8
M44LXLIFT
 62
7
 10
5175.119
 20
-7041.195
 30
841.000
 70
    32
  0
VERTEX
  8
M44LXLIFT
 62
7
 10
5182.724
 20
-7044.786
 30
841.000
 70
    32
  0
VERTEX
  8
M44LXLIFT
 62
7
 10
5194.017
 20
-7042.547
 30
841.000
 70
    32
  0
VERTEX
  8
M44LXLIFT
 62
7
 10
5204.336
 20
-7034.937
 30
841.000
 70
    32
  0
SEQEND
  8
M44LXLIFT
  0
POLYLINE
  8
M44LXLIFT
 62
7
 66
     1
 70
     9
  0
VERTEX
  8
M44LXLIFT
 62
7
 10
5204.590
 20
-7111.345
 30
854.000
 70
    32
  0
VERTEX
  8
M44LXLIFT
 62
7
 10
5216.707
 20
-7114.187
 30
854.000
 70
    32
  0
VERTEX
  8
M44LXLIFT
 62
7
 10
5219.923
 20
-7118.795
 30
854.000
 70
    32
  0
VERTEX
  8
M44LXLIFT
 62
7
 10
5224.710
 20
-7114.476
 30
854.000
 70
    32
  0
VERTEX
  8
M44LXLIFT
 62
7
 10
5219.266
 20
-7100.326
 30
854.000
 70
    32
  0
VERTEX
  8
M44LXLIFT
 62
7
 10
5212.211
 20
-7095.348
 30
854.000
 70
    32
  0
VERTEX
  8
M44LXLIFT
 62
7
 10
5207.030
 20
-7083.065
 30
854.000
 70
    32
  0
VERTEX
  8
M44LXLIFT
 62
7
 10
5201.507
 20
-7067.456
 30
854.000
 70
    32
  0
VERTEX
  8
M44LXLIFT
 62
7
 10
5195.152
 20
-7055.045
 30
854.000
 70
    32
  0
VERTEX
  8
M44LXLIFT
 62
7
 10
5196.392
 20
-7051.661
 30
854.000
 70
    32
  0
VERTEX
  8
M44LXLIFT
 62
7
 10
5200.399
 20
-7048.662
 30
854.000
 70
    32
  0
VERTEX
  8
M44LXLIFT
 62
7
 10
5199.928
 20
-7041.857
 30
854.000
 70
    32
  0
VERTEX
  8
M44LXLIFT
 62
7
 10
5194.774
 20
-7046.117
 30
854.000
 70
    32
  0
VERTEX
  8
M44LXLIFT
 62
7
 10
5183.688
 20
-7052.057
 30
854.000
 70
    32
  0
VERTEX
  8
M44LXLIFT
 62
7
 10
5180.099
 20
-7057.136
 30
854.000
 70
    32
  0
VERTEX
  8
M44LXLIFT
 62
7
 10
5173.339
 20
-7062.770
 30
854.000
 70
    32
  0
VERTEX
  8
M44LXLIFT
 62
7
 10
5183.328
 20
-7079.920
 30
854.000
 70
    32
  0
VERTEX
  8
M44LXLIFT
 62
7
 10
5197.286
 20
-7100.919
 30
854.000
 70
    32
  0
SEQEND
  8
M44LXLIFT
  0
POLYLINE
  8
M44LXLIFT
 62
7
 66
     1
 70
     9
  0
VERTEX
  8
M44LXLIFT
 62
7
 10
5180.332
 20
-7059.741
 30
863.000
 70
    32
  0
VERTEX
  8
M44LXLIFT
 62
7
 10
5179.920
 20
-7055.396
 30
863.000
 70
    32
  0
VERTEX
  8
M44LXLIFT
 62
7
 10
5188.684
 20
-7048.044
 30
863.000
 70
    32
  0
VERTEX
  8
M44LXLIFT
 62
7
 10
5199.624
 20
-7054.887
 30
863.000
 70
    32
  0
VERTEX
  8
M44LXLIFT
 62
7
 10
5200.621
 20
-7062.158
 30
863.000
 70
    32
  0
VERTEX
  8
M44LXLIFT
 62
7
 10
5208.976
 20
-7084.231
 30
863.000
 70
    32
  0
VERTEX
  8
M44LXLIFT
 62
7
 10
5214.977
 20
-7098.494
 30
863.000
 70
    32
  0
VERTEX
  8
M44LXLIFT
 62
7
 10
5220.122
 20
-7113.370
 30
863.000
 70
    32
  0
VERTEX
  8
M44LXLIFT
 62
7
 10
5214.534
 20
-7114.456
 30
863.000
 70
    32
  0
VERTEX
  8
M44LXLIFT
 62
7
 10
5203.081
 20
-7104.636
 30
863.000
 70
    32
  0
VERTEX
  8
M44LXLIFT
 62
7
 10
5189.503
 20
-7091.696
 30
863.000
 70
    32
  0
VERTEX
  8
M44LXLIFT
 62
7
 10
5178.971
 20
-7075.173
 30
863.000
 70
    32
  0
SEQEND
  8
M44LXLIFT
  0
POLYLINE
  8
M44LXLIFT
 62
7
 66
     1
 70
     9
  0
VERTEX
  8
M44LXLIFT
 62
7
 10
5227.603
 20
-7110.018
 30
848.000
 70
    32
  0
VERTEX
  8
M44LXLIFT
 62
7
 10
5216.663
 20
-7115.857
 30
848.000
 70
    32
  0
VERTEX
  8
M44LXLIFT
 62
7
 10
5208.583
 20
-7116.061
 30
848.000
 70
    32
  0
VERTEX
  8
M44LXLIFT
 62
7
 10
5197.191
 20
-7100.577
 30
848.000
 70
    32
  0
VERTEX
  8
M44LXLIFT
 62
7
 10
5184.364
 20
-7081.907
 30
848.000
 70
    32
  0
VERTEX
  8
M44LXLIFT
 62
7
 10
5181.936
 20
-7057.247
 30
848.000
 70
    32
  0
VERTEX
  8
M44LXLIFT
 62
7
 10
5189.583
 20
-7049.996
 30
848.000
 70
    32
  0
VERTEX
  8
M44LXLIFT
 62
7
 10
5195.276
 20
-7049.784
 30
848.000
 70
    32
  0
VERTEX
  8
M44LXLIFT
 62
7
 10
5201.712
 20
-7061.700
 30
848.000
 70
    32
  0
VERTEX
  8
M44LXLIFT
 62
7
 10
5210.109
 20
-7073.933
 30
848.000
 70
    32
  0
VERTEX
  8
M44LXLIFT
 62
7
 10
5217.417
 20
-7090.957
 30
848.000
 70
    32
  0
VERTEX
  8
M44LXLIFT
 62
7
 10
5222.127
 20
-7100.331
 30
848.000
 70
    32
  0
SEQEND
  8
M44LXLIFT
  0
POLYLINE
  8
M44LXLIFT
 62
27
 66
     1
 70
     9
  0
VERTEX
  8
M44LXLIFT
 62
27
 10
5108.693
 20
-7054.920
 30
945.000
 70
    32
  0
VERTEX
  8
M44LXLIFT
 62
27
 10
5122.001
 20
-7066.173
 30
945.000
 70
    32
  0
VERTEX
  8
M44LXLIFT
 62
27
 10
5130.326
 20
-7080.725
 30
945.000
 70
    32
  0
VERTEX
  8
M44LXLIFT
 62
27
 10
5136.856
 20
-7089.986
 30
945.000
 70
    32
  0
VERTEX
  8
M44LXLIFT
 62
27
 10
5145.276
 20
-7092.325
 30
945.000
 70
    32
  0
VERTEX
  8
M44LXLIFT
 62
27
 10
5146.421
 20
-7098.826
 30
945.000
 70
    32
  0
VERTEX
  8
M44LXLIFT
 62
27
 10
5140.157
 20
-7106.252
 30
945.000
 70
    32
  0
VERTEX
  8
M44LXLIFT
 62
27
 10
5131.120
 20
-7111.119
 30
945.000
 70
    32
  0
VERTEX
  8
M44LXLIFT
 62
27
 10
5119.602
 20
-7107.740
 30
945.000
 70
    32
  0
VERTEX
  8
M44LXLIFT
 62
27
 10
5111.667
 20
-7104.413
 30
945.000
 70
    32
  0
VERTEX
  8
M44LXLIFT
 62
27
 10
5110.961
 20
-7091.369
 30
945.000
 70
    32
  0
VERTEX
  8
M44LXLIFT
 62
27
 10
5105.504
 20
-7073.721
 30
945.000
 70
    32
  0
VERTEX
  8
M44LXLIFT
 62
27
 10
5099.258
 20
-7061.357
 30
945.000
 70
    32
  0
SEQEND
  8
M44LXLIFT
  0
POLYLINE
  8
M44LXLIFT
 62
27
 66
     1
 70
     9
  0
VERTEX
  8
M44LXLIFT
 62
27
 10
5153.950
 20
-7112.662
 30
935.000
 70
    32
  0
VERTEX
  8
M44LXLIFT
 62
27
 10
5148.801
 20
-7101.235
 30
935.000
 70
    32
  0
VERTEX
  8
M44LXLIFT
 62
27
 10
5140.030
 20
-7093.046
 30
935.000
 70
    32
  0
VERTEX
  8
M44LXLIFT
 62
27
 10
5124.916
 20
-7072.664
 30
935.000
 70
    32
  0
VERTEX
  8
M44LXLIFT
 62
27
 10
5107.988
 20
-7057.141
 30
935.000
 70
    32
  0
VERTEX
  8
M44LXLIFT
 62
27
 10
5099.552
 20
-7064.361
 30
935.000
 70
    32
  0
VERTEX
  8
M44LXLIFT
 62
27
 10
5103.354
 20
-7074.808
 30
935.000
 70
    32
  0
VERTEX
  8
M44LXLIFT
 62
27
 10
5120.595
 20
-7102.842
 30
935.000
 70
    32
  0
VERTEX
  8
M44LXLIFT
 62
27
 10
5131.242
 20
-7109.582
 30
935.000
 70
    32
  0
VERTEX
  8
M44LXLIFT
 62
27
 10
5143.309
 20
-7118.760
 30
935.000
 70
    32
  0
SEQEND
  8
M44LXLIFT
  0
POLYLINE
  8
M44LXLIFT
 62
27
 66
     1
 70
     9
  0
VERTEX
  8
M44LXLIFT
 62
27
 10
5107.558
 20
-7055.408
 30
926.000
 70
    32
  0
VERTEX
  8
M44LXLIFT
 62
27
 10
5122.027
 20
-7069.801
 30
926.000
 70
    32
  0
VERTEX
  8
M44LXLIFT
 62
27
 10
5125.480
 20
-7075.649
 30
926.000
 70
    32
  0
VERTEX
  8
M44LXLIFT
 62
27
 10
5139.384
 20
-7090.460
 30
926.000
 70
    32
  0
VERTEX
  8
M44LXLIFT
 62
27
 10
5151.989
 20
-7113.544
 30
926.000
 70
    32
  0
VERTEX
  8
M44LXLIFT
 62
27
 10
5147.604
 20
-7121.481
 30
926.000
 70
    32
  0
VERTEX
  8
M44LXLIFT
 62
27
 10
5142.347
 20
-7123.078
 30
926.000
 70
    32
  0
VERTEX
  8
M44LXLIFT
 62
27
 10
5132.350
 20
-7114.433
 30
926.000
 70
    32
  0
VERTEX
  8
M44LXLIFT
 62
27
 10
5121.367
 20
-7109.028
 30
926.000
 70
    32
  0
VERTEX
  8
M44LXLIFT
 62
27
 10
5112.044
 20
-7104.686
 30
926.000
 70
    32
  0
VERTEX
  8
M44LXLIFT
 62
27
 10
5106.244
 20
-7098.174
 30
926.000
 70
    32
  0
VERTEX
  8
M44LXLIFT
 62
27
 10
5110.032
 20
-7085.005
 30
926.000
 70
    32
  0
VERTEX
  8
M44LXLIFT
 62
27
 10
5106.920
 20
-7075.194
 30
926.000
 70
    32
  0
VERTEX
  8
M44LXLIFT
 62
27
 10
5101.383
 20
-7060.631
 30
926.000
 70
    32
  0
SEQEND
  8
M44LXLIFT
  0
POLYLINE
  8
M44LXLIFT
 62
27
 66
     1
 70
     9
  0
VERTEX
  8
M44LXLIFT
 62
27
 10
5117.997
 20
-7086.292
 30
908.000
 70
    32
  0
VERTEX
  8
M44LXLIFT
 62
27
 10
5129.771
 20
-7095.200
 30
908.000
 70
    32
  0
VERTEX
  8
M44LXLIFT
 62
27
 10
5137.541
 20
-7108.747
 30
908.000
 70
    32
  0
VERTEX
  8
M44LXLIFT
 62
27
 10
5144.966
 20
-7125.255
 30
908.000
 70
    32
  0
VERTEX
  8
M44LXLIFT
 62
27
 10
5144.800
 20
-7129.060
 30
908.000
 70
    32
  0
VERTEX
  8
M44LXLIFT
 62
27
 10
5143.471
 20
-7135.444
 30
908.000
 70
    32
  0
VERTEX
  8
M44LXLIFT
 62
27
 10
5146.046
 20
-7140.188
 30
908.000
 70
    32
  0
VERTEX
  8
M44LXLIFT
 62
27
 10
5143.720
 20
-7142.959
 30
908.000
 70
    32
  0
VERTEX
  8
M44LXLIFT
 62
27
 10
5132.408
 20
-7130.355
 30
908.000
 70
    32
  0
VERTEX
  8
M44LXLIFT
 62
27
 10
5128.518
 20
-7120.063
 30
908.000
 70
    32
  0
VERTEX
  8
M44LXLIFT
 62
27
 10
5121.381
 20
-7110.825
 30
908.000
 70
    32
  0
VERTEX
  8
M44LXLIFT
 62
27
 10
5116.906
 20
-7109.737
 30
908.000
 70
    32
  0
VERTEX
  8
M44LXLIFT
 62
27
 10
5115.509
 20
-7096.009
 30
908.000
 70
    32
  0
VERTEX
  8
M44LXLIFT
 62
27
 10
5112.085
 20
-7089.497
 30
908.000
 70
    32
  0
SEQEND
  8
M44LXLIFT
  0
POLYLINE
  8
M44LXLIFT
 62
27
 66
     1
 70
     9
  0
VERTEX
  8
M44LXLIFT
 62
27
 10
5133.234
 20
-7127.806
 30
917.000
 70
    32
  0
VERTEX
  8
M44LXLIFT
 62
27
 10
5124.344
 20
-7118.796
 30
917.000
 70
    32
  0
VERTEX
  8
M44LXLIFT
 62
27
 10
5116.994
 20
-7106.127
 30
917.000
 70
    32
  0
VERTEX
  8
M44LXLIFT
 62
27
 10
5114.426
 20
-7098.859
 30
917.000
 70
    32
  0
VERTEX
  8
M44LXLIFT
 62
27
 10
5100.892
 20
-7080.083
 30
917.000
 70
    32
  0
VERTEX
  8
M44LXLIFT
 62
27
 10
5091.594
 20
-7063.182
 30
917.000
 70
    32
  0
VERTEX
  8
M44LXLIFT
 62
27
 10
5096.690
 20
-7060.046
 30
917.000
 70
    32
  0
VERTEX
  8
M44LXLIFT
 62
27
 10
5102.995
 20
-7066.609
 30
917.000
 70
    32
  0
VERTEX
  8
M44LXLIFT
 62
27
 10
5109.301
 20
-7068.036
 30
917.000
 70
    32
  0
VERTEX
  8
M44LXLIFT
 62
27
 10
5115.504
 20
-7073.582
 30
917.000
 70
    32
  0
VERTEX
  8
M44LXLIFT
 62
27
 10
5118.902
 20
-7083.728
 30
917.000
 70
    32
  0
VERTEX
  8
M44LXLIFT
 62
27
 10
5125.389
 20
-7097.586
 30
917.000
 70
    32
  0
VERTEX
  8
M44LXLIFT
 62
27
 10
5132.211
 20
-7106.167
 30
917.000
 70
    32
  0
VERTEX
  8
M44LXLIFT
 62
27
 10
5135.619
 20
-7118.382
 30
917.000
 70
    32
  0
VERTEX
  8
M44LXLIFT
 62
27
 10
5138.453
 20
-7124.687
 30
917.000
 70
    32
  0
SEQEND
  8
M44LXLIFT
  0
POLYLINE
  8
M44LXLIFT
 62
8
 66
     1
 70
     9
  0
VERTEX
  8
M44LXLIFT
 62
8
 10
5245.150
 20
-7269.900
 30
854.000
 70
    32
  0
VERTEX
  8
M44LXLIFT
 62
8
 10
5246.563
 20
-7262.710
 30
854.000
 70
    32
  0
VERTEX
  8
M44LXLIFT
 62
8
 10
5244.604
 20
-7256.547
 30
854.000
 70
    32
  0
VERTEX
  8
M44LXLIFT
 62
8
 10
5243.241
 20
-7253.309
 30
854.000
 70
    32
  0
VERTEX
  8
M44LXLIFT
 62
8
 10
5244.780
 20
-7236.394
 30
854.000
 70
    32
  0
VERTEX
  8
M44LXLIFT
 62
8
 10
5242.760
 20
-7222.048
 30
854.000
 70
    32
  0
VERTEX
  8
M44LXLIFT
 62
8
 10
5240.319
 20
-7200.969
 30
854.000
 70
    32
  0
VERTEX
  8
M44LXLIFT
 62
8
 10
5238.713
 20
-7189.896
 30
854.000
 70
    32
  0
VERTEX
  8
M44LXLIFT
 62
8
 10
5231.637
 20
-7176.494
 30
854.000
 70
    32
  0
VERTEX
  8
M44LXLIFT
 62
8
 10
5221.466
 20
-7174.850
 30
854.000
 70
    32
  0
VERTEX
  8
M44LXLIFT
 62
8
 10
5215.671
 20
-7172.971
 30
854.000
 70
    32
  0
VERTEX
  8
M44LXLIFT
 62
8
 10
5213.146
 20
-7167.974
 30
854.000
 70
    32
  0
VERTEX
  8
M44LXLIFT
 62
8
 10
5209.189
 20
-7155.892
 30
854.000
 70
    32
  0
VERTEX
  8
M44LXLIFT
 62
8
 10
5202.906
 20
-7160.535
 30
854.000
 70
    32
  0
VERTEX
  8
M44LXLIFT
 62
8
 10
5203.995
 20
-7170.141
 30
854.000
 70
    32
  0
VERTEX
  8
M44LXLIFT
 62
8
 10
5199.239
 20
-7184.399
 30
854.000
 70
    32
  0
VERTEX
  8
M44LXLIFT
 62
8
 10
5193.032
 20
-7200.245
 30
854.000
 70
    32
  0
VERTEX
  8
M44LXLIFT
 62
8
 10
5192.646
 20
-7208.858
 30
854.000
 70
    32
  0
VERTEX
  8
M44LXLIFT
 62
8
 10
5196.913
 20
-7217.469
 30
854.000
 70
    32
  0
VERTEX
  8
M44LXLIFT
 62
8
 10
5207.780
 20
-7231.925
 30
854.000
 70
    32
  0
VERTEX
  8
M44LXLIFT
 62
8
 10
5221.113
 20
-7249.796
 30
854.000
 70
    32
  0
VERTEX
  8
M44LXLIFT
 62
8
 10
5225.029
 20
-7267.970
 30
854.000
 70
    32
  0
SEQEND
  8
M44LXLIFT
  0
POLYLINE
  8
M44LXLIFT
 62
4
 66
     1
 70
     9
  0
VERTEX
  8
M44LXLIFT
 62
4
 10
5231.383
 20
-7136.891
 30
902.000
 70
    32
  0
VERTEX
  8
M44LXLIFT
 62
4
 10
5234.946
 20
-7143.629
 30
902.000
 70
    32
  0
VERTEX
  8
M44LXLIFT
 62
4
 10
5237.054
 20
-7151.201
 30
902.000
 70
    32
  0
VERTEX
  8
M44LXLIFT
 62
4
 10
5235.949
 20
-7156.870
 30
902.000
 70
    32
  0
VERTEX
  8
M44LXLIFT
 62
4
 10
5227.675
 20
-7163.706
 30
902.000
 70
    32
  0
VERTEX
  8
M44LXLIFT
 62
4
 10
5216.568
 20
-7169.015
 30
902.000
 70
    32
  0
VERTEX
  8
M44LXLIFT
 62
4
 10
5202.305
 20
-7174.002
 30
902.000
 70
    32
  0
VERTEX
  8
M44LXLIFT
 62
4
 10
5191.666
 20
-7174.860
 30
902.000
 70
    32
  0
VERTEX
  8
M44LXLIFT
 62
4
 10
5179.741
 20
-7169.284
 30
902.000
 70
    32
  0
VERTEX
  8
M44LXLIFT
 62
4
 10
5168.046
 20
-7152.176
 30
902.000
 70
    32
  0
VERTEX
  8
M44LXLIFT
 62
4
 10
5156.359
 20
-7134.630
 30
902.000
 70
    32
  0
VERTEX
  8
M44LXLIFT
 62
4
 10
5162.421
 20
-7130.580
 30
902.000
 70
    32
  0
VERTEX
  8
M44LXLIFT
 62
4
 10
5167.391
 20
-7130.566
 30
902.000
 70
    32
  0
VERTEX
  8
M44LXLIFT
 62
4
 10
5177.637
 20
-7143.416
 30
902.000
 70
    32
  0
VERTEX
  8
M44LXLIFT
 62
4
 10
5185.141
 20
-7150.665
 30
902.000
 70
    32
  0
VERTEX
  8
M44LXLIFT
 62
4
 10
5197.797
 20
-7149.002
 30
902.000
 70
    32
  0
VERTEX
  8
M44LXLIFT
 62
4
 10
5205.548
 20
-7143.842
 30
902.000
 70
    32
  0
VERTEX
  8
M44LXLIFT
 62
4
 10
5208.544
 20
-7136.593
 30
902.000
 70
    32
  0
VERTEX
  8
M44LXLIFT
 62
4
 10
5205.842
 20
-7130.749
 30
902.000
 70
    32
  0
VERTEX
  8
M44LXLIFT
 62
4
 10
5214.040
 20
-7125.158
 30
902.000
 70
    32
  0
VERTEX
  8
M44LXLIFT
 62
4
 10
5221.493
 20
-7132.337
 30
902.000
 70
    32
  0
SEQEND
  8
M44LXLIFT
  0
POLYLINE
  8
M44LXLIFT
 62
4
 66
     1
 70
     9
  0
VERTEX
  8
M44LXLIFT
 62
4
 10
5174.725
 20
-7139.150
 30
893.000
 70
    32
  0
VERTEX
  8
M44LXLIFT
 62
4
 10
5180.720
 20
-7147.162
 30
893.000
 70
    32
  0
VERTEX
  8
M44LXLIFT
 62
4
 10
5189.025
 20
-7144.783
 30
893.000
 70
    32
  0
VERTEX
  8
M44LXLIFT
 62
4
 10
5200.701
 20
-7143.392
 30
893.000
 70
    32
  0
VERTEX
  8
M44LXLIFT
 62
4
 10
5212.606
 20
-7139.964
 30
893.000
 70
    32
  0
VERTEX
  8
M44LXLIFT
 62
4
 10
5223.074
 20
-7134.762
 30
893.000
 70
    32
  0
VERTEX
  8
M44LXLIFT
 62
4
 10
5236.360
 20
-7137.427
 30
893.000
 70
    32
  0
VERTEX
  8
M44LXLIFT
 62
4
 10
5238.248
 20
-7144.784
 30
893.000
 70
    32
  0
VERTEX
  8
M44LXLIFT
 62
4
 10
5240.519
 20
-7154.705
 30
893.000
 70
    32
  0
VERTEX
  8
M44LXLIFT
 62
4
 10
5232.331
 20
-7161.928
 30
893.000
 70
    32
  0
VERTEX
  8
M44LXLIFT
 62
4
 10
5223.998
 20
-7172.768
 30
893.000
 70
    32
  0
VERTEX
  8
M44LXLIFT
 62
4
 10
5209.315
 20
-7180.247
 30
893.000
 70
    32
  0
VERTEX
  8
M44LXLIFT
 62
4
 10
5198.688
 20
-7185.678
 30
893.000
 70
    32
  0
VERTEX
  8
M44LXLIFT
 62
4
 10
5193.668
 20
-7185.269
 30
893.000
 70
    32
  0
VERTEX
  8
M44LXLIFT
 62
4
 10
5183.096
 20
-7173.338
 30
893.000
 70
    32
  0
VERTEX
  8
M44LXLIFT
 62
4
 10
5169.259
 20
-7160.999
 30
893.000
 70
    32
  0
VERTEX
  8
M44LXLIFT
 62
4
 10
5159.300
 20
-7150.035
 30
893.000
 70
    32
  0
SEQEND
  8
M44LXLIFT
  0
POLYLINE
  8
M44LXLIFT
 62
8
 66
     1
 70
     9
  0
VERTEX
  8
M44LXLIFT
 62
8
 10
5210.948
 20
-7160.966
 30
846.000
 70
    32
  0
VERTEX
  8
M44LXLIFT
 62
8
 10
5216.608
 20
-7173.680
 30
846.000
 70
    32
  0
VERTEX
  8
M44LXLIFT
 62
8
 10
5227.266
 20
-7188.190
 30
846.000
 70
    32
  0
VERTEX
  8
M44LXLIFT
 62
8
 10
5244.264
 20
-7202.759
 30
846.000
 70
    32
  0
VERTEX
  8
M44LXLIFT
 62
8
 10
5251.449
 20
-7209.804
 30
846.000
 70
    32
  0
VERTEX
  8
M44LXLIFT
 62
8
 10
5249.670
 20
-7231.401
 30
846.000
 70
    32
  0
VERTEX
  8
M44LXLIFT
 62
8
 10
5247.828
 20
-7244.250
 30
846.000
 70
    32
  0
VERTEX
  8
M44LXLIFT
 62
8
 10
5245.644
 20
-7254.090
 30
846.000
 70
    32
  0
VERTEX
  8
M44LXLIFT
 62
8
 10
5256.354
 20
-7267.476
 30
846.000
 70
    32
  0
VERTEX
  8
M44LXLIFT
 62
8
 10
5246.932
 20
-7278.561
 30
846.000
 70
    32
  0
VERTEX
  8
M44LXLIFT
 62
8
 10
5236.756
 20
-7276.512
 30
846.000
 70
    32
  0
VERTEX
  8
M44LXLIFT
 62
8
 10
5230.597
 20
-7277.299
 30
846.000
 70
    32
  0
VERTEX
  8
M44LXLIFT
 62
8
 10
5225.737
 20
-7265.089
 30
846.000
 70
    32
  0
VERTEX
  8
M44LXLIFT
 62
8
 10
5219.237
 20
-7252.116
 30
846.000
 70
    32
  0
VERTEX
  8
M44LXLIFT
 62
8
 10
5210.782
 20
-7227.644
 30
846.000
 70
    32
  0
VERTEX
  8
M44LXLIFT
 62
8
 10
5203.372
 20
-7215.659
 30
846.000
 70
    32
  0
VERTEX
  8
M44LXLIFT
 62
8
 10
5200.171
 20
-7204.088
 30
846.000
 70
    32
  0
VERTEX
  8
M44LXLIFT
 62
8
 10
5190.805
 20
-7186.576
 30
846.000
 70
    32
  0
VERTEX
  8
M44LXLIFT
 62
8
 10
5198.116
 20
-7175.724
 30
846.000
 70
    32
  0
VERTEX
  8
M44LXLIFT
 62
8
 10
5202.391
 20
-7171.747
 30
846.000
 70
    32
  0
VERTEX
  8
M44LXLIFT
 62
8
 10
5199.835
 20
-7166.439
 30
846.000
 70
    32
  0
SEQEND
  8
M44LXLIFT
  0
POLYLINE
  8
M44LXLIFT
 62
6
 66
     1
 70
     9
  0
VERTEX
  8
M44LXLIFT
 62
6
 10
5332.406
 20
-7013.860
 30
906.000
 70
    32
  0
VERTEX
  8
M44LXLIFT
 62
6
 10
5331.503
 20
-7019.935
 30
906.000
 70
    32
  0
VERTEX
  8
M44LXLIFT
 62
6
 10
5333.341
 20
-7025.755
 30
906.000
 70
    32
  0
VERTEX
  8
M44LXLIFT
 62
6
 10
5338.719
 20
-7033.017
 30
906.000
 70
    32
  0
VERTEX
  8
M44LXLIFT
 62
6
 10
5338.315
 20
-7036.345
 30
906.000
 70
    32
  0
VERTEX
  8
M44LXLIFT
 62
6
 10
5322.278
 20
-7072.802
 30
906.000
 70
    32
  0
VERTEX
  8
M44LXLIFT
 62
6
 10
5319.558
 20
-7082.796
 30
906.000
 70
    32
  0
VERTEX
  8
M44LXLIFT
 62
6
 10
5320.316
 20
-7091.460
 30
906.000
 70
    32
  0
VERTEX
  8
M44LXLIFT
 62
6
 10
5316.892
 20
-7101.531
 30
906.000
 70
    32
  0
VERTEX
  8
M44LXLIFT
 62
6
 10
5310.414
 20
-7120.538
 30
906.000
 70
    32
  0
VERTEX
  8
M44LXLIFT
 62
6
 10
5307.344
 20
-7138.266
 30
906.000
 70
    32
  0
VERTEX
  8
M44LXLIFT
 62
6
 10
5304.346
 20
-7148.028
 30
906.000
 70
    32
  0
VERTEX
  8
M44LXLIFT
 62
6
 10
5297.783
 20
-7151.381
 30
906.000
 70
    32
  0
VERTEX
  8
M44LXLIFT
 62
6
 10
5289.239
 20
-7149.017
 30
906.000
 70
    32
  0
VERTEX
  8
M44LXLIFT
 62
6
 10
5283.619
 20
-7139.329
 30
906.000
 70
    32
  0
VERTEX
  8
M44LXLIFT
 62
6
 10
5281.387
 20
-7122.957
 30
906.000
 70
    32
  0
VERTEX
  8
M44LXLIFT
 62
6
 10
5281.642
 20
-7107.922
 30
906.000
 70
    32
  0
VERTEX
  8
M44LXLIFT
 62
6
 10
5277.540
 20
-7096.591
 30
906.000
 70
    32
  0
VERTEX
  8
M44LXLIFT
 62
6
 10
5273.082
 20
-7085.518
 30
906.000
 70
    32
  0
VERTEX
  8
M44LXLIFT
 62
6
 10
5272.573
 20
-7073.314
 30
906.000
 70
    32
  0
VERTEX
  8
M44LXLIFT
 62
6
 10
5286.911
 20
-7056.624
 30
906.000
 70
    32
  0
VERTEX
  8
M44LXLIFT
 62
6
 10
5294.241
 20
-7042.526
 30
906.000
 70
    32
  0
VERTEX
  8
M44LXLIFT
 62
6
 10
5295.942
 20
-7032.621
 30
906.000
 70
    32
  0
VERTEX
  8
M44LXLIFT
 62
6
 10
5308.253
 20
-7023.147
 30
906.000
 70
    32
  0
VERTEX
  8
M44LXLIFT
 62
6
 10
5313.559
 20
-7019.405
 30
906.000
 70
    32
  0
VERTEX
  8
M44LXLIFT
 62
6
 10
5318.478
 20
-7015.728
 30
906.000
 70
    32
  0
VERTEX
  8
M44LXLIFT
 62
6
 10
5320.437
 20
-7011.705
 30
906.000
 70
    32
  0
SEQEND
  8
M44LXLIFT
  0
POLYLINE
  8
M44LXLIFT
 62
6
 66
     1
 70
     9
  0
VERTEX
  8
M44LXLIFT
 62
6
 10
5375.176
 20
-7062.819
 30
851.000
 70
    32
  0
VERTEX
  8
M44LXLIFT
 62
6
 10
5364.620
 20
-7069.790
 30
851.000
 70
    32
  0
VERTEX
  8
M44LXLIFT
 62
6
 10
5347.893
 20
-7075.260
 30
851.000
 70
    32
  0
VERTEX
  8
M44LXLIFT
 62
6
 10
5331.087
 20
-7093.669
 30
851.000
 70
    32
  0
VERTEX
  8
M44LXLIFT
 62
6
 10
5326.547
 20
-7116.322
 30
851.000
 70
    32
  0
VERTEX
  8
M44LXLIFT
 62
6
 10
5322.855
 20
-7141.502
 30
851.000
 70
    32
  0
VERTEX
  8
M44LXLIFT
 62
6
 10
5308.824
 20
-7133.011
 30
851.000
 70
    32
  0
VERTEX
  8
M44LXLIFT
 62
6
 10
5301.423
 20
-7122.008
 30
851.000
 70
    32
  0
VERTEX
  8
M44LXLIFT
 62
6
 10
5305.066
 20
-7099.461
 30
851.000
 70
    32
  0
VERTEX
  8
M44LXLIFT
 62
6
 10
5305.222
 20
-7079.430
 30
851.000
 70
    32
  0
VERTEX
  8
M44LXLIFT
 62
6
 10
5318.116
 20
-7070.449
 30
851.000
 70
    32
  0
VERTEX
  8
M44LXLIFT
 62
6
 10
5316.622
 20
-7053.233
 30
851.000
 70
    32
  0
VERTEX
  8
M44LXLIFT
 62
6
 10
5321.919
 20
-7039.126
 30
851.000
 70
    32
  0
VERTEX
  8
M44LXLIFT
 62
6
 10
5324.305
 20
-7018.136
 30
851.000
 70
    32
  0
VERTEX
  8
M44LXLIFT
 62
6
 10
5323.155
 20
-7002.295
 30
851.000
 70
    32
  0
VERTEX
  8
M44LXLIFT
 62
6
 10
5326.642
 20
-6987.330
 30
851.000
 70
    32
  0
VERTEX
  8
M44LXLIFT
 62
6
 10
5337.658
 20
-6990.744
 30
851.000
 70
    32
  0
VERTEX
  8
M44LXLIFT
 62
6
 10
5340.253
 20
-6997.639
 30
851.000
 70
    32
  0
VERTEX
  8
M44LXLIFT
 62
6
 10
5354.736
 20
-7000.608
 30
851.000
 70
    32
  0
VERTEX
  8
M44LXLIFT
 62
6
 10
5356.371
 20
-7023.568
 30
851.000
 70
    32
  0
VERTEX
  8
M44LXLIFT
 62
6
 10
5359.627
 20
-7042.326
 30
851.000
 70
    32
  0
SEQEND
  8
M44LXLIFT
  0
POLYLINE
  8
M44LXLIFT
 62
6
 66
     1
 70
     9
  0
VERTEX
  8
M44LXLIFT
 62
6
 10
5320.125
 20
-7012.478
 30
889.000
 70
    32
  0
VERTEX
  8
M44LXLIFT
 62
6
 10
5335.614
 20
-7022.923
 30
889.000
 70
    32
  0
VERTEX
  8
M44LXLIFT
 62
6
 10
5337.891
 20
-7027.138
 30
889.000
 70
    32
  0
VERTEX
  8
M44LXLIFT
 62
6
 10
5336.879
 20
-7038.091
 30
889.000
 70
    32
  0
VERTEX
  8
M44LXLIFT
 62
6
 10
5331.227
 20
-7053.392
 30
889.000
 70
    32
  0
VERTEX
  8
M44LXLIFT
 62
6
 10
5326.495
 20
-7062.743
 30
889.000
 70
    32
  0
VERTEX
  8
M44LXLIFT
 62
6
 10
5325.400
 20
-7068.605
 30
889.000
 70
    32
  0
VERTEX
  8
M44LXLIFT
 62
6
 10
5327.094
 20
-7076.875
 30
889.000
 70
    32
  0
VERTEX
  8
M44LXLIFT
 62
6
 10
5321.068
 20
-7081.714
 30
889.000
 70
    32
  0
VERTEX
  8
M44LXLIFT
 62
6
 10
5315.427
 20
-7086.482
 30
889.000
 70
    32
  0
VERTEX
  8
M44LXLIFT
 62
6
 10
5323.088
 20
-7096.426
 30
889.000
 70
    32
  0
VERTEX
  8
M44LXLIFT
 62
6
 10
5320.773
 20
-7110.766
 30
889.000
 70
    32
  0
VERTEX
  8
M44LXLIFT
 62
6
 10
5323.354
 20
-7126.374
 30
889.000
 70
    32
  0
VERTEX
  8
M44LXLIFT
 62
6
 10
5324.958
 20
-7136.136
 30
889.000
 70
    32
  0
VERTEX
  8
M44LXLIFT
 62
6
 10
5312.266
 20
-7152.431
 30
889.000
 70
    32
  0
VERTEX
  8
M44LXLIFT
 62
6
 10
5305.712
 20
-7157.883
 30
889.000
 70
    32
  0
VERTEX
  8
M44LXLIFT
 62
6
 10
5300.672
 20
-7160.230
 30
889.000
 70
    32
  0
VERTEX
  8
M44LXLIFT
 62
6
 10
5295.624
 20
-7152.606
 30
889.000
 70
    32
  0
VERTEX
  8
M44LXLIFT
 62
6
 10
5289.758
 20
-7139.346
 30
889.000
 70
    32
  0
VERTEX
  8
M44LXLIFT
 62
6
 10
5285.787
 20
-7126.421
 30
889.000
 70
    32
  0
VERTEX
  8
M44LXLIFT
 62
6
 10
5279.643
 20
-7078.070
 30
889.000
 70
    32
  0
VERTEX
  8
M44LXLIFT
 62
6
 10
5304.333
 20
-7054.662
 30
889.000
 70
    32
  0
VERTEX
  8
M44LXLIFT
 62
6
 10
5307.722
 20
-7021.102
 30
889.000
 70
    32
  0
SEQEND
  8
M44LXLIFT
  0
POLYLINE
  8
M44LXLIFT
 62
6
 66
     1
 70
     9
  0
VERTEX
  8
M44LXLIFT
 62
6
 10
5364.732
 20
-7066.836
 30
861.000
 70
    32
  0
VERTEX
  8
M44LXLIFT
 62
6
 10
5372.856
 20
-7062.491
 30
861.000
 70
    32
  0
VERTEX
  8
M44LXLIFT
 62
6
 10
5370.527
 20
-7055.511
 30
861.000
 70
    32
  0
VERTEX
  8
M44LXLIFT
 62
6
 10
5360.771
 20
-7044.688
 30
861.000
 70
    32
  0
VERTEX
  8
M44LXLIFT
 62
6
 10
5354.028
 20
-7032.340
 30
861.000
 70
    32
  0
VERTEX
  8
M44LXLIFT
 62
6
 10
5351.320
 20
-7018.381
 30
861.000
 70
    32
  0
VERTEX
  8
M44LXLIFT
 62
6
 10
5349.661
 20
-7001.825
 30
861.000
 70
    32
  0
VERTEX
  8
M44LXLIFT
 62
6
 10
5340.834
 20
-6997.693
 30
861.000
 70
    32
  0
VERTEX
  8
M44LXLIFT
 62
6
 10
5333.561
 20
-7000.666
 30
861.000
 70
    32
  0
VERTEX
  8
M44LXLIFT
 62
6
 10
5322.343
 20
-7008.974
 30
861.000
 70
    32
  0
VERTEX
  8
M44LXLIFT
 62
6
 10
5314.403
 20
-7017.625
 30
861.000
 70
    32
  0
VERTEX
  8
M44LXLIFT
 62
6
 10
5309.852
 20
-7024.372
 30
861.000
 70
    32
  0
VERTEX
  8
M44LXLIFT
 62
6
 10
5317.147
 20
-7039.136
 30
861.000
 70
    32
  0
VERTEX
  8
M44LXLIFT
 62
6
 10
5319.213
 20
-7055.506
 30
861.000
 70
    32
  0
VERTEX
  8
M44LXLIFT
 62
6
 10
5313.390
 20
-7067.392
 30
861.000
 70
    32
  0
VERTEX
  8
M44LXLIFT
 62
6
 10
5307.263
 20
-7073.003
 30
861.000
 70
    32
  0
VERTEX
  8
M44LXLIFT
 62
6
 10
5299.716
 20
-7078.447
 30
861.000
 70
    32
  0
VERTEX
  8
M44LXLIFT
 62
6
 10
5303.126
 20
-7096.230
 30
861.000
 70
    32
  0
VERTEX
  8
M44LXLIFT
 62
6
 10
5301.340
 20
-7107.260
 30
861.000
 70
    32
  0
VERTEX
  8
M44LXLIFT
 62
6
 10
5303.063
 20
-7124.203
 30
861.000
 70
    32
  0
VERTEX
  8
M44LXLIFT
 62
6
 10
5312.269
 20
-7128.712
 30
861.000
 70
    32
  0
VERTEX
  8
M44LXLIFT
 62
6
 10
5319.034
 20
-7128.487
 30
861.000
 70
    32
  0
VERTEX
  8
M44LXLIFT
 62
6
 10
5323.260
 20
-7122.190
 30
861.000
 70
    32
  0
VERTEX
  8
M44LXLIFT
 62
6
 10
5323.416
 20
-7111.902
 30
861.000
 70
    32
  0
VERTEX
  8
M44LXLIFT
 62
6
 10
5328.704
 20
-7094.773
 30
861.000
 70
    32
  0
VERTEX
  8
M44LXLIFT
 62
6
 10
5334.642
 20
-7081.397
 30
861.000
 70
    32
  0
VERTEX
  8
M44LXLIFT
 62
6
 10
5349.971
 20
-7074.885
 30
861.000
 70
    32
  0
SEQEND
  8
M44LXLIFT
  0
POLYLINE
  8
M44LXLIFT
 62
6
 66
     1
 70
     9
  0
VERTEX
  8
M44LXLIFT
 62
6
 10
5296.296
 20
-7012.599
 30
938.000
 70
    32
  0
VERTEX
  8
M44LXLIFT
 62
6
 10
5297.259
 20
-7038.243
 30
938.000
 70
    32
  0
VERTEX
  8
M44LXLIFT
 62
6
 10
5295.471
 20
-7054.307
 30
938.000
 70
    32
  0
VERTEX
  8
M44LXLIFT
 62
6
 10
5300.592
 20
-7069.316
 30
938.000
 70
    32
  0
VERTEX
  8
M44LXLIFT
 62
6
 10
5314.502
 20
-7090.126
 30
938.000
 70
    32
  0
VERTEX
  8
M44LXLIFT
 62
6
 10
5325.475
 20
-7095.662
 30
938.000
 70
    32
  0
VERTEX
  8
M44LXLIFT
 62
6
 10
5315.671
 20
-7101.269
 30
938.000
 70
    32
  0
VERTEX
  8
M44LXLIFT
 62
6
 10
5300.754
 20
-7105.461
 30
938.000
 70
    32
  0
VERTEX
  8
M44LXLIFT
 62
6
 10
5294.080
 20
-7106.240
 30
938.000
 70
    32
  0
VERTEX
  8
M44LXLIFT
 62
6
 10
5289.793
 20
-7122.581
 30
938.000
 70
    32
  0
VERTEX
  8
M44LXLIFT
 62
6
 10
5285.172
 20
-7127.288
 30
938.000
 70
    32
  0
VERTEX
  8
M44LXLIFT
 62
6
 10
5275.251
 20
-7122.619
 30
938.000
 70
    32
  0
VERTEX
  8
M44LXLIFT
 62
6
 10
5259.782
 20
-7107.024
 30
938.000
 70
    32
  0
VERTEX
  8
M44LXLIFT
 62
6
 10
5250.356
 20
-7094.446
 30
938.000
 70
    32
  0
VERTEX
  8
M44LXLIFT
 62
6
 10
5247.976
 20
-7089.457
 30
938.000
 70
    32
  0
VERTEX
  8
M44LXLIFT
 62
6
 10
5251.775
 20
-7075.301
 30
938.000
 70
    32
  0
VERTEX
  8
M44LXLIFT
 62
6
 10
5265.693
 20
-7053.261
 30
938.000
 70
    32
  0
VERTEX
  8
M44LXLIFT
 62
6
 10
5275.397
 20
-7033.479
 30
938.000
 70
    32
  0
VERTEX
  8
M44LXLIFT
 62
6
 10
5279.217
 20
-7019.200
 30
938.000
 70
    32
  0
SEQEND
  8
M44LXLIFT
  0
POLYLINE
  8
M44LXLIFT
 62
6
 66
     1
 70
     9
  0
VERTEX
  8
M44LXLIFT
 62
6
 10
5328.990
 20
-7114.993
 30
841.000
 70
    32
  0
VERTEX
  8
M44LXLIFT
 62
6
 10
5328.598
 20
-7102.357
 30
841.000
 70
    32
  0
VERTEX
  8
M44LXLIFT
 62
6
 10
5334.260
 20
-7104.321
 30
841.000
 70
    32
  0
VERTEX
  8
M44LXLIFT
 62
6
 10
5342.346
 20
-7092.145
 30
841.000
 70
    32
  0
VERTEX
  8
M44LXLIFT
 62
6
 10
5349.701
 20
-7080.608
 30
841.000
 70
    32
  0
VERTEX
  8
M44LXLIFT
 62
6
 10
5354.610
 20
-7073.022
 30
841.000
 70
    32
  0
VERTEX
  8
M44LXLIFT
 62
6
 10
5364.076
 20
-7069.614
 30
841.000
 70
    32
  0
VERTEX
  8
M44LXLIFT
 62
6
 10
5381.053
 20
-7053.688
 30
841.000
 70
    32
  0
VERTEX
  8
M44LXLIFT
 62
6
 10
5370.465
 20
-7048.683
 30
841.000
 70
    32
  0
VERTEX
  8
M44LXLIFT
 62
6
 10
5363.952
 20
-7036.588
 30
841.000
 70
    32
  0
VERTEX
  8
M44LXLIFT
 62
6
 10
5361.436
 20
-7020.285
 30
841.000
 70
    32
  0
VERTEX
  8
M44LXLIFT
 62
6
 10
5353.776
 20
-6997.950
 30
841.000
 70
    32
  0
VERTEX
  8
M44LXLIFT
 62
6
 10
5344.375
 20
-6995.773
 30
841.000
 70
    32
  0
VERTEX
  8
M44LXLIFT
 62
6
 10
5329.356
 20
-6999.309
 30
841.000
 70
    32
  0
VERTEX
  8
M44LXLIFT
 62
6
 10
5321.290
 20
-7010.167
 30
841.000
 70
    32
  0
VERTEX
  8
M44LXLIFT
 62
6
 10
5327.944
 20
-7026.936
 30
841.000
 70
    32
  0
VERTEX
  8
M44LXLIFT
 62
6
 10
5343.540
 20
-7049.583
 30
841.000
 70
    32
  0
VERTEX
  8
M44LXLIFT
 62
6
 10
5328.074
 20
-7066.690
 30
841.000
 70
    32
  0
VERTEX
  8
M44LXLIFT
 62
6
 10
5311.626
 20
-7083.643
 30
841.000
 70
    32
  0
VERTEX
  8
M44LXLIFT
 62
6
 10
5303.515
 20
-7092.797
 30
841.000
 70
    32
  0
VERTEX
  8
M44LXLIFT
 62
6
 10
5310.480
 20
-7106.409
 30
841.000
 70
    32
  0
VERTEX
  8
M44LXLIFT
 62
6
 10
5323.152
 20
-7120.106
 30
841.000
 70
    32
  0
SEQEND
  8
M44LXLIFT
  0
POLYLINE
  8
M44LXLIFT
 62
13
 66
     1
 70
     9
  0
VERTEX
  8
M44LXLIFT
 62
13
 10
5348.857
 20
-7155.163
 30
836.000
 70
    32
  0
VERTEX
  8
M44LXLIFT
 62
13
 10
5352.027
 20
-7159.373
 30
836.000
 70
    32
  0
VERTEX
  8
M44LXLIFT
 62
13
 10
5360.523
 20
-7162.100
 30
836.000
 70
    32
  0
VERTEX
  8
M44LXLIFT
 62
13
 10
5368.981
 20
-7163.876
 30
836.000
 70
    32
  0
VERTEX
  8
M44LXLIFT
 62
13
 10
5376.355
 20
-7162.967
 30
836.000
 70
    32
  0
VERTEX
  8
M44LXLIFT
 62
13
 10
5381.262
 20
-7164.937
 30
836.000
 70
    32
  0
VERTEX
  8
M44LXLIFT
 62
13
 10
5383.863
 20
-7169.561
 30
836.000
 70
    32
  0
VERTEX
  8
M44LXLIFT
 62
13
 10
5384.301
 20
-7179.123
 30
836.000
 70
    32
  0
VERTEX
  8
M44LXLIFT
 62
13
 10
5387.715
 20
-7185.761
 30
836.000
 70
    32
  0
VERTEX
  8
M44LXLIFT
 62
13
 10
5396.412
 20
-7190.405
 30
836.000
 70
    32
  0
VERTEX
  8
M44LXLIFT
 62
13
 10
5402.900
 20
-7197.088
 30
836.000
 70
    32
  0
VERTEX
  8
M44LXLIFT
 62
13
 10
5402.581
 20
-7210.241
 30
836.000
 70
    32
  0
VERTEX
  8
M44LXLIFT
 62
13
 10
5398.893
 20
-7219.654
 30
836.000
 70
    32
  0
VERTEX
  8
M44LXLIFT
 62
13
 10
5394.999
 20
-7225.200
 30
836.000
 70
    32
  0
VERTEX
  8
M44LXLIFT
 62
13
 10
5388.174
 20
-7225.818
 30
836.000
 70
    32
  0
VERTEX
  8
M44LXLIFT
 62
13
 10
5383.086
 20
-7225.392
 30
836.000
 70
    32
  0
VERTEX
  8
M44LXLIFT
 62
13
 10
5377.793
 20
-7218.708
 30
836.000
 70
    32
  0
VERTEX
  8
M44LXLIFT
 62
13
 10
5374.835
 20
-7219.121
 30
836.000
 70
    32
  0
VERTEX
  8
M44LXLIFT
 62
13
 10
5372.441
 20
-7211.198
 30
836.000
 70
    32
  0
VERTEX
  8
M44LXLIFT
 62
13
 10
5365.140
 20
-7201.305
 30
836.000
 70
    32
  0
VERTEX
  8
M44LXLIFT
 62
13
 10
5355.843
 20
-7195.687
 30
836.000
 70
    32
  0
VERTEX
  8
M44LXLIFT
 62
13
 10
5347.495
 20
-7192.418
 30
836.000
 70
    32
  0
VERTEX
  8
M44LXLIFT
 62
13
 10
5345.301
 20
-7186.413
 30
836.000
 70
    32
  0
VERTEX
  8
M44LXLIFT
 62
13
 10
5344.185
 20
-7179.950
 30
836.000
 70
    32
  0
VERTEX
  8
M44LXLIFT
 62
13
 10
5338.078
 20
-7174.835
 30
836.000
 70
    32
  0
VERTEX
  8
M44LXLIFT
 62
13
 10
5338.808
 20
-7169.418
 30
836.000
 70
    32
  0
VERTEX
  8
M44LXLIFT
 62
13
 10
5340.068
 20
-7161.444
 30
836.000
 70
    32
  0
SEQEND
  8
M44LXLIFT
  0
POLYLINE
  8
M44LXLIFT
 62
6
 66
     1
 70
     9
  0
VERTEX
  8
M44LXLIFT
 62
6
 10
4704.932
 20
-6413.259
 30
828.167
 70
    32
  0
VERTEX
  8
M44LXLIFT
 62
6
 10
4670.999
 20
-6435.391
 30
828.150
 70
    32
  0
VERTEX
  8
M44LXLIFT
 62
6
 10
4655.187
 20
-6433.782
 30
828.154
 70
    32
  0
VERTEX
  8
M44LXLIFT
 62
6
 10
4644.343
 20
-6425.859
 30
828.164
 70
    32
  0
VERTEX
  8
M44LXLIFT
 62
6
 10
4637.740
 20
-6409.511
 30
828.086
 70
    32
  0
VERTEX
  8
M44LXLIFT
 62
6
 10
4648.613
 20
-6402.520
 30
828.088
 70
    32
  0
VERTEX
  8
M44LXLIFT
 62
6
 10
4636.401
 20
-6390.110
 30
827.910
 70
    32
  0
VERTEX
  8
M44LXLIFT
 62
6
 10
4630.922
 20
-6380.457
 30
827.794
 70
    32
  0
VERTEX
  8
M44LXLIFT
 62
6
 10
4627.636
 20
-6369.370
 30
827.755
 70
    32
  0
VERTEX
  8
M44LXLIFT
 62
6
 10
4620.055
 20
-6325.587
 30
827.994
 70
    32
  0
VERTEX
  8
M44LXLIFT
 62
6
 10
4620.989
 20
-6303.958
 30
828.110
 70
    32
  0
VERTEX
  8
M44LXLIFT
 62
6
 10
4618.958
 20
-6294.977
 30
828.159
 70
    32
  0
VERTEX
  8
M44LXLIFT
 62
6
 10
4624.204
 20
-6289.983
 30
828.184
 70
    32
  0
VERTEX
  8
M44LXLIFT
 62
6
 10
4628.693
 20
-6279.879
 30
828.236
 70
    32
  0
VERTEX
  8
M44LXLIFT
 62
6
 10
4631.181
 20
-6281.619
 30
828.226
 70
    32
  0
VERTEX
  8
M44LXLIFT
 62
6
 10
4640.732
 20
-6283.731
 30
828.211
 70
    32
  0
VERTEX
  8
M44LXLIFT
 62
6
 10
4658.177
 20
-6298.737
 30
828.123
 70
    32
  0
VERTEX
  8
M44LXLIFT
 62
6
 10
4661.067
 20
-6305.415
 30
828.086
 70
    32
  0
VERTEX
  8
M44LXLIFT
 62
6
 10
4678.117
 20
-6316.277
 30
828.021
 70
    32
  0
VERTEX
  8
M44LXLIFT
 62
6
 10
4690.822
 20
-6333.889
 30
827.921
 70
    32
  0
VERTEX
  8
M44LXLIFT
 62
6
 10
4698.847
 20
-6351.194
 30
827.936
 70
    32
  0
VERTEX
  8
M44LXLIFT
 62
6
 10
4709.611
 20
-6368.825
 30
828.151
 70
    32
  0
VERTEX
  8
M44LXLIFT
 62
6
 10
4706.892
 20
-6388.442
 30
828.192
 70
    32
  0
VERTEX
  8
M44LXLIFT
 62
6
 10
4710.003
 20
-6408.532
 30
828.171
 70
    32
  0
SEQEND
  8
M44LXLIFT
  0
POLYLINE
  8
M44LXLIFT
 62
3
 66
     1
 70
     9
  0
VERTEX
  8
M44LXLIFT
 62
3
 10
4751.732
 20
-6425.239
 30
828.148
 70
    32
  0
VERTEX
  8
M44LXLIFT
 62
3
 10
4755.152
 20
-6440.913
 30
828.132
 70
    32
  0
VERTEX
  8
M44LXLIFT
 62
3
 10
4760.632
 20
-6450.742
 30
828.121
 70
    32
  0
VERTEX
  8
M44LXLIFT
 62
3
 10
4751.438
 20
-6457.981
 30
828.115
 70
    32
  0
VERTEX
  8
M44LXLIFT
 62
3
 10
4741.532
 20
-6464.697
 30
828.110
 70
    32
  0
VERTEX
  8
M44LXLIFT
 62
3
 10
4722.785
 20
-6469.648
 30
828.108
 70
    32
  0
VERTEX
  8
M44LXLIFT
 62
3
 10
4706.609
 20
-6457.983
 30
828.122
 70
    32
  0
VERTEX
  8
M44LXLIFT
 62
3
 10
4709.869
 20
-6430.683
 30
828.149
 70
    32
  0
VERTEX
  8
M44LXLIFT
 62
3
 10
4709.458
 20
-6424.774
 30
828.155
 70
    32
  0
VERTEX
  8
M44LXLIFT
 62
3
 10
4715.187
 20
-6415.187
 30
828.164
 70
    32
  0
VERTEX
  8
M44LXLIFT
 62
3
 10
4734.789
 20
-6407.404
 30
828.169
 70
    32
  0
VERTEX
  8
M44LXLIFT
 62
3
 10
4748.419
 20
-6411.505
 30
828.162
 70
    32
  0
SEQEND
  8
M44LXLIFT
  0
POLYLINE
  8
M44LXLIFT
 62
1
 66
     1
 70
     9
  0
VERTEX
  8
M44LXLIFT
 62
1
 10
4582.132
 20
-6275.933
 30
974.000
 70
    32
  0
VERTEX
  8
M44LXLIFT
 62
1
 10
4565.502
 20
-6282.945
 30
974.000
 70
    32
  0
VERTEX
  8
M44LXLIFT
 62
1
 10
4557.471
 20
-6280.429
 30
974.000
 70
    32
  0
VERTEX
  8
M44LXLIFT
 62
1
 10
4546.699
 20
-6268.930
 30
974.000
 70
    32
  0
VERTEX
  8
M44LXLIFT
 62
1
 10
4536.862
 20
-6250.663
 30
974.000
 70
    32
  0
VERTEX
  8
M44LXLIFT
 62
1
 10
4528.305
 20
-6232.658
 30
974.000
 70
    32
  0
VERTEX
  8
M44LXLIFT
 62
1
 10
4515.751
 20
-6210.066
 30
974.000
 70
    32
  0
VERTEX
  8
M44LXLIFT
 62
1
 10
4520.498
 20
-6203.453
 30
974.000
 70
    32
  0
VERTEX
  8
M44LXLIFT
 62
1
 10
4528.048
 20
-6190.993
 30
974.000
 70
    32
  0
VERTEX
  8
M44LXLIFT
 62
1
 10
4528.612
 20
-6180.581
 30
974.000
 70
    32
  0
VERTEX
  8
M44LXLIFT
 62
1
 10
4534.210
 20
-6173.348
 30
974.000
 70
    32
  0
VERTEX
  8
M44LXLIFT
 62
1
 10
4544.661
 20
-6180.080
 30
974.000
 70
    32
  0
VERTEX
  8
M44LXLIFT
 62
1
 10
4553.850
 20
-6190.449
 30
974.000
 70
    32
  0
VERTEX
  8
M44LXLIFT
 62
1
 10
4558.724
 20
-6188.636
 30
974.000
 70
    32
  0
VERTEX
  8
M44LXLIFT
 62
1
 10
4562.320
 20
-6199.386
 30
974.000
 70
    32
  0
VERTEX
  8
M44LXLIFT
 62
1
 10
4574.938
 20
-6227.584
 30
974.000
 70
    32
  0
VERTEX
  8
M44LXLIFT
 62
1
 10
4588.247
 20
-6230.929
 30
974.000
 70
    32
  0
VERTEX
  8
M44LXLIFT
 62
1
 10
4600.171
 20
-6244.305
 30
974.000
 70
    32
  0
VERTEX
  8
M44LXLIFT
 62
1
 10
4607.326
 20
-6255.613
 30
974.000
 70
    32
  0
SEQEND
  8
M44LXLIFT
  0
POLYLINE
  8
M44LXLIFT
 62
1
 66
     1
 70
     9
  0
VERTEX
  8
M44LXLIFT
 62
1
 10
4720.732
 20
-6434.586
 30
959.000
 70
    32
  0
VERTEX
  8
M44LXLIFT
 62
1
 10
4722.107
 20
-6450.555
 30
959.000
 70
    32
  0
VERTEX
  8
M44LXLIFT
 62
1
 10
4715.308
 20
-6454.525
 30
959.000
 70
    32
  0
VERTEX
  8
M44LXLIFT
 62
1
 10
4704.944
 20
-6457.096
 30
959.000
 70
    32
  0
VERTEX
  8
M44LXLIFT
 62
1
 10
4696.729
 20
-6441.510
 30
959.000
 70
    32
  0
VERTEX
  8
M44LXLIFT
 62
1
 10
4686.539
 20
-6432.986
 30
959.000
 70
    32
  0
VERTEX
  8
M44LXLIFT
 62
1
 10
4684.622
 20
-6427.618
 30
959.000
 70
    32
  0
VERTEX
  8
M44LXLIFT
 62
1
 10
4683.633
 20
-6417.610
 30
959.000
 70
    32
  0
VERTEX
  8
M44LXLIFT
 62
1
 10
4684.025
 20
-6410.192
 30
959.000
 70
    32
  0
VERTEX
  8
M44LXLIFT
 62
1
 10
4686.298
 20
-6402.797
 30
959.000
 70
    32
  0
VERTEX
  8
M44LXLIFT
 62
1
 10
4690.205
 20
-6395.828
 30
959.000
 70
    32
  0
VERTEX
  8
M44LXLIFT
 62
1
 10
4695.913
 20
-6398.044
 30
959.000
 70
    32
  0
VERTEX
  8
M44LXLIFT
 62
1
 10
4704.359
 20
-6401.727
 30
959.000
 70
    32
  0
VERTEX
  8
M44LXLIFT
 62
1
 10
4709.117
 20
-6409.583
 30
959.000
 70
    32
  0
VERTEX
  8
M44LXLIFT
 62
1
 10
4713.441
 20
-6415.680
 30
959.000
 70
    32
  0
VERTEX
  8
M44LXLIFT
 62
1
 10
4720.329
 20
-6417.125
 30
959.000
 70
    32
  0
SEQEND
  8
M44LXLIFT
  0
POLYLINE
  8
M44LXLIFT
 62
1
 66
     1
 70
     9
  0
VERTEX
  8
M44LXLIFT
 62
1
 10
4708.333
 20
-6329.711
 30
895.000
 70
    32
  0
VERTEX
  8
M44LXLIFT
 62
1
 10
4708.162
 20
-6340.446
 30
895.000
 70
    32
  0
VERTEX
  8
M44LXLIFT
 62
1
 10
4711.241
 20
-6356.744
 30
895.000
 70
    32
  0
VERTEX
  8
M44LXLIFT
 62
1
 10
4715.671
 20
-6371.311
 30
895.000
 70
    32
  0
VERTEX
  8
M44LXLIFT
 62
1
 10
4718.627
 20
-6377.519
 30
895.000
 70
    32
  0
VERTEX
  8
M44LXLIFT
 62
1
 10
4717.195
 20
-6384.399
 30
895.000
 70
    32
  0
VERTEX
  8
M44LXLIFT
 62
1
 10
4711.532
 20
-6390.968
 30
895.000
 70
    32
  0
VERTEX
  8
M44LXLIFT
 62
1
 10
4703.903
 20
-6401.121
 30
895.000
 70
    32
  0
VERTEX
  8
M44LXLIFT
 62
1
 10
4690.986
 20
-6409.344
 30
895.000
 70
    32
  0
VERTEX
  8
M44LXLIFT
 62
1
 10
4682.604
 20
-6410.185
 30
895.000
 70
    32
  0
VERTEX
  8
M44LXLIFT
 62
1
 10
4673.610
 20
-6403.562
 30
895.000
 70
    32
  0
VERTEX
  8
M44LXLIFT
 62
1
 10
4658.967
 20
-6391.804
 30
895.000
 70
    32
  0
VERTEX
  8
M44LXLIFT
 62
1
 10
4649.406
 20
-6386.348
 30
895.000
 70
    32
  0
VERTEX
  8
M44LXLIFT
 62
1
 10
4639.172
 20
-6383.867
 30
895.000
 70
    32
  0
VERTEX
  8
M44LXLIFT
 62
1
 10
4629.485
 20
-6377.635
 30
895.000
 70
    32
  0
VERTEX
  8
M44LXLIFT
 62
1
 10
4619.826
 20
-6370.841
 30
895.000
 70
    32
  0
VERTEX
  8
M44LXLIFT
 62
1
 10
4612.525
 20
-6371.228
 30
895.000
 70
    32
  0
VERTEX
  8
M44LXLIFT
 62
1
 10
4608.144
 20
-6368.754
 30
895.000
 70
    32
  0
VERTEX
  8
M44LXLIFT
 62
1
 10
4603.194
 20
-6351.962
 30
895.000
 70
    32
  0
VERTEX
  8
M44LXLIFT
 62
1
 10
4595.920
 20
-6328.940
 30
895.000
 70
    32
  0
VERTEX
  8
M44LXLIFT
 62
1
 10
4593.396
 20
-6305.745
 30
895.000
 70
    32
  0
VERTEX
  8
M44LXLIFT
 62
1
 10
4594.054
 20
-6291.627
 30
895.000
 70
    32
  0
VERTEX
  8
M44LXLIFT
 62
1
 10
4603.282
 20
-6267.762
 30
895.000
 70
    32
  0
VERTEX
  8
M44LXLIFT
 62
1
 10
4610.037
 20
-6253.691
 30
895.000
 70
    32
  0
VERTEX
  8
M44LXLIFT
 62
1
 10
4617.782
 20
-6249.411
 30
895.000
 70
    32
  0
VERTEX
  8
M44LXLIFT
 62
1
 10
4628.078
 20
-6249.574
 30
895.000
 70
    32
  0
VERTEX
  8
M44LXLIFT
 62
1
 10
4642.731
 20
-6266.305
 30
895.000
 70
    32
  0
VERTEX
  8
M44LXLIFT
 62
1
 10
4647.046
 20
-6277.707
 30
895.000
 70
    32
  0
VERTEX
  8
M44LXLIFT
 62
1
 10
4653.825
 20
-6287.116
 30
895.000
 70
    32
  0
VERTEX
  8
M44LXLIFT
 62
1
 10
4666.258
 20
-6300.466
 30
895.000
 70
    32
  0
VERTEX
  8
M44LXLIFT
 62
1
 10
4672.673
 20
-6303.208
 30
895.000
 70
    32
  0
VERTEX
  8
M44LXLIFT
 62
1
 10
4684.275
 20
-6303.079
 30
895.000
 70
    32
  0
VERTEX
  8
M44LXLIFT
 62
1
 10
4694.793
 20
-6312.719
 30
895.000
 70
    32
  0
SEQEND
  8
M44LXLIFT
  0
POLYLINE
  8
M44LXLIFT
 62
1
 66
     1
 70
     9
  0
VERTEX
  8
M44LXLIFT
 62
1
 10
4735.973
 20
-6446.015
 30
857.000
 70
    32
  0
VERTEX
  8
M44LXLIFT
 62
1
 10
4728.786
 20
-6435.369
 30
857.000
 70
    32
  0
VERTEX
  8
M44LXLIFT
 62
1
 10
4720.436
 20
-6424.062
 30
857.000
 70
    32
  0
VERTEX
  8
M44LXLIFT
 62
1
 10
4719.812
 20
-6415.385
 30
857.000
 70
    32
  0
VERTEX
  8
M44LXLIFT
 62
1
 10
4725.932
 20
-6406.007
 30
857.000
 70
    32
  0
VERTEX
  8
M44LXLIFT
 62
1
 10
4726.559
 20
-6394.619
 30
857.000
 70
    32
  0
VERTEX
  8
M44LXLIFT
 62
1
 10
4726.269
 20
-6385.800
 30
857.000
 70
    32
  0
VERTEX
  8
M44LXLIFT
 62
1
 10
4733.120
 20
-6382.041
 30
857.000
 70
    32
  0
VERTEX
  8
M44LXLIFT
 62
1
 10
4743.374
 20
-6380.882
 30
857.000
 70
    32
  0
VERTEX
  8
M44LXLIFT
 62
1
 10
4751.035
 20
-6384.445
 30
857.000
 70
    32
  0
VERTEX
  8
M44LXLIFT
 62
1
 10
4753.685
 20
-6390.704
 30
857.000
 70
    32
  0
VERTEX
  8
M44LXLIFT
 62
1
 10
4750.747
 20
-6397.009
 30
857.000
 70
    32
  0
VERTEX
  8
M44LXLIFT
 62
1
 10
4746.845
 20
-6413.966
 30
857.000
 70
    32
  0
VERTEX
  8
M44LXLIFT
 62
1
 10
4750.467
 20
-6421.362
 30
857.000
 70
    32
  0
VERTEX
  8
M44LXLIFT
 62
1
 10
4757.886
 20
-6425.770
 30
857.000
 70
    32
  0
VERTEX
  8
M44LXLIFT
 62
1
 10
4761.609
 20
-6442.899
 30
857.000
 70
    32
  0
VERTEX
  8
M44LXLIFT
 62
1
 10
4764.838
 20
-6449.049
 30
857.000
 70
    32
  0
VERTEX
  8
M44LXLIFT
 62
1
 10
4764.466
 20
-6455.394
 30
857.000
 70
    32
  0
VERTEX
  8
M44LXLIFT
 62
1
 10
4760.578
 20
-6461.317
 30
857.000
 70
    32
  0
VERTEX
  8
M44LXLIFT
 62
1
 10
4752.331
 20
-6463.379
 30
857.000
 70
    32
  0
VERTEX
  8
M44LXLIFT
 62
1
 10
4749.569
 20
-6459.300
 30
857.000
 70
    32
  0
VERTEX
  8
M44LXLIFT
 62
1
 10
4746.670
 20
-6455.765
 30
857.000
 70
    32
  0
VERTEX
  8
M44LXLIFT
 62
1
 10
4740.798
 20
-6455.145
 30
857.000
 70
    32
  0
SEQEND
  8
M44LXLIFT
  0
POLYLINE
  8
M44LXLIFT
 62
1
 66
     1
 70
     9
  0
VERTEX
  8
M44LXLIFT
 62
1
 10
4848.469
 20
-6794.300
 30
972.000
 70
    32
  0
VERTEX
  8
M44LXLIFT
 62
1
 10
4858.334
 20
-6801.530
 30
972.000
 70
    32
  0
VERTEX
  8
M44LXLIFT
 62
1
 10
4867.430
 20
-6816.120
 30
972.000
 70
    32
  0
VERTEX
  8
M44LXLIFT
 62
1
 10
4885.395
 20
-6845.141
 30
972.000
 70
    32
  0
VERTEX
  8
M44LXLIFT
 62
1
 10
4900.856
 20
-6863.430
 30
972.000
 70
    32
  0
VERTEX
  8
M44LXLIFT
 62
1
 10
4917.165
 20
-6872.110
 30
972.000
 70
    32
  0
VERTEX
  8
M44LXLIFT
 62
1
 10
4933.716
 20
-6877.434
 30
972.000
 70
    32
  0
VERTEX
  8
M44LXLIFT
 62
1
 10
4938.529
 20
-6882.287
 30
972.000
 70
    32
  0
VERTEX
  8
M44LXLIFT
 62
1
 10
4940.827
 20
-6896.128
 30
972.000
 70
    32
  0
VERTEX
  8
M44LXLIFT
 62
1
 10
4932.795
 20
-6908.890
 30
972.000
 70
    32
  0
VERTEX
  8
M44LXLIFT
 62
1
 10
4921.025
 20
-6924.430
 30
972.000
 70
    32
  0
VERTEX
  8
M44LXLIFT
 62
1
 10
4912.623
 20
-6924.764
 30
972.000
 70
    32
  0
VERTEX
  8
M44LXLIFT
 62
1
 10
4898.876
 20
-6908.485
 30
972.000
 70
    32
  0
VERTEX
  8
M44LXLIFT
 62
1
 10
4888.840
 20
-6891.747
 30
972.000
 70
    32
  0
VERTEX
  8
M44LXLIFT
 62
1
 10
4874.477
 20
-6875.817
 30
972.000
 70
    32
  0
VERTEX
  8
M44LXLIFT
 62
1
 10
4864.032
 20
-6855.879
 30
972.000
 70
    32
  0
VERTEX
  8
M44LXLIFT
 62
1
 10
4856.480
 20
-6833.351
 30
972.000
 70
    32
  0
VERTEX
  8
M44LXLIFT
 62
1
 10
4845.473
 20
-6813.392
 30
972.000
 70
    32
  0
VERTEX
  8
M44LXLIFT
 62
1
 10
4839.000
 20
-6797.618
 30
972.000
 70
    32
  0
SEQEND
  8
M44LXLIFT
  0
POLYLINE
  8
M44LXLIFT
 62
1
 66
     1
 70
     9
  0
VERTEX
  8
M44LXLIFT
 62
1
 10
5156.021
 20
-6886.552
 30
979.000
 70
    32
  0
VERTEX
  8
M44LXLIFT
 62
1
 10
5168.224
 20
-6901.355
 30
979.000
 70
    32
  0
VERTEX
  8
M44LXLIFT
 62
1
 10
5174.856
 20
-6912.393
 30
979.000
 70
    32
  0
VERTEX
  8
M44LXLIFT
 62
1
 10
5181.956
 20
-6914.827
 30
979.000
 70
    32
  0
VERTEX
  8
M44LXLIFT
 62
1
 10
5200.294
 20
-6916.570
 30
979.000
 70
    32
  0
VERTEX
  8
M44LXLIFT
 62
1
 10
5215.959
 20
-6918.524
 30
979.000
 70
    32
  0
VERTEX
  8
M44LXLIFT
 62
1
 10
5219.156
 20
-6924.999
 30
979.000
 70
    32
  0
VERTEX
  8
M44LXLIFT
 62
1
 10
5203.996
 20
-6923.439
 30
979.000
 70
    32
  0
VERTEX
  8
M44LXLIFT
 62
1
 10
5192.200
 20
-6921.274
 30
979.000
 70
    32
  0
VERTEX
  8
M44LXLIFT
 62
1
 10
5183.759
 20
-6921.774
 30
979.000
 70
    32
  0
VERTEX
  8
M44LXLIFT
 62
1
 10
5177.432
 20
-6924.429
 30
979.000
 70
    32
  0
VERTEX
  8
M44LXLIFT
 62
1
 10
5162.198
 20
-6932.163
 30
979.000
 70
    32
  0
VERTEX
  8
M44LXLIFT
 62
1
 10
5147.939
 20
-6940.491
 30
979.000
 70
    32
  0
VERTEX
  8
M44LXLIFT
 62
1
 10
5141.427
 20
-6956.761
 30
979.000
 70
    32
  0
VERTEX
  8
M44LXLIFT
 62
1
 10
5131.319
 20
-6975.108
 30
979.000
 70
    32
  0
VERTEX
  8
M44LXLIFT
 62
1
 10
5127.899
 20
-6984.883
 30
979.000
 70
    32
  0
VERTEX
  8
M44LXLIFT
 62
1
 10
5135.623
 20
-7002.191
 30
979.000
 70
    32
  0
VERTEX
  8
M44LXLIFT
 62
1
 10
5118.886
 20
-7011.890
 30
979.000
 70
    32
  0
VERTEX
  8
M44LXLIFT
 62
1
 10
5108.588
 20
-6997.763
 30
979.000
 70
    32
  0
VERTEX
  8
M44LXLIFT
 62
1
 10
5106.179
 20
-6985.061
 30
979.000
 70
    32
  0
VERTEX
  8
M44LXLIFT
 62
1
 10
5099.864
 20
-6986.837
 30
979.000
 70
    32
  0
VERTEX
  8
M44LXLIFT
 62
1
 10
5093.233
 20
-7001.454
 30
979.000
 70
    32
  0
VERTEX
  8
M44LXLIFT
 62
1
 10
5090.910
 20
-7003.039
 30
979.000
 70
    32
  0
VERTEX
  8
M44LXLIFT
 62
1
 10
5084.218
 20
-6996.393
 30
979.000
 70
    32
  0
VERTEX
  8
M44LXLIFT
 62
1
 10
5073.232
 20
-6990.269
 30
979.000
 70
    32
  0
VERTEX
  8
M44LXLIFT
 62
1
 10
5067.203
 20
-6987.815
 30
979.000
 70
    32
  0
VERTEX
  8
M44LXLIFT
 62
1
 10
5069.580
 20
-6975.864
 30
979.000
 70
    32
  0
VERTEX
  8
M44LXLIFT
 62
1
 10
5076.265
 20
-6963.708
 30
979.000
 70
    32
  0
VERTEX
  8
M44LXLIFT
 62
1
 10
5086.845
 20
-6945.560
 30
979.000
 70
    32
  0
VERTEX
  8
M44LXLIFT
 62
1
 10
5099.357
 20
-6928.722
 30
979.000
 70
    32
  0
VERTEX
  8
M44LXLIFT
 62
1
 10
5116.645
 20
-6908.294
 30
979.000
 70
    32
  0
VERTEX
  8
M44LXLIFT
 62
1
 10
5133.844
 20
-6895.650
 30
979.000
 70
    32
  0
SEQEND
  8
M44LXLIFT
  0
POLYLINE
  8
M44LXLIFT
 62
1
 66
     1
 70
     9
  0
VERTEX
  8
M44LXLIFT
 62
1
 10
5283.675
 20
-6852.224
 30
970.000
 70
    32
  0
VERTEX
  8
M44LXLIFT
 62
1
 10
5283.474
 20
-6862.557
 30
970.000
 70
    32
  0
VERTEX
  8
M44LXLIFT
 62
1
 10
5280.935
 20
-6868.715
 30
970.000
 70
    32
  0
VERTEX
  8
M44LXLIFT
 62
1
 10
5268.983
 20
-6873.112
 30
970.000
 70
    32
  0
VERTEX
  8
M44LXLIFT
 62
1
 10
5265.578
 20
-6880.462
 30
970.000
 70
    32
  0
VERTEX
  8
M44LXLIFT
 62
1
 10
5255.888
 20
-6881.863
 30
970.000
 70
    32
  0
VERTEX
  8
M44LXLIFT
 62
1
 10
5251.616
 20
-6873.761
 30
970.000
 70
    32
  0
VERTEX
  8
M44LXLIFT
 62
1
 10
5252.508
 20
-6866.418
 30
970.000
 70
    32
  0
VERTEX
  8
M44LXLIFT
 62
1
 10
5250.696
 20
-6862.509
 30
970.000
 70
    32
  0
VERTEX
  8
M44LXLIFT
 62
1
 10
5243.250
 20
-6861.037
 30
970.000
 70
    32
  0
VERTEX
  8
M44LXLIFT
 62
1
 10
5236.296
 20
-6859.637
 30
970.000
 70
    32
  0
VERTEX
  8
M44LXLIFT
 62
1
 10
5235.114
 20
-6852.303
 30
970.000
 70
    32
  0
VERTEX
  8
M44LXLIFT
 62
1
 10
5238.025
 20
-6841.050
 30
970.000
 70
    32
  0
VERTEX
  8
M44LXLIFT
 62
1
 10
5245.258
 20
-6834.577
 30
970.000
 70
    32
  0
VERTEX
  8
M44LXLIFT
 62
1
 10
5253.547
 20
-6832.028
 30
970.000
 70
    32
  0
VERTEX
  8
M44LXLIFT
 62
1
 10
5263.365
 20
-6833.597
 30
970.000
 70
    32
  0
VERTEX
  8
M44LXLIFT
 62
1
 10
5272.228
 20
-6832.263
 30
970.000
 70
    32
  0
VERTEX
  8
M44LXLIFT
 62
1
 10
5277.748
 20
-6840.423
 30
970.000
 70
    32
  0
SEQEND
  8
M44LXLIFT
  0
POLYLINE
  8
M44LXLIFT
 62
13
 66
     1
 70
     9
  0
VERTEX
  8
M44LXLIFT
 62
13
 10
5348.214
 20
-7192.807
 30
827.408
 70
    32
  0
VERTEX
  8
M44LXLIFT
 62
13
 10
5347.617
 20
-7184.255
 30
827.396
 70
    32
  0
VERTEX
  8
M44LXLIFT
 62
13
 10
5345.292
 20
-7180.304
 30
827.390
 70
    32
  0
VERTEX
  8
M44LXLIFT
 62
13
 10
5362.450
 20
-7163.760
 30
827.384
 70
    32
  0
VERTEX
  8
M44LXLIFT
 62
13
 10
5372.200
 20
-7158.389
 30
827.386
 70
    32
  0
VERTEX
  8
M44LXLIFT
 62
13
 10
5373.791
 20
-7158.818
 30
827.388
 70
    32
  0
VERTEX
  8
M44LXLIFT
 62
13
 10
5375.687
 20
-7164.272
 30
827.397
 70
    32
  0
VERTEX
  8
M44LXLIFT
 62
13
 10
5381.242
 20
-7163.963
 30
827.401
 70
    32
  0
VERTEX
  8
M44LXLIFT
 62
13
 10
5386.342
 20
-7184.124
 30
827.431
 70
    32
  0
VERTEX
  8
M44LXLIFT
 62
13
 10
5403.381
 20
-7196.956
 30
827.461
 70
    32
  0
VERTEX
  8
M44LXLIFT
 62
13
 10
5402.094
 20
-7212.669
 30
827.480
 70
    32
  0
VERTEX
  8
M44LXLIFT
 62
13
 10
5397.154
 20
-7223.735
 30
827.489
 70
    32
  0
VERTEX
  8
M44LXLIFT
 62
13
 10
5384.561
 20
-7226.481
 30
827.481
 70
    32
  0
VERTEX
  8
M44LXLIFT
 62
13
 10
5379.386
 20
-7219.112
 30
827.468
 70
    32
  0
VERTEX
  8
M44LXLIFT
 62
13
 10
5375.152
 20
-7219.146
 30
827.464
 70
    32
  0
VERTEX
  8
M44LXLIFT
 62
13
 10
5370.018
 20
-7205.778
 30
827.443
 70
    32
  0
VERTEX
  8
M44LXLIFT
 62
13
 10
5366.542
 20
-7201.395
 30
827.434
 70
    32
  0
VERTEX
  8
M44LXLIFT
 62
13
 10
5355.740
 20
-7196.364
 30
827.419
 70
    32
  0
SEQEND
  8
M44LXLIFT
  0
POLYLINE
  8
M44LXLIFT
 62
8
 66
     1
 70
     9
  0
VERTEX
  8
M44LXLIFT
 62
8
 10
5254.361
 20
-7204.844
 30
827.339
 70
    32
  0
VERTEX
  8
M44LXLIFT
 62
8
 10
5261.614
 20
-7218.371
 30
827.362
 70
    32
  0
VERTEX
  8
M44LXLIFT
 62
8
 10
5268.642
 20
-7236.929
 30
827.391
 70
    32
  0
VERTEX
  8
M44LXLIFT
 62
8
 10
5279.972
 20
-7241.867
 30
827.407
 70
    32
  0
VERTEX
  8
M44LXLIFT
 62
8
 10
5281.193
 20
-7250.999
 30
827.419
 70
    32
  0
VERTEX
  8
M44LXLIFT
 62
8
 10
5267.424
 20
-7261.374
 30
827.419
 70
    32
  0
VERTEX
  8
M44LXLIFT
 62
8
 10
5259.406
 20
-7273.611
 30
827.426
 70
    32
  0
VERTEX
  8
M44LXLIFT
 62
8
 10
5256.231
 20
-7295.954
 30
827.451
 70
    32
  0
VERTEX
  8
M44LXLIFT
 62
8
 10
5251.955
 20
-7301.811
 30
827.454
 70
    32
  0
VERTEX
  8
M44LXLIFT
 62
8
 10
5249.313
 20
-7302.361
 30
827.452
 70
    32
  0
VERTEX
  8
M44LXLIFT
 62
8
 10
5235.813
 20
-7279.709
 30
827.412
 70
    32
  0
VERTEX
  8
M44LXLIFT
 62
8
 10
5226.252
 20
-7254.889
 30
827.373
 70
    32
  0
VERTEX
  8
M44LXLIFT
 62
8
 10
5218.991
 20
-7238.646
 30
827.347
 70
    32
  0
VERTEX
  8
M44LXLIFT
 62
8
 10
5219.300
 20
-7222.059
 30
827.327
 70
    32
  0
VERTEX
  8
M44LXLIFT
 62
8
 10
5212.095
 20
-7203.415
 30
827.298
 70
    32
  0
VERTEX
  8
M44LXLIFT
 62
8
 10
5221.021
 20
-7194.434
 30
827.295
 70
    32
  0
VERTEX
  8
M44LXLIFT
 62
8
 10
5228.663
 20
-7190.228
 30
827.297
 70
    32
  0
VERTEX
  8
M44LXLIFT
 62
8
 10
5231.044
 20
-7190.121
 30
827.299
 70
    32
  0
VERTEX
  8
M44LXLIFT
 62
8
 10
5239.660
 20
-7197.639
 30
827.316
 70
    32
  0
VERTEX
  8
M44LXLIFT
 62
8
 10
5246.648
 20
-7200.053
 30
827.326
 70
    32
  0
SEQEND
  8
M44LXLIFT
  0
POLYLINE
  8
M44LXLIFT
 62
7
 66
     1
 70
     9
  0
VERTEX
  8
M44LXLIFT
 62
7
 10
5228.055
 20
-7140.487
 30
827.272
 70
    32
  0
VERTEX
  8
M44LXLIFT
 62
7
 10
5155.756
 20
-7040.577
 30
827.198
 70
    32
  0
VERTEX
  8
M44LXLIFT
 62
7
 10
5163.677
 20
-7038.309
 30
827.197
 70
    32
  0
VERTEX
  8
M44LXLIFT
 62
7
 10
5167.736
 20
-7038.365
 30
827.195
 70
    32
  0
VERTEX
  8
M44LXLIFT
 62
7
 10
5189.821
 20
-7031.221
 30
827.183
 70
    32
  0
VERTEX
  8
M44LXLIFT
 62
7
 10
5197.003
 20
-7035.839
 30
827.170
 70
    32
  0
VERTEX
  8
M44LXLIFT
 62
7
 10
5202.797
 20
-7043.468
 30
827.156
 70
    32
  0
VERTEX
  8
M44LXLIFT
 62
7
 10
5206.572
 20
-7052.171
 30
827.146
 70
    32
  0
VERTEX
  8
M44LXLIFT
 62
7
 10
5206.354
 20
-7058.083
 30
827.141
 70
    32
  0
VERTEX
  8
M44LXLIFT
 62
7
 10
5208.266
 20
-7065.654
 30
827.132
 70
    32
  0
VERTEX
  8
M44LXLIFT
 62
7
 10
5213.716
 20
-7074.256
 30
827.142
 70
    32
  0
VERTEX
  8
M44LXLIFT
 62
7
 10
5230.979
 20
-7093.085
 30
827.181
 70
    32
  0
VERTEX
  8
M44LXLIFT
 62
7
 10
5230.719
 20
-7104.731
 30
827.195
 70
    32
  0
VERTEX
  8
M44LXLIFT
 62
7
 10
5233.496
 20
-7110.179
 30
827.204
 70
    32
  0
VERTEX
  8
M44LXLIFT
 62
7
 10
5235.343
 20
-7120.573
 30
827.219
 70
    32
  0
VERTEX
  8
M44LXLIFT
 62
7
 10
5232.908
 20
-7125.003
 30
827.222
 70
    32
  0
VERTEX
  8
M44LXLIFT
 62
7
 10
5234.860
 20
-7137.426
 30
827.239
 70
    32
  0
SEQEND
  8
M44LXLIFT
  0
POLYLINE
  8
M44LXLIFT
 62
6
 66
     1
 70
     9
  0
VERTEX
  8
M44LXLIFT
 62
6
 10
5297.395
 20
-7102.967
 30
827.252
 70
    32
  0
VERTEX
  8
M44LXLIFT
 62
6
 10
5296.174
 20
-7093.626
 30
827.239
 70
    32
  0
VERTEX
  8
M44LXLIFT
 62
6
 10
5305.086
 20
-7071.678
 30
827.220
 70
    32
  0
VERTEX
  8
M44LXLIFT
 62
6
 10
5331.926
 20
-7052.411
 30
827.220
 70
    32
  0
VERTEX
  8
M44LXLIFT
 62
6
 10
5312.869
 20
-7018.688
 30
827.161
 70
    32
  0
VERTEX
  8
M44LXLIFT
 62
6
 10
5311.682
 20
-7013.669
 30
827.154
 70
    32
  0
VERTEX
  8
M44LXLIFT
 62
6
 10
5321.853
 20
-6983.595
 30
827.133
 70
    32
  0
VERTEX
  8
M44LXLIFT
 62
6
 10
5335.102
 20
-6985.695
 30
827.140
 70
    32
  0
VERTEX
  8
M44LXLIFT
 62
6
 10
5349.188
 20
-6993.258
 30
827.162
 70
    32
  0
VERTEX
  8
M44LXLIFT
 62
6
 10
5354.255
 20
-7009.273
 30
827.186
 70
    32
  0
VERTEX
  8
M44LXLIFT
 62
6
 10
5372.642
 20
-7047.500
 30
827.250
 70
    32
  0
VERTEX
  8
M44LXLIFT
 62
6
 10
5377.366
 20
-7053.549
 30
827.261
 70
    32
  0
VERTEX
  8
M44LXLIFT
 62
6
 10
5376.734
 20
-7062.905
 30
827.272
 70
    32
  0
VERTEX
  8
M44LXLIFT
 62
6
 10
5338.590
 20
-7091.701
 30
827.274
 70
    32
  0
VERTEX
  8
M44LXLIFT
 62
6
 10
5329.881
 20
-7128.115
 30
827.311
 70
    32
  0
VERTEX
  8
M44LXLIFT
 62
6
 10
5321.645
 20
-7135.149
 30
827.313
 70
    32
  0
VERTEX
  8
M44LXLIFT
 62
6
 10
5315.258
 20
-7119.586
 30
827.288
 70
    32
  0
VERTEX
  8
M44LXLIFT
 62
6
 10
5310.617
 20
-7112.830
 30
827.276
 70
    32
  0
VERTEX
  8
M44LXLIFT
 62
6
 10
5307.171
 20
-7112.152
 30
827.272
 70
    32
  0
VERTEX
  8
M44LXLIFT
 62
6
 10
5302.729
 20
-7108.129
 30
827.263
 70
    32
  0
SEQEND
  8
M44LXLIFT
  0
POLYLINE
  8
M44LXLIFT
 62
3
 66
     1
 70
     9
  0
VERTEX
  8
M44LXLIFT
 62
3
 10
5252.325
 20
-7019.339
 30
827.146
 70
    32
  0
VERTEX
  8
M44LXLIFT
 62
3
 10
5246.930
 20
-7013.301
 30
827.155
 70
    32
  0
VERTEX
  8
M44LXLIFT
 62
3
 10
5244.884
 20
-7011.112
 30
827.158
 70
    32
  0
VERTEX
  8
M44LXLIFT
 62
3
 10
5214.526
 20
-7020.703
 30
827.170
 70
    32
  0
VERTEX
  8
M44LXLIFT
 62
3
 10
5202.665
 20
-7004.566
 30
827.196
 70
    32
  0
VERTEX
  8
M44LXLIFT
 62
3
 10
5203.025
 20
-6972.100
 30
827.230
 70
    32
  0
VERTEX
  8
M44LXLIFT
 62
3
 10
5223.241
 20
-6951.827
 30
827.229
 70
    32
  0
VERTEX
  8
M44LXLIFT
 62
3
 10
5257.771
 20
-6934.351
 30
827.220
 70
    32
  0
VERTEX
  8
M44LXLIFT
 62
3
 10
5267.617
 20
-6941.153
 30
827.208
 70
    32
  0
VERTEX
  8
M44LXLIFT
 62
3
 10
5280.574
 20
-6939.815
 30
827.200
 70
    32
  0
VERTEX
  8
M44LXLIFT
 62
3
 10
5290.592
 20
-6934.972
 30
827.198
 70
    32
  0
VERTEX
  8
M44LXLIFT
 62
3
 10
5306.897
 20
-6933.167
 30
827.189
 70
    32
  0
VERTEX
  8
M44LXLIFT
 62
3
 10
5334.896
 20
-6937.620
 30
827.167
 70
    32
  0
VERTEX
  8
M44LXLIFT
 62
3
 10
5343.041
 20
-6941.260
 30
827.158
 70
    32
  0
VERTEX
  8
M44LXLIFT
 62
3
 10
5357.976
 20
-6933.467
 30
827.155
 70
    32
  0
VERTEX
  8
M44LXLIFT
 62
3
 10
5362.688
 20
-6938.105
 30
827.148
 70
    32
  0
VERTEX
  8
M44LXLIFT
 62
3
 10
5364.234
 20
-6944.003
 30
827.141
 70
    32
  0
VERTEX
  8
M44LXLIFT
 62
3
 10
5363.016
 20
-6946.130
 30
827.140
 70
    32
  0
VERTEX
  8
M44LXLIFT
 62
3
 10
5353.454
 20
-6952.822
 30
827.140
 70
    32
  0
VERTEX
  8
M44LXLIFT
 62
3
 10
5350.068
 20
-6959.730
 30
827.136
 70
    32
  0
VERTEX
  8
M44LXLIFT
 62
3
 10
5339.586
 20
-6972.780
 30
827.131
 70
    32
  0
VERTEX
  8
M44LXLIFT
 62
3
 10
5315.495
 20
-6982.763
 30
827.138
 70
    32
  0
VERTEX
  8
M44LXLIFT
 62
3
 10
5304.900
 20
-6981.612
 30
827.146
 70
    32
  0
SEQEND
  8
M44LXLIFT
  0
POLYLINE
  8
M44LXLIFT
 62
1
 66
     1
 70
     9
  0
VERTEX
  8
M44LXLIFT
 62
1
 10
5109.693
 20
-7053.920
 30
955.000
 70
    32
  0
VERTEX
  8
M44LXLIFT
 62
1
 10
5123.001
 20
-7065.173
 30
955.000
 70
    32
  0
VERTEX
  8
M44LXLIFT
 62
1
 10
5131.326
 20
-7079.725
 30
955.000
 70
    32
  0
VERTEX
  8
M44LXLIFT
 62
1
 10
5137.856
 20
-7088.986
 30
955.000
 70
    32
  0
VERTEX
  8
M44LXLIFT
 62
1
 10
5146.276
 20
-7091.325
 30
955.000
 70
    32
  0
VERTEX
  8
M44LXLIFT
 62
1
 10
5147.421
 20
-7097.826
 30
955.000
 70
    32
  0
VERTEX
  8
M44LXLIFT
 62
1
 10
5141.157
 20
-7105.252
 30
955.000
 70
    32
  0
VERTEX
  8
M44LXLIFT
 62
1
 10
5132.120
 20
-7110.119
 30
955.000
 70
    32
  0
VERTEX
  8
M44LXLIFT
 62
1
 10
5120.602
 20
-7106.740
 30
955.000
 70
    32
  0
VERTEX
  8
M44LXLIFT
 62
1
 10
5112.667
 20
-7103.413
 30
955.000
 70
    32
  0
VERTEX
  8
M44LXLIFT
 62
1
 10
5111.961
 20
-7090.369
 30
955.000
 70
    32
  0
VERTEX
  8
M44LXLIFT
 62
1
 10
5106.504
 20
-7072.721
 30
955.000
 70
    32
  0
VERTEX
  8
M44LXLIFT
 62
1
 10
5100.258
 20
-7060.357
 30
955.000
 70
    32
  0
SEQEND
  8
M44LXLIFT
  0
POLYLINE
  8
M44LXLIFT
 62
1
 66
     1
 70
     9
  0
VERTEX
  8
M44LXLIFT
 62
1
 10
5119.757
 20
-6974.597
 30
962.000
 70
    32
  0
VERTEX
  8
M44LXLIFT
 62
1
 10
5136.682
 20
-6987.169
 30
962.000
 70
    32
  0
VERTEX
  8
M44LXLIFT
 62
1
 10
5139.988
 20
-6994.296
 30
962.000
 70
    32
  0
VERTEX
  8
M44LXLIFT
 62
1
 10
5140.448
 20
-7002.571
 30
962.000
 70
    32
  0
VERTEX
  8
M44LXLIFT
 62
1
 10
5145.982
 20
-7011.029
 30
962.000
 70
    32
  0
VERTEX
  8
M44LXLIFT
 62
1
 10
5157.429
 20
-7021.015
 30
962.000
 70
    32
  0
VERTEX
  8
M44LXLIFT
 62
1
 10
5169.532
 20
-7035.589
 30
962.000
 70
    32
  0
VERTEX
  8
M44LXLIFT
 62
1
 10
5186.577
 20
-7053.666
 30
962.000
 70
    32
  0
VERTEX
  8
M44LXLIFT
 62
1
 10
5178.419
 20
-7065.114
 30
962.000
 70
    32
  0
VERTEX
  8
M44LXLIFT
 62
1
 10
5172.528
 20
-7070.021
 30
962.000
 70
    32
  0
VERTEX
  8
M44LXLIFT
 62
1
 10
5160.288
 20
-7074.459
 30
962.000
 70
    32
  0
VERTEX
  8
M44LXLIFT
 62
1
 10
5145.979
 20
-7078.099
 30
962.000
 70
    32
  0
VERTEX
  8
M44LXLIFT
 62
1
 10
5140.925
 20
-7073.064
 30
962.000
 70
    32
  0
VERTEX
  8
M44LXLIFT
 62
1
 10
5140.595
 20
-7058.572
 30
962.000
 70
    32
  0
VERTEX
  8
M44LXLIFT
 62
1
 10
5140.915
 20
-7044.696
 30
962.000
 70
    32
  0
VERTEX
  8
M44LXLIFT
 62
1
 10
5136.978
 20
-7033.930
 30
962.000
 70
    32
  0
VERTEX
  8
M44LXLIFT
 62
1
 10
5126.438
 20
-7015.780
 30
962.000
 70
    32
  0
VERTEX
  8
M44LXLIFT
 62
1
 10
5121.062
 20
-7004.954
 30
962.000
 70
    32
  0
VERTEX
  8
M44LXLIFT
 62
1
 10
5118.024
 20
-6994.090
 30
962.000
 70
    32
  0
VERTEX
  8
M44LXLIFT
 62
1
 10
5110.715
 20
-6982.047
 30
962.000
 70
    32
  0
SEQEND
  8
M44LXLIFT
  0
POLYLINE
  8
M44LXLIFT
 62
1
 66
     1
 70
     9
  0
VERTEX
  8
M44LXLIFT
 62
1
 10
5297.105
 20
-7034.485
 30
972.000
 70
    32
  0
VERTEX
  8
M44LXLIFT
 62
1
 10
5297.585
 20
-7051.209
 30
972.000
 70
    32
  0
VERTEX
  8
M44LXLIFT
 62
1
 10
5301.537
 20
-7058.868
 30
972.000
 70
    32
  0
VERTEX
  8
M44LXLIFT
 62
1
 10
5308.135
 20
-7066.150
 30
972.000
 70
    32
  0
VERTEX
  8
M44LXLIFT
 62
1
 10
5313.179
 20
-7075.946
 30
972.000
 70
    32
  0
VERTEX
  8
M44LXLIFT
 62
1
 10
5309.078
 20
-7079.736
 30
972.000
 70
    32
  0
VERTEX
  8
M44LXLIFT
 62
1
 10
5303.456
 20
-7079.426
 30
972.000
 70
    32
  0
VERTEX
  8
M44LXLIFT
 62
1
 10
5294.471
 20
-7077.734
 30
972.000
 70
    32
  0
VERTEX
  8
M44LXLIFT
 62
1
 10
5283.705
 20
-7081.417
 30
972.000
 70
    32
  0
VERTEX
  8
M44LXLIFT
 62
1
 10
5268.501
 20
-7086.754
 30
972.000
 70
    32
  0
VERTEX
  8
M44LXLIFT
 62
1
 10
5260.733
 20
-7084.950
 30
972.000
 70
    32
  0
VERTEX
  8
M44LXLIFT
 62
1
 10
5255.175
 20
-7080.489
 30
972.000
 70
    32
  0
VERTEX
  8
M44LXLIFT
 62
1
 10
5246.515
 20
-7067.440
 30
972.000
 70
    32
  0
VERTEX
  8
M44LXLIFT
 62
1
 10
5242.914
 20
-7056.183
 30
972.000
 70
    32
  0
VERTEX
  8
M44LXLIFT
 62
1
 10
5241.807
 20
-7044.335
 30
972.000
 70
    32
  0
VERTEX
  8
M44LXLIFT
 62
1
 10
5243.182
 20
-7036.117
 30
972.000
 70
    32
  0
VERTEX
  8
M44LXLIFT
 62
1
 10
5254.502
 20
-7029.878
 30
972.000
 70
    32
  0
VERTEX
  8
M44LXLIFT
 62
1
 10
5259.160
 20
-7018.995
 30
972.000
 70
    32
  0
VERTEX
  8
M44LXLIFT
 62
1
 10
5262.181
 20
-7011.115
 30
972.000
 70
    32
  0
VERTEX
  8
M44LXLIFT
 62
1
 10
5272.704
 20
-7004.365
 30
972.000
 70
    32
  0
VERTEX
  8
M44LXLIFT
 62
1
 10
5282.795
 20
-7000.191
 30
972.000
 70
    32
  0
VERTEX
  8
M44LXLIFT
 62
1
 10
5291.350
 20
-7002.946
 30
972.000
 70
    32
  0
VERTEX
  8
M44LXLIFT
 62
1
 10
5299.127
 20
-7005.823
 30
972.000
 70
    32
  0
SEQEND
  8
M44LXLIFT
  0
POLYLINE
  8
M44LXLIFT
 62
1
 66
     1
 70
     9
  0
VERTEX
  8
M44LXLIFT
 62
1
 10
5265.026
 20
-6893.131
 30
966.000
 70
    32
  0
VERTEX
  8
M44LXLIFT
 62
1
 10
5278.510
 20
-6907.377
 30
966.000
 70
    32
  0
VERTEX
  8
M44LXLIFT
 62
1
 10
5293.544
 20
-6926.871
 30
966.000
 70
    32
  0
VERTEX
  8
M44LXLIFT
 62
1
 10
5302.550
 20
-6940.405
 30
966.000
 70
    32
  0
VERTEX
  8
M44LXLIFT
 62
1
 10
5307.831
 20
-6955.061
 30
966.000
 70
    32
  0
VERTEX
  8
M44LXLIFT
 62
1
 10
5311.565
 20
-6967.368
 30
966.000
 70
    32
  0
VERTEX
  8
M44LXLIFT
 62
1
 10
5314.492
 20
-6971.215
 30
966.000
 70
    32
  0
VERTEX
  8
M44LXLIFT
 62
1
 10
5310.312
 20
-6973.518
 30
966.000
 70
    32
  0
VERTEX
  8
M44LXLIFT
 62
1
 10
5308.429
 20
-6989.140
 30
966.000
 70
    32
  0
VERTEX
  8
M44LXLIFT
 62
1
 10
5302.975
 20
-6997.715
 30
966.000
 70
    32
  0
VERTEX
  8
M44LXLIFT
 62
1
 10
5297.888
 20
-7004.526
 30
966.000
 70
    32
  0
VERTEX
  8
M44LXLIFT
 62
1
 10
5292.678
 20
-7006.587
 30
966.000
 70
    32
  0
VERTEX
  8
M44LXLIFT
 62
1
 10
5290.430
 20
-6995.167
 30
966.000
 70
    32
  0
VERTEX
  8
M44LXLIFT
 62
1
 10
5287.438
 20
-6985.131
 30
966.000
 70
    32
  0
VERTEX
  8
M44LXLIFT
 62
1
 10
5287.835
 20
-6970.449
 30
966.000
 70
    32
  0
VERTEX
  8
M44LXLIFT
 62
1
 10
5288.076
 20
-6961.036
 30
966.000
 70
    32
  0
VERTEX
  8
M44LXLIFT
 62
1
 10
5278.255
 20
-6963.876
 30
966.000
 70
    32
  0
VERTEX
  8
M44LXLIFT
 62
1
 10
5275.941
 20
-6958.306
 30
966.000
 70
    32
  0
VERTEX
  8
M44LXLIFT
 62
1
 10
5287.775
 20
-6948.566
 30
966.000
 70
    32
  0
VERTEX
  8
M44LXLIFT
 62
1
 10
5280.743
 20
-6931.275
 30
966.000
 70
    32
  0
VERTEX
  8
M44LXLIFT
 62
1
 10
5275.932
 20
-6919.727
 30
966.000
 70
    32
  0
VERTEX
  8
M44LXLIFT
 62
1
 10
5264.510
 20
-6910.691
 30
966.000
 70
    32
  0
VERTEX
  8
M44LXLIFT
 62
1
 10
5257.965
 20
-6905.525
 30
966.000
 70
    32
  0
VERTEX
  8
M44LXLIFT
 62
1
 10
5256.661
 20
-6896.664
 30
966.000
 70
    32
  0
SEQEND
  8
M44LXLIFT
  0
POLYLINE
  8
M44LXLIFT
 62
1
 66
     1
 70
     9
  0
VERTEX
  8
M44LXLIFT
 62
1
 10
5232.383
 20
-7135.891
 30
912.000
 70
    32
  0
VERTEX
  8
M44LXLIFT
 62
1
 10
5235.946
 20
-7142.629
 30
912.000
 70
    32
  0
VERTEX
  8
M44LXLIFT
 62
1
 10
5238.054
 20
-7150.201
 30
912.000
 70
    32
  0
VERTEX
  8
M44LXLIFT
 62
1
 10
5236.949
 20
-7155.870
 30
912.000
 70
    32
  0
VERTEX
  8
M44LXLIFT
 62
1
 10
5228.675
 20
-7162.706
 30
912.000
 70
    32
  0
VERTEX
  8
M44LXLIFT
 62
1
 10
5217.568
 20
-7168.015
 30
912.000
 70
    32
  0
VERTEX
  8
M44LXLIFT
 62
1
 10
5203.305
 20
-7173.002
 30
912.000
 70
    32
  0
VERTEX
  8
M44LXLIFT
 62
1
 10
5192.666
 20
-7173.860
 30
912.000
 70
    32
  0
VERTEX
  8
M44LXLIFT
 62
1
 10
5180.741
 20
-7168.284
 30
912.000
 70
    32
  0
VERTEX
  8
M44LXLIFT
 62
1
 10
5169.046
 20
-7151.176
 30
912.000
 70
    32
  0
VERTEX
  8
M44LXLIFT
 62
1
 10
5157.359
 20
-7133.630
 30
912.000
 70
    32
  0
VERTEX
  8
M44LXLIFT
 62
1
 10
5163.421
 20
-7129.580
 30
912.000
 70
    32
  0
VERTEX
  8
M44LXLIFT
 62
1
 10
5168.391
 20
-7129.566
 30
912.000
 70
    32
  0
VERTEX
  8
M44LXLIFT
 62
1
 10
5178.637
 20
-7142.416
 30
912.000
 70
    32
  0
VERTEX
  8
M44LXLIFT
 62
1
 10
5186.141
 20
-7149.665
 30
912.000
 70
    32
  0
VERTEX
  8
M44LXLIFT
 62
1
 10
5198.797
 20
-7148.002
 30
912.000
 70
    32
  0
VERTEX
  8
M44LXLIFT
 62
1
 10
5206.548
 20
-7142.842
 30
912.000
 70
    32
  0
VERTEX
  8
M44LXLIFT
 62
1
 10
5209.544
 20
-7135.593
 30
912.000
 70
    32
  0
VERTEX
  8
M44LXLIFT
 62
1
 10
5206.842
 20
-7129.749
 30
912.000
 70
    32
  0
VERTEX
  8
M44LXLIFT
 62
1
 10
5215.040
 20
-7124.158
 30
912.000
 70
    32
  0
VERTEX
  8
M44LXLIFT
 62
1
 10
5222.493
 20
-7131.337
 30
912.000
 70
    32
  0
SEQEND
  8
M44LXLIFT
  0
POLYLINE
  8
M44LXLIFT
 62
1
 66
     1
 70
     9
  0
VERTEX
  8
M44LXLIFT
 62
1
 10
5216.967
 20
-7120.628
 30
892.000
 70
    32
  0
VERTEX
  8
M44LXLIFT
 62
1
 10
5211.614
 20
-7119.181
 30
892.000
 70
    32
  0
VERTEX
  8
M44LXLIFT
 62
1
 10
5199.755
 20
-7101.145
 30
892.000
 70
    32
  0
VERTEX
  8
M44LXLIFT
 62
1
 10
5178.412
 20
-7080.416
 30
892.000
 70
    32
  0
VERTEX
  8
M44LXLIFT
 62
1
 10
5175.597
 20
-7069.272
 30
892.000
 70
    32
  0
VERTEX
  8
M44LXLIFT
 62
1
 10
5190.211
 20
-7053.394
 30
892.000
 70
    32
  0
VERTEX
  8
M44LXLIFT
 62
1
 10
5200.630
 20
-7059.947
 30
892.000
 70
    32
  0
VERTEX
  8
M44LXLIFT
 62
1
 10
5205.967
 20
-7067.988
 30
892.000
 70
    32
  0
VERTEX
  8
M44LXLIFT
 62
1
 10
5209.158
 20
-7078.755
 30
892.000
 70
    32
  0
VERTEX
  8
M44LXLIFT
 62
1
 10
5217.402
 20
-7098.521
 30
892.000
 70
    32
  0
VERTEX
  8
M44LXLIFT
 62
1
 10
5226.574
 20
-7113.413
 30
892.000
 70
    32
  0
SEQEND
  8
M44LXLIFT
  0
POLYLINE
  8
M44LXLIFT
 62
1
 66
     1
 70
     9
  0
VERTEX
  8
M44LXLIFT
 62
1
 10
5349.857
 20
-7154.163
 30
846.000
 70
    32
  0
VERTEX
  8
M44LXLIFT
 62
1
 10
5353.027
 20
-7158.373
 30
846.000
 70
    32
  0
VERTEX
  8
M44LXLIFT
 62
1
 10
5361.523
 20
-7161.100
 30
846.000
 70
    32
  0
VERTEX
  8
M44LXLIFT
 62
1
 10
5369.981
 20
-7162.876
 30
846.000
 70
    32
  0
VERTEX
  8
M44LXLIFT
 62
1
 10
5377.355
 20
-7161.967
 30
846.000
 70
    32
  0
VERTEX
  8
M44LXLIFT
 62
1
 10
5382.262
 20
-7163.937
 30
846.000
 70
    32
  0
VERTEX
  8
M44LXLIFT
 62
1
 10
5384.863
 20
-7168.561
 30
846.000
 70
    32
  0
VERTEX
  8
M44LXLIFT
 62
1
 10
5385.301
 20
-7178.123
 30
846.000
 70
    32
  0
VERTEX
  8
M44LXLIFT
 62
1
 10
5388.715
 20
-7184.761
 30
846.000
 70
    32
  0
VERTEX
  8
M44LXLIFT
 62
1
 10
5397.412
 20
-7189.405
 30
846.000
 70
    32
  0
VERTEX
  8
M44LXLIFT
 62
1
 10
5403.900
 20
-7196.088
 30
846.000
 70
    32
  0
VERTEX
  8
M44LXLIFT
 62
1
 10
5403.581
 20
-7209.241
 30
846.000
 70
    32
  0
VERTEX
  8
M44LXLIFT
 62
1
 10
5399.893
 20
-7218.654
 30
846.000
 70
    32
  0
VERTEX
  8
M44LXLIFT
 62
1
 10
5395.999
 20
-7224.200
 30
846.000
 70
    32
  0
VERTEX
  8
M44LXLIFT
 62
1
 10
5389.174
 20
-7224.818
 30
846.000
 70
    32
  0
VERTEX
  8
M44LXLIFT
 62
1
 10
5384.086
 20
-7224.392
 30
846.000
 70
    32
  0
VERTEX
  8
M44LXLIFT
 62
1
 10
5378.793
 20
-7217.708
 30
846.000
 70
    32
  0
VERTEX
  8
M44LXLIFT
 62
1
 10
5375.835
 20
-7218.121
 30
846.000
 70
    32
  0
VERTEX
  8
M44LXLIFT
 62
1
 10
5373.441
 20
-7210.198
 30
846.000
 70
    32
  0
VERTEX
  8
M44LXLIFT
 62
1
 10
5366.140
 20
-7200.305
 30
846.000
 70
    32
  0
VERTEX
  8
M44LXLIFT
 62
1
 10
5356.843
 20
-7194.687
 30
846.000
 70
    32
  0
VERTEX
  8
M44LXLIFT
 62
1
 10
5348.495
 20
-7191.418
 30
846.000
 70
    32
  0
VERTEX
  8
M44LXLIFT
 62
1
 10
5346.301
 20
-7185.413
 30
846.000
 70
    32
  0
VERTEX
  8
M44LXLIFT
 62
1
 10
5345.185
 20
-7178.950
 30
846.000
 70
    32
  0
VERTEX
  8
M44LXLIFT
 62
1
 10
5339.078
 20
-7173.835
 30
846.000
 70
    32
  0
VERTEX
  8
M44LXLIFT
 62
1
 10
5339.808
 20
-7168.418
 30
846.000
 70
    32
  0
VERTEX
  8
M44LXLIFT
 62
1
 10
5341.068
 20
-7160.444
 30
846.000
 70
    32
  0
SEQEND
  8
M44LXLIFT
  0
POLYLINE
  8
M44LXLIFT
 62
1
 66
     1
 70
     9
  0
VERTEX
  8
M44LXLIFT
 62
1
 10
5226.029
 20
-7266.970
 30
864.000
 70
    32
  0
VERTEX
  8
M44LXLIFT
 62
1
 10
5222.113
 20
-7248.796
 30
864.000
 70
    32
  0
VERTEX
  8
M44LXLIFT
 62
1
 10
5208.780
 20
-7230.925
 30
864.000
 70
    32
  0
VERTEX
  8
M44LXLIFT
 62
1
 10
5197.913
 20
-7216.469
 30
864.000
 70
    32
  0
VERTEX
  8
M44LXLIFT
 62
1
 10
5193.646
 20
-7207.858
 30
864.000
 70
    32
  0
VERTEX
  8
M44LXLIFT
 62
1
 10
5194.032
 20
-7199.245
 30
864.000
 70
    32
  0
VERTEX
  8
M44LXLIFT
 62
1
 10
5200.239
 20
-7183.399
 30
864.000
 70
    32
  0
VERTEX
  8
M44LXLIFT
 62
1
 10
5204.995
 20
-7169.141
 30
864.000
 70
    32
  0
VERTEX
  8
M44LXLIFT
 62
1
 10
5203.906
 20
-7159.535
 30
864.000
 70
    32
  0
VERTEX
  8
M44LXLIFT
 62
1
 10
5210.189
 20
-7154.892
 30
864.000
 70
    32
  0
VERTEX
  8
M44LXLIFT
 62
1
 10
5214.146
 20
-7166.974
 30
864.000
 70
    32
  0
VERTEX
  8
M44LXLIFT
 62
1
 10
5216.671
 20
-7171.971
 30
864.000
 70
    32
  0
VERTEX
  8
M44LXLIFT
 62
1
 10
5222.466
 20
-7173.850
 30
864.000
 70
    32
  0
VERTEX
  8
M44LXLIFT
 62
1
 10
5232.637
 20
-7175.494
 30
864.000
 70
    32
  0
VERTEX
  8
M44LXLIFT
 62
1
 10
5239.713
 20
-7188.896
 30
864.000
 70
    32
  0
VERTEX
  8
M44LXLIFT
 62
1
 10
5241.319
 20
-7199.969
 30
864.000
 70
    32
  0
VERTEX
  8
M44LXLIFT
 62
1
 10
5243.760
 20
-7221.048
 30
864.000
 70
    32
  0
VERTEX
  8
M44LXLIFT
 62
1
 10
5245.780
 20
-7235.394
 30
864.000
 70
    32
  0
VERTEX
  8
M44LXLIFT
 62
1
 10
5244.241
 20
-7252.309
 30
864.000
 70
    32
  0
VERTEX
  8
M44LXLIFT
 62
1
 10
5245.604
 20
-7255.547
 30
864.000
 70
    32
  0
VERTEX
  8
M44LXLIFT
 62
1
 10
5247.563
 20
-7261.710
 30
864.000
 70
    32
  0
VERTEX
  8
M44LXLIFT
 62
1
 10
5246.150
 20
-7268.900
 30
864.000
 70
    32
  0
SEQEND
  8
M44LXLIFT
  0
ENDSEC
  0
EOF
