999
********************************
999
*   DXF File - Entities Only   *
999
*        3D Data Format        *
999
*     Output from ENVISAGE     *
999
*     31-Dec-2007 15:08:50     *
999
********************************
  0
SECTION 
  2
HEADER
  9
$ACADVER
  1
AC1009
  9
$EXTMIN
 10
-290000.000
 20
-250000.000
 30
-4000.000
  9
$EXTMAX
 10
320000.000
 20
160000.000
 30
6000.000
  0
ENDSEC
  0
SECTION
  2
ENTITIES
  0
POLYLINE
  8
M45LXLIFT
 62
3
 66
     1
 70
     9
  0
VERTEX
  8
M45LXLIFT
 62
3
 10
5446.800
 20
-7212.496
 30
681.000
 70
    32
  0
VERTEX
  8
M45LXLIFT
 62
3
 10
5439.207
 20
-7201.956
 30
681.000
 70
    32
  0
VERTEX
  8
M45LXLIFT
 62
3
 10
5433.542
 20
-7191.541
 30
681.000
 70
    32
  0
VERTEX
  8
M45LXLIFT
 62
3
 10
5431.168
 20
-7179.838
 30
681.000
 70
    32
  0
VERTEX
  8
M45LXLIFT
 62
3
 10
5437.165
 20
-7176.599
 30
681.000
 70
    32
  0
VERTEX
  8
M45LXLIFT
 62
3
 10
5450.058
 20
-7178.128
 30
681.000
 70
    32
  0
VERTEX
  8
M45LXLIFT
 62
3
 10
5459.891
 20
-7179.914
 30
681.000
 70
    32
  0
VERTEX
  8
M45LXLIFT
 62
3
 10
5470.506
 20
-7178.432
 30
681.000
 70
    32
  0
VERTEX
  8
M45LXLIFT
 62
3
 10
5478.493
 20
-7170.298
 30
681.000
 70
    32
  0
VERTEX
  8
M45LXLIFT
 62
3
 10
5487.342
 20
-7161.110
 30
681.000
 70
    32
  0
VERTEX
  8
M45LXLIFT
 62
3
 10
5493.895
 20
-7169.154
 30
681.000
 70
    32
  0
VERTEX
  8
M45LXLIFT
 62
3
 10
5495.941
 20
-7177.849
 30
681.000
 70
    32
  0
VERTEX
  8
M45LXLIFT
 62
3
 10
5494.401
 20
-7183.069
 30
681.000
 70
    32
  0
VERTEX
  8
M45LXLIFT
 62
3
 10
5498.022
 20
-7192.900
 30
681.000
 70
    32
  0
VERTEX
  8
M45LXLIFT
 62
3
 10
5492.116
 20
-7193.261
 30
681.000
 70
    32
  0
VERTEX
  8
M45LXLIFT
 62
3
 10
5481.585
 20
-7193.059
 30
681.000
 70
    32
  0
VERTEX
  8
M45LXLIFT
 62
3
 10
5471.376
 20
-7199.009
 30
681.000
 70
    32
  0
VERTEX
  8
M45LXLIFT
 62
3
 10
5458.836
 20
-7206.529
 30
681.000
 70
    32
  0
VERTEX
  8
M45LXLIFT
 62
3
 10
5453.099
 20
-7210.878
 30
681.000
 70
    32
  0
SEQEND
  8
M45LXLIFT
  0
POLYLINE
  8
M45LXLIFT
 62
6
 66
     1
 70
     9
  0
VERTEX
  8
M45LXLIFT
 62
6
 10
5495.740
 20
-7138.833
 30
687.000
 70
    32
  0
VERTEX
  8
M45LXLIFT
 62
6
 10
5486.993
 20
-7145.460
 30
687.000
 70
    32
  0
VERTEX
  8
M45LXLIFT
 62
6
 10
5472.980
 20
-7144.629
 30
687.000
 70
    32
  0
VERTEX
  8
M45LXLIFT
 62
6
 10
5455.346
 20
-7141.324
 30
687.000
 70
    32
  0
VERTEX
  8
M45LXLIFT
 62
6
 10
5442.750
 20
-7142.610
 30
687.000
 70
    32
  0
VERTEX
  8
M45LXLIFT
 62
6
 10
5434.944
 20
-7144.988
 30
687.000
 70
    32
  0
VERTEX
  8
M45LXLIFT
 62
6
 10
5428.195
 20
-7136.221
 30
687.000
 70
    32
  0
VERTEX
  8
M45LXLIFT
 62
6
 10
5429.415
 20
-7130.257
 30
687.000
 70
    32
  0
VERTEX
  8
M45LXLIFT
 62
6
 10
5440.234
 20
-7123.652
 30
687.000
 70
    32
  0
VERTEX
  8
M45LXLIFT
 62
6
 10
5450.321
 20
-7117.683
 30
687.000
 70
    32
  0
VERTEX
  8
M45LXLIFT
 62
6
 10
5456.554
 20
-7114.923
 30
687.000
 70
    32
  0
VERTEX
  8
M45LXLIFT
 62
6
 10
5464.016
 20
-7123.178
 30
687.000
 70
    32
  0
VERTEX
  8
M45LXLIFT
 62
6
 10
5471.608
 20
-7128.309
 30
687.000
 70
    32
  0
VERTEX
  8
M45LXLIFT
 62
6
 10
5480.572
 20
-7129.640
 30
687.000
 70
    32
  0
VERTEX
  8
M45LXLIFT
 62
6
 10
5485.549
 20
-7129.191
 30
687.000
 70
    32
  0
VERTEX
  8
M45LXLIFT
 62
6
 10
5490.343
 20
-7133.743
 30
687.000
 70
    32
  0
SEQEND
  8
M45LXLIFT
  0
POLYLINE
  8
M45LXLIFT
 62
13
 66
     1
 70
     9
  0
VERTEX
  8
M45LXLIFT
 62
13
 10
5301.613
 20
-7261.278
 30
688.000
 70
    32
  0
VERTEX
  8
M45LXLIFT
 62
13
 10
5311.504
 20
-7274.706
 30
688.000
 70
    32
  0
VERTEX
  8
M45LXLIFT
 62
13
 10
5319.319
 20
-7281.949
 30
688.000
 70
    32
  0
VERTEX
  8
M45LXLIFT
 62
13
 10
5326.129
 20
-7293.053
 30
688.000
 70
    32
  0
VERTEX
  8
M45LXLIFT
 62
13
 10
5331.802
 20
-7305.733
 30
688.000
 70
    32
  0
VERTEX
  8
M45LXLIFT
 62
13
 10
5334.699
 20
-7313.057
 30
688.000
 70
    32
  0
VERTEX
  8
M45LXLIFT
 62
13
 10
5332.259
 20
-7324.985
 30
688.000
 70
    32
  0
VERTEX
  8
M45LXLIFT
 62
13
 10
5336.590
 20
-7328.895
 30
688.000
 70
    32
  0
VERTEX
  8
M45LXLIFT
 62
13
 10
5335.646
 20
-7332.389
 30
688.000
 70
    32
  0
VERTEX
  8
M45LXLIFT
 62
13
 10
5328.319
 20
-7337.234
 30
688.000
 70
    32
  0
VERTEX
  8
M45LXLIFT
 62
13
 10
5318.839
 20
-7344.497
 30
688.000
 70
    32
  0
VERTEX
  8
M45LXLIFT
 62
13
 10
5314.094
 20
-7349.322
 30
688.000
 70
    32
  0
VERTEX
  8
M45LXLIFT
 62
13
 10
5307.817
 20
-7348.868
 30
688.000
 70
    32
  0
VERTEX
  8
M45LXLIFT
 62
13
 10
5301.938
 20
-7343.260
 30
688.000
 70
    32
  0
VERTEX
  8
M45LXLIFT
 62
13
 10
5308.059
 20
-7330.736
 30
688.000
 70
    32
  0
VERTEX
  8
M45LXLIFT
 62
13
 10
5304.617
 20
-7309.742
 30
688.000
 70
    32
  0
VERTEX
  8
M45LXLIFT
 62
13
 10
5297.299
 20
-7304.088
 30
688.000
 70
    32
  0
VERTEX
  8
M45LXLIFT
 62
13
 10
5286.678
 20
-7289.347
 30
688.000
 70
    32
  0
VERTEX
  8
M45LXLIFT
 62
13
 10
5276.678
 20
-7281.623
 30
688.000
 70
    32
  0
VERTEX
  8
M45LXLIFT
 62
13
 10
5276.517
 20
-7277.196
 30
688.000
 70
    32
  0
VERTEX
  8
M45LXLIFT
 62
13
 10
5287.227
 20
-7268.938
 30
688.000
 70
    32
  0
VERTEX
  8
M45LXLIFT
 62
13
 10
5289.399
 20
-7260.991
 30
688.000
 70
    32
  0
SEQEND
  8
M45LXLIFT
  0
POLYLINE
  8
M45LXLIFT
 62
7
 66
     1
 70
     9
  0
VERTEX
  8
M45LXLIFT
 62
7
 10
4939.854
 20
-6785.436
 30
689.000
 70
    32
  0
VERTEX
  8
M45LXLIFT
 62
7
 10
4935.482
 20
-6799.188
 30
689.000
 70
    32
  0
VERTEX
  8
M45LXLIFT
 62
7
 10
4942.604
 20
-6806.821
 30
689.000
 70
    32
  0
VERTEX
  8
M45LXLIFT
 62
7
 10
4946.882
 20
-6812.610
 30
689.000
 70
    32
  0
VERTEX
  8
M45LXLIFT
 62
7
 10
4954.150
 20
-6828.252
 30
689.000
 70
    32
  0
VERTEX
  8
M45LXLIFT
 62
7
 10
4956.354
 20
-6833.263
 30
689.000
 70
    32
  0
VERTEX
  8
M45LXLIFT
 62
7
 10
4963.246
 20
-6841.928
 30
689.000
 70
    32
  0
VERTEX
  8
M45LXLIFT
 62
7
 10
4972.407
 20
-6836.626
 30
689.000
 70
    32
  0
VERTEX
  8
M45LXLIFT
 62
7
 10
4971.425
 20
-6831.059
 30
689.000
 70
    32
  0
VERTEX
  8
M45LXLIFT
 62
7
 10
4974.069
 20
-6821.365
 30
689.000
 70
    32
  0
VERTEX
  8
M45LXLIFT
 62
7
 10
4974.945
 20
-6815.974
 30
689.000
 70
    32
  0
VERTEX
  8
M45LXLIFT
 62
7
 10
4971.571
 20
-6806.938
 30
689.000
 70
    32
  0
VERTEX
  8
M45LXLIFT
 62
7
 10
4964.485
 20
-6795.600
 30
689.000
 70
    32
  0
VERTEX
  8
M45LXLIFT
 62
7
 10
4959.677
 20
-6782.621
 30
689.000
 70
    32
  0
VERTEX
  8
M45LXLIFT
 62
7
 10
4955.907
 20
-6778.739
 30
689.000
 70
    32
  0
VERTEX
  8
M45LXLIFT
 62
7
 10
4948.696
 20
-6782.095
 30
689.000
 70
    32
  0
SEQEND
  8
M45LXLIFT
  0
POLYLINE
  8
M45LXLIFT
 62
8
 66
     1
 70
     9
  0
VERTEX
  8
M45LXLIFT
 62
8
 10
4811.933
 20
-6622.298
 30
688.000
 70
    32
  0
VERTEX
  8
M45LXLIFT
 62
8
 10
4824.475
 20
-6630.247
 30
688.000
 70
    32
  0
VERTEX
  8
M45LXLIFT
 62
8
 10
4833.125
 20
-6639.700
 30
688.000
 70
    32
  0
VERTEX
  8
M45LXLIFT
 62
8
 10
4835.486
 20
-6645.680
 30
688.000
 70
    32
  0
VERTEX
  8
M45LXLIFT
 62
8
 10
4834.254
 20
-6651.327
 30
688.000
 70
    32
  0
VERTEX
  8
M45LXLIFT
 62
8
 10
4825.214
 20
-6653.946
 30
688.000
 70
    32
  0
VERTEX
  8
M45LXLIFT
 62
8
 10
4815.210
 20
-6652.823
 30
688.000
 70
    32
  0
VERTEX
  8
M45LXLIFT
 62
8
 10
4807.783
 20
-6655.578
 30
688.000
 70
    32
  0
VERTEX
  8
M45LXLIFT
 62
8
 10
4804.643
 20
-6663.682
 30
688.000
 70
    32
  0
VERTEX
  8
M45LXLIFT
 62
8
 10
4809.750
 20
-6674.823
 30
688.000
 70
    32
  0
VERTEX
  8
M45LXLIFT
 62
8
 10
4818.995
 20
-6682.550
 30
688.000
 70
    32
  0
VERTEX
  8
M45LXLIFT
 62
8
 10
4829.027
 20
-6693.172
 30
688.000
 70
    32
  0
VERTEX
  8
M45LXLIFT
 62
8
 10
4838.188
 20
-6705.287
 30
688.000
 70
    32
  0
VERTEX
  8
M45LXLIFT
 62
8
 10
4839.731
 20
-6710.882
 30
688.000
 70
    32
  0
VERTEX
  8
M45LXLIFT
 62
8
 10
4834.296
 20
-6714.149
 30
688.000
 70
    32
  0
VERTEX
  8
M45LXLIFT
 62
8
 10
4828.403
 20
-6712.877
 30
688.000
 70
    32
  0
VERTEX
  8
M45LXLIFT
 62
8
 10
4817.591
 20
-6703.575
 30
688.000
 70
    32
  0
VERTEX
  8
M45LXLIFT
 62
8
 10
4803.601
 20
-6693.316
 30
688.000
 70
    32
  0
VERTEX
  8
M45LXLIFT
 62
8
 10
4793.181
 20
-6682.758
 30
688.000
 70
    32
  0
VERTEX
  8
M45LXLIFT
 62
8
 10
4789.913
 20
-6671.915
 30
688.000
 70
    32
  0
VERTEX
  8
M45LXLIFT
 62
8
 10
4786.452
 20
-6656.451
 30
688.000
 70
    32
  0
VERTEX
  8
M45LXLIFT
 62
8
 10
4785.579
 20
-6642.476
 30
688.000
 70
    32
  0
VERTEX
  8
M45LXLIFT
 62
8
 10
4783.749
 20
-6631.678
 30
688.000
 70
    32
  0
VERTEX
  8
M45LXLIFT
 62
8
 10
4787.878
 20
-6623.295
 30
688.000
 70
    32
  0
VERTEX
  8
M45LXLIFT
 62
8
 10
4798.445
 20
-6622.496
 30
688.000
 70
    32
  0
VERTEX
  8
M45LXLIFT
 62
8
 10
4804.069
 20
-6623.096
 30
688.000
 70
    32
  0
SEQEND
  8
M45LXLIFT
  0
POLYLINE
  8
M45LXLIFT
 62
3
 66
     1
 70
     9
  0
VERTEX
  8
M45LXLIFT
 62
3
 10
5482.677
 20
-7164.860
 30
700.000
 70
    32
  0
VERTEX
  8
M45LXLIFT
 62
3
 10
5466.480
 20
-7181.437
 30
700.000
 70
    32
  0
VERTEX
  8
M45LXLIFT
 62
3
 10
5445.384
 20
-7187.033
 30
700.000
 70
    32
  0
VERTEX
  8
M45LXLIFT
 62
3
 10
5436.040
 20
-7188.798
 30
700.000
 70
    32
  0
VERTEX
  8
M45LXLIFT
 62
3
 10
5433.542
 20
-7198.838
 30
700.000
 70
    32
  0
VERTEX
  8
M45LXLIFT
 62
3
 10
5439.001
 20
-7203.996
 30
700.000
 70
    32
  0
VERTEX
  8
M45LXLIFT
 62
3
 10
5448.262
 20
-7203.916
 30
700.000
 70
    32
  0
VERTEX
  8
M45LXLIFT
 62
3
 10
5465.662
 20
-7196.655
 30
700.000
 70
    32
  0
VERTEX
  8
M45LXLIFT
 62
3
 10
5481.608
 20
-7192.179
 30
700.000
 70
    32
  0
VERTEX
  8
M45LXLIFT
 62
3
 10
5489.187
 20
-7188.871
 30
700.000
 70
    32
  0
VERTEX
  8
M45LXLIFT
 62
3
 10
5491.397
 20
-7178.281
 30
700.000
 70
    32
  0
SEQEND
  8
M45LXLIFT
  0
POLYLINE
  8
M45LXLIFT
 62
6
 66
     1
 70
     9
  0
VERTEX
  8
M45LXLIFT
 62
6
 10
5450.073
 20
-7168.476
 30
698.000
 70
    32
  0
VERTEX
  8
M45LXLIFT
 62
6
 10
5463.526
 20
-7163.850
 30
698.000
 70
    32
  0
VERTEX
  8
M45LXLIFT
 62
6
 10
5476.702
 20
-7157.040
 30
698.000
 70
    32
  0
VERTEX
  8
M45LXLIFT
 62
6
 10
5484.107
 20
-7149.741
 30
698.000
 70
    32
  0
VERTEX
  8
M45LXLIFT
 62
6
 10
5485.546
 20
-7140.033
 30
698.000
 70
    32
  0
VERTEX
  8
M45LXLIFT
 62
6
 10
5478.891
 20
-7129.021
 30
698.000
 70
    32
  0
VERTEX
  8
M45LXLIFT
 62
6
 10
5470.266
 20
-7122.032
 30
698.000
 70
    32
  0
VERTEX
  8
M45LXLIFT
 62
6
 10
5461.710
 20
-7120.087
 30
698.000
 70
    32
  0
VERTEX
  8
M45LXLIFT
 62
6
 10
5449.878
 20
-7124.408
 30
698.000
 70
    32
  0
VERTEX
  8
M45LXLIFT
 62
6
 10
5437.794
 20
-7127.178
 30
698.000
 70
    32
  0
VERTEX
  8
M45LXLIFT
 62
6
 10
5427.573
 20
-7140.629
 30
698.000
 70
    32
  0
VERTEX
  8
M45LXLIFT
 62
6
 10
5429.264
 20
-7149.269
 30
698.000
 70
    32
  0
VERTEX
  8
M45LXLIFT
 62
6
 10
5428.058
 20
-7154.799
 30
698.000
 70
    32
  0
VERTEX
  8
M45LXLIFT
 62
6
 10
5436.437
 20
-7161.748
 30
698.000
 70
    32
  0
VERTEX
  8
M45LXLIFT
 62
6
 10
5441.505
 20
-7164.264
 30
698.000
 70
    32
  0
SEQEND
  8
M45LXLIFT
  0
POLYLINE
  8
M45LXLIFT
 62
8
 66
     1
 70
     9
  0
VERTEX
  8
M45LXLIFT
 62
8
 10
5389.759
 20
-7025.136
 30
698.000
 70
    32
  0
VERTEX
  8
M45LXLIFT
 62
8
 10
5404.093
 20
-7017.381
 30
698.000
 70
    32
  0
VERTEX
  8
M45LXLIFT
 62
8
 10
5407.558
 20
-7006.427
 30
698.000
 70
    32
  0
VERTEX
  8
M45LXLIFT
 62
8
 10
5413.945
 20
-6996.070
 30
698.000
 70
    32
  0
VERTEX
  8
M45LXLIFT
 62
8
 10
5422.845
 20
-6989.641
 30
698.000
 70
    32
  0
VERTEX
  8
M45LXLIFT
 62
8
 10
5435.526
 20
-6981.997
 30
698.000
 70
    32
  0
VERTEX
  8
M45LXLIFT
 62
8
 10
5439.399
 20
-6986.458
 30
698.000
 70
    32
  0
VERTEX
  8
M45LXLIFT
 62
8
 10
5440.931
 20
-6994.128
 30
698.000
 70
    32
  0
VERTEX
  8
M45LXLIFT
 62
8
 10
5444.892
 20
-7001.561
 30
698.000
 70
    32
  0
VERTEX
  8
M45LXLIFT
 62
8
 10
5453.532
 20
-7007.672
 30
698.000
 70
    32
  0
VERTEX
  8
M45LXLIFT
 62
8
 10
5458.952
 20
-7013.075
 30
698.000
 70
    32
  0
VERTEX
  8
M45LXLIFT
 62
8
 10
5455.468
 20
-7018.301
 30
698.000
 70
    32
  0
VERTEX
  8
M45LXLIFT
 62
8
 10
5444.495
 20
-7028.611
 30
698.000
 70
    32
  0
VERTEX
  8
M45LXLIFT
 62
8
 10
5432.936
 20
-7026.559
 30
698.000
 70
    32
  0
VERTEX
  8
M45LXLIFT
 62
8
 10
5422.496
 20
-7019.907
 30
698.000
 70
    32
  0
VERTEX
  8
M45LXLIFT
 62
8
 10
5409.937
 20
-7023.670
 30
698.000
 70
    32
  0
VERTEX
  8
M45LXLIFT
 62
8
 10
5395.480
 20
-7035.306
 30
698.000
 70
    32
  0
SEQEND
  8
M45LXLIFT
  0
POLYLINE
  8
M45LXLIFT
 62
7
 66
     1
 70
     9
  0
VERTEX
  8
M45LXLIFT
 62
7
 10
5294.566
 20
-7090.002
 30
694.000
 70
    32
  0
VERTEX
  8
M45LXLIFT
 62
7
 10
5289.795
 20
-7093.448
 30
694.000
 70
    32
  0
VERTEX
  8
M45LXLIFT
 62
7
 10
5289.076
 20
-7100.252
 30
694.000
 70
    32
  0
VERTEX
  8
M45LXLIFT
 62
7
 10
5284.334
 20
-7105.087
 30
694.000
 70
    32
  0
VERTEX
  8
M45LXLIFT
 62
7
 10
5274.963
 20
-7113.265
 30
694.000
 70
    32
  0
VERTEX
  8
M45LXLIFT
 62
7
 10
5283.470
 20
-7128.790
 30
694.000
 70
    32
  0
VERTEX
  8
M45LXLIFT
 62
7
 10
5287.550
 20
-7141.338
 30
694.000
 70
    32
  0
VERTEX
  8
M45LXLIFT
 62
7
 10
5294.469
 20
-7142.516
 30
694.000
 70
    32
  0
VERTEX
  8
M45LXLIFT
 62
7
 10
5294.426
 20
-7151.756
 30
694.000
 70
    32
  0
VERTEX
  8
M45LXLIFT
 62
7
 10
5299.436
 20
-7162.440
 30
694.000
 70
    32
  0
VERTEX
  8
M45LXLIFT
 62
7
 10
5308.188
 20
-7178.006
 30
694.000
 70
    32
  0
VERTEX
  8
M45LXLIFT
 62
7
 10
5316.936
 20
-7192.815
 30
694.000
 70
    32
  0
VERTEX
  8
M45LXLIFT
 62
7
 10
5320.153
 20
-7202.518
 30
694.000
 70
    32
  0
VERTEX
  8
M45LXLIFT
 62
7
 10
5326.986
 20
-7212.427
 30
694.000
 70
    32
  0
VERTEX
  8
M45LXLIFT
 62
7
 10
5336.219
 20
-7220.709
 30
694.000
 70
    32
  0
VERTEX
  8
M45LXLIFT
 62
7
 10
5340.956
 20
-7231.915
 30
694.000
 70
    32
  0
VERTEX
  8
M45LXLIFT
 62
7
 10
5342.334
 20
-7243.272
 30
694.000
 70
    32
  0
VERTEX
  8
M45LXLIFT
 62
7
 10
5346.409
 20
-7247.263
 30
694.000
 70
    32
  0
VERTEX
  8
M45LXLIFT
 62
7
 10
5359.787
 20
-7247.784
 30
694.000
 70
    32
  0
VERTEX
  8
M45LXLIFT
 62
7
 10
5370.824
 20
-7245.662
 30
694.000
 70
    32
  0
VERTEX
  8
M45LXLIFT
 62
7
 10
5369.897
 20
-7234.630
 30
694.000
 70
    32
  0
VERTEX
  8
M45LXLIFT
 62
7
 10
5366.086
 20
-7226.655
 30
694.000
 70
    32
  0
VERTEX
  8
M45LXLIFT
 62
7
 10
5353.473
 20
-7208.895
 30
694.000
 70
    32
  0
VERTEX
  8
M45LXLIFT
 62
7
 10
5342.161
 20
-7188.136
 30
694.000
 70
    32
  0
VERTEX
  8
M45LXLIFT
 62
7
 10
5335.341
 20
-7180.495
 30
694.000
 70
    32
  0
VERTEX
  8
M45LXLIFT
 62
7
 10
5332.558
 20
-7166.143
 30
694.000
 70
    32
  0
VERTEX
  8
M45LXLIFT
 62
7
 10
5329.952
 20
-7137.037
 30
694.000
 70
    32
  0
VERTEX
  8
M45LXLIFT
 62
7
 10
5326.003
 20
-7129.921
 30
694.000
 70
    32
  0
VERTEX
  8
M45LXLIFT
 62
7
 10
5325.243
 20
-7123.319
 30
694.000
 70
    32
  0
VERTEX
  8
M45LXLIFT
 62
7
 10
5328.518
 20
-7120.953
 30
694.000
 70
    32
  0
VERTEX
  8
M45LXLIFT
 62
7
 10
5320.257
 20
-7113.267
 30
694.000
 70
    32
  0
VERTEX
  8
M45LXLIFT
 62
7
 10
5309.951
 20
-7099.150
 30
694.000
 70
    32
  0
VERTEX
  8
M45LXLIFT
 62
7
 10
5305.460
 20
-7091.884
 30
694.000
 70
    32
  0
SEQEND
  8
M45LXLIFT
  0
POLYLINE
  8
M45LXLIFT
 62
13
 66
     1
 70
     9
  0
VERTEX
  8
M45LXLIFT
 62
13
 10
5327.241
 20
-7334.574
 30
699.000
 70
    32
  0
VERTEX
  8
M45LXLIFT
 62
13
 10
5326.235
 20
-7324.032
 30
699.000
 70
    32
  0
VERTEX
  8
M45LXLIFT
 62
13
 10
5327.385
 20
-7313.775
 30
699.000
 70
    32
  0
VERTEX
  8
M45LXLIFT
 62
13
 10
5324.975
 20
-7304.138
 30
699.000
 70
    32
  0
VERTEX
  8
M45LXLIFT
 62
13
 10
5314.023
 20
-7287.779
 30
699.000
 70
    32
  0
VERTEX
  8
M45LXLIFT
 62
13
 10
5302.799
 20
-7277.791
 30
699.000
 70
    32
  0
VERTEX
  8
M45LXLIFT
 62
13
 10
5291.385
 20
-7264.691
 30
699.000
 70
    32
  0
VERTEX
  8
M45LXLIFT
 62
13
 10
5283.569
 20
-7267.520
 30
699.000
 70
    32
  0
VERTEX
  8
M45LXLIFT
 62
13
 10
5277.082
 20
-7274.590
 30
699.000
 70
    32
  0
VERTEX
  8
M45LXLIFT
 62
13
 10
5277.986
 20
-7292.791
 30
699.000
 70
    32
  0
VERTEX
  8
M45LXLIFT
 62
13
 10
5281.267
 20
-7302.882
 30
699.000
 70
    32
  0
VERTEX
  8
M45LXLIFT
 62
13
 10
5288.515
 20
-7310.215
 30
699.000
 70
    32
  0
VERTEX
  8
M45LXLIFT
 62
13
 10
5293.626
 20
-7317.141
 30
699.000
 70
    32
  0
VERTEX
  8
M45LXLIFT
 62
13
 10
5296.254
 20
-7325.428
 30
699.000
 70
    32
  0
VERTEX
  8
M45LXLIFT
 62
13
 10
5307.363
 20
-7333.006
 30
699.000
 70
    32
  0
VERTEX
  8
M45LXLIFT
 62
13
 10
5320.101
 20
-7339.840
 30
699.000
 70
    32
  0
SEQEND
  8
M45LXLIFT
  0
POLYLINE
  8
M45LXLIFT
 62
7
 66
     1
 70
     9
  0
VERTEX
  8
M45LXLIFT
 62
7
 10
4933.747
 20
-6796.317
 30
697.000
 70
    32
  0
VERTEX
  8
M45LXLIFT
 62
7
 10
4937.464
 20
-6788.864
 30
697.000
 70
    32
  0
VERTEX
  8
M45LXLIFT
 62
7
 10
4942.468
 20
-6785.141
 30
697.000
 70
    32
  0
VERTEX
  8
M45LXLIFT
 62
7
 10
4954.984
 20
-6782.818
 30
697.000
 70
    32
  0
VERTEX
  8
M45LXLIFT
 62
7
 10
4963.482
 20
-6796.832
 30
697.000
 70
    32
  0
VERTEX
  8
M45LXLIFT
 62
7
 10
4971.325
 20
-6814.138
 30
697.000
 70
    32
  0
VERTEX
  8
M45LXLIFT
 62
7
 10
4971.757
 20
-6822.386
 30
697.000
 70
    32
  0
VERTEX
  8
M45LXLIFT
 62
7
 10
4968.657
 20
-6830.693
 30
697.000
 70
    32
  0
VERTEX
  8
M45LXLIFT
 62
7
 10
4968.531
 20
-6843.569
 30
697.000
 70
    32
  0
VERTEX
  8
M45LXLIFT
 62
7
 10
4970.156
 20
-6862.767
 30
697.000
 70
    32
  0
VERTEX
  8
M45LXLIFT
 62
7
 10
4969.861
 20
-6886.058
 30
697.000
 70
    32
  0
VERTEX
  8
M45LXLIFT
 62
7
 10
4963.200
 20
-6887.187
 30
697.000
 70
    32
  0
VERTEX
  8
M45LXLIFT
 62
7
 10
4962.312
 20
-6872.008
 30
697.000
 70
    32
  0
VERTEX
  8
M45LXLIFT
 62
7
 10
4960.060
 20
-6859.441
 30
697.000
 70
    32
  0
VERTEX
  8
M45LXLIFT
 62
7
 10
4952.522
 20
-6839.857
 30
697.000
 70
    32
  0
VERTEX
  8
M45LXLIFT
 62
7
 10
4942.851
 20
-6816.720
 30
697.000
 70
    32
  0
SEQEND
  8
M45LXLIFT
  0
POLYLINE
  8
M45LXLIFT
 62
3
 66
     1
 70
     9
  0
VERTEX
  8
M45LXLIFT
 62
3
 10
4869.701
 20
-6715.159
 30
692.000
 70
    32
  0
VERTEX
  8
M45LXLIFT
 62
3
 10
4873.206
 20
-6717.612
 30
692.000
 70
    32
  0
VERTEX
  8
M45LXLIFT
 62
3
 10
4886.472
 20
-6739.126
 30
692.000
 70
    32
  0
VERTEX
  8
M45LXLIFT
 62
3
 10
4901.605
 20
-6758.424
 30
692.000
 70
    32
  0
VERTEX
  8
M45LXLIFT
 62
3
 10
4910.214
 20
-6770.192
 30
692.000
 70
    32
  0
VERTEX
  8
M45LXLIFT
 62
3
 10
4910.330
 20
-6778.452
 30
692.000
 70
    32
  0
VERTEX
  8
M45LXLIFT
 62
3
 10
4899.872
 20
-6787.523
 30
692.000
 70
    32
  0
VERTEX
  8
M45LXLIFT
 62
3
 10
4893.056
 20
-6790.388
 30
692.000
 70
    32
  0
VERTEX
  8
M45LXLIFT
 62
3
 10
4883.415
 20
-6780.342
 30
692.000
 70
    32
  0
VERTEX
  8
M45LXLIFT
 62
3
 10
4873.453
 20
-6769.551
 30
692.000
 70
    32
  0
VERTEX
  8
M45LXLIFT
 62
3
 10
4863.155
 20
-6758.895
 30
692.000
 70
    32
  0
VERTEX
  8
M45LXLIFT
 62
3
 10
4850.974
 20
-6747.433
 30
692.000
 70
    32
  0
VERTEX
  8
M45LXLIFT
 62
3
 10
4842.298
 20
-6738.423
 30
692.000
 70
    32
  0
VERTEX
  8
M45LXLIFT
 62
3
 10
4856.383
 20
-6725.972
 30
692.000
 70
    32
  0
SEQEND
  8
M45LXLIFT
  0
POLYLINE
  8
M45LXLIFT
 62
8
 66
     1
 70
     9
  0
VERTEX
  8
M45LXLIFT
 62
8
 10
4812.674
 20
-6613.870
 30
698.000
 70
    32
  0
VERTEX
  8
M45LXLIFT
 62
8
 10
4814.499
 20
-6624.795
 30
698.000
 70
    32
  0
VERTEX
  8
M45LXLIFT
 62
8
 10
4822.016
 20
-6636.701
 30
698.000
 70
    32
  0
VERTEX
  8
M45LXLIFT
 62
8
 10
4821.143
 20
-6643.292
 30
698.000
 70
    32
  0
VERTEX
  8
M45LXLIFT
 62
8
 10
4814.517
 20
-6643.419
 30
698.000
 70
    32
  0
VERTEX
  8
M45LXLIFT
 62
8
 10
4804.366
 20
-6645.117
 30
698.000
 70
    32
  0
VERTEX
  8
M45LXLIFT
 62
8
 10
4802.634
 20
-6649.619
 30
698.000
 70
    32
  0
VERTEX
  8
M45LXLIFT
 62
8
 10
4803.210
 20
-6665.565
 30
698.000
 70
    32
  0
VERTEX
  8
M45LXLIFT
 62
8
 10
4803.880
 20
-6680.142
 30
698.000
 70
    32
  0
VERTEX
  8
M45LXLIFT
 62
8
 10
4815.547
 20
-6694.793
 30
698.000
 70
    32
  0
VERTEX
  8
M45LXLIFT
 62
8
 10
4827.432
 20
-6710.045
 30
698.000
 70
    32
  0
VERTEX
  8
M45LXLIFT
 62
8
 10
4833.039
 20
-6725.607
 30
698.000
 70
    32
  0
VERTEX
  8
M45LXLIFT
 62
8
 10
4826.077
 20
-6727.819
 30
698.000
 70
    32
  0
VERTEX
  8
M45LXLIFT
 62
8
 10
4810.123
 20
-6719.082
 30
698.000
 70
    32
  0
VERTEX
  8
M45LXLIFT
 62
8
 10
4799.650
 20
-6702.485
 30
698.000
 70
    32
  0
VERTEX
  8
M45LXLIFT
 62
8
 10
4789.715
 20
-6683.332
 30
698.000
 70
    32
  0
VERTEX
  8
M45LXLIFT
 62
8
 10
4780.448
 20
-6669.005
 30
698.000
 70
    32
  0
VERTEX
  8
M45LXLIFT
 62
8
 10
4781.012
 20
-6650.286
 30
698.000
 70
    32
  0
VERTEX
  8
M45LXLIFT
 62
8
 10
4784.128
 20
-6637.200
 30
698.000
 70
    32
  0
VERTEX
  8
M45LXLIFT
 62
8
 10
4779.937
 20
-6624.950
 30
698.000
 70
    32
  0
VERTEX
  8
M45LXLIFT
 62
8
 10
4780.992
 20
-6614.111
 30
698.000
 70
    32
  0
VERTEX
  8
M45LXLIFT
 62
8
 10
4789.722
 20
-6610.296
 30
698.000
 70
    32
  0
VERTEX
  8
M45LXLIFT
 62
8
 10
4801.467
 20
-6612.755
 30
698.000
 70
    32
  0
SEQEND
  8
M45LXLIFT
  0
POLYLINE
  8
M45LXLIFT
 62
6
 66
     1
 70
     9
  0
VERTEX
  8
M45LXLIFT
 62
6
 10
5457.472
 20
-7102.167
 30
708.000
 70
    32
  0
VERTEX
  8
M45LXLIFT
 62
6
 10
5466.167
 20
-7113.351
 30
708.000
 70
    32
  0
VERTEX
  8
M45LXLIFT
 62
6
 10
5474.654
 20
-7123.054
 30
708.000
 70
    32
  0
VERTEX
  8
M45LXLIFT
 62
6
 10
5473.098
 20
-7132.567
 30
708.000
 70
    32
  0
VERTEX
  8
M45LXLIFT
 62
6
 10
5475.769
 20
-7145.639
 30
708.000
 70
    32
  0
VERTEX
  8
M45LXLIFT
 62
6
 10
5467.857
 20
-7154.343
 30
708.000
 70
    32
  0
VERTEX
  8
M45LXLIFT
 62
6
 10
5449.003
 20
-7161.772
 30
708.000
 70
    32
  0
VERTEX
  8
M45LXLIFT
 62
6
 10
5435.050
 20
-7162.039
 30
708.000
 70
    32
  0
VERTEX
  8
M45LXLIFT
 62
6
 10
5424.879
 20
-7168.689
 30
708.000
 70
    32
  0
VERTEX
  8
M45LXLIFT
 62
6
 10
5419.601
 20
-7167.421
 30
708.000
 70
    32
  0
VERTEX
  8
M45LXLIFT
 62
6
 10
5415.624
 20
-7159.872
 30
708.000
 70
    32
  0
VERTEX
  8
M45LXLIFT
 62
6
 10
5424.548
 20
-7154.348
 30
708.000
 70
    32
  0
VERTEX
  8
M45LXLIFT
 62
6
 10
5423.642
 20
-7147.282
 30
708.000
 70
    32
  0
VERTEX
  8
M45LXLIFT
 62
6
 10
5431.376
 20
-7141.319
 30
708.000
 70
    32
  0
VERTEX
  8
M45LXLIFT
 62
6
 10
5437.321
 20
-7131.109
 30
708.000
 70
    32
  0
VERTEX
  8
M45LXLIFT
 62
6
 10
5442.283
 20
-7120.746
 30
708.000
 70
    32
  0
VERTEX
  8
M45LXLIFT
 62
6
 10
5445.866
 20
-7109.537
 30
708.000
 70
    32
  0
SEQEND
  8
M45LXLIFT
  0
POLYLINE
  8
M45LXLIFT
 62
8
 66
     1
 70
     9
  0
VERTEX
  8
M45LXLIFT
 62
8
 10
5406.415
 20
-7010.310
 30
710.000
 70
    32
  0
VERTEX
  8
M45LXLIFT
 62
8
 10
5401.914
 20
-7016.528
 30
710.000
 70
    32
  0
VERTEX
  8
M45LXLIFT
 62
8
 10
5394.308
 20
-7014.454
 30
710.000
 70
    32
  0
VERTEX
  8
M45LXLIFT
 62
8
 10
5393.441
 20
-7019.983
 30
710.000
 70
    32
  0
VERTEX
  8
M45LXLIFT
 62
8
 10
5393.570
 20
-7032.404
 30
710.000
 70
    32
  0
VERTEX
  8
M45LXLIFT
 62
8
 10
5403.792
 20
-7038.666
 30
710.000
 70
    32
  0
VERTEX
  8
M45LXLIFT
 62
8
 10
5413.064
 20
-7044.968
 30
710.000
 70
    32
  0
VERTEX
  8
M45LXLIFT
 62
8
 10
5418.058
 20
-7040.023
 30
710.000
 70
    32
  0
VERTEX
  8
M45LXLIFT
 62
8
 10
5424.706
 20
-7028.539
 30
710.000
 70
    32
  0
VERTEX
  8
M45LXLIFT
 62
8
 10
5422.029
 20
-7015.907
 30
710.000
 70
    32
  0
VERTEX
  8
M45LXLIFT
 62
8
 10
5427.013
 20
-7007.813
 30
710.000
 70
    32
  0
VERTEX
  8
M45LXLIFT
 62
8
 10
5433.217
 20
-6997.959
 30
710.000
 70
    32
  0
VERTEX
  8
M45LXLIFT
 62
8
 10
5428.882
 20
-6994.698
 30
710.000
 70
    32
  0
VERTEX
  8
M45LXLIFT
 62
8
 10
5420.494
 20
-6999.614
 30
710.000
 70
    32
  0
SEQEND
  8
M45LXLIFT
  0
POLYLINE
  8
M45LXLIFT
 62
7
 66
     1
 70
     9
  0
VERTEX
  8
M45LXLIFT
 62
7
 10
5342.155
 20
-7247.806
 30
711.000
 70
    32
  0
VERTEX
  8
M45LXLIFT
 62
7
 10
5346.374
 20
-7251.804
 30
711.000
 70
    32
  0
VERTEX
  8
M45LXLIFT
 62
7
 10
5351.056
 20
-7251.657
 30
711.000
 70
    32
  0
VERTEX
  8
M45LXLIFT
 62
7
 10
5356.850
 20
-7246.020
 30
711.000
 70
    32
  0
VERTEX
  8
M45LXLIFT
 62
7
 10
5363.791
 20
-7242.702
 30
711.000
 70
    32
  0
VERTEX
  8
M45LXLIFT
 62
7
 10
5367.645
 20
-7236.194
 30
711.000
 70
    32
  0
VERTEX
  8
M45LXLIFT
 62
7
 10
5365.218
 20
-7227.189
 30
711.000
 70
    32
  0
VERTEX
  8
M45LXLIFT
 62
7
 10
5355.477
 20
-7211.434
 30
711.000
 70
    32
  0
VERTEX
  8
M45LXLIFT
 62
7
 10
5350.092
 20
-7206.435
 30
711.000
 70
    32
  0
VERTEX
  8
M45LXLIFT
 62
7
 10
5344.569
 20
-7198.707
 30
711.000
 70
    32
  0
VERTEX
  8
M45LXLIFT
 62
7
 10
5338.952
 20
-7187.566
 30
711.000
 70
    32
  0
VERTEX
  8
M45LXLIFT
 62
7
 10
5335.487
 20
-7175.943
 30
711.000
 70
    32
  0
VERTEX
  8
M45LXLIFT
 62
7
 10
5331.903
 20
-7167.890
 30
711.000
 70
    32
  0
VERTEX
  8
M45LXLIFT
 62
7
 10
5332.109
 20
-7160.558
 30
711.000
 70
    32
  0
VERTEX
  8
M45LXLIFT
 62
7
 10
5330.153
 20
-7156.977
 30
711.000
 70
    32
  0
VERTEX
  8
M45LXLIFT
 62
7
 10
5319.984
 20
-7158.404
 30
711.000
 70
    32
  0
VERTEX
  8
M45LXLIFT
 62
7
 10
5310.295
 20
-7161.983
 30
711.000
 70
    32
  0
VERTEX
  8
M45LXLIFT
 62
7
 10
5303.529
 20
-7166.587
 30
711.000
 70
    32
  0
VERTEX
  8
M45LXLIFT
 62
7
 10
5311.289
 20
-7186.940
 30
711.000
 70
    32
  0
VERTEX
  8
M45LXLIFT
 62
7
 10
5313.341
 20
-7201.551
 30
711.000
 70
    32
  0
VERTEX
  8
M45LXLIFT
 62
7
 10
5325.838
 20
-7218.997
 30
711.000
 70
    32
  0
VERTEX
  8
M45LXLIFT
 62
7
 10
5335.988
 20
-7236.956
 30
711.000
 70
    32
  0
SEQEND
  8
M45LXLIFT
  0
POLYLINE
  8
M45LXLIFT
 62
7
 66
     1
 70
     9
  0
VERTEX
  8
M45LXLIFT
 62
7
 10
5300.068
 20
-7086.728
 30
711.000
 70
    32
  0
VERTEX
  8
M45LXLIFT
 62
7
 10
5293.673
 20
-7093.783
 30
711.000
 70
    32
  0
VERTEX
  8
M45LXLIFT
 62
7
 10
5286.260
 20
-7103.321
 30
711.000
 70
    32
  0
VERTEX
  8
M45LXLIFT
 62
7
 10
5276.071
 20
-7104.870
 30
711.000
 70
    32
  0
VERTEX
  8
M45LXLIFT
 62
7
 10
5272.970
 20
-7114.204
 30
711.000
 70
    32
  0
VERTEX
  8
M45LXLIFT
 62
7
 10
5278.908
 20
-7122.500
 30
711.000
 70
    32
  0
VERTEX
  8
M45LXLIFT
 62
7
 10
5288.422
 20
-7131.672
 30
711.000
 70
    32
  0
VERTEX
  8
M45LXLIFT
 62
7
 10
5293.160
 20
-7136.381
 30
711.000
 70
    32
  0
VERTEX
  8
M45LXLIFT
 62
7
 10
5300.539
 20
-7138.294
 30
711.000
 70
    32
  0
VERTEX
  8
M45LXLIFT
 62
7
 10
5307.772
 20
-7135.526
 30
711.000
 70
    32
  0
VERTEX
  8
M45LXLIFT
 62
7
 10
5311.097
 20
-7130.382
 30
711.000
 70
    32
  0
VERTEX
  8
M45LXLIFT
 62
7
 10
5323.223
 20
-7132.536
 30
711.000
 70
    32
  0
VERTEX
  8
M45LXLIFT
 62
7
 10
5330.005
 20
-7131.838
 30
711.000
 70
    32
  0
VERTEX
  8
M45LXLIFT
 62
7
 10
5333.423
 20
-7128.912
 30
711.000
 70
    32
  0
VERTEX
  8
M45LXLIFT
 62
7
 10
5326.372
 20
-7119.685
 30
711.000
 70
    32
  0
VERTEX
  8
M45LXLIFT
 62
7
 10
5315.969
 20
-7107.352
 30
711.000
 70
    32
  0
VERTEX
  8
M45LXLIFT
 62
7
 10
5307.577
 20
-7095.838
 30
711.000
 70
    32
  0
SEQEND
  8
M45LXLIFT
  0
POLYLINE
  8
M45LXLIFT
 62
13
 66
     1
 70
     9
  0
VERTEX
  8
M45LXLIFT
 62
13
 10
5292.990
 20
-7347.736
 30
710.000
 70
    32
  0
VERTEX
  8
M45LXLIFT
 62
13
 10
5304.881
 20
-7341.355
 30
710.000
 70
    32
  0
VERTEX
  8
M45LXLIFT
 62
13
 10
5313.999
 20
-7329.377
 30
710.000
 70
    32
  0
VERTEX
  8
M45LXLIFT
 62
13
 10
5319.313
 20
-7321.587
 30
710.000
 70
    32
  0
VERTEX
  8
M45LXLIFT
 62
13
 10
5316.999
 20
-7309.452
 30
710.000
 70
    32
  0
VERTEX
  8
M45LXLIFT
 62
13
 10
5309.851
 20
-7299.644
 30
710.000
 70
    32
  0
VERTEX
  8
M45LXLIFT
 62
13
 10
5302.369
 20
-7292.365
 30
710.000
 70
    32
  0
VERTEX
  8
M45LXLIFT
 62
13
 10
5296.560
 20
-7283.648
 30
710.000
 70
    32
  0
VERTEX
  8
M45LXLIFT
 62
13
 10
5298.022
 20
-7271.917
 30
710.000
 70
    32
  0
VERTEX
  8
M45LXLIFT
 62
13
 10
5299.773
 20
-7263.568
 30
710.000
 70
    32
  0
VERTEX
  8
M45LXLIFT
 62
13
 10
5295.413
 20
-7255.645
 30
710.000
 70
    32
  0
VERTEX
  8
M45LXLIFT
 62
13
 10
5292.942
 20
-7248.522
 30
710.000
 70
    32
  0
VERTEX
  8
M45LXLIFT
 62
13
 10
5292.871
 20
-7235.732
 30
710.000
 70
    32
  0
VERTEX
  8
M45LXLIFT
 62
13
 10
5292.613
 20
-7228.956
 30
710.000
 70
    32
  0
VERTEX
  8
M45LXLIFT
 62
13
 10
5288.258
 20
-7225.818
 30
710.000
 70
    32
  0
VERTEX
  8
M45LXLIFT
 62
13
 10
5276.688
 20
-7236.970
 30
710.000
 70
    32
  0
VERTEX
  8
M45LXLIFT
 62
13
 10
5273.275
 20
-7251.102
 30
710.000
 70
    32
  0
VERTEX
  8
M45LXLIFT
 62
13
 10
5276.804
 20
-7261.916
 30
710.000
 70
    32
  0
VERTEX
  8
M45LXLIFT
 62
13
 10
5276.299
 20
-7274.363
 30
710.000
 70
    32
  0
VERTEX
  8
M45LXLIFT
 62
13
 10
5276.935
 20
-7283.150
 30
710.000
 70
    32
  0
VERTEX
  8
M45LXLIFT
 62
13
 10
5282.996
 20
-7291.466
 30
710.000
 70
    32
  0
VERTEX
  8
M45LXLIFT
 62
13
 10
5290.497
 20
-7305.043
 30
710.000
 70
    32
  0
VERTEX
  8
M45LXLIFT
 62
13
 10
5288.249
 20
-7320.176
 30
710.000
 70
    32
  0
VERTEX
  8
M45LXLIFT
 62
13
 10
5286.794
 20
-7332.663
 30
710.000
 70
    32
  0
VERTEX
  8
M45LXLIFT
 62
13
 10
5289.976
 20
-7340.465
 30
710.000
 70
    32
  0
SEQEND
  8
M45LXLIFT
  0
POLYLINE
  8
M45LXLIFT
 62
7
 66
     1
 70
     9
  0
VERTEX
  8
M45LXLIFT
 62
7
 10
4966.768
 20
-6877.577
 30
716.000
 70
    32
  0
VERTEX
  8
M45LXLIFT
 62
7
 10
4963.334
 20
-6870.177
 30
716.000
 70
    32
  0
VERTEX
  8
M45LXLIFT
 62
7
 10
4958.945
 20
-6865.648
 30
716.000
 70
    32
  0
VERTEX
  8
M45LXLIFT
 62
7
 10
4957.140
 20
-6857.497
 30
716.000
 70
    32
  0
VERTEX
  8
M45LXLIFT
 62
7
 10
4952.887
 20
-6846.884
 30
716.000
 70
    32
  0
VERTEX
  8
M45LXLIFT
 62
7
 10
4945.946
 20
-6837.360
 30
716.000
 70
    32
  0
VERTEX
  8
M45LXLIFT
 62
7
 10
4939.637
 20
-6826.613
 30
716.000
 70
    32
  0
VERTEX
  8
M45LXLIFT
 62
7
 10
4939.647
 20
-6816.921
 30
716.000
 70
    32
  0
VERTEX
  8
M45LXLIFT
 62
7
 10
4937.408
 20
-6801.902
 30
716.000
 70
    32
  0
VERTEX
  8
M45LXLIFT
 62
7
 10
4934.815
 20
-6789.535
 30
716.000
 70
    32
  0
VERTEX
  8
M45LXLIFT
 62
7
 10
4931.818
 20
-6779.749
 30
716.000
 70
    32
  0
VERTEX
  8
M45LXLIFT
 62
7
 10
4922.931
 20
-6769.794
 30
716.000
 70
    32
  0
VERTEX
  8
M45LXLIFT
 62
7
 10
4907.858
 20
-6750.307
 30
716.000
 70
    32
  0
VERTEX
  8
M45LXLIFT
 62
7
 10
4894.799
 20
-6732.836
 30
716.000
 70
    32
  0
VERTEX
  8
M45LXLIFT
 62
7
 10
4890.696
 20
-6722.876
 30
716.000
 70
    32
  0
VERTEX
  8
M45LXLIFT
 62
7
 10
4889.298
 20
-6709.312
 30
716.000
 70
    32
  0
VERTEX
  8
M45LXLIFT
 62
7
 10
4885.769
 20
-6697.302
 30
716.000
 70
    32
  0
VERTEX
  8
M45LXLIFT
 62
7
 10
4885.783
 20
-6685.973
 30
716.000
 70
    32
  0
VERTEX
  8
M45LXLIFT
 62
7
 10
4888.036
 20
-6669.205
 30
716.000
 70
    32
  0
VERTEX
  8
M45LXLIFT
 62
7
 10
4895.536
 20
-6668.745
 30
716.000
 70
    32
  0
VERTEX
  8
M45LXLIFT
 62
7
 10
4902.887
 20
-6667.632
 30
716.000
 70
    32
  0
VERTEX
  8
M45LXLIFT
 62
7
 10
4907.265
 20
-6674.235
 30
716.000
 70
    32
  0
VERTEX
  8
M45LXLIFT
 62
7
 10
4910.261
 20
-6682.826
 30
716.000
 70
    32
  0
VERTEX
  8
M45LXLIFT
 62
7
 10
4913.911
 20
-6692.463
 30
716.000
 70
    32
  0
VERTEX
  8
M45LXLIFT
 62
7
 10
4919.168
 20
-6699.079
 30
716.000
 70
    32
  0
VERTEX
  8
M45LXLIFT
 62
7
 10
4921.512
 20
-6715.435
 30
716.000
 70
    32
  0
VERTEX
  8
M45LXLIFT
 62
7
 10
4926.542
 20
-6728.311
 30
716.000
 70
    32
  0
VERTEX
  8
M45LXLIFT
 62
7
 10
4937.562
 20
-6743.133
 30
716.000
 70
    32
  0
VERTEX
  8
M45LXLIFT
 62
7
 10
4946.879
 20
-6761.590
 30
716.000
 70
    32
  0
VERTEX
  8
M45LXLIFT
 62
7
 10
4952.577
 20
-6782.250
 30
716.000
 70
    32
  0
VERTEX
  8
M45LXLIFT
 62
7
 10
4961.132
 20
-6802.351
 30
716.000
 70
    32
  0
VERTEX
  8
M45LXLIFT
 62
7
 10
4966.276
 20
-6818.517
 30
716.000
 70
    32
  0
VERTEX
  8
M45LXLIFT
 62
7
 10
4967.632
 20
-6836.355
 30
716.000
 70
    32
  0
VERTEX
  8
M45LXLIFT
 62
7
 10
4975.738
 20
-6859.722
 30
716.000
 70
    32
  0
VERTEX
  8
M45LXLIFT
 62
7
 10
4979.552
 20
-6871.525
 30
716.000
 70
    32
  0
VERTEX
  8
M45LXLIFT
 62
7
 10
4977.471
 20
-6873.150
 30
716.000
 70
    32
  0
SEQEND
  8
M45LXLIFT
  0
POLYLINE
  8
M45LXLIFT
 62
3
 66
     1
 70
     9
  0
VERTEX
  8
M45LXLIFT
 62
3
 10
4869.451
 20
-6737.925
 30
700.000
 70
    32
  0
VERTEX
  8
M45LXLIFT
 62
3
 10
4887.423
 20
-6747.353
 30
700.000
 70
    32
  0
VERTEX
  8
M45LXLIFT
 62
3
 10
4897.038
 20
-6754.275
 30
700.000
 70
    32
  0
VERTEX
  8
M45LXLIFT
 62
3
 10
4904.148
 20
-6764.329
 30
700.000
 70
    32
  0
VERTEX
  8
M45LXLIFT
 62
3
 10
4907.341
 20
-6776.476
 30
700.000
 70
    32
  0
VERTEX
  8
M45LXLIFT
 62
3
 10
4903.395
 20
-6780.767
 30
700.000
 70
    32
  0
VERTEX
  8
M45LXLIFT
 62
3
 10
4892.069
 20
-6783.145
 30
700.000
 70
    32
  0
VERTEX
  8
M45LXLIFT
 62
3
 10
4881.384
 20
-6773.411
 30
700.000
 70
    32
  0
VERTEX
  8
M45LXLIFT
 62
3
 10
4868.912
 20
-6755.403
 30
700.000
 70
    32
  0
VERTEX
  8
M45LXLIFT
 62
3
 10
4860.125
 20
-6743.197
 30
700.000
 70
    32
  0
SEQEND
  8
M45LXLIFT
  0
POLYLINE
  8
M45LXLIFT
 62
8
 66
     1
 70
     9
  0
VERTEX
  8
M45LXLIFT
 62
8
 10
4850.567
 20
-6651.241
 30
708.000
 70
    32
  0
VERTEX
  8
M45LXLIFT
 62
8
 10
4848.869
 20
-6640.399
 30
708.000
 70
    32
  0
VERTEX
  8
M45LXLIFT
 62
8
 10
4841.387
 20
-6626.699
 30
708.000
 70
    32
  0
VERTEX
  8
M45LXLIFT
 62
8
 10
4834.682
 20
-6620.485
 30
708.000
 70
    32
  0
VERTEX
  8
M45LXLIFT
 62
8
 10
4821.728
 20
-6624.811
 30
708.000
 70
    32
  0
VERTEX
  8
M45LXLIFT
 62
8
 10
4815.153
 20
-6625.794
 30
708.000
 70
    32
  0
VERTEX
  8
M45LXLIFT
 62
8
 10
4805.823
 20
-6626.282
 30
708.000
 70
    32
  0
VERTEX
  8
M45LXLIFT
 62
8
 10
4802.520
 20
-6614.433
 30
708.000
 70
    32
  0
VERTEX
  8
M45LXLIFT
 62
8
 10
4795.396
 20
-6596.445
 30
708.000
 70
    32
  0
VERTEX
  8
M45LXLIFT
 62
8
 10
4790.757
 20
-6587.093
 30
708.000
 70
    32
  0
VERTEX
  8
M45LXLIFT
 62
8
 10
4784.128
 20
-6585.613
 30
708.000
 70
    32
  0
VERTEX
  8
M45LXLIFT
 62
8
 10
4769.733
 20
-6597.518
 30
708.000
 70
    32
  0
VERTEX
  8
M45LXLIFT
 62
8
 10
4763.289
 20
-6605.698
 30
708.000
 70
    32
  0
VERTEX
  8
M45LXLIFT
 62
8
 10
4758.449
 20
-6616.081
 30
708.000
 70
    32
  0
VERTEX
  8
M45LXLIFT
 62
8
 10
4759.505
 20
-6630.221
 30
708.000
 70
    32
  0
VERTEX
  8
M45LXLIFT
 62
8
 10
4765.392
 20
-6646.063
 30
708.000
 70
    32
  0
VERTEX
  8
M45LXLIFT
 62
8
 10
4769.122
 20
-6658.797
 30
708.000
 70
    32
  0
VERTEX
  8
M45LXLIFT
 62
8
 10
4778.110
 20
-6671.727
 30
708.000
 70
    32
  0
VERTEX
  8
M45LXLIFT
 62
8
 10
4785.915
 20
-6678.553
 30
708.000
 70
    32
  0
VERTEX
  8
M45LXLIFT
 62
8
 10
4790.913
 20
-6684.814
 30
708.000
 70
    32
  0
VERTEX
  8
M45LXLIFT
 62
8
 10
4793.057
 20
-6695.222
 30
708.000
 70
    32
  0
VERTEX
  8
M45LXLIFT
 62
8
 10
4801.250
 20
-6701.984
 30
708.000
 70
    32
  0
VERTEX
  8
M45LXLIFT
 62
8
 10
4805.667
 20
-6703.117
 30
708.000
 70
    32
  0
VERTEX
  8
M45LXLIFT
 62
8
 10
4807.815
 20
-6697.852
 30
708.000
 70
    32
  0
VERTEX
  8
M45LXLIFT
 62
8
 10
4803.726
 20
-6688.209
 30
708.000
 70
    32
  0
VERTEX
  8
M45LXLIFT
 62
8
 10
4797.458
 20
-6679.609
 30
708.000
 70
    32
  0
VERTEX
  8
M45LXLIFT
 62
8
 10
4795.648
 20
-6674.289
 30
708.000
 70
    32
  0
VERTEX
  8
M45LXLIFT
 62
8
 10
4800.053
 20
-6662.264
 30
708.000
 70
    32
  0
VERTEX
  8
M45LXLIFT
 62
8
 10
4804.117
 20
-6653.208
 30
708.000
 70
    32
  0
VERTEX
  8
M45LXLIFT
 62
8
 10
4807.765
 20
-6647.611
 30
708.000
 70
    32
  0
VERTEX
  8
M45LXLIFT
 62
8
 10
4816.623
 20
-6646.923
 30
708.000
 70
    32
  0
VERTEX
  8
M45LXLIFT
 62
8
 10
4822.387
 20
-6649.905
 30
708.000
 70
    32
  0
VERTEX
  8
M45LXLIFT
 62
8
 10
4828.541
 20
-6655.214
 30
708.000
 70
    32
  0
VERTEX
  8
M45LXLIFT
 62
8
 10
4841.330
 20
-6653.946
 30
708.000
 70
    32
  0
SEQEND
  8
M45LXLIFT
  0
POLYLINE
  8
M45LXLIFT
 62
6
 66
     1
 70
     9
  0
VERTEX
  8
M45LXLIFT
 62
6
 10
5413.154
 20
-7166.997
 30
719.000
 70
    32
  0
VERTEX
  8
M45LXLIFT
 62
6
 10
5419.840
 20
-7165.113
 30
719.000
 70
    32
  0
VERTEX
  8
M45LXLIFT
 62
6
 10
5427.533
 20
-7162.377
 30
719.000
 70
    32
  0
VERTEX
  8
M45LXLIFT
 62
6
 10
5435.717
 20
-7159.713
 30
719.000
 70
    32
  0
VERTEX
  8
M45LXLIFT
 62
6
 10
5447.253
 20
-7154.792
 30
719.000
 70
    32
  0
VERTEX
  8
M45LXLIFT
 62
6
 10
5450.750
 20
-7149.479
 30
719.000
 70
    32
  0
VERTEX
  8
M45LXLIFT
 62
6
 10
5447.848
 20
-7140.380
 30
719.000
 70
    32
  0
VERTEX
  8
M45LXLIFT
 62
6
 10
5447.729
 20
-7132.390
 30
719.000
 70
    32
  0
VERTEX
  8
M45LXLIFT
 62
6
 10
5452.285
 20
-7128.805
 30
719.000
 70
    32
  0
VERTEX
  8
M45LXLIFT
 62
6
 10
5457.872
 20
-7128.389
 30
719.000
 70
    32
  0
VERTEX
  8
M45LXLIFT
 62
6
 10
5458.885
 20
-7124.146
 30
719.000
 70
    32
  0
VERTEX
  8
M45LXLIFT
 62
6
 10
5456.717
 20
-7113.086
 30
719.000
 70
    32
  0
VERTEX
  8
M45LXLIFT
 62
6
 10
5448.265
 20
-7101.648
 30
719.000
 70
    32
  0
VERTEX
  8
M45LXLIFT
 62
6
 10
5441.694
 20
-7092.312
 30
719.000
 70
    32
  0
VERTEX
  8
M45LXLIFT
 62
6
 10
5433.285
 20
-7084.772
 30
719.000
 70
    32
  0
VERTEX
  8
M45LXLIFT
 62
6
 10
5428.354
 20
-7089.179
 30
719.000
 70
    32
  0
VERTEX
  8
M45LXLIFT
 62
6
 10
5420.204
 20
-7089.525
 30
719.000
 70
    32
  0
VERTEX
  8
M45LXLIFT
 62
6
 10
5415.397
 20
-7093.950
 30
719.000
 70
    32
  0
VERTEX
  8
M45LXLIFT
 62
6
 10
5416.132
 20
-7106.616
 30
719.000
 70
    32
  0
VERTEX
  8
M45LXLIFT
 62
6
 10
5411.219
 20
-7115.922
 30
719.000
 70
    32
  0
VERTEX
  8
M45LXLIFT
 62
6
 10
5399.408
 20
-7127.268
 30
719.000
 70
    32
  0
VERTEX
  8
M45LXLIFT
 62
6
 10
5390.219
 20
-7137.879
 30
719.000
 70
    32
  0
VERTEX
  8
M45LXLIFT
 62
6
 10
5386.786
 20
-7149.039
 30
719.000
 70
    32
  0
VERTEX
  8
M45LXLIFT
 62
6
 10
5388.082
 20
-7164.237
 30
719.000
 70
    32
  0
VERTEX
  8
M45LXLIFT
 62
6
 10
5396.124
 20
-7164.189
 30
719.000
 70
    32
  0
VERTEX
  8
M45LXLIFT
 62
6
 10
5401.204
 20
-7165.893
 30
719.000
 70
    32
  0
VERTEX
  8
M45LXLIFT
 62
6
 10
5403.595
 20
-7170.458
 30
719.000
 70
    32
  0
SEQEND
  8
M45LXLIFT
  0
POLYLINE
  8
M45LXLIFT
 62
8
 66
     1
 70
     9
  0
VERTEX
  8
M45LXLIFT
 62
8
 10
5384.620
 20
-7000.001
 30
720.000
 70
    32
  0
VERTEX
  8
M45LXLIFT
 62
8
 10
5390.100
 20
-7017.019
 30
720.000
 70
    32
  0
VERTEX
  8
M45LXLIFT
 62
8
 10
5392.974
 20
-7030.069
 30
720.000
 70
    32
  0
VERTEX
  8
M45LXLIFT
 62
8
 10
5398.861
 20
-7034.342
 30
720.000
 70
    32
  0
VERTEX
  8
M45LXLIFT
 62
8
 10
5412.302
 20
-7020.918
 30
720.000
 70
    32
  0
VERTEX
  8
M45LXLIFT
 62
8
 10
5415.293
 20
-7012.704
 30
720.000
 70
    32
  0
VERTEX
  8
M45LXLIFT
 62
8
 10
5423.462
 20
-7002.192
 30
720.000
 70
    32
  0
VERTEX
  8
M45LXLIFT
 62
8
 10
5431.995
 20
-6987.591
 30
720.000
 70
    32
  0
VERTEX
  8
M45LXLIFT
 62
8
 10
5435.282
 20
-6972.391
 30
720.000
 70
    32
  0
VERTEX
  8
M45LXLIFT
 62
8
 10
5430.193
 20
-6966.982
 30
720.000
 70
    32
  0
VERTEX
  8
M45LXLIFT
 62
8
 10
5423.059
 20
-6967.668
 30
720.000
 70
    32
  0
VERTEX
  8
M45LXLIFT
 62
8
 10
5412.517
 20
-6976.004
 30
720.000
 70
    32
  0
VERTEX
  8
M45LXLIFT
 62
8
 10
5398.144
 20
-6987.279
 30
720.000
 70
    32
  0
SEQEND
  8
M45LXLIFT
  0
POLYLINE
  8
M45LXLIFT
 62
7
 66
     1
 70
     9
  0
VERTEX
  8
M45LXLIFT
 62
7
 10
5289.880
 20
-7082.448
 30
721.000
 70
    32
  0
VERTEX
  8
M45LXLIFT
 62
7
 10
5302.828
 20
-7096.131
 30
721.000
 70
    32
  0
VERTEX
  8
M45LXLIFT
 62
7
 10
5299.596
 20
-7098.847
 30
721.000
 70
    32
  0
VERTEX
  8
M45LXLIFT
 62
7
 10
5311.773
 20
-7114.737
 30
721.000
 70
    32
  0
VERTEX
  8
M45LXLIFT
 62
7
 10
5303.478
 20
-7120.648
 30
721.000
 70
    32
  0
VERTEX
  8
M45LXLIFT
 62
7
 10
5305.058
 20
-7130.615
 30
721.000
 70
    32
  0
VERTEX
  8
M45LXLIFT
 62
7
 10
5282.506
 20
-7146.187
 30
721.000
 70
    32
  0
VERTEX
  8
M45LXLIFT
 62
7
 10
5276.114
 20
-7136.501
 30
721.000
 70
    32
  0
VERTEX
  8
M45LXLIFT
 62
7
 10
5269.042
 20
-7128.409
 30
721.000
 70
    32
  0
VERTEX
  8
M45LXLIFT
 62
7
 10
5271.651
 20
-7109.780
 30
721.000
 70
    32
  0
VERTEX
  8
M45LXLIFT
 62
7
 10
5272.755
 20
-7100.341
 30
721.000
 70
    32
  0
VERTEX
  8
M45LXLIFT
 62
7
 10
5267.888
 20
-7090.947
 30
721.000
 70
    32
  0
SEQEND
  8
M45LXLIFT
  0
POLYLINE
  8
M45LXLIFT
 62
7
 66
     1
 70
     9
  0
VERTEX
  8
M45LXLIFT
 62
7
 10
5350.093
 20
-7239.135
 30
721.000
 70
    32
  0
VERTEX
  8
M45LXLIFT
 62
7
 10
5340.251
 20
-7228.178
 30
721.000
 70
    32
  0
VERTEX
  8
M45LXLIFT
 62
7
 10
5329.015
 20
-7215.631
 30
721.000
 70
    32
  0
VERTEX
  8
M45LXLIFT
 62
7
 10
5317.595
 20
-7204.312
 30
721.000
 70
    32
  0
VERTEX
  8
M45LXLIFT
 62
7
 10
5315.852
 20
-7197.522
 30
721.000
 70
    32
  0
VERTEX
  8
M45LXLIFT
 62
7
 10
5317.959
 20
-7190.179
 30
721.000
 70
    32
  0
VERTEX
  8
M45LXLIFT
 62
7
 10
5330.963
 20
-7183.846
 30
721.000
 70
    32
  0
VERTEX
  8
M45LXLIFT
 62
7
 10
5338.762
 20
-7190.855
 30
721.000
 70
    32
  0
VERTEX
  8
M45LXLIFT
 62
7
 10
5343.286
 20
-7191.660
 30
721.000
 70
    32
  0
VERTEX
  8
M45LXLIFT
 62
7
 10
5355.430
 20
-7207.357
 30
721.000
 70
    32
  0
VERTEX
  8
M45LXLIFT
 62
7
 10
5365.732
 20
-7222.777
 30
721.000
 70
    32
  0
VERTEX
  8
M45LXLIFT
 62
7
 10
5361.283
 20
-7233.596
 30
721.000
 70
    32
  0
SEQEND
  8
M45LXLIFT
  0
POLYLINE
  8
M45LXLIFT
 62
13
 66
     1
 70
     9
  0
VERTEX
  8
M45LXLIFT
 62
13
 10
5317.539
 20
-7327.593
 30
720.000
 70
    32
  0
VERTEX
  8
M45LXLIFT
 62
13
 10
5318.891
 20
-7320.263
 30
720.000
 70
    32
  0
VERTEX
  8
M45LXLIFT
 62
13
 10
5314.025
 20
-7305.847
 30
720.000
 70
    32
  0
VERTEX
  8
M45LXLIFT
 62
13
 10
5306.316
 20
-7293.641
 30
720.000
 70
    32
  0
VERTEX
  8
M45LXLIFT
 62
13
 10
5299.061
 20
-7281.755
 30
720.000
 70
    32
  0
VERTEX
  8
M45LXLIFT
 62
13
 10
5299.422
 20
-7270.572
 30
720.000
 70
    32
  0
VERTEX
  8
M45LXLIFT
 62
13
 10
5293.969
 20
-7257.136
 30
720.000
 70
    32
  0
VERTEX
  8
M45LXLIFT
 62
13
 10
5291.245
 20
-7250.198
 30
720.000
 70
    32
  0
VERTEX
  8
M45LXLIFT
 62
13
 10
5292.947
 20
-7240.535
 30
720.000
 70
    32
  0
VERTEX
  8
M45LXLIFT
 62
13
 10
5291.462
 20
-7232.026
 30
720.000
 70
    32
  0
VERTEX
  8
M45LXLIFT
 62
13
 10
5286.865
 20
-7226.691
 30
720.000
 70
    32
  0
VERTEX
  8
M45LXLIFT
 62
13
 10
5273.475
 20
-7228.070
 30
720.000
 70
    32
  0
VERTEX
  8
M45LXLIFT
 62
13
 10
5264.529
 20
-7234.134
 30
720.000
 70
    32
  0
VERTEX
  8
M45LXLIFT
 62
13
 10
5262.204
 20
-7247.532
 30
720.000
 70
    32
  0
VERTEX
  8
M45LXLIFT
 62
13
 10
5261.591
 20
-7259.556
 30
720.000
 70
    32
  0
VERTEX
  8
M45LXLIFT
 62
13
 10
5270.963
 20
-7277.410
 30
720.000
 70
    32
  0
VERTEX
  8
M45LXLIFT
 62
13
 10
5274.482
 20
-7288.673
 30
720.000
 70
    32
  0
VERTEX
  8
M45LXLIFT
 62
13
 10
5277.101
 20
-7300.491
 30
720.000
 70
    32
  0
VERTEX
  8
M45LXLIFT
 62
13
 10
5285.225
 20
-7313.701
 30
720.000
 70
    32
  0
VERTEX
  8
M45LXLIFT
 62
13
 10
5291.803
 20
-7329.253
 30
720.000
 70
    32
  0
VERTEX
  8
M45LXLIFT
 62
13
 10
5297.256
 20
-7340.178
 30
720.000
 70
    32
  0
SEQEND
  8
M45LXLIFT
  0
POLYLINE
  8
M45LXLIFT
 62
7
 66
     1
 70
     9
  0
VERTEX
  8
M45LXLIFT
 62
7
 10
4891.214
 20
-6734.513
 30
720.000
 70
    32
  0
VERTEX
  8
M45LXLIFT
 62
7
 10
4889.852
 20
-6713.906
 30
720.000
 70
    32
  0
VERTEX
  8
M45LXLIFT
 62
7
 10
4889.280
 20
-6695.553
 30
720.000
 70
    32
  0
VERTEX
  8
M45LXLIFT
 62
7
 10
4890.764
 20
-6689.435
 30
720.000
 70
    32
  0
VERTEX
  8
M45LXLIFT
 62
7
 10
4899.795
 20
-6686.146
 30
720.000
 70
    32
  0
VERTEX
  8
M45LXLIFT
 62
7
 10
4908.003
 20
-6690.015
 30
720.000
 70
    32
  0
VERTEX
  8
M45LXLIFT
 62
7
 10
4915.217
 20
-6702.586
 30
720.000
 70
    32
  0
VERTEX
  8
M45LXLIFT
 62
7
 10
4917.325
 20
-6712.382
 30
720.000
 70
    32
  0
VERTEX
  8
M45LXLIFT
 62
7
 10
4920.279
 20
-6726.573
 30
720.000
 70
    32
  0
VERTEX
  8
M45LXLIFT
 62
7
 10
4931.002
 20
-6739.608
 30
720.000
 70
    32
  0
VERTEX
  8
M45LXLIFT
 62
7
 10
4938.698
 20
-6753.570
 30
720.000
 70
    32
  0
VERTEX
  8
M45LXLIFT
 62
7
 10
4943.720
 20
-6770.708
 30
720.000
 70
    32
  0
VERTEX
  8
M45LXLIFT
 62
7
 10
4947.942
 20
-6784.399
 30
720.000
 70
    32
  0
VERTEX
  8
M45LXLIFT
 62
7
 10
4954.202
 20
-6797.894
 30
720.000
 70
    32
  0
VERTEX
  8
M45LXLIFT
 62
7
 10
4958.147
 20
-6810.916
 30
720.000
 70
    32
  0
VERTEX
  8
M45LXLIFT
 62
7
 10
4964.204
 20
-6830.783
 30
720.000
 70
    32
  0
VERTEX
  8
M45LXLIFT
 62
7
 10
4972.402
 20
-6853.106
 30
720.000
 70
    32
  0
VERTEX
  8
M45LXLIFT
 62
7
 10
4976.991
 20
-6874.386
 30
720.000
 70
    32
  0
VERTEX
  8
M45LXLIFT
 62
7
 10
4969.562
 20
-6879.548
 30
720.000
 70
    32
  0
VERTEX
  8
M45LXLIFT
 62
7
 10
4960.384
 20
-6861.660
 30
720.000
 70
    32
  0
VERTEX
  8
M45LXLIFT
 62
7
 10
4951.798
 20
-6841.915
 30
720.000
 70
    32
  0
VERTEX
  8
M45LXLIFT
 62
7
 10
4944.705
 20
-6836.895
 30
720.000
 70
    32
  0
VERTEX
  8
M45LXLIFT
 62
7
 10
4933.181
 20
-6798.253
 30
720.000
 70
    32
  0
VERTEX
  8
M45LXLIFT
 62
7
 10
4929.132
 20
-6782.579
 30
720.000
 70
    32
  0
VERTEX
  8
M45LXLIFT
 62
7
 10
4921.137
 20
-6771.021
 30
720.000
 70
    32
  0
VERTEX
  8
M45LXLIFT
 62
7
 10
4904.994
 20
-6752.275
 30
720.000
 70
    32
  0
SEQEND
  8
M45LXLIFT
  0
POLYLINE
  8
M45LXLIFT
 62
8
 66
     1
 70
     9
  0
VERTEX
  8
M45LXLIFT
 62
8
 10
4788.157
 20
-6708.052
 30
718.000
 70
    32
  0
VERTEX
  8
M45LXLIFT
 62
8
 10
4793.578
 20
-6706.230
 30
718.000
 70
    32
  0
VERTEX
  8
M45LXLIFT
 62
8
 10
4791.501
 20
-6677.418
 30
718.000
 70
    32
  0
VERTEX
  8
M45LXLIFT
 62
8
 10
4794.024
 20
-6661.036
 30
718.000
 70
    32
  0
VERTEX
  8
M45LXLIFT
 62
8
 10
4795.315
 20
-6652.441
 30
718.000
 70
    32
  0
VERTEX
  8
M45LXLIFT
 62
8
 10
4806.348
 20
-6646.691
 30
718.000
 70
    32
  0
VERTEX
  8
M45LXLIFT
 62
8
 10
4820.965
 20
-6645.496
 30
718.000
 70
    32
  0
VERTEX
  8
M45LXLIFT
 62
8
 10
4832.721
 20
-6651.655
 30
718.000
 70
    32
  0
VERTEX
  8
M45LXLIFT
 62
8
 10
4845.191
 20
-6658.487
 30
718.000
 70
    32
  0
VERTEX
  8
M45LXLIFT
 62
8
 10
4852.740
 20
-6656.293
 30
718.000
 70
    32
  0
VERTEX
  8
M45LXLIFT
 62
8
 10
4852.705
 20
-6646.495
 30
718.000
 70
    32
  0
VERTEX
  8
M45LXLIFT
 62
8
 10
4855.764
 20
-6631.135
 30
718.000
 70
    32
  0
VERTEX
  8
M45LXLIFT
 62
8
 10
4858.187
 20
-6623.778
 30
718.000
 70
    32
  0
VERTEX
  8
M45LXLIFT
 62
8
 10
4851.156
 20
-6617.512
 30
718.000
 70
    32
  0
VERTEX
  8
M45LXLIFT
 62
8
 10
4837.019
 20
-6607.982
 30
718.000
 70
    32
  0
VERTEX
  8
M45LXLIFT
 62
8
 10
4831.430
 20
-6601.304
 30
718.000
 70
    32
  0
VERTEX
  8
M45LXLIFT
 62
8
 10
4817.328
 20
-6601.572
 30
718.000
 70
    32
  0
VERTEX
  8
M45LXLIFT
 62
8
 10
4810.646
 20
-6600.506
 30
718.000
 70
    32
  0
VERTEX
  8
M45LXLIFT
 62
8
 10
4811.067
 20
-6617.770
 30
718.000
 70
    32
  0
VERTEX
  8
M45LXLIFT
 62
8
 10
4816.555
 20
-6621.356
 30
718.000
 70
    32
  0
VERTEX
  8
M45LXLIFT
 62
8
 10
4810.863
 20
-6626.653
 30
718.000
 70
    32
  0
VERTEX
  8
M45LXLIFT
 62
8
 10
4806.533
 20
-6635.419
 30
718.000
 70
    32
  0
VERTEX
  8
M45LXLIFT
 62
8
 10
4798.869
 20
-6631.695
 30
718.000
 70
    32
  0
VERTEX
  8
M45LXLIFT
 62
8
 10
4798.702
 20
-6620.684
 30
718.000
 70
    32
  0
VERTEX
  8
M45LXLIFT
 62
8
 10
4796.356
 20
-6604.952
 30
718.000
 70
    32
  0
VERTEX
  8
M45LXLIFT
 62
8
 10
4794.175
 20
-6595.648
 30
718.000
 70
    32
  0
VERTEX
  8
M45LXLIFT
 62
8
 10
4777.663
 20
-6604.028
 30
718.000
 70
    32
  0
VERTEX
  8
M45LXLIFT
 62
8
 10
4764.174
 20
-6606.899
 30
718.000
 70
    32
  0
VERTEX
  8
M45LXLIFT
 62
8
 10
4759.407
 20
-6610.640
 30
718.000
 70
    32
  0
VERTEX
  8
M45LXLIFT
 62
8
 10
4762.394
 20
-6625.025
 30
718.000
 70
    32
  0
VERTEX
  8
M45LXLIFT
 62
8
 10
4764.302
 20
-6638.243
 30
718.000
 70
    32
  0
VERTEX
  8
M45LXLIFT
 62
8
 10
4770.083
 20
-6649.908
 30
718.000
 70
    32
  0
VERTEX
  8
M45LXLIFT
 62
8
 10
4776.664
 20
-6667.532
 30
718.000
 70
    32
  0
VERTEX
  8
M45LXLIFT
 62
8
 10
4782.590
 20
-6681.165
 30
718.000
 70
    32
  0
VERTEX
  8
M45LXLIFT
 62
8
 10
4784.463
 20
-6694.189
 30
718.000
 70
    32
  0
VERTEX
  8
M45LXLIFT
 62
8
 10
4786.368
 20
-6700.313
 30
718.000
 70
    32
  0
SEQEND
  8
M45LXLIFT
  0
POLYLINE
  8
M45LXLIFT
 62
6
 66
     1
 70
     9
  0
VERTEX
  8
M45LXLIFT
 62
6
 10
4789.620
 20
-6557.424
 30
719.000
 70
    32
  0
VERTEX
  8
M45LXLIFT
 62
6
 10
4794.050
 20
-6549.238
 30
719.000
 70
    32
  0
VERTEX
  8
M45LXLIFT
 62
6
 10
4800.140
 20
-6535.024
 30
719.000
 70
    32
  0
VERTEX
  8
M45LXLIFT
 62
6
 10
4802.557
 20
-6526.034
 30
719.000
 70
    32
  0
VERTEX
  8
M45LXLIFT
 62
6
 10
4813.154
 20
-6519.841
 30
719.000
 70
    32
  0
VERTEX
  8
M45LXLIFT
 62
6
 10
4815.575
 20
-6522.527
 30
719.000
 70
    32
  0
VERTEX
  8
M45LXLIFT
 62
6
 10
4808.668
 20
-6528.395
 30
719.000
 70
    32
  0
VERTEX
  8
M45LXLIFT
 62
6
 10
4810.957
 20
-6532.380
 30
719.000
 70
    32
  0
VERTEX
  8
M45LXLIFT
 62
6
 10
4817.093
 20
-6533.741
 30
719.000
 70
    32
  0
VERTEX
  8
M45LXLIFT
 62
6
 10
4823.960
 20
-6531.068
 30
719.000
 70
    32
  0
VERTEX
  8
M45LXLIFT
 62
6
 10
4828.233
 20
-6530.203
 30
719.000
 70
    32
  0
VERTEX
  8
M45LXLIFT
 62
6
 10
4834.748
 20
-6539.907
 30
719.000
 70
    32
  0
VERTEX
  8
M45LXLIFT
 62
6
 10
4836.512
 20
-6551.157
 30
719.000
 70
    32
  0
VERTEX
  8
M45LXLIFT
 62
6
 10
4842.838
 20
-6575.083
 30
719.000
 70
    32
  0
VERTEX
  8
M45LXLIFT
 62
6
 10
4838.610
 20
-6579.407
 30
719.000
 70
    32
  0
VERTEX
  8
M45LXLIFT
 62
6
 10
4826.634
 20
-6569.699
 30
719.000
 70
    32
  0
VERTEX
  8
M45LXLIFT
 62
6
 10
4800.205
 20
-6567.614
 30
719.000
 70
    32
  0
VERTEX
  8
M45LXLIFT
 62
6
 10
4794.152
 20
-6564.445
 30
719.000
 70
    32
  0
SEQEND
  8
M45LXLIFT
  0
POLYLINE
  8
M45LXLIFT
 62
8
 66
     1
 70
     9
  0
VERTEX
  8
M45LXLIFT
 62
8
 10
5406.178
 20
-7014.571
 30
731.000
 70
    32
  0
VERTEX
  8
M45LXLIFT
 62
8
 10
5411.490
 20
-7008.023
 30
731.000
 70
    32
  0
VERTEX
  8
M45LXLIFT
 62
8
 10
5420.445
 20
-7000.200
 30
731.000
 70
    32
  0
VERTEX
  8
M45LXLIFT
 62
8
 10
5427.842
 20
-6988.942
 30
731.000
 70
    32
  0
VERTEX
  8
M45LXLIFT
 62
8
 10
5432.479
 20
-6986.059
 30
731.000
 70
    32
  0
VERTEX
  8
M45LXLIFT
 62
8
 10
5438.833
 20
-6986.383
 30
731.000
 70
    32
  0
VERTEX
  8
M45LXLIFT
 62
8
 10
5445.306
 20
-6982.143
 30
731.000
 70
    32
  0
VERTEX
  8
M45LXLIFT
 62
8
 10
5448.436
 20
-6978.846
 30
731.000
 70
    32
  0
VERTEX
  8
M45LXLIFT
 62
8
 10
5449.707
 20
-6969.935
 30
731.000
 70
    32
  0
VERTEX
  8
M45LXLIFT
 62
8
 10
5448.514
 20
-6961.973
 30
731.000
 70
    32
  0
VERTEX
  8
M45LXLIFT
 62
8
 10
5444.677
 20
-6958.260
 30
731.000
 70
    32
  0
VERTEX
  8
M45LXLIFT
 62
8
 10
5438.209
 20
-6956.601
 30
731.000
 70
    32
  0
VERTEX
  8
M45LXLIFT
 62
8
 10
5431.878
 20
-6960.737
 30
731.000
 70
    32
  0
VERTEX
  8
M45LXLIFT
 62
8
 10
5421.705
 20
-6967.059
 30
731.000
 70
    32
  0
VERTEX
  8
M45LXLIFT
 62
8
 10
5416.098
 20
-6970.550
 30
731.000
 70
    32
  0
VERTEX
  8
M45LXLIFT
 62
8
 10
5410.647
 20
-6971.743
 30
731.000
 70
    32
  0
VERTEX
  8
M45LXLIFT
 62
8
 10
5403.703
 20
-6970.326
 30
731.000
 70
    32
  0
VERTEX
  8
M45LXLIFT
 62
8
 10
5398.433
 20
-6970.729
 30
731.000
 70
    32
  0
VERTEX
  8
M45LXLIFT
 62
8
 10
5393.324
 20
-6975.927
 30
731.000
 70
    32
  0
VERTEX
  8
M45LXLIFT
 62
8
 10
5386.024
 20
-6985.693
 30
731.000
 70
    32
  0
VERTEX
  8
M45LXLIFT
 62
8
 10
5376.698
 20
-6991.388
 30
731.000
 70
    32
  0
VERTEX
  8
M45LXLIFT
 62
8
 10
5373.523
 20
-6998.759
 30
731.000
 70
    32
  0
VERTEX
  8
M45LXLIFT
 62
8
 10
5379.901
 20
-7011.075
 30
731.000
 70
    32
  0
VERTEX
  8
M45LXLIFT
 62
8
 10
5379.632
 20
-7019.571
 30
731.000
 70
    32
  0
VERTEX
  8
M45LXLIFT
 62
8
 10
5384.259
 20
-7025.976
 30
731.000
 70
    32
  0
VERTEX
  8
M45LXLIFT
 62
8
 10
5391.455
 20
-7031.572
 30
731.000
 70
    32
  0
VERTEX
  8
M45LXLIFT
 62
8
 10
5397.161
 20
-7031.611
 30
731.000
 70
    32
  0
VERTEX
  8
M45LXLIFT
 62
8
 10
5404.003
 20
-7029.937
 30
731.000
 70
    32
  0
VERTEX
  8
M45LXLIFT
 62
8
 10
5407.240
 20
-7026.342
 30
731.000
 70
    32
  0
VERTEX
  8
M45LXLIFT
 62
8
 10
5408.326
 20
-7021.608
 30
731.000
 70
    32
  0
SEQEND
  8
M45LXLIFT
  0
POLYLINE
  8
M45LXLIFT
 62
6
 66
     1
 70
     9
  0
VERTEX
  8
M45LXLIFT
 62
6
 10
5427.772
 20
-7160.411
 30
726.000
 70
    32
  0
VERTEX
  8
M45LXLIFT
 62
6
 10
5434.667
 20
-7153.346
 30
726.000
 70
    32
  0
VERTEX
  8
M45LXLIFT
 62
6
 10
5437.594
 20
-7148.889
 30
726.000
 70
    32
  0
VERTEX
  8
M45LXLIFT
 62
6
 10
5436.831
 20
-7142.247
 30
726.000
 70
    32
  0
VERTEX
  8
M45LXLIFT
 62
6
 10
5435.529
 20
-7137.533
 30
726.000
 70
    32
  0
VERTEX
  8
M45LXLIFT
 62
6
 10
5437.586
 20
-7126.731
 30
726.000
 70
    32
  0
VERTEX
  8
M45LXLIFT
 62
6
 10
5442.764
 20
-7113.949
 30
726.000
 70
    32
  0
VERTEX
  8
M45LXLIFT
 62
6
 10
5444.620
 20
-7109.519
 30
726.000
 70
    32
  0
VERTEX
  8
M45LXLIFT
 62
6
 10
5440.577
 20
-7105.085
 30
726.000
 70
    32
  0
VERTEX
  8
M45LXLIFT
 62
6
 10
5435.762
 20
-7097.836
 30
726.000
 70
    32
  0
VERTEX
  8
M45LXLIFT
 62
6
 10
5430.760
 20
-7087.233
 30
726.000
 70
    32
  0
VERTEX
  8
M45LXLIFT
 62
6
 10
5426.486
 20
-7083.078
 30
726.000
 70
    32
  0
VERTEX
  8
M45LXLIFT
 62
6
 10
5422.581
 20
-7081.489
 30
726.000
 70
    32
  0
VERTEX
  8
M45LXLIFT
 62
6
 10
5407.338
 20
-7092.324
 30
726.000
 70
    32
  0
VERTEX
  8
M45LXLIFT
 62
6
 10
5402.048
 20
-7095.800
 30
726.000
 70
    32
  0
VERTEX
  8
M45LXLIFT
 62
6
 10
5389.544
 20
-7111.816
 30
726.000
 70
    32
  0
VERTEX
  8
M45LXLIFT
 62
6
 10
5381.678
 20
-7129.970
 30
726.000
 70
    32
  0
VERTEX
  8
M45LXLIFT
 62
6
 10
5377.310
 20
-7142.371
 30
726.000
 70
    32
  0
VERTEX
  8
M45LXLIFT
 62
6
 10
5384.957
 20
-7146.216
 30
726.000
 70
    32
  0
VERTEX
  8
M45LXLIFT
 62
6
 10
5401.226
 20
-7165.411
 30
726.000
 70
    32
  0
VERTEX
  8
M45LXLIFT
 62
6
 10
5411.406
 20
-7163.232
 30
726.000
 70
    32
  0
VERTEX
  8
M45LXLIFT
 62
6
 10
5416.931
 20
-7161.549
 30
726.000
 70
    32
  0
SEQEND
  8
M45LXLIFT
  0
POLYLINE
  8
M45LXLIFT
 62
7
 66
     1
 70
     9
  0
VERTEX
  8
M45LXLIFT
 62
7
 10
5285.058
 20
-7096.168
 30
731.000
 70
    32
  0
VERTEX
  8
M45LXLIFT
 62
7
 10
5283.504
 20
-7092.295
 30
731.000
 70
    32
  0
VERTEX
  8
M45LXLIFT
 62
7
 10
5279.293
 20
-7094.426
 30
731.000
 70
    32
  0
VERTEX
  8
M45LXLIFT
 62
7
 10
5276.916
 20
-7087.668
 30
731.000
 70
    32
  0
VERTEX
  8
M45LXLIFT
 62
7
 10
5272.111
 20
-7081.613
 30
731.000
 70
    32
  0
VERTEX
  8
M45LXLIFT
 62
7
 10
5268.108
 20
-7079.005
 30
731.000
 70
    32
  0
VERTEX
  8
M45LXLIFT
 62
7
 10
5261.135
 20
-7084.488
 30
731.000
 70
    32
  0
VERTEX
  8
M45LXLIFT
 62
7
 10
5254.795
 20
-7089.941
 30
731.000
 70
    32
  0
VERTEX
  8
M45LXLIFT
 62
7
 10
5257.182
 20
-7097.893
 30
731.000
 70
    32
  0
VERTEX
  8
M45LXLIFT
 62
7
 10
5263.809
 20
-7109.807
 30
731.000
 70
    32
  0
VERTEX
  8
M45LXLIFT
 62
7
 10
5267.341
 20
-7119.751
 30
731.000
 70
    32
  0
VERTEX
  8
M45LXLIFT
 62
7
 10
5266.940
 20
-7127.035
 30
731.000
 70
    32
  0
VERTEX
  8
M45LXLIFT
 62
7
 10
5273.401
 20
-7137.543
 30
731.000
 70
    32
  0
VERTEX
  8
M45LXLIFT
 62
7
 10
5278.145
 20
-7144.844
 30
731.000
 70
    32
  0
VERTEX
  8
M45LXLIFT
 62
7
 10
5281.828
 20
-7145.396
 30
731.000
 70
    32
  0
VERTEX
  8
M45LXLIFT
 62
7
 10
5289.737
 20
-7141.621
 30
731.000
 70
    32
  0
VERTEX
  8
M45LXLIFT
 62
7
 10
5292.250
 20
-7138.671
 30
731.000
 70
    32
  0
VERTEX
  8
M45LXLIFT
 62
7
 10
5291.508
 20
-7126.446
 30
731.000
 70
    32
  0
VERTEX
  8
M45LXLIFT
 62
7
 10
5289.436
 20
-7115.968
 30
731.000
 70
    32
  0
VERTEX
  8
M45LXLIFT
 62
7
 10
5293.097
 20
-7109.549
 30
731.000
 70
    32
  0
VERTEX
  8
M45LXLIFT
 62
7
 10
5291.110
 20
-7104.795
 30
731.000
 70
    32
  0
SEQEND
  8
M45LXLIFT
  0
POLYLINE
  8
M45LXLIFT
 62
13
 66
     1
 70
     9
  0
VERTEX
  8
M45LXLIFT
 62
13
 10
5307.199
 20
-7340.194
 30
730.000
 70
    32
  0
VERTEX
  8
M45LXLIFT
 62
13
 10
5308.465
 20
-7332.162
 30
730.000
 70
    32
  0
VERTEX
  8
M45LXLIFT
 62
13
 10
5310.708
 20
-7314.672
 30
730.000
 70
    32
  0
VERTEX
  8
M45LXLIFT
 62
13
 10
5311.085
 20
-7302.928
 30
730.000
 70
    32
  0
VERTEX
  8
M45LXLIFT
 62
13
 10
5305.050
 20
-7284.136
 30
730.000
 70
    32
  0
VERTEX
  8
M45LXLIFT
 62
13
 10
5302.945
 20
-7275.975
 30
730.000
 70
    32
  0
VERTEX
  8
M45LXLIFT
 62
13
 10
5301.522
 20
-7265.782
 30
730.000
 70
    32
  0
VERTEX
  8
M45LXLIFT
 62
13
 10
5291.425
 20
-7247.699
 30
730.000
 70
    32
  0
VERTEX
  8
M45LXLIFT
 62
13
 10
5284.243
 20
-7234.886
 30
730.000
 70
    32
  0
VERTEX
  8
M45LXLIFT
 62
13
 10
5281.270
 20
-7225.402
 30
730.000
 70
    32
  0
VERTEX
  8
M45LXLIFT
 62
13
 10
5273.959
 20
-7226.441
 30
730.000
 70
    32
  0
VERTEX
  8
M45LXLIFT
 62
13
 10
5268.875
 20
-7235.660
 30
730.000
 70
    32
  0
VERTEX
  8
M45LXLIFT
 62
13
 10
5264.257
 20
-7240.931
 30
730.000
 70
    32
  0
VERTEX
  8
M45LXLIFT
 62
13
 10
5259.980
 20
-7247.697
 30
730.000
 70
    32
  0
VERTEX
  8
M45LXLIFT
 62
13
 10
5261.283
 20
-7254.922
 30
730.000
 70
    32
  0
VERTEX
  8
M45LXLIFT
 62
13
 10
5267.211
 20
-7261.020
 30
730.000
 70
    32
  0
VERTEX
  8
M45LXLIFT
 62
13
 10
5267.993
 20
-7270.050
 30
730.000
 70
    32
  0
VERTEX
  8
M45LXLIFT
 62
13
 10
5272.798
 20
-7278.615
 30
730.000
 70
    32
  0
VERTEX
  8
M45LXLIFT
 62
13
 10
5279.787
 20
-7288.951
 30
730.000
 70
    32
  0
VERTEX
  8
M45LXLIFT
 62
13
 10
5285.389
 20
-7304.352
 30
730.000
 70
    32
  0
VERTEX
  8
M45LXLIFT
 62
13
 10
5288.999
 20
-7318.388
 30
730.000
 70
    32
  0
VERTEX
  8
M45LXLIFT
 62
13
 10
5290.161
 20
-7328.228
 30
730.000
 70
    32
  0
VERTEX
  8
M45LXLIFT
 62
13
 10
5293.472
 20
-7334.624
 30
730.000
 70
    32
  0
VERTEX
  8
M45LXLIFT
 62
13
 10
5299.056
 20
-7342.176
 30
730.000
 70
    32
  0
SEQEND
  8
M45LXLIFT
  0
POLYLINE
  8
M45LXLIFT
 62
7
 66
     1
 70
     9
  0
VERTEX
  8
M45LXLIFT
 62
7
 10
4895.408
 20
-6674.080
 30
730.000
 70
    32
  0
VERTEX
  8
M45LXLIFT
 62
7
 10
4902.675
 20
-6679.625
 30
730.000
 70
    32
  0
VERTEX
  8
M45LXLIFT
 62
7
 10
4908.042
 20
-6685.701
 30
730.000
 70
    32
  0
VERTEX
  8
M45LXLIFT
 62
7
 10
4912.336
 20
-6702.287
 30
730.000
 70
    32
  0
VERTEX
  8
M45LXLIFT
 62
7
 10
4915.869
 20
-6714.742
 30
730.000
 70
    32
  0
VERTEX
  8
M45LXLIFT
 62
7
 10
4923.869
 20
-6731.318
 30
730.000
 70
    32
  0
VERTEX
  8
M45LXLIFT
 62
7
 10
4933.403
 20
-6746.868
 30
730.000
 70
    32
  0
VERTEX
  8
M45LXLIFT
 62
7
 10
4936.575
 20
-6755.440
 30
730.000
 70
    32
  0
VERTEX
  8
M45LXLIFT
 62
7
 10
4939.004
 20
-6759.758
 30
730.000
 70
    32
  0
VERTEX
  8
M45LXLIFT
 62
7
 10
4942.320
 20
-6775.758
 30
730.000
 70
    32
  0
VERTEX
  8
M45LXLIFT
 62
7
 10
4944.324
 20
-6785.850
 30
730.000
 70
    32
  0
VERTEX
  8
M45LXLIFT
 62
7
 10
4952.968
 20
-6803.150
 30
730.000
 70
    32
  0
VERTEX
  8
M45LXLIFT
 62
7
 10
4959.360
 20
-6821.242
 30
730.000
 70
    32
  0
VERTEX
  8
M45LXLIFT
 62
7
 10
4966.491
 20
-6839.006
 30
730.000
 70
    32
  0
VERTEX
  8
M45LXLIFT
 62
7
 10
4974.172
 20
-6861.058
 30
730.000
 70
    32
  0
VERTEX
  8
M45LXLIFT
 62
7
 10
4976.824
 20
-6873.946
 30
730.000
 70
    32
  0
VERTEX
  8
M45LXLIFT
 62
7
 10
4973.222
 20
-6877.047
 30
730.000
 70
    32
  0
VERTEX
  8
M45LXLIFT
 62
7
 10
4966.358
 20
-6874.261
 30
730.000
 70
    32
  0
VERTEX
  8
M45LXLIFT
 62
7
 10
4958.919
 20
-6865.678
 30
730.000
 70
    32
  0
VERTEX
  8
M45LXLIFT
 62
7
 10
4955.037
 20
-6858.067
 30
730.000
 70
    32
  0
VERTEX
  8
M45LXLIFT
 62
7
 10
4951.489
 20
-6845.296
 30
730.000
 70
    32
  0
VERTEX
  8
M45LXLIFT
 62
7
 10
4941.799
 20
-6832.044
 30
730.000
 70
    32
  0
VERTEX
  8
M45LXLIFT
 62
7
 10
4938.410
 20
-6816.536
 30
730.000
 70
    32
  0
VERTEX
  8
M45LXLIFT
 62
7
 10
4933.842
 20
-6798.842
 30
730.000
 70
    32
  0
VERTEX
  8
M45LXLIFT
 62
7
 10
4927.340
 20
-6781.486
 30
730.000
 70
    32
  0
VERTEX
  8
M45LXLIFT
 62
7
 10
4917.051
 20
-6768.459
 30
730.000
 70
    32
  0
VERTEX
  8
M45LXLIFT
 62
7
 10
4899.903
 20
-6759.739
 30
730.000
 70
    32
  0
VERTEX
  8
M45LXLIFT
 62
7
 10
4889.227
 20
-6741.758
 30
730.000
 70
    32
  0
VERTEX
  8
M45LXLIFT
 62
7
 10
4877.262
 20
-6724.840
 30
730.000
 70
    32
  0
VERTEX
  8
M45LXLIFT
 62
7
 10
4873.065
 20
-6709.273
 30
730.000
 70
    32
  0
VERTEX
  8
M45LXLIFT
 62
7
 10
4876.793
 20
-6700.730
 30
730.000
 70
    32
  0
VERTEX
  8
M45LXLIFT
 62
7
 10
4879.896
 20
-6690.901
 30
730.000
 70
    32
  0
VERTEX
  8
M45LXLIFT
 62
7
 10
4881.675
 20
-6682.380
 30
730.000
 70
    32
  0
SEQEND
  8
M45LXLIFT
  0
POLYLINE
  8
M45LXLIFT
 62
6
 66
     1
 70
     9
  0
VERTEX
  8
M45LXLIFT
 62
6
 10
4795.948
 20
-6517.583
 30
729.000
 70
    32
  0
VERTEX
  8
M45LXLIFT
 62
6
 10
4802.365
 20
-6524.193
 30
729.000
 70
    32
  0
VERTEX
  8
M45LXLIFT
 62
6
 10
4819.002
 20
-6530.451
 30
729.000
 70
    32
  0
VERTEX
  8
M45LXLIFT
 62
6
 10
4833.820
 20
-6535.871
 30
729.000
 70
    32
  0
VERTEX
  8
M45LXLIFT
 62
6
 10
4843.870
 20
-6540.012
 30
729.000
 70
    32
  0
VERTEX
  8
M45LXLIFT
 62
6
 10
4847.864
 20
-6543.937
 30
729.000
 70
    32
  0
VERTEX
  8
M45LXLIFT
 62
6
 10
4859.469
 20
-6567.455
 30
729.000
 70
    32
  0
VERTEX
  8
M45LXLIFT
 62
6
 10
4860.951
 20
-6579.352
 30
729.000
 70
    32
  0
VERTEX
  8
M45LXLIFT
 62
6
 10
4849.860
 20
-6588.863
 30
729.000
 70
    32
  0
VERTEX
  8
M45LXLIFT
 62
6
 10
4835.442
 20
-6594.612
 30
729.000
 70
    32
  0
VERTEX
  8
M45LXLIFT
 62
6
 10
4828.191
 20
-6591.895
 30
729.000
 70
    32
  0
VERTEX
  8
M45LXLIFT
 62
6
 10
4816.281
 20
-6574.607
 30
729.000
 70
    32
  0
VERTEX
  8
M45LXLIFT
 62
6
 10
4811.402
 20
-6569.044
 30
729.000
 70
    32
  0
VERTEX
  8
M45LXLIFT
 62
6
 10
4802.446
 20
-6569.334
 30
729.000
 70
    32
  0
VERTEX
  8
M45LXLIFT
 62
6
 10
4797.792
 20
-6566.880
 30
729.000
 70
    32
  0
VERTEX
  8
M45LXLIFT
 62
6
 10
4795.676
 20
-6560.475
 30
729.000
 70
    32
  0
VERTEX
  8
M45LXLIFT
 62
6
 10
4795.977
 20
-6549.661
 30
729.000
 70
    32
  0
VERTEX
  8
M45LXLIFT
 62
6
 10
4796.664
 20
-6546.751
 30
729.000
 70
    32
  0
VERTEX
  8
M45LXLIFT
 62
6
 10
4791.704
 20
-6535.024
 30
729.000
 70
    32
  0
VERTEX
  8
M45LXLIFT
 62
6
 10
4787.797
 20
-6523.392
 30
729.000
 70
    32
  0
VERTEX
  8
M45LXLIFT
 62
6
 10
4789.135
 20
-6520.329
 30
729.000
 70
    32
  0
SEQEND
  8
M45LXLIFT
  0
POLYLINE
  8
M45LXLIFT
 62
8
 66
     1
 70
     9
  0
VERTEX
  8
M45LXLIFT
 62
8
 10
5456.711
 20
-6965.544
 30
743.000
 70
    32
  0
VERTEX
  8
M45LXLIFT
 62
8
 10
5453.537
 20
-6974.167
 30
743.000
 70
    32
  0
VERTEX
  8
M45LXLIFT
 62
8
 10
5453.227
 20
-6980.157
 30
743.000
 70
    32
  0
VERTEX
  8
M45LXLIFT
 62
8
 10
5450.366
 20
-6986.376
 30
743.000
 70
    32
  0
VERTEX
  8
M45LXLIFT
 62
8
 10
5439.613
 20
-6984.755
 30
743.000
 70
    32
  0
VERTEX
  8
M45LXLIFT
 62
8
 10
5429.810
 20
-6984.289
 30
743.000
 70
    32
  0
VERTEX
  8
M45LXLIFT
 62
8
 10
5420.545
 20
-6989.631
 30
743.000
 70
    32
  0
VERTEX
  8
M45LXLIFT
 62
8
 10
5417.596
 20
-6998.416
 30
743.000
 70
    32
  0
VERTEX
  8
M45LXLIFT
 62
8
 10
5415.713
 20
-7006.424
 30
743.000
 70
    32
  0
VERTEX
  8
M45LXLIFT
 62
8
 10
5421.273
 20
-7013.899
 30
743.000
 70
    32
  0
VERTEX
  8
M45LXLIFT
 62
8
 10
5426.695
 20
-7025.064
 30
743.000
 70
    32
  0
VERTEX
  8
M45LXLIFT
 62
8
 10
5411.648
 20
-7042.018
 30
743.000
 70
    32
  0
VERTEX
  8
M45LXLIFT
 62
8
 10
5399.431
 20
-7027.650
 30
743.000
 70
    32
  0
VERTEX
  8
M45LXLIFT
 62
8
 10
5395.809
 20
-7030.291
 30
743.000
 70
    32
  0
VERTEX
  8
M45LXLIFT
 62
8
 10
5389.606
 20
-7024.916
 30
743.000
 70
    32
  0
VERTEX
  8
M45LXLIFT
 62
8
 10
5379.829
 20
-7018.667
 30
743.000
 70
    32
  0
VERTEX
  8
M45LXLIFT
 62
8
 10
5374.954
 20
-7011.236
 30
743.000
 70
    32
  0
VERTEX
  8
M45LXLIFT
 62
8
 10
5371.905
 20
-7001.387
 30
743.000
 70
    32
  0
VERTEX
  8
M45LXLIFT
 62
8
 10
5370.096
 20
-6990.850
 30
743.000
 70
    32
  0
VERTEX
  8
M45LXLIFT
 62
8
 10
5370.318
 20
-6982.205
 30
743.000
 70
    32
  0
VERTEX
  8
M45LXLIFT
 62
8
 10
5376.564
 20
-6975.257
 30
743.000
 70
    32
  0
VERTEX
  8
M45LXLIFT
 62
8
 10
5388.133
 20
-6972.478
 30
743.000
 70
    32
  0
VERTEX
  8
M45LXLIFT
 62
8
 10
5399.315
 20
-6970.958
 30
743.000
 70
    32
  0
VERTEX
  8
M45LXLIFT
 62
8
 10
5408.706
 20
-6968.026
 30
743.000
 70
    32
  0
VERTEX
  8
M45LXLIFT
 62
8
 10
5416.337
 20
-6962.680
 30
743.000
 70
    32
  0
VERTEX
  8
M45LXLIFT
 62
8
 10
5423.548
 20
-6957.204
 30
743.000
 70
    32
  0
VERTEX
  8
M45LXLIFT
 62
8
 10
5428.221
 20
-6953.470
 30
743.000
 70
    32
  0
VERTEX
  8
M45LXLIFT
 62
8
 10
5437.401
 20
-6957.110
 30
743.000
 70
    32
  0
SEQEND
  8
M45LXLIFT
  0
POLYLINE
  8
M45LXLIFT
 62
27
 66
     1
 70
     9
  0
VERTEX
  8
M45LXLIFT
 62
27
 10
5380.425
 20
-7040.965
 30
743.000
 70
    32
  0
VERTEX
  8
M45LXLIFT
 62
27
 10
5377.520
 20
-7042.648
 30
743.000
 70
    32
  0
VERTEX
  8
M45LXLIFT
 62
27
 10
5378.789
 20
-7050.207
 30
743.000
 70
    32
  0
VERTEX
  8
M45LXLIFT
 62
27
 10
5376.150
 20
-7053.001
 30
743.000
 70
    32
  0
VERTEX
  8
M45LXLIFT
 62
27
 10
5374.065
 20
-7060.286
 30
743.000
 70
    32
  0
VERTEX
  8
M45LXLIFT
 62
27
 10
5370.920
 20
-7066.712
 30
743.000
 70
    32
  0
VERTEX
  8
M45LXLIFT
 62
27
 10
5365.116
 20
-7070.835
 30
743.000
 70
    32
  0
VERTEX
  8
M45LXLIFT
 62
27
 10
5348.029
 20
-7078.726
 30
743.000
 70
    32
  0
VERTEX
  8
M45LXLIFT
 62
27
 10
5340.924
 20
-7085.539
 30
743.000
 70
    32
  0
VERTEX
  8
M45LXLIFT
 62
27
 10
5331.260
 20
-7098.241
 30
743.000
 70
    32
  0
VERTEX
  8
M45LXLIFT
 62
27
 10
5324.727
 20
-7097.784
 30
743.000
 70
    32
  0
VERTEX
  8
M45LXLIFT
 62
27
 10
5317.825
 20
-7096.074
 30
743.000
 70
    32
  0
VERTEX
  8
M45LXLIFT
 62
27
 10
5309.953
 20
-7094.527
 30
743.000
 70
    32
  0
VERTEX
  8
M45LXLIFT
 62
27
 10
5304.460
 20
-7088.634
 30
743.000
 70
    32
  0
VERTEX
  8
M45LXLIFT
 62
27
 10
5299.168
 20
-7078.244
 30
743.000
 70
    32
  0
VERTEX
  8
M45LXLIFT
 62
27
 10
5301.532
 20
-7072.387
 30
743.000
 70
    32
  0
VERTEX
  8
M45LXLIFT
 62
27
 10
5309.460
 20
-7067.150
 30
743.000
 70
    32
  0
VERTEX
  8
M45LXLIFT
 62
27
 10
5316.342
 20
-7067.788
 30
743.000
 70
    32
  0
VERTEX
  8
M45LXLIFT
 62
27
 10
5323.905
 20
-7064.884
 30
743.000
 70
    32
  0
VERTEX
  8
M45LXLIFT
 62
27
 10
5331.024
 20
-7058.388
 30
743.000
 70
    32
  0
VERTEX
  8
M45LXLIFT
 62
27
 10
5336.153
 20
-7052.146
 30
743.000
 70
    32
  0
VERTEX
  8
M45LXLIFT
 62
27
 10
5341.795
 20
-7048.249
 30
743.000
 70
    32
  0
VERTEX
  8
M45LXLIFT
 62
27
 10
5353.044
 20
-7043.092
 30
743.000
 70
    32
  0
VERTEX
  8
M45LXLIFT
 62
27
 10
5365.539
 20
-7036.809
 30
743.000
 70
    32
  0
VERTEX
  8
M45LXLIFT
 62
27
 10
5375.743
 20
-7032.306
 30
743.000
 70
    32
  0
SEQEND
  8
M45LXLIFT
  0
POLYLINE
  8
M45LXLIFT
 62
6
 66
     1
 70
     9
  0
VERTEX
  8
M45LXLIFT
 62
6
 10
5427.966
 20
-7143.454
 30
736.000
 70
    32
  0
VERTEX
  8
M45LXLIFT
 62
6
 10
5431.646
 20
-7152.082
 30
736.000
 70
    32
  0
VERTEX
  8
M45LXLIFT
 62
6
 10
5431.658
 20
-7156.424
 30
736.000
 70
    32
  0
VERTEX
  8
M45LXLIFT
 62
6
 10
5422.147
 20
-7161.728
 30
736.000
 70
    32
  0
VERTEX
  8
M45LXLIFT
 62
6
 10
5415.867
 20
-7167.286
 30
736.000
 70
    32
  0
VERTEX
  8
M45LXLIFT
 62
6
 10
5411.388
 20
-7165.766
 30
736.000
 70
    32
  0
VERTEX
  8
M45LXLIFT
 62
6
 10
5407.597
 20
-7157.436
 30
736.000
 70
    32
  0
VERTEX
  8
M45LXLIFT
 62
6
 10
5403.409
 20
-7151.245
 30
736.000
 70
    32
  0
VERTEX
  8
M45LXLIFT
 62
6
 10
5398.188
 20
-7146.024
 30
736.000
 70
    32
  0
VERTEX
  8
M45LXLIFT
 62
6
 10
5393.554
 20
-7144.292
 30
736.000
 70
    32
  0
VERTEX
  8
M45LXLIFT
 62
6
 10
5378.313
 20
-7156.057
 30
736.000
 70
    32
  0
VERTEX
  8
M45LXLIFT
 62
6
 10
5371.301
 20
-7159.865
 30
736.000
 70
    32
  0
VERTEX
  8
M45LXLIFT
 62
6
 10
5365.685
 20
-7159.174
 30
736.000
 70
    32
  0
VERTEX
  8
M45LXLIFT
 62
6
 10
5359.945
 20
-7146.827
 30
736.000
 70
    32
  0
VERTEX
  8
M45LXLIFT
 62
6
 10
5355.875
 20
-7137.069
 30
736.000
 70
    32
  0
VERTEX
  8
M45LXLIFT
 62
6
 10
5354.253
 20
-7126.940
 30
736.000
 70
    32
  0
VERTEX
  8
M45LXLIFT
 62
6
 10
5357.132
 20
-7119.402
 30
736.000
 70
    32
  0
VERTEX
  8
M45LXLIFT
 62
6
 10
5361.229
 20
-7108.911
 30
736.000
 70
    32
  0
VERTEX
  8
M45LXLIFT
 62
6
 10
5371.080
 20
-7096.615
 30
736.000
 70
    32
  0
VERTEX
  8
M45LXLIFT
 62
6
 10
5378.514
 20
-7088.911
 30
736.000
 70
    32
  0
VERTEX
  8
M45LXLIFT
 62
6
 10
5391.743
 20
-7080.352
 30
736.000
 70
    32
  0
VERTEX
  8
M45LXLIFT
 62
6
 10
5398.236
 20
-7074.639
 30
736.000
 70
    32
  0
VERTEX
  8
M45LXLIFT
 62
6
 10
5407.011
 20
-7075.636
 30
736.000
 70
    32
  0
VERTEX
  8
M45LXLIFT
 62
6
 10
5416.122
 20
-7080.522
 30
736.000
 70
    32
  0
VERTEX
  8
M45LXLIFT
 62
6
 10
5422.913
 20
-7086.555
 30
736.000
 70
    32
  0
VERTEX
  8
M45LXLIFT
 62
6
 10
5428.966
 20
-7095.303
 30
736.000
 70
    32
  0
VERTEX
  8
M45LXLIFT
 62
6
 10
5428.164
 20
-7105.241
 30
736.000
 70
    32
  0
VERTEX
  8
M45LXLIFT
 62
6
 10
5423.769
 20
-7114.428
 30
736.000
 70
    32
  0
VERTEX
  8
M45LXLIFT
 62
6
 10
5426.463
 20
-7124.537
 30
736.000
 70
    32
  0
VERTEX
  8
M45LXLIFT
 62
6
 10
5431.868
 20
-7132.995
 30
736.000
 70
    32
  0
SEQEND
  8
M45LXLIFT
  0
POLYLINE
  8
M45LXLIFT
 62
7
 66
     1
 70
     9
  0
VERTEX
  8
M45LXLIFT
 62
7
 10
5283.222
 20
-7104.555
 30
742.000
 70
    32
  0
VERTEX
  8
M45LXLIFT
 62
7
 10
5283.881
 20
-7110.383
 30
742.000
 70
    32
  0
VERTEX
  8
M45LXLIFT
 62
7
 10
5280.366
 20
-7120.777
 30
742.000
 70
    32
  0
VERTEX
  8
M45LXLIFT
 62
7
 10
5278.674
 20
-7131.582
 30
742.000
 70
    32
  0
VERTEX
  8
M45LXLIFT
 62
7
 10
5272.421
 20
-7137.774
 30
742.000
 70
    32
  0
VERTEX
  8
M45LXLIFT
 62
7
 10
5266.324
 20
-7134.932
 30
742.000
 70
    32
  0
VERTEX
  8
M45LXLIFT
 62
7
 10
5259.474
 20
-7129.267
 30
742.000
 70
    32
  0
VERTEX
  8
M45LXLIFT
 62
7
 10
5253.662
 20
-7126.218
 30
742.000
 70
    32
  0
VERTEX
  8
M45LXLIFT
 62
7
 10
5254.668
 20
-7119.394
 30
742.000
 70
    32
  0
VERTEX
  8
M45LXLIFT
 62
7
 10
5249.497
 20
-7113.049
 30
742.000
 70
    32
  0
VERTEX
  8
M45LXLIFT
 62
7
 10
5243.343
 20
-7105.354
 30
742.000
 70
    32
  0
VERTEX
  8
M45LXLIFT
 62
7
 10
5239.923
 20
-7098.277
 30
742.000
 70
    32
  0
VERTEX
  8
M45LXLIFT
 62
7
 10
5236.175
 20
-7082.845
 30
742.000
 70
    32
  0
VERTEX
  8
M45LXLIFT
 62
7
 10
5232.245
 20
-7070.593
 30
742.000
 70
    32
  0
VERTEX
  8
M45LXLIFT
 62
7
 10
5240.488
 20
-7064.147
 30
742.000
 70
    32
  0
VERTEX
  8
M45LXLIFT
 62
7
 10
5247.238
 20
-7057.594
 30
742.000
 70
    32
  0
VERTEX
  8
M45LXLIFT
 62
7
 10
5256.406
 20
-7051.670
 30
742.000
 70
    32
  0
VERTEX
  8
M45LXLIFT
 62
7
 10
5269.257
 20
-7056.765
 30
742.000
 70
    32
  0
VERTEX
  8
M45LXLIFT
 62
7
 10
5274.228
 20
-7053.141
 30
742.000
 70
    32
  0
VERTEX
  8
M45LXLIFT
 62
7
 10
5278.644
 20
-7060.688
 30
742.000
 70
    32
  0
VERTEX
  8
M45LXLIFT
 62
7
 10
5279.371
 20
-7068.099
 30
742.000
 70
    32
  0
VERTEX
  8
M45LXLIFT
 62
7
 10
5274.910
 20
-7076.898
 30
742.000
 70
    32
  0
VERTEX
  8
M45LXLIFT
 62
7
 10
5269.148
 20
-7083.166
 30
742.000
 70
    32
  0
VERTEX
  8
M45LXLIFT
 62
7
 10
5269.462
 20
-7085.983
 30
742.000
 70
    32
  0
VERTEX
  8
M45LXLIFT
 62
7
 10
5273.289
 20
-7092.873
 30
742.000
 70
    32
  0
SEQEND
  8
M45LXLIFT
  0
POLYLINE
  8
M45LXLIFT
 62
13
 66
     1
 70
     9
  0
VERTEX
  8
M45LXLIFT
 62
13
 10
5270.998
 20
-7225.172
 30
740.000
 70
    32
  0
VERTEX
  8
M45LXLIFT
 62
13
 10
5280.061
 20
-7233.573
 30
740.000
 70
    32
  0
VERTEX
  8
M45LXLIFT
 62
13
 10
5287.597
 20
-7240.478
 30
740.000
 70
    32
  0
VERTEX
  8
M45LXLIFT
 62
13
 10
5290.564
 20
-7247.233
 30
740.000
 70
    32
  0
VERTEX
  8
M45LXLIFT
 62
13
 10
5298.225
 20
-7255.352
 30
740.000
 70
    32
  0
VERTEX
  8
M45LXLIFT
 62
13
 10
5306.696
 20
-7265.925
 30
740.000
 70
    32
  0
VERTEX
  8
M45LXLIFT
 62
13
 10
5312.881
 20
-7277.838
 30
740.000
 70
    32
  0
VERTEX
  8
M45LXLIFT
 62
13
 10
5318.525
 20
-7290.799
 30
740.000
 70
    32
  0
VERTEX
  8
M45LXLIFT
 62
13
 10
5322.178
 20
-7302.819
 30
740.000
 70
    32
  0
VERTEX
  8
M45LXLIFT
 62
13
 10
5324.554
 20
-7316.967
 30
740.000
 70
    32
  0
VERTEX
  8
M45LXLIFT
 62
13
 10
5330.595
 20
-7327.789
 30
740.000
 70
    32
  0
VERTEX
  8
M45LXLIFT
 62
13
 10
5336.756
 20
-7340.264
 30
740.000
 70
    32
  0
VERTEX
  8
M45LXLIFT
 62
13
 10
5328.635
 20
-7346.729
 30
740.000
 70
    32
  0
VERTEX
  8
M45LXLIFT
 62
13
 10
5323.496
 20
-7339.383
 30
740.000
 70
    32
  0
VERTEX
  8
M45LXLIFT
 62
13
 10
5313.032
 20
-7331.894
 30
740.000
 70
    32
  0
VERTEX
  8
M45LXLIFT
 62
13
 10
5300.117
 20
-7317.165
 30
740.000
 70
    32
  0
VERTEX
  8
M45LXLIFT
 62
13
 10
5289.764
 20
-7305.354
 30
740.000
 70
    32
  0
VERTEX
  8
M45LXLIFT
 62
13
 10
5277.450
 20
-7290.404
 30
740.000
 70
    32
  0
VERTEX
  8
M45LXLIFT
 62
13
 10
5281.410
 20
-7279.577
 30
740.000
 70
    32
  0
VERTEX
  8
M45LXLIFT
 62
13
 10
5270.295
 20
-7262.991
 30
740.000
 70
    32
  0
VERTEX
  8
M45LXLIFT
 62
13
 10
5263.440
 20
-7252.545
 30
740.000
 70
    32
  0
VERTEX
  8
M45LXLIFT
 62
13
 10
5253.495
 20
-7236.520
 30
740.000
 70
    32
  0
SEQEND
  8
M45LXLIFT
  0
POLYLINE
  8
M45LXLIFT
 62
7
 66
     1
 70
     9
  0
VERTEX
  8
M45LXLIFT
 62
7
 10
4890.221
 20
-6671.194
 30
740.000
 70
    32
  0
VERTEX
  8
M45LXLIFT
 62
7
 10
4893.749
 20
-6671.558
 30
740.000
 70
    32
  0
VERTEX
  8
M45LXLIFT
 62
7
 10
4898.919
 20
-6677.903
 30
740.000
 70
    32
  0
VERTEX
  8
M45LXLIFT
 62
7
 10
4905.248
 20
-6680.467
 30
740.000
 70
    32
  0
VERTEX
  8
M45LXLIFT
 62
7
 10
4908.496
 20
-6688.650
 30
740.000
 70
    32
  0
VERTEX
  8
M45LXLIFT
 62
7
 10
4910.897
 20
-6697.014
 30
740.000
 70
    32
  0
VERTEX
  8
M45LXLIFT
 62
7
 10
4912.280
 20
-6707.861
 30
740.000
 70
    32
  0
VERTEX
  8
M45LXLIFT
 62
7
 10
4915.722
 20
-6717.207
 30
740.000
 70
    32
  0
VERTEX
  8
M45LXLIFT
 62
7
 10
4924.630
 20
-6735.836
 30
740.000
 70
    32
  0
VERTEX
  8
M45LXLIFT
 62
7
 10
4932.147
 20
-6753.305
 30
740.000
 70
    32
  0
VERTEX
  8
M45LXLIFT
 62
7
 10
4936.760
 20
-6768.432
 30
740.000
 70
    32
  0
VERTEX
  8
M45LXLIFT
 62
7
 10
4949.811
 20
-6799.159
 30
740.000
 70
    32
  0
VERTEX
  8
M45LXLIFT
 62
7
 10
4955.393
 20
-6803.681
 30
740.000
 70
    32
  0
VERTEX
  8
M45LXLIFT
 62
7
 10
4959.869
 20
-6823.693
 30
740.000
 70
    32
  0
VERTEX
  8
M45LXLIFT
 62
7
 10
4964.891
 20
-6834.607
 30
740.000
 70
    32
  0
VERTEX
  8
M45LXLIFT
 62
7
 10
4974.042
 20
-6857.301
 30
740.000
 70
    32
  0
VERTEX
  8
M45LXLIFT
 62
7
 10
4978.507
 20
-6867.750
 30
740.000
 70
    32
  0
VERTEX
  8
M45LXLIFT
 62
7
 10
4976.030
 20
-6876.734
 30
740.000
 70
    32
  0
VERTEX
  8
M45LXLIFT
 62
7
 10
4977.323
 20
-6882.535
 30
740.000
 70
    32
  0
VERTEX
  8
M45LXLIFT
 62
7
 10
4972.481
 20
-6885.739
 30
740.000
 70
    32
  0
VERTEX
  8
M45LXLIFT
 62
7
 10
4967.185
 20
-6882.205
 30
740.000
 70
    32
  0
VERTEX
  8
M45LXLIFT
 62
7
 10
4957.986
 20
-6878.688
 30
740.000
 70
    32
  0
VERTEX
  8
M45LXLIFT
 62
7
 10
4953.208
 20
-6870.643
 30
740.000
 70
    32
  0
VERTEX
  8
M45LXLIFT
 62
7
 10
4952.746
 20
-6863.149
 30
740.000
 70
    32
  0
VERTEX
  8
M45LXLIFT
 62
7
 10
4952.949
 20
-6859.847
 30
740.000
 70
    32
  0
VERTEX
  8
M45LXLIFT
 62
7
 10
4947.468
 20
-6858.296
 30
740.000
 70
    32
  0
VERTEX
  8
M45LXLIFT
 62
7
 10
4945.039
 20
-6853.324
 30
740.000
 70
    32
  0
VERTEX
  8
M45LXLIFT
 62
7
 10
4940.904
 20
-6837.958
 30
740.000
 70
    32
  0
VERTEX
  8
M45LXLIFT
 62
7
 10
4927.580
 20
-6806.559
 30
740.000
 70
    32
  0
VERTEX
  8
M45LXLIFT
 62
7
 10
4918.081
 20
-6779.659
 30
740.000
 70
    32
  0
VERTEX
  8
M45LXLIFT
 62
7
 10
4910.503
 20
-6765.389
 30
740.000
 70
    32
  0
VERTEX
  8
M45LXLIFT
 62
7
 10
4893.875
 20
-6752.280
 30
740.000
 70
    32
  0
VERTEX
  8
M45LXLIFT
 62
7
 10
4886.831
 20
-6746.648
 30
740.000
 70
    32
  0
VERTEX
  8
M45LXLIFT
 62
7
 10
4883.444
 20
-6739.764
 30
740.000
 70
    32
  0
VERTEX
  8
M45LXLIFT
 62
7
 10
4882.028
 20
-6728.724
 30
740.000
 70
    32
  0
VERTEX
  8
M45LXLIFT
 62
7
 10
4877.985
 20
-6719.599
 30
740.000
 70
    32
  0
VERTEX
  8
M45LXLIFT
 62
7
 10
4873.430
 20
-6714.545
 30
740.000
 70
    32
  0
VERTEX
  8
M45LXLIFT
 62
7
 10
4873.363
 20
-6707.741
 30
740.000
 70
    32
  0
VERTEX
  8
M45LXLIFT
 62
7
 10
4876.567
 20
-6702.142
 30
740.000
 70
    32
  0
VERTEX
  8
M45LXLIFT
 62
7
 10
4874.001
 20
-6695.639
 30
740.000
 70
    32
  0
VERTEX
  8
M45LXLIFT
 62
7
 10
4870.460
 20
-6690.933
 30
740.000
 70
    32
  0
VERTEX
  8
M45LXLIFT
 62
7
 10
4873.696
 20
-6684.332
 30
740.000
 70
    32
  0
VERTEX
  8
M45LXLIFT
 62
7
 10
4877.297
 20
-6680.618
 30
740.000
 70
    32
  0
SEQEND
  8
M45LXLIFT
  0
POLYLINE
  8
M45LXLIFT
 62
6
 66
     1
 70
     9
  0
VERTEX
  8
M45LXLIFT
 62
6
 10
4798.030
 20
-6588.319
 30
740.000
 70
    32
  0
VERTEX
  8
M45LXLIFT
 62
6
 10
4796.289
 20
-6585.782
 30
740.000
 70
    32
  0
VERTEX
  8
M45LXLIFT
 62
6
 10
4791.104
 20
-6583.146
 30
740.000
 70
    32
  0
VERTEX
  8
M45LXLIFT
 62
6
 10
4783.529
 20
-6576.487
 30
740.000
 70
    32
  0
VERTEX
  8
M45LXLIFT
 62
6
 10
4775.441
 20
-6567.483
 30
740.000
 70
    32
  0
VERTEX
  8
M45LXLIFT
 62
6
 10
4769.161
 20
-6552.158
 30
740.000
 70
    32
  0
VERTEX
  8
M45LXLIFT
 62
6
 10
4763.769
 20
-6538.796
 30
740.000
 70
    32
  0
VERTEX
  8
M45LXLIFT
 62
6
 10
4768.531
 20
-6533.692
 30
740.000
 70
    32
  0
VERTEX
  8
M45LXLIFT
 62
6
 10
4776.284
 20
-6528.365
 30
740.000
 70
    32
  0
VERTEX
  8
M45LXLIFT
 62
6
 10
4789.519
 20
-6519.367
 30
740.000
 70
    32
  0
VERTEX
  8
M45LXLIFT
 62
6
 10
4799.197
 20
-6513.398
 30
740.000
 70
    32
  0
VERTEX
  8
M45LXLIFT
 62
6
 10
4805.699
 20
-6509.636
 30
740.000
 70
    32
  0
VERTEX
  8
M45LXLIFT
 62
6
 10
4813.574
 20
-6513.574
 30
740.000
 70
    32
  0
VERTEX
  8
M45LXLIFT
 62
6
 10
4821.032
 20
-6519.774
 30
740.000
 70
    32
  0
VERTEX
  8
M45LXLIFT
 62
6
 10
4837.073
 20
-6533.420
 30
740.000
 70
    32
  0
VERTEX
  8
M45LXLIFT
 62
6
 10
4851.525
 20
-6547.572
 30
740.000
 70
    32
  0
VERTEX
  8
M45LXLIFT
 62
6
 10
4862.044
 20
-6562.743
 30
740.000
 70
    32
  0
VERTEX
  8
M45LXLIFT
 62
6
 10
4865.289
 20
-6569.730
 30
740.000
 70
    32
  0
VERTEX
  8
M45LXLIFT
 62
6
 10
4863.752
 20
-6575.528
 30
740.000
 70
    32
  0
VERTEX
  8
M45LXLIFT
 62
6
 10
4856.924
 20
-6581.378
 30
740.000
 70
    32
  0
VERTEX
  8
M45LXLIFT
 62
6
 10
4848.072
 20
-6587.288
 30
740.000
 70
    32
  0
VERTEX
  8
M45LXLIFT
 62
6
 10
4836.619
 20
-6594.552
 30
740.000
 70
    32
  0
VERTEX
  8
M45LXLIFT
 62
6
 10
4824.590
 20
-6601.474
 30
740.000
 70
    32
  0
VERTEX
  8
M45LXLIFT
 62
6
 10
4814.836
 20
-6609.130
 30
740.000
 70
    32
  0
VERTEX
  8
M45LXLIFT
 62
6
 10
4807.802
 20
-6610.670
 30
740.000
 70
    32
  0
VERTEX
  8
M45LXLIFT
 62
6
 10
4801.087
 20
-6604.146
 30
740.000
 70
    32
  0
VERTEX
  8
M45LXLIFT
 62
6
 10
4797.829
 20
-6598.037
 30
740.000
 70
    32
  0
SEQEND
  8
M45LXLIFT
  0
POLYLINE
  8
M45LXLIFT
 62
6
 66
     1
 70
     9
  0
VERTEX
  8
M45LXLIFT
 62
6
 10
4829.319
 20
-6580.514
 30
740.000
 70
    32
  0
VERTEX
  8
M45LXLIFT
 62
6
 10
4825.488
 20
-6575.259
 30
740.000
 70
    32
  0
VERTEX
  8
M45LXLIFT
 62
6
 10
4820.803
 20
-6569.430
 30
740.000
 70
    32
  0
VERTEX
  8
M45LXLIFT
 62
6
 10
4817.428
 20
-6568.084
 30
740.000
 70
    32
  0
VERTEX
  8
M45LXLIFT
 62
6
 10
4810.703
 20
-6568.855
 30
740.000
 70
    32
  0
VERTEX
  8
M45LXLIFT
 62
6
 10
4807.343
 20
-6569.020
 30
740.000
 70
    32
  0
VERTEX
  8
M45LXLIFT
 62
6
 10
4803.362
 20
-6573.555
 30
740.000
 70
    32
  0
VERTEX
  8
M45LXLIFT
 62
6
 10
4798.606
 20
-6578.219
 30
740.000
 70
    32
  0
VERTEX
  8
M45LXLIFT
 62
6
 10
4803.652
 20
-6583.350
 30
740.000
 70
    32
  0
VERTEX
  8
M45LXLIFT
 62
6
 10
4808.203
 20
-6590.038
 30
740.000
 70
    32
  0
VERTEX
  8
M45LXLIFT
 62
6
 10
4812.000
 20
-6593.904
 30
740.000
 70
    32
  0
VERTEX
  8
M45LXLIFT
 62
6
 10
4818.153
 20
-6589.961
 30
740.000
 70
    32
  0
SEQEND
  8
M45LXLIFT
  0
POLYLINE
  8
M45LXLIFT
 62
13
 66
     1
 70
     9
  0
VERTEX
  8
M45LXLIFT
 62
13
 10
4741.048
 20
-6469.003
 30
736.000
 70
    32
  0
VERTEX
  8
M45LXLIFT
 62
13
 10
4751.857
 20
-6473.086
 30
736.000
 70
    32
  0
VERTEX
  8
M45LXLIFT
 62
13
 10
4760.705
 20
-6475.227
 30
736.000
 70
    32
  0
VERTEX
  8
M45LXLIFT
 62
13
 10
4767.216
 20
-6478.637
 30
736.000
 70
    32
  0
VERTEX
  8
M45LXLIFT
 62
13
 10
4776.382
 20
-6487.180
 30
736.000
 70
    32
  0
VERTEX
  8
M45LXLIFT
 62
13
 10
4785.690
 20
-6495.620
 30
736.000
 70
    32
  0
VERTEX
  8
M45LXLIFT
 62
13
 10
4787.121
 20
-6502.952
 30
736.000
 70
    32
  0
VERTEX
  8
M45LXLIFT
 62
13
 10
4782.606
 20
-6514.511
 30
736.000
 70
    32
  0
VERTEX
  8
M45LXLIFT
 62
13
 10
4782.070
 20
-6515.119
 30
736.000
 70
    32
  0
VERTEX
  8
M45LXLIFT
 62
13
 10
4778.166
 20
-6519.162
 30
736.000
 70
    32
  0
VERTEX
  8
M45LXLIFT
 62
13
 10
4778.393
 20
-6524.544
 30
736.000
 70
    32
  0
VERTEX
  8
M45LXLIFT
 62
13
 10
4771.330
 20
-6529.476
 30
736.000
 70
    32
  0
VERTEX
  8
M45LXLIFT
 62
13
 10
4766.873
 20
-6530.225
 30
736.000
 70
    32
  0
VERTEX
  8
M45LXLIFT
 62
13
 10
4760.236
 20
-6529.626
 30
736.000
 70
    32
  0
VERTEX
  8
M45LXLIFT
 62
13
 10
4751.703
 20
-6531.497
 30
736.000
 70
    32
  0
VERTEX
  8
M45LXLIFT
 62
13
 10
4746.229
 20
-6530.703
 30
736.000
 70
    32
  0
VERTEX
  8
M45LXLIFT
 62
13
 10
4742.035
 20
-6524.951
 30
736.000
 70
    32
  0
VERTEX
  8
M45LXLIFT
 62
13
 10
4736.635
 20
-6516.054
 30
736.000
 70
    32
  0
VERTEX
  8
M45LXLIFT
 62
13
 10
4733.500
 20
-6504.744
 30
736.000
 70
    32
  0
VERTEX
  8
M45LXLIFT
 62
13
 10
4730.448
 20
-6497.724
 30
736.000
 70
    32
  0
VERTEX
  8
M45LXLIFT
 62
13
 10
4728.861
 20
-6488.984
 30
736.000
 70
    32
  0
VERTEX
  8
M45LXLIFT
 62
13
 10
4731.525
 20
-6480.406
 30
736.000
 70
    32
  0
SEQEND
  8
M45LXLIFT
  0
POLYLINE
  8
M45LXLIFT
 62
6
 66
     1
 70
     9
  0
VERTEX
  8
M45LXLIFT
 62
6
 10
5329.282
 20
-7106.729
 30
747.000
 70
    32
  0
VERTEX
  8
M45LXLIFT
 62
6
 10
5330.424
 20
-7114.160
 30
747.000
 70
    32
  0
VERTEX
  8
M45LXLIFT
 62
6
 10
5330.945
 20
-7121.069
 30
747.000
 70
    32
  0
VERTEX
  8
M45LXLIFT
 62
6
 10
5329.272
 20
-7126.555
 30
747.000
 70
    32
  0
VERTEX
  8
M45LXLIFT
 62
6
 10
5332.654
 20
-7136.480
 30
747.000
 70
    32
  0
VERTEX
  8
M45LXLIFT
 62
6
 10
5336.151
 20
-7145.543
 30
747.000
 70
    32
  0
VERTEX
  8
M45LXLIFT
 62
6
 10
5346.877
 20
-7154.502
 30
747.000
 70
    32
  0
VERTEX
  8
M45LXLIFT
 62
6
 10
5353.847
 20
-7162.459
 30
747.000
 70
    32
  0
VERTEX
  8
M45LXLIFT
 62
6
 10
5358.507
 20
-7167.975
 30
747.000
 70
    32
  0
VERTEX
  8
M45LXLIFT
 62
6
 10
5362.978
 20
-7168.321
 30
747.000
 70
    32
  0
VERTEX
  8
M45LXLIFT
 62
6
 10
5367.725
 20
-7164.248
 30
747.000
 70
    32
  0
VERTEX
  8
M45LXLIFT
 62
6
 10
5375.797
 20
-7162.062
 30
747.000
 70
    32
  0
VERTEX
  8
M45LXLIFT
 62
6
 10
5382.673
 20
-7156.140
 30
747.000
 70
    32
  0
VERTEX
  8
M45LXLIFT
 62
6
 10
5385.143
 20
-7153.144
 30
747.000
 70
    32
  0
VERTEX
  8
M45LXLIFT
 62
6
 10
5384.474
 20
-7143.581
 30
747.000
 70
    32
  0
VERTEX
  8
M45LXLIFT
 62
6
 10
5388.161
 20
-7137.108
 30
747.000
 70
    32
  0
VERTEX
  8
M45LXLIFT
 62
6
 10
5396.648
 20
-7128.515
 30
747.000
 70
    32
  0
VERTEX
  8
M45LXLIFT
 62
6
 10
5407.059
 20
-7120.555
 30
747.000
 70
    32
  0
VERTEX
  8
M45LXLIFT
 62
6
 10
5414.872
 20
-7111.370
 30
747.000
 70
    32
  0
VERTEX
  8
M45LXLIFT
 62
6
 10
5418.164
 20
-7100.327
 30
747.000
 70
    32
  0
VERTEX
  8
M45LXLIFT
 62
6
 10
5419.657
 20
-7090.550
 30
747.000
 70
    32
  0
VERTEX
  8
M45LXLIFT
 62
6
 10
5414.475
 20
-7083.773
 30
747.000
 70
    32
  0
VERTEX
  8
M45LXLIFT
 62
6
 10
5406.325
 20
-7079.486
 30
747.000
 70
    32
  0
VERTEX
  8
M45LXLIFT
 62
6
 10
5398.472
 20
-7076.744
 30
747.000
 70
    32
  0
VERTEX
  8
M45LXLIFT
 62
6
 10
5392.838
 20
-7068.652
 30
747.000
 70
    32
  0
VERTEX
  8
M45LXLIFT
 62
6
 10
5387.129
 20
-7067.702
 30
747.000
 70
    32
  0
VERTEX
  8
M45LXLIFT
 62
6
 10
5376.711
 20
-7071.018
 30
747.000
 70
    32
  0
VERTEX
  8
M45LXLIFT
 62
6
 10
5365.154
 20
-7076.755
 30
747.000
 70
    32
  0
VERTEX
  8
M45LXLIFT
 62
6
 10
5361.607
 20
-7081.238
 30
747.000
 70
    32
  0
VERTEX
  8
M45LXLIFT
 62
6
 10
5347.990
 20
-7092.535
 30
747.000
 70
    32
  0
VERTEX
  8
M45LXLIFT
 62
6
 10
5344.920
 20
-7093.443
 30
747.000
 70
    32
  0
VERTEX
  8
M45LXLIFT
 62
6
 10
5338.998
 20
-7092.214
 30
747.000
 70
    32
  0
VERTEX
  8
M45LXLIFT
 62
6
 10
5334.415
 20
-7096.936
 30
747.000
 70
    32
  0
SEQEND
  8
M45LXLIFT
  0
POLYLINE
  8
M45LXLIFT
 62
13
 66
     1
 70
     9
  0
VERTEX
  8
M45LXLIFT
 62
13
 10
5267.188
 20
-7226.505
 30
750.000
 70
    32
  0
VERTEX
  8
M45LXLIFT
 62
13
 10
5258.422
 20
-7237.194
 30
750.000
 70
    32
  0
VERTEX
  8
M45LXLIFT
 62
13
 10
5251.155
 20
-7244.633
 30
750.000
 70
    32
  0
VERTEX
  8
M45LXLIFT
 62
13
 10
5258.782
 20
-7260.834
 30
750.000
 70
    32
  0
VERTEX
  8
M45LXLIFT
 62
13
 10
5267.067
 20
-7266.457
 30
750.000
 70
    32
  0
VERTEX
  8
M45LXLIFT
 62
13
 10
5274.690
 20
-7278.453
 30
750.000
 70
    32
  0
VERTEX
  8
M45LXLIFT
 62
13
 10
5282.683
 20
-7290.500
 30
750.000
 70
    32
  0
VERTEX
  8
M45LXLIFT
 62
13
 10
5291.411
 20
-7302.205
 30
750.000
 70
    32
  0
VERTEX
  8
M45LXLIFT
 62
13
 10
5301.184
 20
-7312.669
 30
750.000
 70
    32
  0
VERTEX
  8
M45LXLIFT
 62
13
 10
5308.651
 20
-7323.014
 30
750.000
 70
    32
  0
VERTEX
  8
M45LXLIFT
 62
13
 10
5312.427
 20
-7326.215
 30
750.000
 70
    32
  0
VERTEX
  8
M45LXLIFT
 62
13
 10
5317.289
 20
-7325.044
 30
750.000
 70
    32
  0
VERTEX
  8
M45LXLIFT
 62
13
 10
5320.364
 20
-7320.811
 30
750.000
 70
    32
  0
VERTEX
  8
M45LXLIFT
 62
13
 10
5322.144
 20
-7313.582
 30
750.000
 70
    32
  0
VERTEX
  8
M45LXLIFT
 62
13
 10
5318.593
 20
-7300.686
 30
750.000
 70
    32
  0
VERTEX
  8
M45LXLIFT
 62
13
 10
5315.491
 20
-7290.547
 30
750.000
 70
    32
  0
VERTEX
  8
M45LXLIFT
 62
13
 10
5318.089
 20
-7282.360
 30
750.000
 70
    32
  0
VERTEX
  8
M45LXLIFT
 62
13
 10
5317.658
 20
-7275.715
 30
750.000
 70
    32
  0
VERTEX
  8
M45LXLIFT
 62
13
 10
5311.399
 20
-7268.543
 30
750.000
 70
    32
  0
VERTEX
  8
M45LXLIFT
 62
13
 10
5302.078
 20
-7261.276
 30
750.000
 70
    32
  0
VERTEX
  8
M45LXLIFT
 62
13
 10
5294.541
 20
-7256.632
 30
750.000
 70
    32
  0
VERTEX
  8
M45LXLIFT
 62
13
 10
5289.421
 20
-7248.921
 30
750.000
 70
    32
  0
VERTEX
  8
M45LXLIFT
 62
13
 10
5278.786
 20
-7238.342
 30
750.000
 70
    32
  0
SEQEND
  8
M45LXLIFT
  0
POLYLINE
  8
M45LXLIFT
 62
7
 66
     1
 70
     9
  0
VERTEX
  8
M45LXLIFT
 62
7
 10
4899.642
 20
-6668.631
 30
752.000
 70
    32
  0
VERTEX
  8
M45LXLIFT
 62
7
 10
4899.001
 20
-6665.910
 30
752.000
 70
    32
  0
VERTEX
  8
M45LXLIFT
 62
7
 10
4893.461
 20
-6660.403
 30
752.000
 70
    32
  0
VERTEX
  8
M45LXLIFT
 62
7
 10
4888.073
 20
-6656.108
 30
752.000
 70
    32
  0
VERTEX
  8
M45LXLIFT
 62
7
 10
4882.509
 20
-6657.373
 30
752.000
 70
    32
  0
VERTEX
  8
M45LXLIFT
 62
7
 10
4876.553
 20
-6662.037
 30
752.000
 70
    32
  0
VERTEX
  8
M45LXLIFT
 62
7
 10
4870.577
 20
-6668.268
 30
752.000
 70
    32
  0
VERTEX
  8
M45LXLIFT
 62
7
 10
4867.836
 20
-6672.357
 30
752.000
 70
    32
  0
VERTEX
  8
M45LXLIFT
 62
7
 10
4870.264
 20
-6681.904
 30
752.000
 70
    32
  0
VERTEX
  8
M45LXLIFT
 62
7
 10
4872.778
 20
-6700.686
 30
752.000
 70
    32
  0
VERTEX
  8
M45LXLIFT
 62
7
 10
4877.282
 20
-6717.725
 30
752.000
 70
    32
  0
VERTEX
  8
M45LXLIFT
 62
7
 10
4880.577
 20
-6724.062
 30
752.000
 70
    32
  0
VERTEX
  8
M45LXLIFT
 62
7
 10
4892.573
 20
-6735.262
 30
752.000
 70
    32
  0
VERTEX
  8
M45LXLIFT
 62
7
 10
4901.043
 20
-6745.615
 30
752.000
 70
    32
  0
VERTEX
  8
M45LXLIFT
 62
7
 10
4907.075
 20
-6756.835
 30
752.000
 70
    32
  0
VERTEX
  8
M45LXLIFT
 62
7
 10
4909.187
 20
-6770.168
 30
752.000
 70
    32
  0
VERTEX
  8
M45LXLIFT
 62
7
 10
4909.828
 20
-6780.417
 30
752.000
 70
    32
  0
VERTEX
  8
M45LXLIFT
 62
7
 10
4912.462
 20
-6785.600
 30
752.000
 70
    32
  0
VERTEX
  8
M45LXLIFT
 62
7
 10
4921.034
 20
-6795.653
 30
752.000
 70
    32
  0
VERTEX
  8
M45LXLIFT
 62
7
 10
4929.738
 20
-6806.602
 30
752.000
 70
    32
  0
VERTEX
  8
M45LXLIFT
 62
7
 10
4931.492
 20
-6815.557
 30
752.000
 70
    32
  0
VERTEX
  8
M45LXLIFT
 62
7
 10
4935.150
 20
-6819.182
 30
752.000
 70
    32
  0
VERTEX
  8
M45LXLIFT
 62
7
 10
4940.172
 20
-6818.221
 30
752.000
 70
    32
  0
VERTEX
  8
M45LXLIFT
 62
7
 10
4948.482
 20
-6815.188
 30
752.000
 70
    32
  0
VERTEX
  8
M45LXLIFT
 62
7
 10
4953.016
 20
-6808.954
 30
752.000
 70
    32
  0
VERTEX
  8
M45LXLIFT
 62
7
 10
4950.797
 20
-6801.129
 30
752.000
 70
    32
  0
VERTEX
  8
M45LXLIFT
 62
7
 10
4944.838
 20
-6788.413
 30
752.000
 70
    32
  0
VERTEX
  8
M45LXLIFT
 62
7
 10
4941.317
 20
-6782.359
 30
752.000
 70
    32
  0
VERTEX
  8
M45LXLIFT
 62
7
 10
4934.507
 20
-6778.376
 30
752.000
 70
    32
  0
VERTEX
  8
M45LXLIFT
 62
7
 10
4935.214
 20
-6771.192
 30
752.000
 70
    32
  0
VERTEX
  8
M45LXLIFT
 62
7
 10
4929.363
 20
-6758.616
 30
752.000
 70
    32
  0
VERTEX
  8
M45LXLIFT
 62
7
 10
4923.634
 20
-6746.056
 30
752.000
 70
    32
  0
VERTEX
  8
M45LXLIFT
 62
7
 10
4919.484
 20
-6740.483
 30
752.000
 70
    32
  0
VERTEX
  8
M45LXLIFT
 62
7
 10
4916.858
 20
-6734.298
 30
752.000
 70
    32
  0
VERTEX
  8
M45LXLIFT
 62
7
 10
4915.441
 20
-6727.521
 30
752.000
 70
    32
  0
VERTEX
  8
M45LXLIFT
 62
7
 10
4912.819
 20
-6719.893
 30
752.000
 70
    32
  0
VERTEX
  8
M45LXLIFT
 62
7
 10
4908.069
 20
-6704.703
 30
752.000
 70
    32
  0
VERTEX
  8
M45LXLIFT
 62
7
 10
4903.861
 20
-6691.091
 30
752.000
 70
    32
  0
SEQEND
  8
M45LXLIFT
  0
POLYLINE
  8
M45LXLIFT
 62
6
 66
     1
 70
     9
  0
VERTEX
  8
M45LXLIFT
 62
6
 10
4789.277
 20
-6606.538
 30
750.000
 70
    32
  0
VERTEX
  8
M45LXLIFT
 62
6
 10
4793.995
 20
-6610.681
 30
750.000
 70
    32
  0
VERTEX
  8
M45LXLIFT
 62
6
 10
4801.767
 20
-6610.275
 30
750.000
 70
    32
  0
VERTEX
  8
M45LXLIFT
 62
6
 10
4812.107
 20
-6604.250
 30
750.000
 70
    32
  0
VERTEX
  8
M45LXLIFT
 62
6
 10
4812.231
 20
-6596.738
 30
750.000
 70
    32
  0
VERTEX
  8
M45LXLIFT
 62
6
 10
4805.368
 20
-6587.038
 30
750.000
 70
    32
  0
VERTEX
  8
M45LXLIFT
 62
6
 10
4803.043
 20
-6577.191
 30
750.000
 70
    32
  0
VERTEX
  8
M45LXLIFT
 62
6
 10
4802.291
 20
-6568.244
 30
750.000
 70
    32
  0
VERTEX
  8
M45LXLIFT
 62
6
 10
4810.416
 20
-6564.246
 30
750.000
 70
    32
  0
VERTEX
  8
M45LXLIFT
 62
6
 10
4816.363
 20
-6566.231
 30
750.000
 70
    32
  0
VERTEX
  8
M45LXLIFT
 62
6
 10
4824.639
 20
-6576.621
 30
750.000
 70
    32
  0
VERTEX
  8
M45LXLIFT
 62
6
 10
4832.353
 20
-6586.999
 30
750.000
 70
    32
  0
VERTEX
  8
M45LXLIFT
 62
6
 10
4835.961
 20
-6590.993
 30
750.000
 70
    32
  0
VERTEX
  8
M45LXLIFT
 62
6
 10
4844.921
 20
-6585.914
 30
750.000
 70
    32
  0
VERTEX
  8
M45LXLIFT
 62
6
 10
4853.942
 20
-6581.784
 30
750.000
 70
    32
  0
VERTEX
  8
M45LXLIFT
 62
6
 10
4858.825
 20
-6577.165
 30
750.000
 70
    32
  0
VERTEX
  8
M45LXLIFT
 62
6
 10
4853.889
 20
-6568.539
 30
750.000
 70
    32
  0
VERTEX
  8
M45LXLIFT
 62
6
 10
4848.946
 20
-6557.150
 30
750.000
 70
    32
  0
VERTEX
  8
M45LXLIFT
 62
6
 10
4844.845
 20
-6551.207
 30
750.000
 70
    32
  0
VERTEX
  8
M45LXLIFT
 62
6
 10
4837.201
 20
-6546.423
 30
750.000
 70
    32
  0
VERTEX
  8
M45LXLIFT
 62
6
 10
4831.756
 20
-6534.089
 30
750.000
 70
    32
  0
VERTEX
  8
M45LXLIFT
 62
6
 10
4826.928
 20
-6523.720
 30
750.000
 70
    32
  0
VERTEX
  8
M45LXLIFT
 62
6
 10
4818.503
 20
-6514.440
 30
750.000
 70
    32
  0
VERTEX
  8
M45LXLIFT
 62
6
 10
4813.333
 20
-6508.981
 30
750.000
 70
    32
  0
VERTEX
  8
M45LXLIFT
 62
6
 10
4799.787
 20
-6514.578
 30
750.000
 70
    32
  0
VERTEX
  8
M45LXLIFT
 62
6
 10
4786.442
 20
-6521.017
 30
750.000
 70
    32
  0
VERTEX
  8
M45LXLIFT
 62
6
 10
4774.766
 20
-6527.177
 30
750.000
 70
    32
  0
VERTEX
  8
M45LXLIFT
 62
6
 10
4767.368
 20
-6531.837
 30
750.000
 70
    32
  0
VERTEX
  8
M45LXLIFT
 62
6
 10
4756.099
 20
-6536.358
 30
750.000
 70
    32
  0
VERTEX
  8
M45LXLIFT
 62
6
 10
4748.648
 20
-6540.948
 30
750.000
 70
    32
  0
VERTEX
  8
M45LXLIFT
 62
6
 10
4750.653
 20
-6550.376
 30
750.000
 70
    32
  0
VERTEX
  8
M45LXLIFT
 62
6
 10
4757.606
 20
-6558.456
 30
750.000
 70
    32
  0
VERTEX
  8
M45LXLIFT
 62
6
 10
4762.282
 20
-6567.613
 30
750.000
 70
    32
  0
VERTEX
  8
M45LXLIFT
 62
6
 10
4756.763
 20
-6569.951
 30
750.000
 70
    32
  0
VERTEX
  8
M45LXLIFT
 62
6
 10
4752.678
 20
-6567.649
 30
750.000
 70
    32
  0
VERTEX
  8
M45LXLIFT
 62
6
 10
4744.167
 20
-6564.192
 30
750.000
 70
    32
  0
VERTEX
  8
M45LXLIFT
 62
6
 10
4735.158
 20
-6567.759
 30
750.000
 70
    32
  0
VERTEX
  8
M45LXLIFT
 62
6
 10
4724.752
 20
-6572.394
 30
750.000
 70
    32
  0
VERTEX
  8
M45LXLIFT
 62
6
 10
4717.539
 20
-6576.138
 30
750.000
 70
    32
  0
VERTEX
  8
M45LXLIFT
 62
6
 10
4724.065
 20
-6583.659
 30
750.000
 70
    32
  0
VERTEX
  8
M45LXLIFT
 62
6
 10
4733.797
 20
-6578.432
 30
750.000
 70
    32
  0
VERTEX
  8
M45LXLIFT
 62
6
 10
4739.118
 20
-6588.867
 30
750.000
 70
    32
  0
VERTEX
  8
M45LXLIFT
 62
6
 10
4741.205
 20
-6601.443
 30
750.000
 70
    32
  0
VERTEX
  8
M45LXLIFT
 62
6
 10
4741.427
 20
-6608.249
 30
750.000
 70
    32
  0
VERTEX
  8
M45LXLIFT
 62
6
 10
4738.932
 20
-6612.371
 30
750.000
 70
    32
  0
VERTEX
  8
M45LXLIFT
 62
6
 10
4736.022
 20
-6624.782
 30
750.000
 70
    32
  0
VERTEX
  8
M45LXLIFT
 62
6
 10
4737.838
 20
-6634.687
 30
750.000
 70
    32
  0
VERTEX
  8
M45LXLIFT
 62
6
 10
4745.950
 20
-6636.899
 30
750.000
 70
    32
  0
VERTEX
  8
M45LXLIFT
 62
6
 10
4751.823
 20
-6630.969
 30
750.000
 70
    32
  0
VERTEX
  8
M45LXLIFT
 62
6
 10
4759.863
 20
-6619.618
 30
750.000
 70
    32
  0
VERTEX
  8
M45LXLIFT
 62
6
 10
4767.187
 20
-6610.807
 30
750.000
 70
    32
  0
VERTEX
  8
M45LXLIFT
 62
6
 10
4775.469
 20
-6599.049
 30
750.000
 70
    32
  0
VERTEX
  8
M45LXLIFT
 62
6
 10
4782.731
 20
-6593.053
 30
750.000
 70
    32
  0
SEQEND
  8
M45LXLIFT
  0
POLYLINE
  8
M45LXLIFT
 62
13
 66
     1
 70
     9
  0
VERTEX
  8
M45LXLIFT
 62
13
 10
4783.570
 20
-6520.446
 30
745.000
 70
    32
  0
VERTEX
  8
M45LXLIFT
 62
13
 10
4788.761
 20
-6514.927
 30
745.000
 70
    32
  0
VERTEX
  8
M45LXLIFT
 62
13
 10
4789.969
 20
-6506.806
 30
745.000
 70
    32
  0
VERTEX
  8
M45LXLIFT
 62
13
 10
4788.219
 20
-6496.408
 30
745.000
 70
    32
  0
VERTEX
  8
M45LXLIFT
 62
13
 10
4784.504
 20
-6488.509
 30
745.000
 70
    32
  0
VERTEX
  8
M45LXLIFT
 62
13
 10
4783.288
 20
-6480.692
 30
745.000
 70
    32
  0
VERTEX
  8
M45LXLIFT
 62
13
 10
4780.075
 20
-6473.738
 30
745.000
 70
    32
  0
VERTEX
  8
M45LXLIFT
 62
13
 10
4776.985
 20
-6468.683
 30
745.000
 70
    32
  0
VERTEX
  8
M45LXLIFT
 62
13
 10
4766.386
 20
-6465.826
 30
745.000
 70
    32
  0
VERTEX
  8
M45LXLIFT
 62
13
 10
4754.796
 20
-6462.398
 30
745.000
 70
    32
  0
VERTEX
  8
M45LXLIFT
 62
13
 10
4744.777
 20
-6459.430
 30
745.000
 70
    32
  0
VERTEX
  8
M45LXLIFT
 62
13
 10
4734.946
 20
-6455.985
 30
745.000
 70
    32
  0
VERTEX
  8
M45LXLIFT
 62
13
 10
4729.706
 20
-6456.228
 30
745.000
 70
    32
  0
VERTEX
  8
M45LXLIFT
 62
13
 10
4724.680
 20
-6462.396
 30
745.000
 70
    32
  0
VERTEX
  8
M45LXLIFT
 62
13
 10
4719.066
 20
-6462.149
 30
745.000
 70
    32
  0
VERTEX
  8
M45LXLIFT
 62
13
 10
4716.781
 20
-6466.111
 30
745.000
 70
    32
  0
VERTEX
  8
M45LXLIFT
 62
13
 10
4718.230
 20
-6480.171
 30
745.000
 70
    32
  0
VERTEX
  8
M45LXLIFT
 62
13
 10
4717.318
 20
-6489.837
 30
745.000
 70
    32
  0
VERTEX
  8
M45LXLIFT
 62
13
 10
4715.673
 20
-6498.401
 30
745.000
 70
    32
  0
VERTEX
  8
M45LXLIFT
 62
13
 10
4719.626
 20
-6511.101
 30
745.000
 70
    32
  0
VERTEX
  8
M45LXLIFT
 62
13
 10
4724.602
 20
-6522.243
 30
745.000
 70
    32
  0
VERTEX
  8
M45LXLIFT
 62
13
 10
4733.241
 20
-6529.920
 30
745.000
 70
    32
  0
VERTEX
  8
M45LXLIFT
 62
13
 10
4742.430
 20
-6532.526
 30
745.000
 70
    32
  0
VERTEX
  8
M45LXLIFT
 62
13
 10
4750.058
 20
-6535.552
 30
745.000
 70
    32
  0
VERTEX
  8
M45LXLIFT
 62
13
 10
4757.681
 20
-6538.137
 30
745.000
 70
    32
  0
VERTEX
  8
M45LXLIFT
 62
13
 10
4763.969
 20
-6535.211
 30
745.000
 70
    32
  0
SEQEND
  8
M45LXLIFT
  0
POLYLINE
  8
M45LXLIFT
 62
27
 66
     1
 70
     9
  0
VERTEX
  8
M45LXLIFT
 62
27
 10
5363.501
 20
-7021.597
 30
754.000
 70
    32
  0
VERTEX
  8
M45LXLIFT
 62
27
 10
5370.695
 20
-7027.578
 30
754.000
 70
    32
  0
VERTEX
  8
M45LXLIFT
 62
27
 10
5374.477
 20
-7034.410
 30
754.000
 70
    32
  0
VERTEX
  8
M45LXLIFT
 62
27
 10
5371.254
 20
-7046.132
 30
754.000
 70
    32
  0
VERTEX
  8
M45LXLIFT
 62
27
 10
5363.091
 20
-7058.404
 30
754.000
 70
    32
  0
VERTEX
  8
M45LXLIFT
 62
27
 10
5359.354
 20
-7067.777
 30
754.000
 70
    32
  0
VERTEX
  8
M45LXLIFT
 62
27
 10
5350.668
 20
-7070.513
 30
754.000
 70
    32
  0
VERTEX
  8
M45LXLIFT
 62
27
 10
5342.159
 20
-7074.537
 30
754.000
 70
    32
  0
VERTEX
  8
M45LXLIFT
 62
27
 10
5330.278
 20
-7079.167
 30
754.000
 70
    32
  0
VERTEX
  8
M45LXLIFT
 62
27
 10
5320.717
 20
-7091.914
 30
754.000
 70
    32
  0
VERTEX
  8
M45LXLIFT
 62
27
 10
5312.310
 20
-7100.114
 30
754.000
 70
    32
  0
VERTEX
  8
M45LXLIFT
 62
27
 10
5302.891
 20
-7101.096
 30
754.000
 70
    32
  0
VERTEX
  8
M45LXLIFT
 62
27
 10
5291.081
 20
-7100.443
 30
754.000
 70
    32
  0
VERTEX
  8
M45LXLIFT
 62
27
 10
5283.080
 20
-7095.597
 30
754.000
 70
    32
  0
VERTEX
  8
M45LXLIFT
 62
27
 10
5276.144
 20
-7088.774
 30
754.000
 70
    32
  0
VERTEX
  8
M45LXLIFT
 62
27
 10
5269.622
 20
-7086.555
 30
754.000
 70
    32
  0
VERTEX
  8
M45LXLIFT
 62
27
 10
5266.042
 20
-7081.645
 30
754.000
 70
    32
  0
VERTEX
  8
M45LXLIFT
 62
27
 10
5268.688
 20
-7073.614
 30
754.000
 70
    32
  0
VERTEX
  8
M45LXLIFT
 62
27
 10
5276.908
 20
-7066.204
 30
754.000
 70
    32
  0
VERTEX
  8
M45LXLIFT
 62
27
 10
5283.931
 20
-7059.993
 30
754.000
 70
    32
  0
VERTEX
  8
M45LXLIFT
 62
27
 10
5291.915
 20
-7060.929
 30
754.000
 70
    32
  0
VERTEX
  8
M45LXLIFT
 62
27
 10
5298.012
 20
-7059.426
 30
754.000
 70
    32
  0
VERTEX
  8
M45LXLIFT
 62
27
 10
5306.074
 20
-7059.870
 30
754.000
 70
    32
  0
VERTEX
  8
M45LXLIFT
 62
27
 10
5312.415
 20
-7062.439
 30
754.000
 70
    32
  0
VERTEX
  8
M45LXLIFT
 62
27
 10
5320.789
 20
-7059.277
 30
754.000
 70
    32
  0
VERTEX
  8
M45LXLIFT
 62
27
 10
5327.816
 20
-7055.461
 30
754.000
 70
    32
  0
VERTEX
  8
M45LXLIFT
 62
27
 10
5333.892
 20
-7052.884
 30
754.000
 70
    32
  0
VERTEX
  8
M45LXLIFT
 62
27
 10
5336.967
 20
-7046.937
 30
754.000
 70
    32
  0
VERTEX
  8
M45LXLIFT
 62
27
 10
5342.067
 20
-7039.731
 30
754.000
 70
    32
  0
VERTEX
  8
M45LXLIFT
 62
27
 10
5346.793
 20
-7034.106
 30
754.000
 70
    32
  0
VERTEX
  8
M45LXLIFT
 62
27
 10
5352.186
 20
-7028.648
 30
754.000
 70
    32
  0
SEQEND
  8
M45LXLIFT
  0
POLYLINE
  8
M45LXLIFT
 62
6
 66
     1
 70
     9
  0
VERTEX
  8
M45LXLIFT
 62
6
 10
5328.583
 20
-7135.438
 30
761.000
 70
    32
  0
VERTEX
  8
M45LXLIFT
 62
6
 10
5333.140
 20
-7139.744
 30
761.000
 70
    32
  0
VERTEX
  8
M45LXLIFT
 62
6
 10
5338.996
 20
-7142.994
 30
761.000
 70
    32
  0
VERTEX
  8
M45LXLIFT
 62
6
 10
5343.049
 20
-7148.104
 30
761.000
 70
    32
  0
VERTEX
  8
M45LXLIFT
 62
6
 10
5346.714
 20
-7154.477
 30
761.000
 70
    32
  0
VERTEX
  8
M45LXLIFT
 62
6
 10
5352.882
 20
-7158.154
 30
761.000
 70
    32
  0
VERTEX
  8
M45LXLIFT
 62
6
 10
5359.064
 20
-7156.916
 30
761.000
 70
    32
  0
VERTEX
  8
M45LXLIFT
 62
6
 10
5363.769
 20
-7155.447
 30
761.000
 70
    32
  0
VERTEX
  8
M45LXLIFT
 62
6
 10
5367.617
 20
-7157.437
 30
761.000
 70
    32
  0
VERTEX
  8
M45LXLIFT
 62
6
 10
5373.006
 20
-7153.617
 30
761.000
 70
    32
  0
VERTEX
  8
M45LXLIFT
 62
6
 10
5373.154
 20
-7147.842
 30
761.000
 70
    32
  0
VERTEX
  8
M45LXLIFT
 62
6
 10
5377.808
 20
-7141.071
 30
761.000
 70
    32
  0
VERTEX
  8
M45LXLIFT
 62
6
 10
5385.259
 20
-7134.549
 30
761.000
 70
    32
  0
VERTEX
  8
M45LXLIFT
 62
6
 10
5392.976
 20
-7129.140
 30
761.000
 70
    32
  0
VERTEX
  8
M45LXLIFT
 62
6
 10
5405.193
 20
-7112.713
 30
761.000
 70
    32
  0
VERTEX
  8
M45LXLIFT
 62
6
 10
5410.807
 20
-7102.626
 30
761.000
 70
    32
  0
VERTEX
  8
M45LXLIFT
 62
6
 10
5406.893
 20
-7093.819
 30
761.000
 70
    32
  0
VERTEX
  8
M45LXLIFT
 62
6
 10
5401.926
 20
-7087.305
 30
761.000
 70
    32
  0
VERTEX
  8
M45LXLIFT
 62
6
 10
5402.408
 20
-7078.998
 30
761.000
 70
    32
  0
VERTEX
  8
M45LXLIFT
 62
6
 10
5402.269
 20
-7071.035
 30
761.000
 70
    32
  0
VERTEX
  8
M45LXLIFT
 62
6
 10
5400.212
 20
-7066.868
 30
761.000
 70
    32
  0
VERTEX
  8
M45LXLIFT
 62
6
 10
5392.760
 20
-7072.192
 30
761.000
 70
    32
  0
VERTEX
  8
M45LXLIFT
 62
6
 10
5387.398
 20
-7076.646
 30
761.000
 70
    32
  0
VERTEX
  8
M45LXLIFT
 62
6
 10
5378.750
 20
-7077.938
 30
761.000
 70
    32
  0
VERTEX
  8
M45LXLIFT
 62
6
 10
5366.265
 20
-7081.592
 30
761.000
 70
    32
  0
VERTEX
  8
M45LXLIFT
 62
6
 10
5356.139
 20
-7086.686
 30
761.000
 70
    32
  0
VERTEX
  8
M45LXLIFT
 62
6
 10
5348.358
 20
-7092.904
 30
761.000
 70
    32
  0
VERTEX
  8
M45LXLIFT
 62
6
 10
5342.512
 20
-7094.005
 30
761.000
 70
    32
  0
VERTEX
  8
M45LXLIFT
 62
6
 10
5334.976
 20
-7093.833
 30
761.000
 70
    32
  0
VERTEX
  8
M45LXLIFT
 62
6
 10
5331.368
 20
-7097.553
 30
761.000
 70
    32
  0
VERTEX
  8
M45LXLIFT
 62
6
 10
5329.934
 20
-7111.132
 30
761.000
 70
    32
  0
VERTEX
  8
M45LXLIFT
 62
6
 10
5330.692
 20
-7122.785
 30
761.000
 70
    32
  0
SEQEND
  8
M45LXLIFT
  0
POLYLINE
  8
M45LXLIFT
 62
7
 66
     1
 70
     9
  0
VERTEX
  8
M45LXLIFT
 62
7
 10
5243.933
 20
-7076.731
 30
758.000
 70
    32
  0
VERTEX
  8
M45LXLIFT
 62
7
 10
5248.690
 20
-7080.565
 30
758.000
 70
    32
  0
VERTEX
  8
M45LXLIFT
 62
7
 10
5254.243
 20
-7084.145
 30
758.000
 70
    32
  0
VERTEX
  8
M45LXLIFT
 62
7
 10
5261.299
 20
-7083.360
 30
758.000
 70
    32
  0
VERTEX
  8
M45LXLIFT
 62
7
 10
5268.436
 20
-7085.676
 30
758.000
 70
    32
  0
VERTEX
  8
M45LXLIFT
 62
7
 10
5273.046
 20
-7096.483
 30
758.000
 70
    32
  0
VERTEX
  8
M45LXLIFT
 62
7
 10
5274.854
 20
-7108.678
 30
758.000
 70
    32
  0
VERTEX
  8
M45LXLIFT
 62
7
 10
5279.201
 20
-7121.965
 30
758.000
 70
    32
  0
VERTEX
  8
M45LXLIFT
 62
7
 10
5277.710
 20
-7131.879
 30
758.000
 70
    32
  0
VERTEX
  8
M45LXLIFT
 62
7
 10
5272.283
 20
-7141.176
 30
758.000
 70
    32
  0
VERTEX
  8
M45LXLIFT
 62
7
 10
5268.725
 20
-7149.001
 30
758.000
 70
    32
  0
VERTEX
  8
M45LXLIFT
 62
7
 10
5260.898
 20
-7149.476
 30
758.000
 70
    32
  0
VERTEX
  8
M45LXLIFT
 62
7
 10
5253.937
 20
-7143.217
 30
758.000
 70
    32
  0
VERTEX
  8
M45LXLIFT
 62
7
 10
5247.284
 20
-7134.990
 30
758.000
 70
    32
  0
VERTEX
  8
M45LXLIFT
 62
7
 10
5242.912
 20
-7122.266
 30
758.000
 70
    32
  0
VERTEX
  8
M45LXLIFT
 62
7
 10
5241.699
 20
-7109.093
 30
758.000
 70
    32
  0
VERTEX
  8
M45LXLIFT
 62
7
 10
5240.164
 20
-7097.570
 30
758.000
 70
    32
  0
VERTEX
  8
M45LXLIFT
 62
7
 10
5232.074
 20
-7088.865
 30
758.000
 70
    32
  0
VERTEX
  8
M45LXLIFT
 62
7
 10
5235.009
 20
-7085.417
 30
758.000
 70
    32
  0
SEQEND
  8
M45LXLIFT
  0
POLYLINE
  8
M45LXLIFT
 62
13
 66
     1
 70
     9
  0
VERTEX
  8
M45LXLIFT
 62
13
 10
5322.380
 20
-7310.188
 30
760.000
 70
    32
  0
VERTEX
  8
M45LXLIFT
 62
13
 10
5317.066
 20
-7317.549
 30
760.000
 70
    32
  0
VERTEX
  8
M45LXLIFT
 62
13
 10
5306.525
 20
-7322.074
 30
760.000
 70
    32
  0
VERTEX
  8
M45LXLIFT
 62
13
 10
5294.881
 20
-7324.787
 30
760.000
 70
    32
  0
VERTEX
  8
M45LXLIFT
 62
13
 10
5286.814
 20
-7319.552
 30
760.000
 70
    32
  0
VERTEX
  8
M45LXLIFT
 62
13
 10
5276.751
 20
-7306.946
 30
760.000
 70
    32
  0
VERTEX
  8
M45LXLIFT
 62
13
 10
5269.072
 20
-7295.217
 30
760.000
 70
    32
  0
VERTEX
  8
M45LXLIFT
 62
13
 10
5260.974
 20
-7280.523
 30
760.000
 70
    32
  0
VERTEX
  8
M45LXLIFT
 62
13
 10
5248.780
 20
-7261.406
 30
760.000
 70
    32
  0
VERTEX
  8
M45LXLIFT
 62
13
 10
5242.240
 20
-7255.276
 30
760.000
 70
    32
  0
VERTEX
  8
M45LXLIFT
 62
13
 10
5240.761
 20
-7247.418
 30
760.000
 70
    32
  0
VERTEX
  8
M45LXLIFT
 62
13
 10
5245.285
 20
-7234.639
 30
760.000
 70
    32
  0
VERTEX
  8
M45LXLIFT
 62
13
 10
5253.038
 20
-7231.820
 30
760.000
 70
    32
  0
VERTEX
  8
M45LXLIFT
 62
13
 10
5261.222
 20
-7227.051
 30
760.000
 70
    32
  0
VERTEX
  8
M45LXLIFT
 62
13
 10
5265.837
 20
-7225.758
 30
760.000
 70
    32
  0
VERTEX
  8
M45LXLIFT
 62
13
 10
5276.039
 20
-7235.865
 30
760.000
 70
    32
  0
VERTEX
  8
M45LXLIFT
 62
13
 10
5286.848
 20
-7244.113
 30
760.000
 70
    32
  0
VERTEX
  8
M45LXLIFT
 62
13
 10
5298.148
 20
-7251.241
 30
760.000
 70
    32
  0
VERTEX
  8
M45LXLIFT
 62
13
 10
5305.248
 20
-7260.232
 30
760.000
 70
    32
  0
VERTEX
  8
M45LXLIFT
 62
13
 10
5315.634
 20
-7267.154
 30
760.000
 70
    32
  0
VERTEX
  8
M45LXLIFT
 62
13
 10
5319.529
 20
-7276.084
 30
760.000
 70
    32
  0
VERTEX
  8
M45LXLIFT
 62
13
 10
5318.361
 20
-7289.578
 30
760.000
 70
    32
  0
VERTEX
  8
M45LXLIFT
 62
13
 10
5316.123
 20
-7302.652
 30
760.000
 70
    32
  0
SEQEND
  8
M45LXLIFT
  0
POLYLINE
  8
M45LXLIFT
 62
7
 66
     1
 70
     9
  0
VERTEX
  8
M45LXLIFT
 62
7
 10
4890.534
 20
-6666.448
 30
760.000
 70
    32
  0
VERTEX
  8
M45LXLIFT
 62
7
 10
4884.947
 20
-6666.707
 30
760.000
 70
    32
  0
VERTEX
  8
M45LXLIFT
 62
7
 10
4877.570
 20
-6670.342
 30
760.000
 70
    32
  0
VERTEX
  8
M45LXLIFT
 62
7
 10
4874.241
 20
-6674.295
 30
760.000
 70
    32
  0
VERTEX
  8
M45LXLIFT
 62
7
 10
4875.503
 20
-6685.144
 30
760.000
 70
    32
  0
VERTEX
  8
M45LXLIFT
 62
7
 10
4879.375
 20
-6702.264
 30
760.000
 70
    32
  0
VERTEX
  8
M45LXLIFT
 62
7
 10
4885.119
 20
-6719.110
 30
760.000
 70
    32
  0
VERTEX
  8
M45LXLIFT
 62
7
 10
4890.078
 20
-6724.867
 30
760.000
 70
    32
  0
VERTEX
  8
M45LXLIFT
 62
7
 10
4896.894
 20
-6734.065
 30
760.000
 70
    32
  0
VERTEX
  8
M45LXLIFT
 62
7
 10
4898.450
 20
-6741.431
 30
760.000
 70
    32
  0
VERTEX
  8
M45LXLIFT
 62
7
 10
4901.914
 20
-6747.079
 30
760.000
 70
    32
  0
VERTEX
  8
M45LXLIFT
 62
7
 10
4904.492
 20
-6754.353
 30
760.000
 70
    32
  0
VERTEX
  8
M45LXLIFT
 62
7
 10
4905.709
 20
-6769.923
 30
760.000
 70
    32
  0
VERTEX
  8
M45LXLIFT
 62
7
 10
4908.013
 20
-6780.557
 30
760.000
 70
    32
  0
VERTEX
  8
M45LXLIFT
 62
7
 10
4914.788
 20
-6794.035
 30
760.000
 70
    32
  0
VERTEX
  8
M45LXLIFT
 62
7
 10
4923.616
 20
-6808.087
 30
760.000
 70
    32
  0
VERTEX
  8
M45LXLIFT
 62
7
 10
4931.216
 20
-6812.681
 30
760.000
 70
    32
  0
VERTEX
  8
M45LXLIFT
 62
7
 10
4939.288
 20
-6811.047
 30
760.000
 70
    32
  0
VERTEX
  8
M45LXLIFT
 62
7
 10
4944.869
 20
-6805.997
 30
760.000
 70
    32
  0
VERTEX
  8
M45LXLIFT
 62
7
 10
4942.566
 20
-6796.560
 30
760.000
 70
    32
  0
VERTEX
  8
M45LXLIFT
 62
7
 10
4930.693
 20
-6781.023
 30
760.000
 70
    32
  0
VERTEX
  8
M45LXLIFT
 62
7
 10
4923.862
 20
-6763.880
 30
760.000
 70
    32
  0
VERTEX
  8
M45LXLIFT
 62
7
 10
4919.765
 20
-6754.225
 30
760.000
 70
    32
  0
VERTEX
  8
M45LXLIFT
 62
7
 10
4912.624
 20
-6743.085
 30
760.000
 70
    32
  0
VERTEX
  8
M45LXLIFT
 62
7
 10
4905.566
 20
-6720.549
 30
760.000
 70
    32
  0
VERTEX
  8
M45LXLIFT
 62
7
 10
4899.772
 20
-6698.401
 30
760.000
 70
    32
  0
VERTEX
  8
M45LXLIFT
 62
7
 10
4896.304
 20
-6683.929
 30
760.000
 70
    32
  0
SEQEND
  8
M45LXLIFT
  0
POLYLINE
  8
M45LXLIFT
 62
6
 66
     1
 70
     9
  0
VERTEX
  8
M45LXLIFT
 62
6
 10
4752.021
 20
-6545.224
 30
761.000
 70
    32
  0
VERTEX
  8
M45LXLIFT
 62
6
 10
4750.684
 20
-6547.725
 30
761.000
 70
    32
  0
VERTEX
  8
M45LXLIFT
 62
6
 10
4753.502
 20
-6554.280
 30
761.000
 70
    32
  0
VERTEX
  8
M45LXLIFT
 62
6
 10
4755.289
 20
-6560.169
 30
761.000
 70
    32
  0
VERTEX
  8
M45LXLIFT
 62
6
 10
4752.071
 20
-6565.023
 30
761.000
 70
    32
  0
VERTEX
  8
M45LXLIFT
 62
6
 10
4744.933
 20
-6567.938
 30
761.000
 70
    32
  0
VERTEX
  8
M45LXLIFT
 62
6
 10
4736.347
 20
-6567.223
 30
761.000
 70
    32
  0
VERTEX
  8
M45LXLIFT
 62
6
 10
4733.001
 20
-6568.463
 30
761.000
 70
    32
  0
VERTEX
  8
M45LXLIFT
 62
6
 10
4732.885
 20
-6574.433
 30
761.000
 70
    32
  0
VERTEX
  8
M45LXLIFT
 62
6
 10
4733.149
 20
-6578.382
 30
761.000
 70
    32
  0
VERTEX
  8
M45LXLIFT
 62
6
 10
4730.759
 20
-6583.176
 30
761.000
 70
    32
  0
VERTEX
  8
M45LXLIFT
 62
6
 10
4733.516
 20
-6592.936
 30
761.000
 70
    32
  0
VERTEX
  8
M45LXLIFT
 62
6
 10
4735.852
 20
-6597.336
 30
761.000
 70
    32
  0
VERTEX
  8
M45LXLIFT
 62
6
 10
4740.509
 20
-6599.389
 30
761.000
 70
    32
  0
VERTEX
  8
M45LXLIFT
 62
6
 10
4742.611
 20
-6602.870
 30
761.000
 70
    32
  0
VERTEX
  8
M45LXLIFT
 62
6
 10
4743.620
 20
-6612.923
 30
761.000
 70
    32
  0
VERTEX
  8
M45LXLIFT
 62
6
 10
4745.115
 20
-6623.494
 30
761.000
 70
    32
  0
VERTEX
  8
M45LXLIFT
 62
6
 10
4747.159
 20
-6632.575
 30
761.000
 70
    32
  0
VERTEX
  8
M45LXLIFT
 62
6
 10
4757.044
 20
-6637.465
 30
761.000
 70
    32
  0
VERTEX
  8
M45LXLIFT
 62
6
 10
4762.369
 20
-6629.223
 30
761.000
 70
    32
  0
VERTEX
  8
M45LXLIFT
 62
6
 10
4768.652
 20
-6620.501
 30
761.000
 70
    32
  0
VERTEX
  8
M45LXLIFT
 62
6
 10
4776.356
 20
-6614.775
 30
761.000
 70
    32
  0
VERTEX
  8
M45LXLIFT
 62
6
 10
4788.273
 20
-6607.503
 30
761.000
 70
    32
  0
VERTEX
  8
M45LXLIFT
 62
6
 10
4798.219
 20
-6602.759
 30
761.000
 70
    32
  0
VERTEX
  8
M45LXLIFT
 62
6
 10
4804.439
 20
-6596.044
 30
761.000
 70
    32
  0
VERTEX
  8
M45LXLIFT
 62
6
 10
4806.997
 20
-6590.583
 30
761.000
 70
    32
  0
VERTEX
  8
M45LXLIFT
 62
6
 10
4793.048
 20
-6582.662
 30
761.000
 70
    32
  0
VERTEX
  8
M45LXLIFT
 62
6
 10
4778.790
 20
-6575.512
 30
761.000
 70
    32
  0
VERTEX
  8
M45LXLIFT
 62
6
 10
4785.440
 20
-6570.881
 30
761.000
 70
    32
  0
VERTEX
  8
M45LXLIFT
 62
6
 10
4786.112
 20
-6564.180
 30
761.000
 70
    32
  0
VERTEX
  8
M45LXLIFT
 62
6
 10
4780.714
 20
-6554.384
 30
761.000
 70
    32
  0
VERTEX
  8
M45LXLIFT
 62
6
 10
4779.325
 20
-6546.351
 30
761.000
 70
    32
  0
VERTEX
  8
M45LXLIFT
 62
6
 10
4785.645
 20
-6541.416
 30
761.000
 70
    32
  0
VERTEX
  8
M45LXLIFT
 62
6
 10
4788.526
 20
-6541.931
 30
761.000
 70
    32
  0
VERTEX
  8
M45LXLIFT
 62
6
 10
4790.254
 20
-6552.223
 30
761.000
 70
    32
  0
VERTEX
  8
M45LXLIFT
 62
6
 10
4796.036
 20
-6563.592
 30
761.000
 70
    32
  0
VERTEX
  8
M45LXLIFT
 62
6
 10
4802.206
 20
-6568.466
 30
761.000
 70
    32
  0
VERTEX
  8
M45LXLIFT
 62
6
 10
4810.904
 20
-6566.047
 30
761.000
 70
    32
  0
VERTEX
  8
M45LXLIFT
 62
6
 10
4815.752
 20
-6564.475
 30
761.000
 70
    32
  0
VERTEX
  8
M45LXLIFT
 62
6
 10
4820.344
 20
-6571.371
 30
761.000
 70
    32
  0
VERTEX
  8
M45LXLIFT
 62
6
 10
4825.065
 20
-6577.846
 30
761.000
 70
    32
  0
VERTEX
  8
M45LXLIFT
 62
6
 10
4831.926
 20
-6582.325
 30
761.000
 70
    32
  0
VERTEX
  8
M45LXLIFT
 62
6
 10
4837.283
 20
-6584.740
 30
761.000
 70
    32
  0
VERTEX
  8
M45LXLIFT
 62
6
 10
4842.407
 20
-6581.005
 30
761.000
 70
    32
  0
VERTEX
  8
M45LXLIFT
 62
6
 10
4848.059
 20
-6575.903
 30
761.000
 70
    32
  0
VERTEX
  8
M45LXLIFT
 62
6
 10
4845.217
 20
-6564.680
 30
761.000
 70
    32
  0
VERTEX
  8
M45LXLIFT
 62
6
 10
4841.396
 20
-6547.631
 30
761.000
 70
    32
  0
VERTEX
  8
M45LXLIFT
 62
6
 10
4837.175
 20
-6536.759
 30
761.000
 70
    32
  0
VERTEX
  8
M45LXLIFT
 62
6
 10
4828.420
 20
-6530.282
 30
761.000
 70
    32
  0
VERTEX
  8
M45LXLIFT
 62
6
 10
4820.897
 20
-6530.427
 30
761.000
 70
    32
  0
VERTEX
  8
M45LXLIFT
 62
6
 10
4818.064
 20
-6521.159
 30
761.000
 70
    32
  0
VERTEX
  8
M45LXLIFT
 62
6
 10
4813.438
 20
-6512.871
 30
761.000
 70
    32
  0
VERTEX
  8
M45LXLIFT
 62
6
 10
4806.106
 20
-6505.356
 30
761.000
 70
    32
  0
VERTEX
  8
M45LXLIFT
 62
6
 10
4798.447
 20
-6510.396
 30
761.000
 70
    32
  0
VERTEX
  8
M45LXLIFT
 62
6
 10
4788.602
 20
-6518.118
 30
761.000
 70
    32
  0
VERTEX
  8
M45LXLIFT
 62
6
 10
4775.625
 20
-6526.926
 30
761.000
 70
    32
  0
SEQEND
  8
M45LXLIFT
  0
POLYLINE
  8
M45LXLIFT
 62
13
 66
     1
 70
     9
  0
VERTEX
  8
M45LXLIFT
 62
13
 10
4690.228
 20
-6460.917
 30
756.000
 70
    32
  0
VERTEX
  8
M45LXLIFT
 62
13
 10
4693.895
 20
-6468.488
 30
756.000
 70
    32
  0
VERTEX
  8
M45LXLIFT
 62
13
 10
4698.334
 20
-6477.566
 30
756.000
 70
    32
  0
VERTEX
  8
M45LXLIFT
 62
13
 10
4699.307
 20
-6490.261
 30
756.000
 70
    32
  0
VERTEX
  8
M45LXLIFT
 62
13
 10
4698.721
 20
-6498.426
 30
756.000
 70
    32
  0
VERTEX
  8
M45LXLIFT
 62
13
 10
4703.149
 20
-6508.384
 30
756.000
 70
    32
  0
VERTEX
  8
M45LXLIFT
 62
13
 10
4708.624
 20
-6517.688
 30
756.000
 70
    32
  0
VERTEX
  8
M45LXLIFT
 62
13
 10
4711.770
 20
-6528.581
 30
756.000
 70
    32
  0
VERTEX
  8
M45LXLIFT
 62
13
 10
4718.195
 20
-6535.449
 30
756.000
 70
    32
  0
VERTEX
  8
M45LXLIFT
 62
13
 10
4725.763
 20
-6541.047
 30
756.000
 70
    32
  0
VERTEX
  8
M45LXLIFT
 62
13
 10
4734.168
 20
-6542.112
 30
756.000
 70
    32
  0
VERTEX
  8
M45LXLIFT
 62
13
 10
4743.012
 20
-6536.753
 30
756.000
 70
    32
  0
VERTEX
  8
M45LXLIFT
 62
13
 10
4754.324
 20
-6537.769
 30
756.000
 70
    32
  0
VERTEX
  8
M45LXLIFT
 62
13
 10
4764.297
 20
-6540.088
 30
756.000
 70
    32
  0
VERTEX
  8
M45LXLIFT
 62
13
 10
4773.316
 20
-6534.821
 30
756.000
 70
    32
  0
VERTEX
  8
M45LXLIFT
 62
13
 10
4782.249
 20
-6528.090
 30
756.000
 70
    32
  0
VERTEX
  8
M45LXLIFT
 62
13
 10
4783.079
 20
-6517.568
 30
756.000
 70
    32
  0
VERTEX
  8
M45LXLIFT
 62
13
 10
4785.634
 20
-6504.480
 30
756.000
 70
    32
  0
VERTEX
  8
M45LXLIFT
 62
13
 10
4784.865
 20
-6494.906
 30
756.000
 70
    32
  0
VERTEX
  8
M45LXLIFT
 62
13
 10
4783.223
 20
-6486.077
 30
756.000
 70
    32
  0
VERTEX
  8
M45LXLIFT
 62
13
 10
4778.191
 20
-6473.943
 30
756.000
 70
    32
  0
VERTEX
  8
M45LXLIFT
 62
13
 10
4771.322
 20
-6468.707
 30
756.000
 70
    32
  0
VERTEX
  8
M45LXLIFT
 62
13
 10
4759.432
 20
-6466.151
 30
756.000
 70
    32
  0
VERTEX
  8
M45LXLIFT
 62
13
 10
4746.926
 20
-6462.300
 30
756.000
 70
    32
  0
VERTEX
  8
M45LXLIFT
 62
13
 10
4737.575
 20
-6455.604
 30
756.000
 70
    32
  0
VERTEX
  8
M45LXLIFT
 62
13
 10
4729.876
 20
-6449.229
 30
756.000
 70
    32
  0
VERTEX
  8
M45LXLIFT
 62
13
 10
4719.386
 20
-6447.396
 30
756.000
 70
    32
  0
VERTEX
  8
M45LXLIFT
 62
13
 10
4709.565
 20
-6448.127
 30
756.000
 70
    32
  0
SEQEND
  8
M45LXLIFT
  0
POLYLINE
  8
M45LXLIFT
 62
6
 66
     1
 70
     9
  0
VERTEX
  8
M45LXLIFT
 62
6
 10
5320.718
 20
-7129.538
 30
772.000
 70
    32
  0
VERTEX
  8
M45LXLIFT
 62
6
 10
5330.859
 20
-7141.209
 30
772.000
 70
    32
  0
VERTEX
  8
M45LXLIFT
 62
6
 10
5339.681
 20
-7151.996
 30
772.000
 70
    32
  0
VERTEX
  8
M45LXLIFT
 62
6
 10
5356.156
 20
-7145.196
 30
772.000
 70
    32
  0
VERTEX
  8
M45LXLIFT
 62
6
 10
5381.266
 20
-7130.081
 30
772.000
 70
    32
  0
VERTEX
  8
M45LXLIFT
 62
6
 10
5394.577
 20
-7119.485
 30
772.000
 70
    32
  0
VERTEX
  8
M45LXLIFT
 62
6
 10
5400.351
 20
-7107.039
 30
772.000
 70
    32
  0
VERTEX
  8
M45LXLIFT
 62
6
 10
5405.654
 20
-7091.755
 30
772.000
 70
    32
  0
VERTEX
  8
M45LXLIFT
 62
6
 10
5403.891
 20
-7084.385
 30
772.000
 70
    32
  0
VERTEX
  8
M45LXLIFT
 62
6
 10
5397.168
 20
-7073.021
 30
772.000
 70
    32
  0
VERTEX
  8
M45LXLIFT
 62
6
 10
5386.749
 20
-7074.971
 30
772.000
 70
    32
  0
VERTEX
  8
M45LXLIFT
 62
6
 10
5361.382
 20
-7086.650
 30
772.000
 70
    32
  0
VERTEX
  8
M45LXLIFT
 62
6
 10
5340.788
 20
-7099.273
 30
772.000
 70
    32
  0
VERTEX
  8
M45LXLIFT
 62
6
 10
5324.602
 20
-7111.026
 30
772.000
 70
    32
  0
VERTEX
  8
M45LXLIFT
 62
6
 10
5320.169
 20
-7115.104
 30
772.000
 70
    32
  0
SEQEND
  8
M45LXLIFT
  0
POLYLINE
  8
M45LXLIFT
 62
27
 66
     1
 70
     9
  0
VERTEX
  8
M45LXLIFT
 62
27
 10
5376.985
 20
-7044.216
 30
762.000
 70
    32
  0
VERTEX
  8
M45LXLIFT
 62
27
 10
5376.103
 20
-7052.461
 30
762.000
 70
    32
  0
VERTEX
  8
M45LXLIFT
 62
27
 10
5369.267
 20
-7059.653
 30
762.000
 70
    32
  0
VERTEX
  8
M45LXLIFT
 62
27
 10
5361.334
 20
-7068.763
 30
762.000
 70
    32
  0
VERTEX
  8
M45LXLIFT
 62
27
 10
5355.684
 20
-7073.861
 30
762.000
 70
    32
  0
VERTEX
  8
M45LXLIFT
 62
27
 10
5349.349
 20
-7069.793
 30
762.000
 70
    32
  0
VERTEX
  8
M45LXLIFT
 62
27
 10
5339.454
 20
-7073.771
 30
762.000
 70
    32
  0
VERTEX
  8
M45LXLIFT
 62
27
 10
5332.496
 20
-7080.064
 30
762.000
 70
    32
  0
VERTEX
  8
M45LXLIFT
 62
27
 10
5322.591
 20
-7088.447
 30
762.000
 70
    32
  0
VERTEX
  8
M45LXLIFT
 62
27
 10
5316.042
 20
-7093.666
 30
762.000
 70
    32
  0
VERTEX
  8
M45LXLIFT
 62
27
 10
5308.420
 20
-7089.790
 30
762.000
 70
    32
  0
VERTEX
  8
M45LXLIFT
 62
27
 10
5299.895
 20
-7095.603
 30
762.000
 70
    32
  0
VERTEX
  8
M45LXLIFT
 62
27
 10
5290.174
 20
-7100.550
 30
762.000
 70
    32
  0
VERTEX
  8
M45LXLIFT
 62
27
 10
5281.574
 20
-7100.813
 30
762.000
 70
    32
  0
VERTEX
  8
M45LXLIFT
 62
27
 10
5275.897
 20
-7094.385
 30
762.000
 70
    32
  0
VERTEX
  8
M45LXLIFT
 62
27
 10
5273.291
 20
-7085.886
 30
762.000
 70
    32
  0
VERTEX
  8
M45LXLIFT
 62
27
 10
5274.609
 20
-7079.404
 30
762.000
 70
    32
  0
VERTEX
  8
M45LXLIFT
 62
27
 10
5286.696
 20
-7072.471
 30
762.000
 70
    32
  0
VERTEX
  8
M45LXLIFT
 62
27
 10
5299.910
 20
-7066.016
 30
762.000
 70
    32
  0
VERTEX
  8
M45LXLIFT
 62
27
 10
5313.018
 20
-7059.420
 30
762.000
 70
    32
  0
VERTEX
  8
M45LXLIFT
 62
27
 10
5324.168
 20
-7053.735
 30
762.000
 70
    32
  0
VERTEX
  8
M45LXLIFT
 62
27
 10
5332.472
 20
-7044.238
 30
762.000
 70
    32
  0
VERTEX
  8
M45LXLIFT
 62
27
 10
5338.284
 20
-7038.031
 30
762.000
 70
    32
  0
VERTEX
  8
M45LXLIFT
 62
27
 10
5352.661
 20
-7031.367
 30
762.000
 70
    32
  0
VERTEX
  8
M45LXLIFT
 62
27
 10
5363.032
 20
-7027.144
 30
762.000
 70
    32
  0
VERTEX
  8
M45LXLIFT
 62
27
 10
5369.118
 20
-7032.057
 30
762.000
 70
    32
  0
SEQEND
  8
M45LXLIFT
  0
POLYLINE
  8
M45LXLIFT
 62
7
 66
     1
 70
     9
  0
VERTEX
  8
M45LXLIFT
 62
7
 10
5235.990
 20
-7075.686
 30
770.000
 70
    32
  0
VERTEX
  8
M45LXLIFT
 62
7
 10
5243.725
 20
-7083.986
 30
770.000
 70
    32
  0
VERTEX
  8
M45LXLIFT
 62
7
 10
5249.863
 20
-7089.410
 30
770.000
 70
    32
  0
VERTEX
  8
M45LXLIFT
 62
7
 10
5253.144
 20
-7095.426
 30
770.000
 70
    32
  0
VERTEX
  8
M45LXLIFT
 62
7
 10
5253.733
 20
-7100.045
 30
770.000
 70
    32
  0
VERTEX
  8
M45LXLIFT
 62
7
 10
5263.159
 20
-7108.842
 30
770.000
 70
    32
  0
VERTEX
  8
M45LXLIFT
 62
7
 10
5268.501
 20
-7107.603
 30
770.000
 70
    32
  0
VERTEX
  8
M45LXLIFT
 62
7
 10
5274.377
 20
-7111.793
 30
770.000
 70
    32
  0
VERTEX
  8
M45LXLIFT
 62
7
 10
5279.512
 20
-7116.316
 30
770.000
 70
    32
  0
VERTEX
  8
M45LXLIFT
 62
7
 10
5276.872
 20
-7122.794
 30
770.000
 70
    32
  0
VERTEX
  8
M45LXLIFT
 62
7
 10
5274.576
 20
-7125.168
 30
770.000
 70
    32
  0
VERTEX
  8
M45LXLIFT
 62
7
 10
5276.301
 20
-7133.666
 30
770.000
 70
    32
  0
VERTEX
  8
M45LXLIFT
 62
7
 10
5279.132
 20
-7144.087
 30
770.000
 70
    32
  0
VERTEX
  8
M45LXLIFT
 62
7
 10
5275.299
 20
-7147.938
 30
770.000
 70
    32
  0
VERTEX
  8
M45LXLIFT
 62
7
 10
5266.681
 20
-7140.517
 30
770.000
 70
    32
  0
VERTEX
  8
M45LXLIFT
 62
7
 10
5257.531
 20
-7134.593
 30
770.000
 70
    32
  0
VERTEX
  8
M45LXLIFT
 62
7
 10
5246.018
 20
-7121.967
 30
770.000
 70
    32
  0
VERTEX
  8
M45LXLIFT
 62
7
 10
5236.658
 20
-7107.513
 30
770.000
 70
    32
  0
VERTEX
  8
M45LXLIFT
 62
7
 10
5229.231
 20
-7095.354
 30
770.000
 70
    32
  0
VERTEX
  8
M45LXLIFT
 62
7
 10
5228.314
 20
-7088.233
 30
770.000
 70
    32
  0
VERTEX
  8
M45LXLIFT
 62
7
 10
5225.523
 20
-7083.169
 30
770.000
 70
    32
  0
SEQEND
  8
M45LXLIFT
  0
POLYLINE
  8
M45LXLIFT
 62
13
 66
     1
 70
     9
  0
VERTEX
  8
M45LXLIFT
 62
13
 10
5262.911
 20
-7225.464
 30
774.000
 70
    32
  0
VERTEX
  8
M45LXLIFT
 62
13
 10
5272.321
 20
-7233.504
 30
774.000
 70
    32
  0
VERTEX
  8
M45LXLIFT
 62
13
 10
5284.622
 20
-7240.704
 30
774.000
 70
    32
  0
VERTEX
  8
M45LXLIFT
 62
13
 10
5297.701
 20
-7246.884
 30
774.000
 70
    32
  0
VERTEX
  8
M45LXLIFT
 62
13
 10
5309.833
 20
-7251.352
 30
774.000
 70
    32
  0
VERTEX
  8
M45LXLIFT
 62
13
 10
5318.650
 20
-7256.535
 30
774.000
 70
    32
  0
VERTEX
  8
M45LXLIFT
 62
13
 10
5330.116
 20
-7266.888
 30
774.000
 70
    32
  0
VERTEX
  8
M45LXLIFT
 62
13
 10
5322.689
 20
-7278.149
 30
774.000
 70
    32
  0
VERTEX
  8
M45LXLIFT
 62
13
 10
5316.653
 20
-7289.801
 30
774.000
 70
    32
  0
VERTEX
  8
M45LXLIFT
 62
13
 10
5315.532
 20
-7302.293
 30
774.000
 70
    32
  0
VERTEX
  8
M45LXLIFT
 62
13
 10
5312.236
 20
-7310.250
 30
774.000
 70
    32
  0
VERTEX
  8
M45LXLIFT
 62
13
 10
5302.457
 20
-7317.770
 30
774.000
 70
    32
  0
VERTEX
  8
M45LXLIFT
 62
13
 10
5293.526
 20
-7323.777
 30
774.000
 70
    32
  0
VERTEX
  8
M45LXLIFT
 62
13
 10
5286.049
 20
-7326.280
 30
774.000
 70
    32
  0
VERTEX
  8
M45LXLIFT
 62
13
 10
5276.740
 20
-7320.584
 30
774.000
 70
    32
  0
VERTEX
  8
M45LXLIFT
 62
13
 10
5266.791
 20
-7309.319
 30
774.000
 70
    32
  0
VERTEX
  8
M45LXLIFT
 62
13
 10
5260.071
 20
-7296.633
 30
774.000
 70
    32
  0
VERTEX
  8
M45LXLIFT
 62
13
 10
5249.882
 20
-7282.689
 30
774.000
 70
    32
  0
VERTEX
  8
M45LXLIFT
 62
13
 10
5242.457
 20
-7269.649
 30
774.000
 70
    32
  0
VERTEX
  8
M45LXLIFT
 62
13
 10
5239.074
 20
-7261.729
 30
774.000
 70
    32
  0
VERTEX
  8
M45LXLIFT
 62
13
 10
5244.368
 20
-7250.851
 30
774.000
 70
    32
  0
VERTEX
  8
M45LXLIFT
 62
13
 10
5247.842
 20
-7242.100
 30
774.000
 70
    32
  0
VERTEX
  8
M45LXLIFT
 62
13
 10
5252.523
 20
-7237.177
 30
774.000
 70
    32
  0
VERTEX
  8
M45LXLIFT
 62
13
 10
5256.620
 20
-7233.239
 30
774.000
 70
    32
  0
SEQEND
  8
M45LXLIFT
  0
POLYLINE
  8
M45LXLIFT
 62
7
 66
     1
 70
     9
  0
VERTEX
  8
M45LXLIFT
 62
7
 10
4878.627
 20
-6659.539
 30
766.000
 70
    32
  0
VERTEX
  8
M45LXLIFT
 62
7
 10
4883.338
 20
-6664.378
 30
766.000
 70
    32
  0
VERTEX
  8
M45LXLIFT
 62
7
 10
4890.170
 20
-6666.755
 30
766.000
 70
    32
  0
VERTEX
  8
M45LXLIFT
 62
7
 10
4893.926
 20
-6673.407
 30
766.000
 70
    32
  0
VERTEX
  8
M45LXLIFT
 62
7
 10
4896.688
 20
-6683.440
 30
766.000
 70
    32
  0
VERTEX
  8
M45LXLIFT
 62
7
 10
4899.038
 20
-6695.869
 30
766.000
 70
    32
  0
VERTEX
  8
M45LXLIFT
 62
7
 10
4901.650
 20
-6709.973
 30
766.000
 70
    32
  0
VERTEX
  8
M45LXLIFT
 62
7
 10
4906.480
 20
-6724.839
 30
766.000
 70
    32
  0
VERTEX
  8
M45LXLIFT
 62
7
 10
4911.114
 20
-6740.621
 30
766.000
 70
    32
  0
VERTEX
  8
M45LXLIFT
 62
7
 10
4914.826
 20
-6751.044
 30
766.000
 70
    32
  0
VERTEX
  8
M45LXLIFT
 62
7
 10
4920.262
 20
-6754.793
 30
766.000
 70
    32
  0
VERTEX
  8
M45LXLIFT
 62
7
 10
4925.241
 20
-6766.470
 30
766.000
 70
    32
  0
VERTEX
  8
M45LXLIFT
 62
7
 10
4930.848
 20
-6780.316
 30
766.000
 70
    32
  0
VERTEX
  8
M45LXLIFT
 62
7
 10
4937.907
 20
-6791.539
 30
766.000
 70
    32
  0
VERTEX
  8
M45LXLIFT
 62
7
 10
4944.194
 20
-6801.140
 30
766.000
 70
    32
  0
VERTEX
  8
M45LXLIFT
 62
7
 10
4944.696
 20
-6805.053
 30
766.000
 70
    32
  0
VERTEX
  8
M45LXLIFT
 62
7
 10
4938.552
 20
-6810.079
 30
766.000
 70
    32
  0
VERTEX
  8
M45LXLIFT
 62
7
 10
4930.512
 20
-6812.123
 30
766.000
 70
    32
  0
VERTEX
  8
M45LXLIFT
 62
7
 10
4924.967
 20
-6809.115
 30
766.000
 70
    32
  0
VERTEX
  8
M45LXLIFT
 62
7
 10
4916.483
 20
-6797.306
 30
766.000
 70
    32
  0
VERTEX
  8
M45LXLIFT
 62
7
 10
4911.361
 20
-6786.615
 30
766.000
 70
    32
  0
VERTEX
  8
M45LXLIFT
 62
7
 10
4907.231
 20
-6774.306
 30
766.000
 70
    32
  0
VERTEX
  8
M45LXLIFT
 62
7
 10
4906.114
 20
-6761.615
 30
766.000
 70
    32
  0
VERTEX
  8
M45LXLIFT
 62
7
 10
4903.405
 20
-6751.653
 30
766.000
 70
    32
  0
VERTEX
  8
M45LXLIFT
 62
7
 10
4901.687
 20
-6740.071
 30
766.000
 70
    32
  0
VERTEX
  8
M45LXLIFT
 62
7
 10
4893.942
 20
-6728.370
 30
766.000
 70
    32
  0
VERTEX
  8
M45LXLIFT
 62
7
 10
4887.545
 20
-6720.831
 30
766.000
 70
    32
  0
VERTEX
  8
M45LXLIFT
 62
7
 10
4881.195
 20
-6707.759
 30
766.000
 70
    32
  0
VERTEX
  8
M45LXLIFT
 62
7
 10
4878.335
 20
-6694.941
 30
766.000
 70
    32
  0
VERTEX
  8
M45LXLIFT
 62
7
 10
4875.691
 20
-6679.762
 30
766.000
 70
    32
  0
VERTEX
  8
M45LXLIFT
 62
7
 10
4873.906
 20
-6666.471
 30
766.000
 70
    32
  0
VERTEX
  8
M45LXLIFT
 62
7
 10
4873.372
 20
-6661.042
 30
766.000
 70
    32
  0
SEQEND
  8
M45LXLIFT
  0
POLYLINE
  8
M45LXLIFT
 62
13
 66
     1
 70
     9
  0
VERTEX
  8
M45LXLIFT
 62
13
 10
4783.460
 20
-6492.424
 30
766.000
 70
    32
  0
VERTEX
  8
M45LXLIFT
 62
13
 10
4781.152
 20
-6507.450
 30
766.000
 70
    32
  0
VERTEX
  8
M45LXLIFT
 62
13
 10
4775.437
 20
-6517.764
 30
766.000
 70
    32
  0
VERTEX
  8
M45LXLIFT
 62
13
 10
4763.217
 20
-6529.084
 30
766.000
 70
    32
  0
VERTEX
  8
M45LXLIFT
 62
13
 10
4753.737
 20
-6536.270
 30
766.000
 70
    32
  0
VERTEX
  8
M45LXLIFT
 62
13
 10
4742.298
 20
-6537.443
 30
766.000
 70
    32
  0
VERTEX
  8
M45LXLIFT
 62
13
 10
4730.602
 20
-6535.178
 30
766.000
 70
    32
  0
VERTEX
  8
M45LXLIFT
 62
13
 10
4720.040
 20
-6530.308
 30
766.000
 70
    32
  0
VERTEX
  8
M45LXLIFT
 62
13
 10
4705.871
 20
-6522.963
 30
766.000
 70
    32
  0
VERTEX
  8
M45LXLIFT
 62
13
 10
4696.050
 20
-6509.512
 30
766.000
 70
    32
  0
VERTEX
  8
M45LXLIFT
 62
13
 10
4691.262
 20
-6499.562
 30
766.000
 70
    32
  0
VERTEX
  8
M45LXLIFT
 62
13
 10
4694.792
 20
-6489.561
 30
766.000
 70
    32
  0
VERTEX
  8
M45LXLIFT
 62
13
 10
4698.549
 20
-6480.160
 30
766.000
 70
    32
  0
VERTEX
  8
M45LXLIFT
 62
13
 10
4696.386
 20
-6470.339
 30
766.000
 70
    32
  0
VERTEX
  8
M45LXLIFT
 62
13
 10
4693.916
 20
-6463.937
 30
766.000
 70
    32
  0
VERTEX
  8
M45LXLIFT
 62
13
 10
4700.357
 20
-6452.092
 30
766.000
 70
    32
  0
VERTEX
  8
M45LXLIFT
 62
13
 10
4711.386
 20
-6445.508
 30
766.000
 70
    32
  0
VERTEX
  8
M45LXLIFT
 62
13
 10
4721.405
 20
-6448.915
 30
766.000
 70
    32
  0
VERTEX
  8
M45LXLIFT
 62
13
 10
4732.252
 20
-6452.693
 30
766.000
 70
    32
  0
VERTEX
  8
M45LXLIFT
 62
13
 10
4741.780
 20
-6455.146
 30
766.000
 70
    32
  0
VERTEX
  8
M45LXLIFT
 62
13
 10
4757.476
 20
-6464.980
 30
766.000
 70
    32
  0
VERTEX
  8
M45LXLIFT
 62
13
 10
4764.736
 20
-6473.085
 30
766.000
 70
    32
  0
VERTEX
  8
M45LXLIFT
 62
13
 10
4768.307
 20
-6483.613
 30
766.000
 70
    32
  0
VERTEX
  8
M45LXLIFT
 62
13
 10
4779.253
 20
-6490.176
 30
766.000
 70
    32
  0
SEQEND
  8
M45LXLIFT
  0
POLYLINE
  8
M45LXLIFT
 62
13
 66
     1
 70
     9
  0
VERTEX
  8
M45LXLIFT
 62
13
 10
5322.989
 20
-7292.929
 30
782.000
 70
    32
  0
VERTEX
  8
M45LXLIFT
 62
13
 10
5318.393
 20
-7288.350
 30
782.000
 70
    32
  0
VERTEX
  8
M45LXLIFT
 62
13
 10
5315.155
 20
-7286.046
 30
782.000
 70
    32
  0
VERTEX
  8
M45LXLIFT
 62
13
 10
5311.500
 20
-7289.083
 30
782.000
 70
    32
  0
VERTEX
  8
M45LXLIFT
 62
13
 10
5308.838
 20
-7293.462
 30
782.000
 70
    32
  0
VERTEX
  8
M45LXLIFT
 62
13
 10
5306.922
 20
-7302.538
 30
782.000
 70
    32
  0
VERTEX
  8
M45LXLIFT
 62
13
 10
5305.647
 20
-7310.263
 30
782.000
 70
    32
  0
VERTEX
  8
M45LXLIFT
 62
13
 10
5299.145
 20
-7319.348
 30
782.000
 70
    32
  0
VERTEX
  8
M45LXLIFT
 62
13
 10
5293.620
 20
-7326.504
 30
782.000
 70
    32
  0
VERTEX
  8
M45LXLIFT
 62
13
 10
5293.529
 20
-7330.071
 30
782.000
 70
    32
  0
VERTEX
  8
M45LXLIFT
 62
13
 10
5286.112
 20
-7333.051
 30
782.000
 70
    32
  0
VERTEX
  8
M45LXLIFT
 62
13
 10
5275.663
 20
-7325.592
 30
782.000
 70
    32
  0
VERTEX
  8
M45LXLIFT
 62
13
 10
5268.077
 20
-7318.307
 30
782.000
 70
    32
  0
VERTEX
  8
M45LXLIFT
 62
13
 10
5263.213
 20
-7308.348
 30
782.000
 70
    32
  0
VERTEX
  8
M45LXLIFT
 62
13
 10
5256.571
 20
-7295.989
 30
782.000
 70
    32
  0
VERTEX
  8
M45LXLIFT
 62
13
 10
5248.446
 20
-7284.729
 30
782.000
 70
    32
  0
VERTEX
  8
M45LXLIFT
 62
13
 10
5243.959
 20
-7276.460
 30
782.000
 70
    32
  0
VERTEX
  8
M45LXLIFT
 62
13
 10
5242.821
 20
-7260.460
 30
782.000
 70
    32
  0
VERTEX
  8
M45LXLIFT
 62
13
 10
5244.376
 20
-7250.011
 30
782.000
 70
    32
  0
VERTEX
  8
M45LXLIFT
 62
13
 10
5254.341
 20
-7237.924
 30
782.000
 70
    32
  0
VERTEX
  8
M45LXLIFT
 62
13
 10
5264.142
 20
-7232.849
 30
782.000
 70
    32
  0
VERTEX
  8
M45LXLIFT
 62
13
 10
5268.091
 20
-7233.750
 30
782.000
 70
    32
  0
VERTEX
  8
M45LXLIFT
 62
13
 10
5276.308
 20
-7244.396
 30
782.000
 70
    32
  0
VERTEX
  8
M45LXLIFT
 62
13
 10
5282.881
 20
-7250.463
 30
782.000
 70
    32
  0
VERTEX
  8
M45LXLIFT
 62
13
 10
5291.547
 20
-7241.198
 30
782.000
 70
    32
  0
VERTEX
  8
M45LXLIFT
 62
13
 10
5296.546
 20
-7233.774
 30
782.000
 70
    32
  0
VERTEX
  8
M45LXLIFT
 62
13
 10
5302.064
 20
-7227.936
 30
782.000
 70
    32
  0
VERTEX
  8
M45LXLIFT
 62
13
 10
5306.814
 20
-7233.166
 30
782.000
 70
    32
  0
VERTEX
  8
M45LXLIFT
 62
13
 10
5302.661
 20
-7237.009
 30
782.000
 70
    32
  0
VERTEX
  8
M45LXLIFT
 62
13
 10
5302.029
 20
-7242.945
 30
782.000
 70
    32
  0
VERTEX
  8
M45LXLIFT
 62
13
 10
5307.583
 20
-7252.064
 30
782.000
 70
    32
  0
VERTEX
  8
M45LXLIFT
 62
13
 10
5315.342
 20
-7259.877
 30
782.000
 70
    32
  0
VERTEX
  8
M45LXLIFT
 62
13
 10
5320.770
 20
-7266.465
 30
782.000
 70
    32
  0
VERTEX
  8
M45LXLIFT
 62
13
 10
5326.668
 20
-7270.734
 30
782.000
 70
    32
  0
VERTEX
  8
M45LXLIFT
 62
13
 10
5324.438
 20
-7276.434
 30
782.000
 70
    32
  0
VERTEX
  8
M45LXLIFT
 62
13
 10
5329.638
 20
-7282.861
 30
782.000
 70
    32
  0
VERTEX
  8
M45LXLIFT
 62
13
 10
5332.778
 20
-7287.097
 30
782.000
 70
    32
  0
SEQEND
  8
M45LXLIFT
  0
POLYLINE
  8
M45LXLIFT
 62
7
 66
     1
 70
     9
  0
VERTEX
  8
M45LXLIFT
 62
7
 10
5232.933
 20
-7016.119
 30
780.000
 70
    32
  0
VERTEX
  8
M45LXLIFT
 62
7
 10
5239.908
 20
-7013.576
 30
780.000
 70
    32
  0
VERTEX
  8
M45LXLIFT
 62
7
 10
5248.143
 20
-7011.848
 30
780.000
 70
    32
  0
VERTEX
  8
M45LXLIFT
 62
7
 10
5256.793
 20
-7017.470
 30
780.000
 70
    32
  0
VERTEX
  8
M45LXLIFT
 62
7
 10
5258.915
 20
-7024.319
 30
780.000
 70
    32
  0
VERTEX
  8
M45LXLIFT
 62
7
 10
5258.446
 20
-7032.542
 30
780.000
 70
    32
  0
VERTEX
  8
M45LXLIFT
 62
7
 10
5253.422
 20
-7047.311
 30
780.000
 70
    32
  0
VERTEX
  8
M45LXLIFT
 62
7
 10
5251.054
 20
-7055.629
 30
780.000
 70
    32
  0
VERTEX
  8
M45LXLIFT
 62
7
 10
5250.713
 20
-7065.943
 30
780.000
 70
    32
  0
VERTEX
  8
M45LXLIFT
 62
7
 10
5249.488
 20
-7074.179
 30
780.000
 70
    32
  0
VERTEX
  8
M45LXLIFT
 62
7
 10
5253.936
 20
-7086.086
 30
780.000
 70
    32
  0
VERTEX
  8
M45LXLIFT
 62
7
 10
5257.902
 20
-7096.162
 30
780.000
 70
    32
  0
VERTEX
  8
M45LXLIFT
 62
7
 10
5261.518
 20
-7106.061
 30
780.000
 70
    32
  0
VERTEX
  8
M45LXLIFT
 62
7
 10
5268.337
 20
-7112.164
 30
780.000
 70
    32
  0
VERTEX
  8
M45LXLIFT
 62
7
 10
5273.754
 20
-7111.650
 30
780.000
 70
    32
  0
VERTEX
  8
M45LXLIFT
 62
7
 10
5281.337
 20
-7107.124
 30
780.000
 70
    32
  0
VERTEX
  8
M45LXLIFT
 62
7
 10
5282.495
 20
-7113.704
 30
780.000
 70
    32
  0
VERTEX
  8
M45LXLIFT
 62
7
 10
5279.318
 20
-7119.011
 30
780.000
 70
    32
  0
VERTEX
  8
M45LXLIFT
 62
7
 10
5272.723
 20
-7125.758
 30
780.000
 70
    32
  0
VERTEX
  8
M45LXLIFT
 62
7
 10
5266.910
 20
-7131.049
 30
780.000
 70
    32
  0
VERTEX
  8
M45LXLIFT
 62
7
 10
5261.329
 20
-7132.669
 30
780.000
 70
    32
  0
VERTEX
  8
M45LXLIFT
 62
7
 10
5254.052
 20
-7126.687
 30
780.000
 70
    32
  0
VERTEX
  8
M45LXLIFT
 62
7
 10
5248.428
 20
-7120.573
 30
780.000
 70
    32
  0
VERTEX
  8
M45LXLIFT
 62
7
 10
5243.942
 20
-7112.304
 30
780.000
 70
    32
  0
VERTEX
  8
M45LXLIFT
 62
7
 10
5241.220
 20
-7102.727
 30
780.000
 70
    32
  0
VERTEX
  8
M45LXLIFT
 62
7
 10
5237.735
 20
-7091.529
 30
780.000
 70
    32
  0
VERTEX
  8
M45LXLIFT
 62
7
 10
5236.080
 20
-7079.849
 30
780.000
 70
    32
  0
VERTEX
  8
M45LXLIFT
 62
7
 10
5235.484
 20
-7070.337
 30
780.000
 70
    32
  0
VERTEX
  8
M45LXLIFT
 62
7
 10
5230.490
 20
-7058.726
 30
780.000
 70
    32
  0
VERTEX
  8
M45LXLIFT
 62
7
 10
5229.907
 20
-7044.065
 30
780.000
 70
    32
  0
VERTEX
  8
M45LXLIFT
 62
7
 10
5230.041
 20
-7033.028
 30
780.000
 70
    32
  0
VERTEX
  8
M45LXLIFT
 62
7
 10
5230.641
 20
-7023.505
 30
780.000
 70
    32
  0
SEQEND
  8
M45LXLIFT
  0
POLYLINE
  8
M45LXLIFT
 62
27
 66
     1
 70
     9
  0
VERTEX
  8
M45LXLIFT
 62
27
 10
5346.572
 20
-7001.802
 30
774.000
 70
    32
  0
VERTEX
  8
M45LXLIFT
 62
27
 10
5362.505
 20
-7006.182
 30
774.000
 70
    32
  0
VERTEX
  8
M45LXLIFT
 62
27
 10
5376.260
 20
-7010.427
 30
774.000
 70
    32
  0
VERTEX
  8
M45LXLIFT
 62
27
 10
5383.506
 20
-7018.730
 30
774.000
 70
    32
  0
VERTEX
  8
M45LXLIFT
 62
27
 10
5392.467
 20
-7025.214
 30
774.000
 70
    32
  0
VERTEX
  8
M45LXLIFT
 62
27
 10
5398.062
 20
-7030.256
 30
774.000
 70
    32
  0
VERTEX
  8
M45LXLIFT
 62
27
 10
5402.351
 20
-7045.343
 30
774.000
 70
    32
  0
VERTEX
  8
M45LXLIFT
 62
27
 10
5401.614
 20
-7060.436
 30
774.000
 70
    32
  0
VERTEX
  8
M45LXLIFT
 62
27
 10
5399.620
 20
-7067.929
 30
774.000
 70
    32
  0
VERTEX
  8
M45LXLIFT
 62
27
 10
5385.121
 20
-7070.798
 30
774.000
 70
    32
  0
VERTEX
  8
M45LXLIFT
 62
27
 10
5370.067
 20
-7072.328
 30
774.000
 70
    32
  0
VERTEX
  8
M45LXLIFT
 62
27
 10
5362.812
 20
-7071.689
 30
774.000
 70
    32
  0
VERTEX
  8
M45LXLIFT
 62
27
 10
5354.491
 20
-7063.854
 30
774.000
 70
    32
  0
VERTEX
  8
M45LXLIFT
 62
27
 10
5346.221
 20
-7062.436
 30
774.000
 70
    32
  0
VERTEX
  8
M45LXLIFT
 62
27
 10
5335.716
 20
-7067.595
 30
774.000
 70
    32
  0
VERTEX
  8
M45LXLIFT
 62
27
 10
5326.470
 20
-7074.009
 30
774.000
 70
    32
  0
VERTEX
  8
M45LXLIFT
 62
27
 10
5313.957
 20
-7082.953
 30
774.000
 70
    32
  0
VERTEX
  8
M45LXLIFT
 62
27
 10
5301.224
 20
-7087.467
 30
774.000
 70
    32
  0
VERTEX
  8
M45LXLIFT
 62
27
 10
5287.622
 20
-7090.218
 30
774.000
 70
    32
  0
VERTEX
  8
M45LXLIFT
 62
27
 10
5276.877
 20
-7085.164
 30
774.000
 70
    32
  0
VERTEX
  8
M45LXLIFT
 62
27
 10
5268.897
 20
-7079.265
 30
774.000
 70
    32
  0
VERTEX
  8
M45LXLIFT
 62
27
 10
5266.108
 20
-7072.254
 30
774.000
 70
    32
  0
VERTEX
  8
M45LXLIFT
 62
27
 10
5268.729
 20
-7062.656
 30
774.000
 70
    32
  0
VERTEX
  8
M45LXLIFT
 62
27
 10
5276.673
 20
-7053.597
 30
774.000
 70
    32
  0
VERTEX
  8
M45LXLIFT
 62
27
 10
5284.487
 20
-7048.792
 30
774.000
 70
    32
  0
VERTEX
  8
M45LXLIFT
 62
27
 10
5293.378
 20
-7046.031
 30
774.000
 70
    32
  0
VERTEX
  8
M45LXLIFT
 62
27
 10
5298.444
 20
-7042.387
 30
774.000
 70
    32
  0
VERTEX
  8
M45LXLIFT
 62
27
 10
5308.377
 20
-7041.917
 30
774.000
 70
    32
  0
VERTEX
  8
M45LXLIFT
 62
27
 10
5319.487
 20
-7044.512
 30
774.000
 70
    32
  0
VERTEX
  8
M45LXLIFT
 62
27
 10
5324.777
 20
-7041.467
 30
774.000
 70
    32
  0
VERTEX
  8
M45LXLIFT
 62
27
 10
5333.868
 20
-7040.746
 30
774.000
 70
    32
  0
VERTEX
  8
M45LXLIFT
 62
27
 10
5336.875
 20
-7037.424
 30
774.000
 70
    32
  0
VERTEX
  8
M45LXLIFT
 62
27
 10
5332.630
 20
-7033.023
 30
774.000
 70
    32
  0
VERTEX
  8
M45LXLIFT
 62
27
 10
5325.545
 20
-7033.352
 30
774.000
 70
    32
  0
VERTEX
  8
M45LXLIFT
 62
27
 10
5321.683
 20
-7026.369
 30
774.000
 70
    32
  0
VERTEX
  8
M45LXLIFT
 62
27
 10
5321.577
 20
-7017.370
 30
774.000
 70
    32
  0
VERTEX
  8
M45LXLIFT
 62
27
 10
5325.031
 20
-7009.780
 30
774.000
 70
    32
  0
SEQEND
  8
M45LXLIFT
  0
POLYLINE
  8
M45LXLIFT
 62
13
 66
     1
 70
     9
  0
VERTEX
  8
M45LXLIFT
 62
13
 10
5411.807
 20
-6896.479
 30
779.000
 70
    32
  0
VERTEX
  8
M45LXLIFT
 62
13
 10
5412.080
 20
-6903.933
 30
779.000
 70
    32
  0
VERTEX
  8
M45LXLIFT
 62
13
 10
5402.143
 20
-6914.140
 30
779.000
 70
    32
  0
VERTEX
  8
M45LXLIFT
 62
13
 10
5393.420
 20
-6939.416
 30
779.000
 70
    32
  0
VERTEX
  8
M45LXLIFT
 62
13
 10
5386.253
 20
-6944.946
 30
779.000
 70
    32
  0
VERTEX
  8
M45LXLIFT
 62
13
 10
5377.087
 20
-6949.550
 30
779.000
 70
    32
  0
VERTEX
  8
M45LXLIFT
 62
13
 10
5365.935
 20
-6951.032
 30
779.000
 70
    32
  0
VERTEX
  8
M45LXLIFT
 62
13
 10
5355.401
 20
-6952.167
 30
779.000
 70
    32
  0
VERTEX
  8
M45LXLIFT
 62
13
 10
5347.490
 20
-6955.513
 30
779.000
 70
    32
  0
VERTEX
  8
M45LXLIFT
 62
13
 10
5341.115
 20
-6948.534
 30
779.000
 70
    32
  0
VERTEX
  8
M45LXLIFT
 62
13
 10
5338.585
 20
-6942.315
 30
779.000
 70
    32
  0
VERTEX
  8
M45LXLIFT
 62
13
 10
5349.229
 20
-6937.490
 30
779.000
 70
    32
  0
VERTEX
  8
M45LXLIFT
 62
13
 10
5358.042
 20
-6936.100
 30
779.000
 70
    32
  0
VERTEX
  8
M45LXLIFT
 62
13
 10
5364.159
 20
-6932.990
 30
779.000
 70
    32
  0
VERTEX
  8
M45LXLIFT
 62
13
 10
5369.578
 20
-6934.989
 30
779.000
 70
    32
  0
VERTEX
  8
M45LXLIFT
 62
13
 10
5396.318
 20
-6894.175
 30
779.000
 70
    32
  0
VERTEX
  8
M45LXLIFT
 62
13
 10
5403.988
 20
-6889.914
 30
779.000
 70
    32
  0
SEQEND
  8
M45LXLIFT
  0
POLYLINE
  8
M45LXLIFT
 62
7
 66
     1
 70
     9
  0
VERTEX
  8
M45LXLIFT
 62
7
 10
4893.639
 20
-6665.984
 30
774.000
 70
    32
  0
VERTEX
  8
M45LXLIFT
 62
7
 10
4894.623
 20
-6681.333
 30
774.000
 70
    32
  0
VERTEX
  8
M45LXLIFT
 62
7
 10
4898.770
 20
-6696.525
 30
774.000
 70
    32
  0
VERTEX
  8
M45LXLIFT
 62
7
 10
4901.237
 20
-6710.776
 30
774.000
 70
    32
  0
VERTEX
  8
M45LXLIFT
 62
7
 10
4905.224
 20
-6723.242
 30
774.000
 70
    32
  0
VERTEX
  8
M45LXLIFT
 62
7
 10
4908.878
 20
-6735.848
 30
774.000
 70
    32
  0
VERTEX
  8
M45LXLIFT
 62
7
 10
4916.054
 20
-6750.108
 30
774.000
 70
    32
  0
VERTEX
  8
M45LXLIFT
 62
7
 10
4921.683
 20
-6758.295
 30
774.000
 70
    32
  0
VERTEX
  8
M45LXLIFT
 62
7
 10
4924.243
 20
-6768.539
 30
774.000
 70
    32
  0
VERTEX
  8
M45LXLIFT
 62
7
 10
4934.412
 20
-6785.066
 30
774.000
 70
    32
  0
VERTEX
  8
M45LXLIFT
 62
7
 10
4940.963
 20
-6798.040
 30
774.000
 70
    32
  0
VERTEX
  8
M45LXLIFT
 62
7
 10
4942.899
 20
-6803.605
 30
774.000
 70
    32
  0
VERTEX
  8
M45LXLIFT
 62
7
 10
4935.783
 20
-6809.206
 30
774.000
 70
    32
  0
VERTEX
  8
M45LXLIFT
 62
7
 10
4927.781
 20
-6810.214
 30
774.000
 70
    32
  0
VERTEX
  8
M45LXLIFT
 62
7
 10
4921.584
 20
-6805.837
 30
774.000
 70
    32
  0
VERTEX
  8
M45LXLIFT
 62
7
 10
4915.826
 20
-6795.557
 30
774.000
 70
    32
  0
VERTEX
  8
M45LXLIFT
 62
7
 10
4910.147
 20
-6786.859
 30
774.000
 70
    32
  0
VERTEX
  8
M45LXLIFT
 62
7
 10
4905.340
 20
-6773.140
 30
774.000
 70
    32
  0
VERTEX
  8
M45LXLIFT
 62
7
 10
4903.968
 20
-6761.251
 30
774.000
 70
    32
  0
VERTEX
  8
M45LXLIFT
 62
7
 10
4903.982
 20
-6752.709
 30
774.000
 70
    32
  0
VERTEX
  8
M45LXLIFT
 62
7
 10
4898.213
 20
-6738.282
 30
774.000
 70
    32
  0
VERTEX
  8
M45LXLIFT
 62
7
 10
4893.715
 20
-6728.818
 30
774.000
 70
    32
  0
VERTEX
  8
M45LXLIFT
 62
7
 10
4885.224
 20
-6720.016
 30
774.000
 70
    32
  0
VERTEX
  8
M45LXLIFT
 62
7
 10
4878.241
 20
-6702.769
 30
774.000
 70
    32
  0
VERTEX
  8
M45LXLIFT
 62
7
 10
4875.228
 20
-6682.909
 30
774.000
 70
    32
  0
VERTEX
  8
M45LXLIFT
 62
7
 10
4872.884
 20
-6665.724
 30
774.000
 70
    32
  0
VERTEX
  8
M45LXLIFT
 62
7
 10
4874.292
 20
-6659.211
 30
774.000
 70
    32
  0
SEQEND
  8
M45LXLIFT
  0
POLYLINE
  8
M45LXLIFT
 62
6
 66
     1
 70
     9
  0
VERTEX
  8
M45LXLIFT
 62
6
 10
4817.306
 20
-6547.769
 30
772.000
 70
    32
  0
VERTEX
  8
M45LXLIFT
 62
6
 10
4824.494
 20
-6550.974
 30
772.000
 70
    32
  0
VERTEX
  8
M45LXLIFT
 62
6
 10
4832.119
 20
-6560.526
 30
772.000
 70
    32
  0
VERTEX
  8
M45LXLIFT
 62
6
 10
4837.835
 20
-6568.978
 30
772.000
 70
    32
  0
VERTEX
  8
M45LXLIFT
 62
6
 10
4837.778
 20
-6572.739
 30
772.000
 70
    32
  0
VERTEX
  8
M45LXLIFT
 62
6
 10
4844.378
 20
-6580.317
 30
772.000
 70
    32
  0
VERTEX
  8
M45LXLIFT
 62
6
 10
4850.471
 20
-6575.255
 30
772.000
 70
    32
  0
VERTEX
  8
M45LXLIFT
 62
6
 10
4850.674
 20
-6567.558
 30
772.000
 70
    32
  0
VERTEX
  8
M45LXLIFT
 62
6
 10
4845.486
 20
-6558.934
 30
772.000
 70
    32
  0
VERTEX
  8
M45LXLIFT
 62
6
 10
4835.941
 20
-6547.086
 30
772.000
 70
    32
  0
VERTEX
  8
M45LXLIFT
 62
6
 10
4823.628
 20
-6533.569
 30
772.000
 70
    32
  0
VERTEX
  8
M45LXLIFT
 62
6
 10
4817.106
 20
-6521.668
 30
772.000
 70
    32
  0
VERTEX
  8
M45LXLIFT
 62
6
 10
4811.557
 20
-6511.670
 30
772.000
 70
    32
  0
VERTEX
  8
M45LXLIFT
 62
6
 10
4805.423
 20
-6505.606
 30
772.000
 70
    32
  0
VERTEX
  8
M45LXLIFT
 62
6
 10
4799.429
 20
-6508.735
 30
772.000
 70
    32
  0
VERTEX
  8
M45LXLIFT
 62
6
 10
4789.025
 20
-6508.570
 30
772.000
 70
    32
  0
VERTEX
  8
M45LXLIFT
 62
6
 10
4779.525
 20
-6513.313
 30
772.000
 70
    32
  0
VERTEX
  8
M45LXLIFT
 62
6
 10
4772.318
 20
-6519.528
 30
772.000
 70
    32
  0
VERTEX
  8
M45LXLIFT
 62
6
 10
4774.717
 20
-6527.047
 30
772.000
 70
    32
  0
VERTEX
  8
M45LXLIFT
 62
6
 10
4783.148
 20
-6534.143
 30
772.000
 70
    32
  0
VERTEX
  8
M45LXLIFT
 62
6
 10
4791.115
 20
-6536.334
 30
772.000
 70
    32
  0
VERTEX
  8
M45LXLIFT
 62
6
 10
4799.135
 20
-6532.250
 30
772.000
 70
    32
  0
VERTEX
  8
M45LXLIFT
 62
6
 10
4800.545
 20
-6534.595
 30
772.000
 70
    32
  0
VERTEX
  8
M45LXLIFT
 62
6
 10
4797.340
 20
-6541.783
 30
772.000
 70
    32
  0
VERTEX
  8
M45LXLIFT
 62
6
 10
4793.408
 20
-6550.056
 30
772.000
 70
    32
  0
VERTEX
  8
M45LXLIFT
 62
6
 10
4794.702
 20
-6560.363
 30
772.000
 70
    32
  0
VERTEX
  8
M45LXLIFT
 62
6
 10
4795.905
 20
-6564.939
 30
772.000
 70
    32
  0
VERTEX
  8
M45LXLIFT
 62
6
 10
4807.336
 20
-6557.782
 30
772.000
 70
    32
  0
SEQEND
  8
M45LXLIFT
  0
POLYLINE
  8
M45LXLIFT
 62
13
 66
     1
 70
     9
  0
VERTEX
  8
M45LXLIFT
 62
13
 10
4778.314
 20
-6497.804
 30
776.000
 70
    32
  0
VERTEX
  8
M45LXLIFT
 62
13
 10
4770.018
 20
-6513.029
 30
776.000
 70
    32
  0
VERTEX
  8
M45LXLIFT
 62
13
 10
4770.029
 20
-6517.177
 30
776.000
 70
    32
  0
VERTEX
  8
M45LXLIFT
 62
13
 10
4767.765
 20
-6519.730
 30
776.000
 70
    32
  0
VERTEX
  8
M45LXLIFT
 62
13
 10
4762.576
 20
-6520.403
 30
776.000
 70
    32
  0
VERTEX
  8
M45LXLIFT
 62
13
 10
4757.895
 20
-6524.419
 30
776.000
 70
    32
  0
VERTEX
  8
M45LXLIFT
 62
13
 10
4754.332
 20
-6532.746
 30
776.000
 70
    32
  0
VERTEX
  8
M45LXLIFT
 62
13
 10
4750.564
 20
-6536.960
 30
776.000
 70
    32
  0
VERTEX
  8
M45LXLIFT
 62
13
 10
4743.649
 20
-6538.256
 30
776.000
 70
    32
  0
VERTEX
  8
M45LXLIFT
 62
13
 10
4735.484
 20
-6536.979
 30
776.000
 70
    32
  0
VERTEX
  8
M45LXLIFT
 62
13
 10
4730.226
 20
-6531.359
 30
776.000
 70
    32
  0
VERTEX
  8
M45LXLIFT
 62
13
 10
4720.946
 20
-6522.377
 30
776.000
 70
    32
  0
VERTEX
  8
M45LXLIFT
 62
13
 10
4711.942
 20
-6514.065
 30
776.000
 70
    32
  0
VERTEX
  8
M45LXLIFT
 62
13
 10
4707.077
 20
-6510.451
 30
776.000
 70
    32
  0
VERTEX
  8
M45LXLIFT
 62
13
 10
4702.412
 20
-6499.580
 30
776.000
 70
    32
  0
VERTEX
  8
M45LXLIFT
 62
13
 10
4702.596
 20
-6489.053
 30
776.000
 70
    32
  0
VERTEX
  8
M45LXLIFT
 62
13
 10
4704.837
 20
-6484.549
 30
776.000
 70
    32
  0
VERTEX
  8
M45LXLIFT
 62
13
 10
4701.574
 20
-6477.342
 30
776.000
 70
    32
  0
VERTEX
  8
M45LXLIFT
 62
13
 10
4707.896
 20
-6466.095
 30
776.000
 70
    32
  0
VERTEX
  8
M45LXLIFT
 62
13
 10
4714.708
 20
-6458.313
 30
776.000
 70
    32
  0
VERTEX
  8
M45LXLIFT
 62
13
 10
4719.723
 20
-6454.159
 30
776.000
 70
    32
  0
VERTEX
  8
M45LXLIFT
 62
13
 10
4727.982
 20
-6454.383
 30
776.000
 70
    32
  0
VERTEX
  8
M45LXLIFT
 62
13
 10
4739.788
 20
-6455.259
 30
776.000
 70
    32
  0
VERTEX
  8
M45LXLIFT
 62
13
 10
4747.320
 20
-6456.568
 30
776.000
 70
    32
  0
VERTEX
  8
M45LXLIFT
 62
13
 10
4754.373
 20
-6464.905
 30
776.000
 70
    32
  0
VERTEX
  8
M45LXLIFT
 62
13
 10
4760.727
 20
-6472.446
 30
776.000
 70
    32
  0
VERTEX
  8
M45LXLIFT
 62
13
 10
4765.593
 20
-6481.965
 30
776.000
 70
    32
  0
VERTEX
  8
M45LXLIFT
 62
13
 10
4768.973
 20
-6487.117
 30
776.000
 70
    32
  0
VERTEX
  8
M45LXLIFT
 62
13
 10
4772.392
 20
-6491.583
 30
776.000
 70
    32
  0
SEQEND
  8
M45LXLIFT
  0
POLYLINE
  8
M45LXLIFT
 62
3
 66
     1
 70
     9
  0
VERTEX
  8
M45LXLIFT
 62
3
 10
4711.771
 20
-6367.413
 30
781.000
 70
    32
  0
VERTEX
  8
M45LXLIFT
 62
3
 10
4719.286
 20
-6374.750
 30
781.000
 70
    32
  0
VERTEX
  8
M45LXLIFT
 62
3
 10
4724.431
 20
-6381.546
 30
781.000
 70
    32
  0
VERTEX
  8
M45LXLIFT
 62
3
 10
4725.089
 20
-6389.371
 30
781.000
 70
    32
  0
VERTEX
  8
M45LXLIFT
 62
3
 10
4723.916
 20
-6397.678
 30
781.000
 70
    32
  0
VERTEX
  8
M45LXLIFT
 62
3
 10
4715.875
 20
-6405.277
 30
781.000
 70
    32
  0
VERTEX
  8
M45LXLIFT
 62
3
 10
4706.773
 20
-6414.100
 30
781.000
 70
    32
  0
VERTEX
  8
M45LXLIFT
 62
3
 10
4705.981
 20
-6414.359
 30
781.000
 70
    32
  0
VERTEX
  8
M45LXLIFT
 62
3
 10
4698.157
 20
-6420.922
 30
781.000
 70
    32
  0
VERTEX
  8
M45LXLIFT
 62
3
 10
4689.849
 20
-6426.094
 30
781.000
 70
    32
  0
VERTEX
  8
M45LXLIFT
 62
3
 10
4682.647
 20
-6431.430
 30
781.000
 70
    32
  0
VERTEX
  8
M45LXLIFT
 62
3
 10
4677.882
 20
-6431.789
 30
781.000
 70
    32
  0
VERTEX
  8
M45LXLIFT
 62
3
 10
4671.858
 20
-6427.941
 30
781.000
 70
    32
  0
VERTEX
  8
M45LXLIFT
 62
3
 10
4666.545
 20
-6419.737
 30
781.000
 70
    32
  0
VERTEX
  8
M45LXLIFT
 62
3
 10
4667.509
 20
-6411.148
 30
781.000
 70
    32
  0
VERTEX
  8
M45LXLIFT
 62
3
 10
4674.506
 20
-6401.698
 30
781.000
 70
    32
  0
VERTEX
  8
M45LXLIFT
 62
3
 10
4679.413
 20
-6394.889
 30
781.000
 70
    32
  0
VERTEX
  8
M45LXLIFT
 62
3
 10
4687.883
 20
-6389.051
 30
781.000
 70
    32
  0
VERTEX
  8
M45LXLIFT
 62
3
 10
4686.556
 20
-6381.503
 30
781.000
 70
    32
  0
VERTEX
  8
M45LXLIFT
 62
3
 10
4685.750
 20
-6375.101
 30
781.000
 70
    32
  0
VERTEX
  8
M45LXLIFT
 62
3
 10
4689.110
 20
-6374.470
 30
781.000
 70
    32
  0
VERTEX
  8
M45LXLIFT
 62
3
 10
4693.175
 20
-6376.708
 30
781.000
 70
    32
  0
VERTEX
  8
M45LXLIFT
 62
3
 10
4703.601
 20
-6372.919
 30
781.000
 70
    32
  0
SEQEND
  8
M45LXLIFT
  0
POLYLINE
  8
M45LXLIFT
 62
13
 66
     1
 70
     9
  0
VERTEX
  8
M45LXLIFT
 62
13
 10
5257.243
 20
-7224.127
 30
790.000
 70
    32
  0
VERTEX
  8
M45LXLIFT
 62
13
 10
5260.609
 20
-7226.083
 30
790.000
 70
    32
  0
VERTEX
  8
M45LXLIFT
 62
13
 10
5265.745
 20
-7232.095
 30
790.000
 70
    32
  0
VERTEX
  8
M45LXLIFT
 62
13
 10
5271.059
 20
-7236.316
 30
790.000
 70
    32
  0
VERTEX
  8
M45LXLIFT
 62
13
 10
5277.505
 20
-7239.564
 30
790.000
 70
    32
  0
VERTEX
  8
M45LXLIFT
 62
13
 10
5288.400
 20
-7239.530
 30
790.000
 70
    32
  0
VERTEX
  8
M45LXLIFT
 62
13
 10
5288.003
 20
-7233.656
 30
790.000
 70
    32
  0
VERTEX
  8
M45LXLIFT
 62
13
 10
5291.639
 20
-7227.575
 30
790.000
 70
    32
  0
VERTEX
  8
M45LXLIFT
 62
13
 10
5297.189
 20
-7221.689
 30
790.000
 70
    32
  0
VERTEX
  8
M45LXLIFT
 62
13
 10
5301.447
 20
-7218.883
 30
790.000
 70
    32
  0
VERTEX
  8
M45LXLIFT
 62
13
 10
5305.263
 20
-7224.467
 30
790.000
 70
    32
  0
VERTEX
  8
M45LXLIFT
 62
13
 10
5306.738
 20
-7233.491
 30
790.000
 70
    32
  0
VERTEX
  8
M45LXLIFT
 62
13
 10
5306.156
 20
-7241.986
 30
790.000
 70
    32
  0
VERTEX
  8
M45LXLIFT
 62
13
 10
5309.477
 20
-7247.066
 30
790.000
 70
    32
  0
VERTEX
  8
M45LXLIFT
 62
13
 10
5315.765
 20
-7254.735
 30
790.000
 70
    32
  0
VERTEX
  8
M45LXLIFT
 62
13
 10
5320.422
 20
-7260.119
 30
790.000
 70
    32
  0
VERTEX
  8
M45LXLIFT
 62
13
 10
5321.185
 20
-7267.920
 30
790.000
 70
    32
  0
VERTEX
  8
M45LXLIFT
 62
13
 10
5319.786
 20
-7275.054
 30
790.000
 70
    32
  0
VERTEX
  8
M45LXLIFT
 62
13
 10
5320.804
 20
-7281.888
 30
790.000
 70
    32
  0
VERTEX
  8
M45LXLIFT
 62
13
 10
5315.075
 20
-7287.249
 30
790.000
 70
    32
  0
VERTEX
  8
M45LXLIFT
 62
13
 10
5307.301
 20
-7291.521
 30
790.000
 70
    32
  0
VERTEX
  8
M45LXLIFT
 62
13
 10
5297.293
 20
-7297.056
 30
790.000
 70
    32
  0
VERTEX
  8
M45LXLIFT
 62
13
 10
5287.070
 20
-7299.997
 30
790.000
 70
    32
  0
VERTEX
  8
M45LXLIFT
 62
13
 10
5285.467
 20
-7305.852
 30
790.000
 70
    32
  0
VERTEX
  8
M45LXLIFT
 62
13
 10
5282.050
 20
-7310.773
 30
790.000
 70
    32
  0
VERTEX
  8
M45LXLIFT
 62
13
 10
5276.789
 20
-7315.446
 30
790.000
 70
    32
  0
VERTEX
  8
M45LXLIFT
 62
13
 10
5271.761
 20
-7311.890
 30
790.000
 70
    32
  0
VERTEX
  8
M45LXLIFT
 62
13
 10
5266.521
 20
-7301.545
 30
790.000
 70
    32
  0
VERTEX
  8
M45LXLIFT
 62
13
 10
5263.940
 20
-7292.372
 30
790.000
 70
    32
  0
VERTEX
  8
M45LXLIFT
 62
13
 10
5260.152
 20
-7281.472
 30
790.000
 70
    32
  0
VERTEX
  8
M45LXLIFT
 62
13
 10
5255.517
 20
-7272.211
 30
790.000
 70
    32
  0
VERTEX
  8
M45LXLIFT
 62
13
 10
5250.485
 20
-7265.900
 30
790.000
 70
    32
  0
VERTEX
  8
M45LXLIFT
 62
13
 10
5241.373
 20
-7260.603
 30
790.000
 70
    32
  0
VERTEX
  8
M45LXLIFT
 62
13
 10
5239.321
 20
-7254.005
 30
790.000
 70
    32
  0
VERTEX
  8
M45LXLIFT
 62
13
 10
5244.483
 20
-7250.070
 30
790.000
 70
    32
  0
VERTEX
  8
M45LXLIFT
 62
13
 10
5243.869
 20
-7241.162
 30
790.000
 70
    32
  0
VERTEX
  8
M45LXLIFT
 62
13
 10
5241.335
 20
-7235.814
 30
790.000
 70
    32
  0
SEQEND
  8
M45LXLIFT
  0
POLYLINE
  8
M45LXLIFT
 62
7
 66
     1
 70
     9
  0
VERTEX
  8
M45LXLIFT
 62
7
 10
5257.987
 20
-7138.297
 30
786.000
 70
    32
  0
VERTEX
  8
M45LXLIFT
 62
7
 10
5250.067
 20
-7130.657
 30
786.000
 70
    32
  0
VERTEX
  8
M45LXLIFT
 62
7
 10
5242.468
 20
-7121.559
 30
786.000
 70
    32
  0
VERTEX
  8
M45LXLIFT
 62
7
 10
5236.097
 20
-7114.504
 30
786.000
 70
    32
  0
VERTEX
  8
M45LXLIFT
 62
7
 10
5231.493
 20
-7106.874
 30
786.000
 70
    32
  0
VERTEX
  8
M45LXLIFT
 62
7
 10
5230.303
 20
-7096.199
 30
786.000
 70
    32
  0
VERTEX
  8
M45LXLIFT
 62
7
 10
5226.873
 20
-7081.718
 30
786.000
 70
    32
  0
VERTEX
  8
M45LXLIFT
 62
7
 10
5222.417
 20
-7068.349
 30
786.000
 70
    32
  0
VERTEX
  8
M45LXLIFT
 62
7
 10
5219.394
 20
-7058.742
 30
786.000
 70
    32
  0
VERTEX
  8
M45LXLIFT
 62
7
 10
5218.645
 20
-7046.186
 30
786.000
 70
    32
  0
VERTEX
  8
M45LXLIFT
 62
7
 10
5217.762
 20
-7036.491
 30
786.000
 70
    32
  0
VERTEX
  8
M45LXLIFT
 62
7
 10
5225.414
 20
-7028.010
 30
786.000
 70
    32
  0
VERTEX
  8
M45LXLIFT
 62
7
 10
5229.505
 20
-7021.802
 30
786.000
 70
    32
  0
VERTEX
  8
M45LXLIFT
 62
7
 10
5241.472
 20
-7017.532
 30
786.000
 70
    32
  0
VERTEX
  8
M45LXLIFT
 62
7
 10
5248.226
 20
-7017.567
 30
786.000
 70
    32
  0
VERTEX
  8
M45LXLIFT
 62
7
 10
5250.714
 20
-7034.863
 30
786.000
 70
    32
  0
VERTEX
  8
M45LXLIFT
 62
7
 10
5252.493
 20
-7051.375
 30
786.000
 70
    32
  0
VERTEX
  8
M45LXLIFT
 62
7
 10
5254.847
 20
-7065.023
 30
786.000
 70
    32
  0
VERTEX
  8
M45LXLIFT
 62
7
 10
5249.331
 20
-7075.295
 30
786.000
 70
    32
  0
VERTEX
  8
M45LXLIFT
 62
7
 10
5250.132
 20
-7085.604
 30
786.000
 70
    32
  0
VERTEX
  8
M45LXLIFT
 62
7
 10
5250.790
 20
-7095.581
 30
786.000
 70
    32
  0
VERTEX
  8
M45LXLIFT
 62
7
 10
5257.179
 20
-7107.145
 30
786.000
 70
    32
  0
VERTEX
  8
M45LXLIFT
 62
7
 10
5262.451
 20
-7114.928
 30
786.000
 70
    32
  0
VERTEX
  8
M45LXLIFT
 62
7
 10
5272.056
 20
-7113.782
 30
786.000
 70
    32
  0
VERTEX
  8
M45LXLIFT
 62
7
 10
5278.055
 20
-7118.033
 30
786.000
 70
    32
  0
VERTEX
  8
M45LXLIFT
 62
7
 10
5275.997
 20
-7124.014
 30
786.000
 70
    32
  0
VERTEX
  8
M45LXLIFT
 62
7
 10
5269.250
 20
-7129.488
 30
786.000
 70
    32
  0
SEQEND
  8
M45LXLIFT
  0
POLYLINE
  8
M45LXLIFT
 62
27
 66
     1
 70
     9
  0
VERTEX
  8
M45LXLIFT
 62
27
 10
5385.961
 20
-7112.865
 30
784.000
 70
    32
  0
VERTEX
  8
M45LXLIFT
 62
27
 10
5392.136
 20
-7108.378
 30
784.000
 70
    32
  0
VERTEX
  8
M45LXLIFT
 62
27
 10
5395.758
 20
-7098.226
 30
784.000
 70
    32
  0
VERTEX
  8
M45LXLIFT
 62
27
 10
5400.155
 20
-7081.858
 30
784.000
 70
    32
  0
VERTEX
  8
M45LXLIFT
 62
27
 10
5403.011
 20
-7065.783
 30
784.000
 70
    32
  0
VERTEX
  8
M45LXLIFT
 62
27
 10
5403.792
 20
-7046.988
 30
784.000
 70
    32
  0
VERTEX
  8
M45LXLIFT
 62
27
 10
5404.475
 20
-7031.245
 30
784.000
 70
    32
  0
VERTEX
  8
M45LXLIFT
 62
27
 10
5396.177
 20
-7026.872
 30
784.000
 70
    32
  0
VERTEX
  8
M45LXLIFT
 62
27
 10
5391.881
 20
-7016.029
 30
784.000
 70
    32
  0
VERTEX
  8
M45LXLIFT
 62
27
 10
5387.936
 20
-7011.867
 30
784.000
 70
    32
  0
VERTEX
  8
M45LXLIFT
 62
27
 10
5373.958
 20
-7012.486
 30
784.000
 70
    32
  0
VERTEX
  8
M45LXLIFT
 62
27
 10
5363.548
 20
-7009.393
 30
784.000
 70
    32
  0
VERTEX
  8
M45LXLIFT
 62
27
 10
5353.490
 20
-7006.472
 30
784.000
 70
    32
  0
VERTEX
  8
M45LXLIFT
 62
27
 10
5342.157
 20
-7006.509
 30
784.000
 70
    32
  0
VERTEX
  8
M45LXLIFT
 62
27
 10
5333.666
 20
-7002.173
 30
784.000
 70
    32
  0
VERTEX
  8
M45LXLIFT
 62
27
 10
5324.608
 20
-6999.262
 30
784.000
 70
    32
  0
VERTEX
  8
M45LXLIFT
 62
27
 10
5317.484
 20
-6996.862
 30
784.000
 70
    32
  0
VERTEX
  8
M45LXLIFT
 62
27
 10
5312.729
 20
-6996.847
 30
784.000
 70
    32
  0
VERTEX
  8
M45LXLIFT
 62
27
 10
5308.795
 20
-7005.141
 30
784.000
 70
    32
  0
VERTEX
  8
M45LXLIFT
 62
27
 10
5310.639
 20
-7016.530
 30
784.000
 70
    32
  0
VERTEX
  8
M45LXLIFT
 62
27
 10
5314.688
 20
-7022.709
 30
784.000
 70
    32
  0
VERTEX
  8
M45LXLIFT
 62
27
 10
5324.786
 20
-7026.260
 30
784.000
 70
    32
  0
VERTEX
  8
M45LXLIFT
 62
27
 10
5329.613
 20
-7035.486
 30
784.000
 70
    32
  0
VERTEX
  8
M45LXLIFT
 62
27
 10
5337.918
 20
-7049.560
 30
784.000
 70
    32
  0
VERTEX
  8
M45LXLIFT
 62
27
 10
5344.224
 20
-7061.739
 30
784.000
 70
    32
  0
VERTEX
  8
M45LXLIFT
 62
27
 10
5351.450
 20
-7070.348
 30
784.000
 70
    32
  0
VERTEX
  8
M45LXLIFT
 62
27
 10
5347.928
 20
-7079.762
 30
784.000
 70
    32
  0
VERTEX
  8
M45LXLIFT
 62
27
 10
5336.884
 20
-7080.902
 30
784.000
 70
    32
  0
VERTEX
  8
M45LXLIFT
 62
27
 10
5330.829
 20
-7087.283
 30
784.000
 70
    32
  0
VERTEX
  8
M45LXLIFT
 62
27
 10
5324.985
 20
-7095.820
 30
784.000
 70
    32
  0
VERTEX
  8
M45LXLIFT
 62
27
 10
5327.039
 20
-7100.541
 30
784.000
 70
    32
  0
VERTEX
  8
M45LXLIFT
 62
27
 10
5336.629
 20
-7115.290
 30
784.000
 70
    32
  0
VERTEX
  8
M45LXLIFT
 62
27
 10
5343.116
 20
-7127.993
 30
784.000
 70
    32
  0
VERTEX
  8
M45LXLIFT
 62
27
 10
5348.919
 20
-7134.158
 30
784.000
 70
    32
  0
VERTEX
  8
M45LXLIFT
 62
27
 10
5358.114
 20
-7130.015
 30
784.000
 70
    32
  0
VERTEX
  8
M45LXLIFT
 62
27
 10
5366.282
 20
-7124.670
 30
784.000
 70
    32
  0
SEQEND
  8
M45LXLIFT
  0
POLYLINE
  8
M45LXLIFT
 62
13
 66
     1
 70
     9
  0
VERTEX
  8
M45LXLIFT
 62
13
 10
5328.127
 20
-6947.164
 30
789.000
 70
    32
  0
VERTEX
  8
M45LXLIFT
 62
13
 10
5334.184
 20
-6958.870
 30
789.000
 70
    32
  0
VERTEX
  8
M45LXLIFT
 62
13
 10
5342.728
 20
-6963.277
 30
789.000
 70
    32
  0
VERTEX
  8
M45LXLIFT
 62
13
 10
5351.219
 20
-6958.789
 30
789.000
 70
    32
  0
VERTEX
  8
M45LXLIFT
 62
13
 10
5359.198
 20
-6956.234
 30
789.000
 70
    32
  0
VERTEX
  8
M45LXLIFT
 62
13
 10
5366.054
 20
-6951.338
 30
789.000
 70
    32
  0
VERTEX
  8
M45LXLIFT
 62
13
 10
5372.576
 20
-6948.462
 30
789.000
 70
    32
  0
VERTEX
  8
M45LXLIFT
 62
13
 10
5378.997
 20
-6944.008
 30
789.000
 70
    32
  0
VERTEX
  8
M45LXLIFT
 62
13
 10
5385.131
 20
-6936.574
 30
789.000
 70
    32
  0
VERTEX
  8
M45LXLIFT
 62
13
 10
5390.421
 20
-6928.900
 30
789.000
 70
    32
  0
VERTEX
  8
M45LXLIFT
 62
13
 10
5396.117
 20
-6921.469
 30
789.000
 70
    32
  0
VERTEX
  8
M45LXLIFT
 62
13
 10
5398.939
 20
-6914.465
 30
789.000
 70
    32
  0
VERTEX
  8
M45LXLIFT
 62
13
 10
5401.096
 20
-6905.430
 30
789.000
 70
    32
  0
VERTEX
  8
M45LXLIFT
 62
13
 10
5398.336
 20
-6900.364
 30
789.000
 70
    32
  0
VERTEX
  8
M45LXLIFT
 62
13
 10
5391.740
 20
-6895.907
 30
789.000
 70
    32
  0
VERTEX
  8
M45LXLIFT
 62
13
 10
5387.786
 20
-6895.061
 30
789.000
 70
    32
  0
VERTEX
  8
M45LXLIFT
 62
13
 10
5379.952
 20
-6898.386
 30
789.000
 70
    32
  0
VERTEX
  8
M45LXLIFT
 62
13
 10
5373.035
 20
-6908.844
 30
789.000
 70
    32
  0
VERTEX
  8
M45LXLIFT
 62
13
 10
5368.033
 20
-6915.305
 30
789.000
 70
    32
  0
VERTEX
  8
M45LXLIFT
 62
13
 10
5360.609
 20
-6921.627
 30
789.000
 70
    32
  0
VERTEX
  8
M45LXLIFT
 62
13
 10
5351.412
 20
-6929.963
 30
789.000
 70
    32
  0
SEQEND
  8
M45LXLIFT
  0
POLYLINE
  8
M45LXLIFT
 62
6
 66
     1
 70
     9
  0
VERTEX
  8
M45LXLIFT
 62
6
 10
4817.737
 20
-6571.123
 30
789.000
 70
    32
  0
VERTEX
  8
M45LXLIFT
 62
6
 10
4825.011
 20
-6574.732
 30
789.000
 70
    32
  0
VERTEX
  8
M45LXLIFT
 62
6
 10
4829.811
 20
-6571.624
 30
789.000
 70
    32
  0
VERTEX
  8
M45LXLIFT
 62
6
 10
4831.241
 20
-6563.806
 30
789.000
 70
    32
  0
VERTEX
  8
M45LXLIFT
 62
6
 10
4830.035
 20
-6555.570
 30
789.000
 70
    32
  0
VERTEX
  8
M45LXLIFT
 62
6
 10
4821.235
 20
-6547.499
 30
789.000
 70
    32
  0
VERTEX
  8
M45LXLIFT
 62
6
 10
4812.498
 20
-6543.129
 30
789.000
 70
    32
  0
VERTEX
  8
M45LXLIFT
 62
6
 10
4801.551
 20
-6543.093
 30
789.000
 70
    32
  0
VERTEX
  8
M45LXLIFT
 62
6
 10
4795.124
 20
-6548.986
 30
789.000
 70
    32
  0
VERTEX
  8
M45LXLIFT
 62
6
 10
4792.647
 20
-6555.286
 30
789.000
 70
    32
  0
VERTEX
  8
M45LXLIFT
 62
6
 10
4791.712
 20
-6561.294
 30
789.000
 70
    32
  0
VERTEX
  8
M45LXLIFT
 62
6
 10
4798.288
 20
-6563.119
 30
789.000
 70
    32
  0
VERTEX
  8
M45LXLIFT
 62
6
 10
4805.131
 20
-6561.100
 30
789.000
 70
    32
  0
VERTEX
  8
M45LXLIFT
 62
6
 10
4809.163
 20
-6565.086
 30
789.000
 70
    32
  0
SEQEND
  8
M45LXLIFT
  0
POLYLINE
  8
M45LXLIFT
 62
13
 66
     1
 70
     9
  0
VERTEX
  8
M45LXLIFT
 62
13
 10
4699.425
 20
-6473.812
 30
786.000
 70
    32
  0
VERTEX
  8
M45LXLIFT
 62
13
 10
4698.795
 20
-6478.483
 30
786.000
 70
    32
  0
VERTEX
  8
M45LXLIFT
 62
13
 10
4705.734
 20
-6484.113
 30
786.000
 70
    32
  0
VERTEX
  8
M45LXLIFT
 62
13
 10
4711.212
 20
-6491.297
 30
786.000
 70
    32
  0
VERTEX
  8
M45LXLIFT
 62
13
 10
4716.840
 20
-6499.692
 30
786.000
 70
    32
  0
VERTEX
  8
M45LXLIFT
 62
13
 10
4726.524
 20
-6506.317
 30
786.000
 70
    32
  0
VERTEX
  8
M45LXLIFT
 62
13
 10
4734.563
 20
-6513.534
 30
786.000
 70
    32
  0
VERTEX
  8
M45LXLIFT
 62
13
 10
4744.182
 20
-6514.142
 30
786.000
 70
    32
  0
VERTEX
  8
M45LXLIFT
 62
13
 10
4752.419
 20
-6515.253
 30
786.000
 70
    32
  0
VERTEX
  8
M45LXLIFT
 62
13
 10
4762.915
 20
-6515.854
 30
786.000
 70
    32
  0
VERTEX
  8
M45LXLIFT
 62
13
 10
4772.911
 20
-6513.196
 30
786.000
 70
    32
  0
VERTEX
  8
M45LXLIFT
 62
13
 10
4780.095
 20
-6505.403
 30
786.000
 70
    32
  0
VERTEX
  8
M45LXLIFT
 62
13
 10
4784.571
 20
-6496.806
 30
786.000
 70
    32
  0
VERTEX
  8
M45LXLIFT
 62
13
 10
4776.253
 20
-6489.802
 30
786.000
 70
    32
  0
VERTEX
  8
M45LXLIFT
 62
13
 10
4771.002
 20
-6484.650
 30
786.000
 70
    32
  0
VERTEX
  8
M45LXLIFT
 62
13
 10
4771.611
 20
-6477.347
 30
786.000
 70
    32
  0
VERTEX
  8
M45LXLIFT
 62
13
 10
4769.844
 20
-6469.098
 30
786.000
 70
    32
  0
VERTEX
  8
M45LXLIFT
 62
13
 10
4759.181
 20
-6465.094
 30
786.000
 70
    32
  0
VERTEX
  8
M45LXLIFT
 62
13
 10
4749.078
 20
-6458.788
 30
786.000
 70
    32
  0
VERTEX
  8
M45LXLIFT
 62
13
 10
4742.872
 20
-6450.504
 30
786.000
 70
    32
  0
VERTEX
  8
M45LXLIFT
 62
13
 10
4728.694
 20
-6447.966
 30
786.000
 70
    32
  0
VERTEX
  8
M45LXLIFT
 62
13
 10
4723.731
 20
-6450.427
 30
786.000
 70
    32
  0
VERTEX
  8
M45LXLIFT
 62
13
 10
4712.555
 20
-6461.375
 30
786.000
 70
    32
  0
VERTEX
  8
M45LXLIFT
 62
13
 10
4707.410
 20
-6467.503
 30
786.000
 70
    32
  0
SEQEND
  8
M45LXLIFT
  0
POLYLINE
  8
M45LXLIFT
 62
27
 66
     1
 70
     9
  0
VERTEX
  8
M45LXLIFT
 62
27
 10
4651.650
 20
-6451.224
 30
787.000
 70
    32
  0
VERTEX
  8
M45LXLIFT
 62
27
 10
4660.481
 20
-6449.786
 30
787.000
 70
    32
  0
VERTEX
  8
M45LXLIFT
 62
27
 10
4668.962
 20
-6446.298
 30
787.000
 70
    32
  0
VERTEX
  8
M45LXLIFT
 62
27
 10
4672.745
 20
-6443.303
 30
787.000
 70
    32
  0
VERTEX
  8
M45LXLIFT
 62
27
 10
4676.482
 20
-6438.800
 30
787.000
 70
    32
  0
VERTEX
  8
M45LXLIFT
 62
27
 10
4688.710
 20
-6432.124
 30
787.000
 70
    32
  0
VERTEX
  8
M45LXLIFT
 62
27
 10
4698.612
 20
-6426.450
 30
787.000
 70
    32
  0
VERTEX
  8
M45LXLIFT
 62
27
 10
4709.471
 20
-6419.715
 30
787.000
 70
    32
  0
VERTEX
  8
M45LXLIFT
 62
27
 10
4722.282
 20
-6415.684
 30
787.000
 70
    32
  0
VERTEX
  8
M45LXLIFT
 62
27
 10
4729.558
 20
-6415.100
 30
787.000
 70
    32
  0
VERTEX
  8
M45LXLIFT
 62
27
 10
4734.413
 20
-6419.009
 30
787.000
 70
    32
  0
VERTEX
  8
M45LXLIFT
 62
27
 10
4737.572
 20
-6425.756
 30
787.000
 70
    32
  0
VERTEX
  8
M45LXLIFT
 62
27
 10
4733.886
 20
-6432.206
 30
787.000
 70
    32
  0
VERTEX
  8
M45LXLIFT
 62
27
 10
4723.027
 20
-6438.941
 30
787.000
 70
    32
  0
VERTEX
  8
M45LXLIFT
 62
27
 10
4712.812
 20
-6445.074
 30
787.000
 70
    32
  0
VERTEX
  8
M45LXLIFT
 62
27
 10
4704.140
 20
-6453.230
 30
787.000
 70
    32
  0
VERTEX
  8
M45LXLIFT
 62
27
 10
4695.434
 20
-6461.633
 30
787.000
 70
    32
  0
VERTEX
  8
M45LXLIFT
 62
27
 10
4686.727
 20
-6465.403
 30
787.000
 70
    32
  0
VERTEX
  8
M45LXLIFT
 62
27
 10
4679.013
 20
-6468.306
 30
787.000
 70
    32
  0
VERTEX
  8
M45LXLIFT
 62
27
 10
4677.769
 20
-6475.211
 30
787.000
 70
    32
  0
VERTEX
  8
M45LXLIFT
 62
27
 10
4677.092
 20
-6476.058
 30
787.000
 70
    32
  0
VERTEX
  8
M45LXLIFT
 62
27
 10
4670.255
 20
-6478.954
 30
787.000
 70
    32
  0
VERTEX
  8
M45LXLIFT
 62
27
 10
4664.348
 20
-6479.597
 30
787.000
 70
    32
  0
VERTEX
  8
M45LXLIFT
 62
27
 10
4658.434
 20
-6479.363
 30
787.000
 70
    32
  0
VERTEX
  8
M45LXLIFT
 62
27
 10
4652.825
 20
-6480.109
 30
787.000
 70
    32
  0
VERTEX
  8
M45LXLIFT
 62
27
 10
4646.916
 20
-6473.805
 30
787.000
 70
    32
  0
VERTEX
  8
M45LXLIFT
 62
27
 10
4644.947
 20
-6466.593
 30
787.000
 70
    32
  0
VERTEX
  8
M45LXLIFT
 62
27
 10
4649.375
 20
-6462.996
 30
787.000
 70
    32
  0
SEQEND
  8
M45LXLIFT
  0
POLYLINE
  8
M45LXLIFT
 62
3
 66
     1
 70
     9
  0
VERTEX
  8
M45LXLIFT
 62
3
 10
4656.356
 20
-6402.853
 30
792.000
 70
    32
  0
VERTEX
  8
M45LXLIFT
 62
3
 10
4657.471
 20
-6410.827
 30
792.000
 70
    32
  0
VERTEX
  8
M45LXLIFT
 62
3
 10
4662.819
 20
-6417.118
 30
792.000
 70
    32
  0
VERTEX
  8
M45LXLIFT
 62
3
 10
4669.716
 20
-6426.309
 30
792.000
 70
    32
  0
VERTEX
  8
M45LXLIFT
 62
3
 10
4680.058
 20
-6431.771
 30
792.000
 70
    32
  0
VERTEX
  8
M45LXLIFT
 62
3
 10
4689.147
 20
-6427.489
 30
792.000
 70
    32
  0
VERTEX
  8
M45LXLIFT
 62
3
 10
4701.739
 20
-6418.109
 30
792.000
 70
    32
  0
VERTEX
  8
M45LXLIFT
 62
3
 10
4709.821
 20
-6412.940
 30
792.000
 70
    32
  0
VERTEX
  8
M45LXLIFT
 62
3
 10
4720.086
 20
-6406.438
 30
792.000
 70
    32
  0
VERTEX
  8
M45LXLIFT
 62
3
 10
4727.330
 20
-6399.591
 30
792.000
 70
    32
  0
VERTEX
  8
M45LXLIFT
 62
3
 10
4722.519
 20
-6390.243
 30
792.000
 70
    32
  0
VERTEX
  8
M45LXLIFT
 62
3
 10
4715.031
 20
-6381.723
 30
792.000
 70
    32
  0
VERTEX
  8
M45LXLIFT
 62
3
 10
4704.353
 20
-6373.650
 30
792.000
 70
    32
  0
VERTEX
  8
M45LXLIFT
 62
3
 10
4692.444
 20
-6369.604
 30
792.000
 70
    32
  0
VERTEX
  8
M45LXLIFT
 62
3
 10
4677.161
 20
-6369.233
 30
792.000
 70
    32
  0
VERTEX
  8
M45LXLIFT
 62
3
 10
4664.534
 20
-6376.543
 30
792.000
 70
    32
  0
VERTEX
  8
M45LXLIFT
 62
3
 10
4659.356
 20
-6382.917
 30
792.000
 70
    32
  0
SEQEND
  8
M45LXLIFT
  0
POLYLINE
  8
M45LXLIFT
 62
13
 66
     1
 70
     9
  0
VERTEX
  8
M45LXLIFT
 62
13
 10
5408.868
 20
-6903.081
 30
799.000
 70
    32
  0
VERTEX
  8
M45LXLIFT
 62
13
 10
5411.860
 20
-6912.248
 30
799.000
 70
    32
  0
VERTEX
  8
M45LXLIFT
 62
13
 10
5410.638
 20
-6920.170
 30
799.000
 70
    32
  0
VERTEX
  8
M45LXLIFT
 62
13
 10
5405.361
 20
-6926.620
 30
799.000
 70
    32
  0
VERTEX
  8
M45LXLIFT
 62
13
 10
5398.410
 20
-6929.496
 30
799.000
 70
    32
  0
VERTEX
  8
M45LXLIFT
 62
13
 10
5386.892
 20
-6931.390
 30
799.000
 70
    32
  0
VERTEX
  8
M45LXLIFT
 62
13
 10
5378.064
 20
-6932.924
 30
799.000
 70
    32
  0
VERTEX
  8
M45LXLIFT
 62
13
 10
5374.976
 20
-6936.429
 30
799.000
 70
    32
  0
VERTEX
  8
M45LXLIFT
 62
13
 10
5372.715
 20
-6945.015
 30
799.000
 70
    32
  0
VERTEX
  8
M45LXLIFT
 62
13
 10
5365.064
 20
-6951.809
 30
799.000
 70
    32
  0
VERTEX
  8
M45LXLIFT
 62
13
 10
5352.989
 20
-6957.515
 30
799.000
 70
    32
  0
VERTEX
  8
M45LXLIFT
 62
13
 10
5350.705
 20
-6952.094
 30
799.000
 70
    32
  0
VERTEX
  8
M45LXLIFT
 62
13
 10
5354.953
 20
-6948.382
 30
799.000
 70
    32
  0
VERTEX
  8
M45LXLIFT
 62
13
 10
5355.187
 20
-6941.634
 30
799.000
 70
    32
  0
VERTEX
  8
M45LXLIFT
 62
13
 10
5354.510
 20
-6933.811
 30
799.000
 70
    32
  0
VERTEX
  8
M45LXLIFT
 62
13
 10
5352.733
 20
-6924.069
 30
799.000
 70
    32
  0
VERTEX
  8
M45LXLIFT
 62
13
 10
5352.276
 20
-6919.041
 30
799.000
 70
    32
  0
VERTEX
  8
M45LXLIFT
 62
13
 10
5360.320
 20
-6904.832
 30
799.000
 70
    32
  0
VERTEX
  8
M45LXLIFT
 62
13
 10
5371.531
 20
-6890.019
 30
799.000
 70
    32
  0
VERTEX
  8
M45LXLIFT
 62
13
 10
5376.176
 20
-6883.163
 30
799.000
 70
    32
  0
VERTEX
  8
M45LXLIFT
 62
13
 10
5387.046
 20
-6880.546
 30
799.000
 70
    32
  0
VERTEX
  8
M45LXLIFT
 62
13
 10
5393.610
 20
-6878.178
 30
799.000
 70
    32
  0
VERTEX
  8
M45LXLIFT
 62
13
 10
5401.405
 20
-6890.999
 30
799.000
 70
    32
  0
SEQEND
  8
M45LXLIFT
  0
POLYLINE
  8
M45LXLIFT
 62
27
 66
     1
 70
     9
  0
VERTEX
  8
M45LXLIFT
 62
27
 10
5304.083
 20
-7007.631
 30
796.000
 70
    32
  0
VERTEX
  8
M45LXLIFT
 62
27
 10
5309.653
 20
-7018.494
 30
796.000
 70
    32
  0
VERTEX
  8
M45LXLIFT
 62
27
 10
5321.186
 20
-7032.804
 30
796.000
 70
    32
  0
VERTEX
  8
M45LXLIFT
 62
27
 10
5340.093
 20
-7054.661
 30
796.000
 70
    32
  0
VERTEX
  8
M45LXLIFT
 62
27
 10
5341.891
 20
-7063.402
 30
796.000
 70
    32
  0
VERTEX
  8
M45LXLIFT
 62
27
 10
5334.759
 20
-7072.657
 30
796.000
 70
    32
  0
VERTEX
  8
M45LXLIFT
 62
27
 10
5328.337
 20
-7080.069
 30
796.000
 70
    32
  0
VERTEX
  8
M45LXLIFT
 62
27
 10
5325.749
 20
-7091.748
 30
796.000
 70
    32
  0
VERTEX
  8
M45LXLIFT
 62
27
 10
5326.521
 20
-7097.199
 30
796.000
 70
    32
  0
VERTEX
  8
M45LXLIFT
 62
27
 10
5330.785
 20
-7109.692
 30
796.000
 70
    32
  0
VERTEX
  8
M45LXLIFT
 62
27
 10
5331.700
 20
-7119.748
 30
796.000
 70
    32
  0
VERTEX
  8
M45LXLIFT
 62
27
 10
5337.353
 20
-7131.753
 30
796.000
 70
    32
  0
VERTEX
  8
M45LXLIFT
 62
27
 10
5346.283
 20
-7141.537
 30
796.000
 70
    32
  0
VERTEX
  8
M45LXLIFT
 62
27
 10
5353.522
 20
-7147.432
 30
796.000
 70
    32
  0
VERTEX
  8
M45LXLIFT
 62
27
 10
5365.466
 20
-7139.195
 30
796.000
 70
    32
  0
VERTEX
  8
M45LXLIFT
 62
27
 10
5370.774
 20
-7133.817
 30
796.000
 70
    32
  0
VERTEX
  8
M45LXLIFT
 62
27
 10
5376.672
 20
-7130.849
 30
796.000
 70
    32
  0
VERTEX
  8
M45LXLIFT
 62
27
 10
5381.187
 20
-7126.172
 30
796.000
 70
    32
  0
VERTEX
  8
M45LXLIFT
 62
27
 10
5383.037
 20
-7119.535
 30
796.000
 70
    32
  0
VERTEX
  8
M45LXLIFT
 62
27
 10
5383.014
 20
-7110.677
 30
796.000
 70
    32
  0
VERTEX
  8
M45LXLIFT
 62
27
 10
5386.661
 20
-7097.772
 30
796.000
 70
    32
  0
VERTEX
  8
M45LXLIFT
 62
27
 10
5387.273
 20
-7088.442
 30
796.000
 70
    32
  0
VERTEX
  8
M45LXLIFT
 62
27
 10
5383.144
 20
-7082.751
 30
796.000
 70
    32
  0
VERTEX
  8
M45LXLIFT
 62
27
 10
5381.817
 20
-7075.084
 30
796.000
 70
    32
  0
VERTEX
  8
M45LXLIFT
 62
27
 10
5389.147
 20
-7064.476
 30
796.000
 70
    32
  0
VERTEX
  8
M45LXLIFT
 62
27
 10
5392.476
 20
-7057.176
 30
796.000
 70
    32
  0
VERTEX
  8
M45LXLIFT
 62
27
 10
5388.863
 20
-7049.677
 30
796.000
 70
    32
  0
VERTEX
  8
M45LXLIFT
 62
27
 10
5386.546
 20
-7038.473
 30
796.000
 70
    32
  0
VERTEX
  8
M45LXLIFT
 62
27
 10
5383.720
 20
-7026.882
 30
796.000
 70
    32
  0
VERTEX
  8
M45LXLIFT
 62
27
 10
5377.439
 20
-7018.741
 30
796.000
 70
    32
  0
VERTEX
  8
M45LXLIFT
 62
27
 10
5363.980
 20
-7017.588
 30
796.000
 70
    32
  0
VERTEX
  8
M45LXLIFT
 62
27
 10
5353.882
 20
-7010.208
 30
796.000
 70
    32
  0
VERTEX
  8
M45LXLIFT
 62
27
 10
5345.271
 20
-7004.677
 30
796.000
 70
    32
  0
VERTEX
  8
M45LXLIFT
 62
27
 10
5331.409
 20
-7003.277
 30
796.000
 70
    32
  0
VERTEX
  8
M45LXLIFT
 62
27
 10
5320.764
 20
-7001.782
 30
796.000
 70
    32
  0
VERTEX
  8
M45LXLIFT
 62
27
 10
5316.550
 20
-7000.538
 30
796.000
 70
    32
  0
SEQEND
  8
M45LXLIFT
  0
POLYLINE
  8
M45LXLIFT
 62
7
 66
     1
 70
     9
  0
VERTEX
  8
M45LXLIFT
 62
7
 10
5245.346
 20
-7028.803
 30
801.000
 70
    32
  0
VERTEX
  8
M45LXLIFT
 62
7
 10
5246.291
 20
-7045.520
 30
801.000
 70
    32
  0
VERTEX
  8
M45LXLIFT
 62
7
 10
5245.210
 20
-7063.636
 30
801.000
 70
    32
  0
VERTEX
  8
M45LXLIFT
 62
7
 10
5245.253
 20
-7077.081
 30
801.000
 70
    32
  0
VERTEX
  8
M45LXLIFT
 62
7
 10
5249.233
 20
-7095.373
 30
801.000
 70
    32
  0
VERTEX
  8
M45LXLIFT
 62
7
 10
5255.810
 20
-7109.648
 30
801.000
 70
    32
  0
VERTEX
  8
M45LXLIFT
 62
7
 10
5262.143
 20
-7118.299
 30
801.000
 70
    32
  0
VERTEX
  8
M45LXLIFT
 62
7
 10
5267.504
 20
-7118.141
 30
801.000
 70
    32
  0
VERTEX
  8
M45LXLIFT
 62
7
 10
5272.119
 20
-7114.923
 30
801.000
 70
    32
  0
VERTEX
  8
M45LXLIFT
 62
7
 10
5276.585
 20
-7119.596
 30
801.000
 70
    32
  0
VERTEX
  8
M45LXLIFT
 62
7
 10
5268.506
 20
-7128.461
 30
801.000
 70
    32
  0
VERTEX
  8
M45LXLIFT
 62
7
 10
5263.730
 20
-7137.496
 30
801.000
 70
    32
  0
VERTEX
  8
M45LXLIFT
 62
7
 10
5253.570
 20
-7137.831
 30
801.000
 70
    32
  0
VERTEX
  8
M45LXLIFT
 62
7
 10
5250.492
 20
-7128.400
 30
801.000
 70
    32
  0
VERTEX
  8
M45LXLIFT
 62
7
 10
5239.380
 20
-7114.215
 30
801.000
 70
    32
  0
VERTEX
  8
M45LXLIFT
 62
7
 10
5233.278
 20
-7104.844
 30
801.000
 70
    32
  0
VERTEX
  8
M45LXLIFT
 62
7
 10
5233.643
 20
-7090.328
 30
801.000
 70
    32
  0
VERTEX
  8
M45LXLIFT
 62
7
 10
5231.221
 20
-7073.835
 30
801.000
 70
    32
  0
VERTEX
  8
M45LXLIFT
 62
7
 10
5226.356
 20
-7052.148
 30
801.000
 70
    32
  0
VERTEX
  8
M45LXLIFT
 62
7
 10
5227.330
 20
-7034.331
 30
801.000
 70
    32
  0
SEQEND
  8
M45LXLIFT
  0
POLYLINE
  8
M45LXLIFT
 62
13
 66
     1
 70
     9
  0
VERTEX
  8
M45LXLIFT
 62
13
 10
5237.277
 20
-7226.441
 30
797.000
 70
    32
  0
VERTEX
  8
M45LXLIFT
 62
13
 10
5244.772
 20
-7239.595
 30
797.000
 70
    32
  0
VERTEX
  8
M45LXLIFT
 62
13
 10
5248.750
 20
-7248.027
 30
797.000
 70
    32
  0
VERTEX
  8
M45LXLIFT
 62
13
 10
5245.111
 20
-7258.736
 30
797.000
 70
    32
  0
VERTEX
  8
M45LXLIFT
 62
13
 10
5244.045
 20
-7267.309
 30
797.000
 70
    32
  0
VERTEX
  8
M45LXLIFT
 62
13
 10
5253.285
 20
-7268.535
 30
797.000
 70
    32
  0
VERTEX
  8
M45LXLIFT
 62
13
 10
5257.616
 20
-7271.555
 30
797.000
 70
    32
  0
VERTEX
  8
M45LXLIFT
 62
13
 10
5259.383
 20
-7279.224
 30
797.000
 70
    32
  0
VERTEX
  8
M45LXLIFT
 62
13
 10
5264.010
 20
-7287.939
 30
797.000
 70
    32
  0
VERTEX
  8
M45LXLIFT
 62
13
 10
5271.676
 20
-7297.350
 30
797.000
 70
    32
  0
VERTEX
  8
M45LXLIFT
 62
13
 10
5276.823
 20
-7303.378
 30
797.000
 70
    32
  0
VERTEX
  8
M45LXLIFT
 62
13
 10
5280.671
 20
-7303.690
 30
797.000
 70
    32
  0
VERTEX
  8
M45LXLIFT
 62
13
 10
5286.240
 20
-7293.955
 30
797.000
 70
    32
  0
VERTEX
  8
M45LXLIFT
 62
13
 10
5291.562
 20
-7284.623
 30
797.000
 70
    32
  0
VERTEX
  8
M45LXLIFT
 62
13
 10
5296.934
 20
-7275.801
 30
797.000
 70
    32
  0
VERTEX
  8
M45LXLIFT
 62
13
 10
5302.773
 20
-7264.221
 30
797.000
 70
    32
  0
VERTEX
  8
M45LXLIFT
 62
13
 10
5302.905
 20
-7256.454
 30
797.000
 70
    32
  0
VERTEX
  8
M45LXLIFT
 62
13
 10
5297.837
 20
-7248.176
 30
797.000
 70
    32
  0
VERTEX
  8
M45LXLIFT
 62
13
 10
5295.104
 20
-7235.091
 30
797.000
 70
    32
  0
VERTEX
  8
M45LXLIFT
 62
13
 10
5290.010
 20
-7229.134
 30
797.000
 70
    32
  0
VERTEX
  8
M45LXLIFT
 62
13
 10
5281.086
 20
-7238.190
 30
797.000
 70
    32
  0
VERTEX
  8
M45LXLIFT
 62
13
 10
5276.138
 20
-7241.108
 30
797.000
 70
    32
  0
VERTEX
  8
M45LXLIFT
 62
13
 10
5264.377
 20
-7231.788
 30
797.000
 70
    32
  0
VERTEX
  8
M45LXLIFT
 62
13
 10
5248.010
 20
-7217.462
 30
797.000
 70
    32
  0
SEQEND
  8
M45LXLIFT
  0
POLYLINE
  8
M45LXLIFT
 62
27
 66
     1
 70
     9
  0
VERTEX
  8
M45LXLIFT
 62
27
 10
4645.644
 20
-6471.574
 30
794.000
 70
    32
  0
VERTEX
  8
M45LXLIFT
 62
27
 10
4650.057
 20
-6476.176
 30
794.000
 70
    32
  0
VERTEX
  8
M45LXLIFT
 62
27
 10
4658.749
 20
-6478.579
 30
794.000
 70
    32
  0
VERTEX
  8
M45LXLIFT
 62
27
 10
4661.793
 20
-6477.517
 30
794.000
 70
    32
  0
VERTEX
  8
M45LXLIFT
 62
27
 10
4666.186
 20
-6472.382
 30
794.000
 70
    32
  0
VERTEX
  8
M45LXLIFT
 62
27
 10
4674.653
 20
-6468.597
 30
794.000
 70
    32
  0
VERTEX
  8
M45LXLIFT
 62
27
 10
4680.562
 20
-6467.264
 30
794.000
 70
    32
  0
VERTEX
  8
M45LXLIFT
 62
27
 10
4683.209
 20
-6464.197
 30
794.000
 70
    32
  0
VERTEX
  8
M45LXLIFT
 62
27
 10
4691.580
 20
-6462.784
 30
794.000
 70
    32
  0
VERTEX
  8
M45LXLIFT
 62
27
 10
4698.867
 20
-6459.329
 30
794.000
 70
    32
  0
VERTEX
  8
M45LXLIFT
 62
27
 10
4706.621
 20
-6453.117
 30
794.000
 70
    32
  0
VERTEX
  8
M45LXLIFT
 62
27
 10
4713.399
 20
-6449.712
 30
794.000
 70
    32
  0
VERTEX
  8
M45LXLIFT
 62
27
 10
4720.993
 20
-6444.167
 30
794.000
 70
    32
  0
VERTEX
  8
M45LXLIFT
 62
27
 10
4728.417
 20
-6431.626
 30
794.000
 70
    32
  0
VERTEX
  8
M45LXLIFT
 62
27
 10
4733.217
 20
-6420.711
 30
794.000
 70
    32
  0
VERTEX
  8
M45LXLIFT
 62
27
 10
4730.967
 20
-6415.483
 30
794.000
 70
    32
  0
VERTEX
  8
M45LXLIFT
 62
27
 10
4722.880
 20
-6411.097
 30
794.000
 70
    32
  0
VERTEX
  8
M45LXLIFT
 62
27
 10
4717.086
 20
-6409.496
 30
794.000
 70
    32
  0
VERTEX
  8
M45LXLIFT
 62
27
 10
4711.894
 20
-6411.499
 30
794.000
 70
    32
  0
VERTEX
  8
M45LXLIFT
 62
27
 10
4707.267
 20
-6418.232
 30
794.000
 70
    32
  0
VERTEX
  8
M45LXLIFT
 62
27
 10
4701.731
 20
-6423.451
 30
794.000
 70
    32
  0
VERTEX
  8
M45LXLIFT
 62
27
 10
4687.803
 20
-6431.084
 30
794.000
 70
    32
  0
VERTEX
  8
M45LXLIFT
 62
27
 10
4678.246
 20
-6435.023
 30
794.000
 70
    32
  0
VERTEX
  8
M45LXLIFT
 62
27
 10
4672.764
 20
-6439.873
 30
794.000
 70
    32
  0
VERTEX
  8
M45LXLIFT
 62
27
 10
4671.587
 20
-6444.913
 30
794.000
 70
    32
  0
VERTEX
  8
M45LXLIFT
 62
27
 10
4664.773
 20
-6448.563
 30
794.000
 70
    32
  0
VERTEX
  8
M45LXLIFT
 62
27
 10
4653.551
 20
-6451.443
 30
794.000
 70
    32
  0
VERTEX
  8
M45LXLIFT
 62
27
 10
4649.703
 20
-6456.280
 30
794.000
 70
    32
  0
VERTEX
  8
M45LXLIFT
 62
27
 10
4648.679
 20
-6462.850
 30
794.000
 70
    32
  0
VERTEX
  8
M45LXLIFT
 62
27
 10
4649.123
 20
-6466.683
 30
794.000
 70
    32
  0
SEQEND
  8
M45LXLIFT
  0
POLYLINE
  8
M45LXLIFT
 62
3
 66
     1
 70
     9
  0
VERTEX
  8
M45LXLIFT
 62
3
 10
4662.476
 20
-6441.947
 30
802.000
 70
    32
  0
VERTEX
  8
M45LXLIFT
 62
3
 10
4672.263
 20
-6437.288
 30
802.000
 70
    32
  0
VERTEX
  8
M45LXLIFT
 62
3
 10
4690.460
 20
-6424.942
 30
802.000
 70
    32
  0
VERTEX
  8
M45LXLIFT
 62
3
 10
4706.474
 20
-6413.783
 30
802.000
 70
    32
  0
VERTEX
  8
M45LXLIFT
 62
3
 10
4714.992
 20
-6410.069
 30
802.000
 70
    32
  0
VERTEX
  8
M45LXLIFT
 62
3
 10
4717.632
 20
-6404.049
 30
802.000
 70
    32
  0
VERTEX
  8
M45LXLIFT
 62
3
 10
4712.543
 20
-6391.185
 30
802.000
 70
    32
  0
VERTEX
  8
M45LXLIFT
 62
3
 10
4705.524
 20
-6377.786
 30
802.000
 70
    32
  0
VERTEX
  8
M45LXLIFT
 62
3
 10
4704.420
 20
-6371.596
 30
802.000
 70
    32
  0
VERTEX
  8
M45LXLIFT
 62
3
 10
4699.240
 20
-6364.935
 30
802.000
 70
    32
  0
VERTEX
  8
M45LXLIFT
 62
3
 10
4689.687
 20
-6367.996
 30
802.000
 70
    32
  0
VERTEX
  8
M45LXLIFT
 62
3
 10
4679.790
 20
-6368.683
 30
802.000
 70
    32
  0
VERTEX
  8
M45LXLIFT
 62
3
 10
4667.096
 20
-6375.178
 30
802.000
 70
    32
  0
VERTEX
  8
M45LXLIFT
 62
3
 10
4657.287
 20
-6380.839
 30
802.000
 70
    32
  0
VERTEX
  8
M45LXLIFT
 62
3
 10
4653.170
 20
-6392.671
 30
802.000
 70
    32
  0
VERTEX
  8
M45LXLIFT
 62
3
 10
4650.781
 20
-6402.557
 30
802.000
 70
    32
  0
VERTEX
  8
M45LXLIFT
 62
3
 10
4651.615
 20
-6420.891
 30
802.000
 70
    32
  0
VERTEX
  8
M45LXLIFT
 62
3
 10
4647.640
 20
-6437.327
 30
802.000
 70
    32
  0
SEQEND
  8
M45LXLIFT
  0
POLYLINE
  8
M45LXLIFT
 62
13
 66
     1
 70
     9
  0
VERTEX
  8
M45LXLIFT
 62
13
 10
5377.536
 20
-6882.008
 30
809.000
 70
    32
  0
VERTEX
  8
M45LXLIFT
 62
13
 10
5370.488
 20
-6887.250
 30
809.000
 70
    32
  0
VERTEX
  8
M45LXLIFT
 62
13
 10
5363.423
 20
-6898.570
 30
809.000
 70
    32
  0
VERTEX
  8
M45LXLIFT
 62
13
 10
5352.386
 20
-6909.598
 30
809.000
 70
    32
  0
VERTEX
  8
M45LXLIFT
 62
13
 10
5347.793
 20
-6914.298
 30
809.000
 70
    32
  0
VERTEX
  8
M45LXLIFT
 62
13
 10
5350.935
 20
-6919.743
 30
809.000
 70
    32
  0
VERTEX
  8
M45LXLIFT
 62
13
 10
5355.461
 20
-6927.446
 30
809.000
 70
    32
  0
VERTEX
  8
M45LXLIFT
 62
13
 10
5352.163
 20
-6940.097
 30
809.000
 70
    32
  0
VERTEX
  8
M45LXLIFT
 62
13
 10
5349.509
 20
-6951.707
 30
809.000
 70
    32
  0
VERTEX
  8
M45LXLIFT
 62
13
 10
5359.610
 20
-6960.360
 30
809.000
 70
    32
  0
VERTEX
  8
M45LXLIFT
 62
13
 10
5365.267
 20
-6951.543
 30
809.000
 70
    32
  0
VERTEX
  8
M45LXLIFT
 62
13
 10
5372.522
 20
-6945.702
 30
809.000
 70
    32
  0
VERTEX
  8
M45LXLIFT
 62
13
 10
5366.222
 20
-6934.936
 30
809.000
 70
    32
  0
VERTEX
  8
M45LXLIFT
 62
13
 10
5372.059
 20
-6929.842
 30
809.000
 70
    32
  0
VERTEX
  8
M45LXLIFT
 62
13
 10
5385.017
 20
-6928.605
 30
809.000
 70
    32
  0
VERTEX
  8
M45LXLIFT
 62
13
 10
5397.964
 20
-6925.612
 30
809.000
 70
    32
  0
VERTEX
  8
M45LXLIFT
 62
13
 10
5402.963
 20
-6918.397
 30
809.000
 70
    32
  0
VERTEX
  8
M45LXLIFT
 62
13
 10
5401.929
 20
-6901.204
 30
809.000
 70
    32
  0
VERTEX
  8
M45LXLIFT
 62
13
 10
5389.593
 20
-6888.734
 30
809.000
 70
    32
  0
SEQEND
  8
M45LXLIFT
  0
POLYLINE
  8
M45LXLIFT
 62
27
 66
     1
 70
     9
  0
VERTEX
  8
M45LXLIFT
 62
27
 10
5382.328
 20
-7090.787
 30
806.000
 70
    32
  0
VERTEX
  8
M45LXLIFT
 62
27
 10
5388.303
 20
-7070.479
 30
806.000
 70
    32
  0
VERTEX
  8
M45LXLIFT
 62
27
 10
5389.618
 20
-7064.076
 30
806.000
 70
    32
  0
VERTEX
  8
M45LXLIFT
 62
27
 10
5381.987
 20
-7051.122
 30
806.000
 70
    32
  0
VERTEX
  8
M45LXLIFT
 62
27
 10
5380.293
 20
-7047.004
 30
806.000
 70
    32
  0
VERTEX
  8
M45LXLIFT
 62
27
 10
5381.801
 20
-7040.565
 30
806.000
 70
    32
  0
VERTEX
  8
M45LXLIFT
 62
27
 10
5379.487
 20
-7029.529
 30
806.000
 70
    32
  0
VERTEX
  8
M45LXLIFT
 62
27
 10
5379.287
 20
-7010.820
 30
806.000
 70
    32
  0
VERTEX
  8
M45LXLIFT
 62
27
 10
5373.044
 20
-7003.760
 30
806.000
 70
    32
  0
VERTEX
  8
M45LXLIFT
 62
27
 10
5356.750
 20
-7002.346
 30
806.000
 70
    32
  0
VERTEX
  8
M45LXLIFT
 62
27
 10
5338.559
 20
-7003.807
 30
806.000
 70
    32
  0
VERTEX
  8
M45LXLIFT
 62
27
 10
5338.207
 20
-7015.545
 30
806.000
 70
    32
  0
VERTEX
  8
M45LXLIFT
 62
27
 10
5330.664
 20
-7026.236
 30
806.000
 70
    32
  0
VERTEX
  8
M45LXLIFT
 62
27
 10
5323.438
 20
-7034.149
 30
806.000
 70
    32
  0
VERTEX
  8
M45LXLIFT
 62
27
 10
5321.677
 20
-7045.192
 30
806.000
 70
    32
  0
VERTEX
  8
M45LXLIFT
 62
27
 10
5314.290
 20
-7070.322
 30
806.000
 70
    32
  0
VERTEX
  8
M45LXLIFT
 62
27
 10
5303.198
 20
-7092.752
 30
806.000
 70
    32
  0
VERTEX
  8
M45LXLIFT
 62
27
 10
5299.706
 20
-7102.242
 30
806.000
 70
    32
  0
VERTEX
  8
M45LXLIFT
 62
27
 10
5298.089
 20
-7122.770
 30
806.000
 70
    32
  0
VERTEX
  8
M45LXLIFT
 62
27
 10
5320.531
 20
-7130.103
 30
806.000
 70
    32
  0
VERTEX
  8
M45LXLIFT
 62
27
 10
5336.135
 20
-7136.563
 30
806.000
 70
    32
  0
VERTEX
  8
M45LXLIFT
 62
27
 10
5340.309
 20
-7120.709
 30
806.000
 70
    32
  0
VERTEX
  8
M45LXLIFT
 62
27
 10
5348.123
 20
-7105.291
 30
806.000
 70
    32
  0
VERTEX
  8
M45LXLIFT
 62
27
 10
5360.033
 20
-7099.335
 30
806.000
 70
    32
  0
SEQEND
  8
M45LXLIFT
  0
POLYLINE
  8
M45LXLIFT
 62
3
 66
     1
 70
     9
  0
VERTEX
  8
M45LXLIFT
 62
3
 10
5307.882
 20
-6994.345
 30
806.000
 70
    32
  0
VERTEX
  8
M45LXLIFT
 62
3
 10
5288.731
 20
-7011.535
 30
806.000
 70
    32
  0
VERTEX
  8
M45LXLIFT
 62
3
 10
5268.212
 20
-7026.344
 30
806.000
 70
    32
  0
VERTEX
  8
M45LXLIFT
 62
3
 10
5250.227
 20
-7035.920
 30
806.000
 70
    32
  0
VERTEX
  8
M45LXLIFT
 62
3
 10
5249.914
 20
-7036.379
 30
806.000
 70
    32
  0
VERTEX
  8
M45LXLIFT
 62
3
 10
5236.430
 20
-7043.749
 30
806.000
 70
    32
  0
VERTEX
  8
M45LXLIFT
 62
3
 10
5223.526
 20
-7045.056
 30
806.000
 70
    32
  0
VERTEX
  8
M45LXLIFT
 62
3
 10
5216.178
 20
-7038.284
 30
806.000
 70
    32
  0
VERTEX
  8
M45LXLIFT
 62
3
 10
5208.430
 20
-7029.388
 30
806.000
 70
    32
  0
VERTEX
  8
M45LXLIFT
 62
3
 10
5205.868
 20
-7021.076
 30
806.000
 70
    32
  0
VERTEX
  8
M45LXLIFT
 62
3
 10
5207.372
 20
-7011.001
 30
806.000
 70
    32
  0
VERTEX
  8
M45LXLIFT
 62
3
 10
5213.523
 20
-7005.448
 30
806.000
 70
    32
  0
VERTEX
  8
M45LXLIFT
 62
3
 10
5223.847
 20
-6992.755
 30
806.000
 70
    32
  0
VERTEX
  8
M45LXLIFT
 62
3
 10
5230.329
 20
-6998.532
 30
806.000
 70
    32
  0
VERTEX
  8
M45LXLIFT
 62
3
 10
5233.228
 20
-7001.624
 30
806.000
 70
    32
  0
VERTEX
  8
M45LXLIFT
 62
3
 10
5246.571
 20
-7003.073
 30
806.000
 70
    32
  0
VERTEX
  8
M45LXLIFT
 62
3
 10
5256.376
 20
-7000.590
 30
806.000
 70
    32
  0
VERTEX
  8
M45LXLIFT
 62
3
 10
5257.323
 20
-6991.379
 30
806.000
 70
    32
  0
VERTEX
  8
M45LXLIFT
 62
3
 10
5261.833
 20
-6981.778
 30
806.000
 70
    32
  0
VERTEX
  8
M45LXLIFT
 62
3
 10
5267.649
 20
-6973.170
 30
806.000
 70
    32
  0
VERTEX
  8
M45LXLIFT
 62
3
 10
5275.641
 20
-6972.947
 30
806.000
 70
    32
  0
VERTEX
  8
M45LXLIFT
 62
3
 10
5292.204
 20
-6972.392
 30
806.000
 70
    32
  0
VERTEX
  8
M45LXLIFT
 62
3
 10
5310.841
 20
-6975.004
 30
806.000
 70
    32
  0
VERTEX
  8
M45LXLIFT
 62
3
 10
5320.523
 20
-6981.217
 30
806.000
 70
    32
  0
SEQEND
  8
M45LXLIFT
  0
POLYLINE
  8
M45LXLIFT
 62
13
 66
     1
 70
     9
  0
VERTEX
  8
M45LXLIFT
 62
13
 10
5282.126
 20
-7283.011
 30
806.000
 70
    32
  0
VERTEX
  8
M45LXLIFT
 62
13
 10
5286.819
 20
-7271.617
 30
806.000
 70
    32
  0
VERTEX
  8
M45LXLIFT
 62
13
 10
5289.420
 20
-7265.892
 30
806.000
 70
    32
  0
VERTEX
  8
M45LXLIFT
 62
13
 10
5286.395
 20
-7253.631
 30
806.000
 70
    32
  0
VERTEX
  8
M45LXLIFT
 62
13
 10
5288.025
 20
-7244.011
 30
806.000
 70
    32
  0
VERTEX
  8
M45LXLIFT
 62
13
 10
5288.319
 20
-7234.523
 30
806.000
 70
    32
  0
VERTEX
  8
M45LXLIFT
 62
13
 10
5286.329
 20
-7230.740
 30
806.000
 70
    32
  0
VERTEX
  8
M45LXLIFT
 62
13
 10
5276.278
 20
-7233.189
 30
806.000
 70
    32
  0
VERTEX
  8
M45LXLIFT
 62
13
 10
5268.060
 20
-7236.892
 30
806.000
 70
    32
  0
VERTEX
  8
M45LXLIFT
 62
13
 10
5261.654
 20
-7237.897
 30
806.000
 70
    32
  0
VERTEX
  8
M45LXLIFT
 62
13
 10
5253.907
 20
-7234.956
 30
806.000
 70
    32
  0
VERTEX
  8
M45LXLIFT
 62
13
 10
5248.295
 20
-7230.616
 30
806.000
 70
    32
  0
VERTEX
  8
M45LXLIFT
 62
13
 10
5241.227
 20
-7235.541
 30
806.000
 70
    32
  0
VERTEX
  8
M45LXLIFT
 62
13
 10
5237.986
 20
-7245.943
 30
806.000
 70
    32
  0
VERTEX
  8
M45LXLIFT
 62
13
 10
5239.848
 20
-7254.786
 30
806.000
 70
    32
  0
VERTEX
  8
M45LXLIFT
 62
13
 10
5236.700
 20
-7263.132
 30
806.000
 70
    32
  0
VERTEX
  8
M45LXLIFT
 62
13
 10
5244.773
 20
-7270.568
 30
806.000
 70
    32
  0
VERTEX
  8
M45LXLIFT
 62
13
 10
5258.357
 20
-7277.127
 30
806.000
 70
    32
  0
VERTEX
  8
M45LXLIFT
 62
13
 10
5268.826
 20
-7279.876
 30
806.000
 70
    32
  0
SEQEND
  8
M45LXLIFT
  0
POLYLINE
  8
M45LXLIFT
 62
27
 66
     1
 70
     9
  0
VERTEX
  8
M45LXLIFT
 62
27
 10
4721.098
 20
-6417.530
 30
807.000
 70
    32
  0
VERTEX
  8
M45LXLIFT
 62
27
 10
4711.094
 20
-6419.170
 30
807.000
 70
    32
  0
VERTEX
  8
M45LXLIFT
 62
27
 10
4697.388
 20
-6424.505
 30
807.000
 70
    32
  0
VERTEX
  8
M45LXLIFT
 62
27
 10
4684.791
 20
-6433.188
 30
807.000
 70
    32
  0
VERTEX
  8
M45LXLIFT
 62
27
 10
4675.016
 20
-6443.699
 30
807.000
 70
    32
  0
VERTEX
  8
M45LXLIFT
 62
27
 10
4664.633
 20
-6449.488
 30
807.000
 70
    32
  0
VERTEX
  8
M45LXLIFT
 62
27
 10
4655.637
 20
-6455.216
 30
807.000
 70
    32
  0
VERTEX
  8
M45LXLIFT
 62
27
 10
4649.807
 20
-6449.717
 30
807.000
 70
    32
  0
VERTEX
  8
M45LXLIFT
 62
27
 10
4640.819
 20
-6450.807
 30
807.000
 70
    32
  0
VERTEX
  8
M45LXLIFT
 62
27
 10
4636.364
 20
-6454.961
 30
807.000
 70
    32
  0
VERTEX
  8
M45LXLIFT
 62
27
 10
4634.702
 20
-6462.069
 30
807.000
 70
    32
  0
VERTEX
  8
M45LXLIFT
 62
27
 10
4640.828
 20
-6475.946
 30
807.000
 70
    32
  0
VERTEX
  8
M45LXLIFT
 62
27
 10
4644.729
 20
-6485.005
 30
807.000
 70
    32
  0
VERTEX
  8
M45LXLIFT
 62
27
 10
4648.553
 20
-6492.800
 30
807.000
 70
    32
  0
VERTEX
  8
M45LXLIFT
 62
27
 10
4657.438
 20
-6489.251
 30
807.000
 70
    32
  0
VERTEX
  8
M45LXLIFT
 62
27
 10
4657.990
 20
-6481.553
 30
807.000
 70
    32
  0
VERTEX
  8
M45LXLIFT
 62
27
 10
4668.450
 20
-6471.073
 30
807.000
 70
    32
  0
VERTEX
  8
M45LXLIFT
 62
27
 10
4681.076
 20
-6467.221
 30
807.000
 70
    32
  0
VERTEX
  8
M45LXLIFT
 62
27
 10
4689.513
 20
-6459.160
 30
807.000
 70
    32
  0
VERTEX
  8
M45LXLIFT
 62
27
 10
4694.424
 20
-6460.835
 30
807.000
 70
    32
  0
VERTEX
  8
M45LXLIFT
 62
27
 10
4708.475
 20
-6454.356
 30
807.000
 70
    32
  0
VERTEX
  8
M45LXLIFT
 62
27
 10
4721.168
 20
-6444.056
 30
807.000
 70
    32
  0
VERTEX
  8
M45LXLIFT
 62
27
 10
4725.562
 20
-6438.514
 30
807.000
 70
    32
  0
VERTEX
  8
M45LXLIFT
 62
27
 10
4726.218
 20
-6427.759
 30
807.000
 70
    32
  0
SEQEND
  8
M45LXLIFT
  0
POLYLINE
  8
M45LXLIFT
 62
3
 66
     1
 70
     9
  0
VERTEX
  8
M45LXLIFT
 62
3
 10
4712.035
 20
-6409.081
 30
811.000
 70
    32
  0
VERTEX
  8
M45LXLIFT
 62
3
 10
4716.571
 20
-6397.916
 30
811.000
 70
    32
  0
VERTEX
  8
M45LXLIFT
 62
3
 10
4715.385
 20
-6384.589
 30
811.000
 70
    32
  0
VERTEX
  8
M45LXLIFT
 62
3
 10
4713.395
 20
-6374.851
 30
811.000
 70
    32
  0
VERTEX
  8
M45LXLIFT
 62
3
 10
4707.138
 20
-6365.595
 30
811.000
 70
    32
  0
VERTEX
  8
M45LXLIFT
 62
3
 10
4695.676
 20
-6349.484
 30
811.000
 70
    32
  0
VERTEX
  8
M45LXLIFT
 62
3
 10
4685.123
 20
-6332.682
 30
811.000
 70
    32
  0
VERTEX
  8
M45LXLIFT
 62
3
 10
4675.682
 20
-6328.381
 30
811.000
 70
    32
  0
VERTEX
  8
M45LXLIFT
 62
3
 10
4661.836
 20
-6325.108
 30
811.000
 70
    32
  0
VERTEX
  8
M45LXLIFT
 62
3
 10
4652.104
 20
-6319.264
 30
811.000
 70
    32
  0
VERTEX
  8
M45LXLIFT
 62
3
 10
4645.552
 20
-6322.254
 30
811.000
 70
    32
  0
VERTEX
  8
M45LXLIFT
 62
3
 10
4643.561
 20
-6353.764
 30
811.000
 70
    32
  0
VERTEX
  8
M45LXLIFT
 62
3
 10
4645.997
 20
-6367.576
 30
811.000
 70
    32
  0
VERTEX
  8
M45LXLIFT
 62
3
 10
4648.314
 20
-6379.051
 30
811.000
 70
    32
  0
VERTEX
  8
M45LXLIFT
 62
3
 10
4650.368
 20
-6390.616
 30
811.000
 70
    32
  0
VERTEX
  8
M45LXLIFT
 62
3
 10
4650.351
 20
-6399.452
 30
811.000
 70
    32
  0
VERTEX
  8
M45LXLIFT
 62
3
 10
4638.317
 20
-6411.347
 30
811.000
 70
    32
  0
VERTEX
  8
M45LXLIFT
 62
3
 10
4635.814
 20
-6418.653
 30
811.000
 70
    32
  0
VERTEX
  8
M45LXLIFT
 62
3
 10
4639.906
 20
-6433.192
 30
811.000
 70
    32
  0
VERTEX
  8
M45LXLIFT
 62
3
 10
4648.657
 20
-6442.538
 30
811.000
 70
    32
  0
VERTEX
  8
M45LXLIFT
 62
3
 10
4653.347
 20
-6445.374
 30
811.000
 70
    32
  0
VERTEX
  8
M45LXLIFT
 62
3
 10
4673.348
 20
-6432.061
 30
811.000
 70
    32
  0
VERTEX
  8
M45LXLIFT
 62
3
 10
4696.929
 20
-6418.236
 30
811.000
 70
    32
  0
SEQEND
  8
M45LXLIFT
  0
POLYLINE
  8
M45LXLIFT
 62
27
 66
     1
 70
     9
  0
VERTEX
  8
M45LXLIFT
 62
27
 10
5336.459
 20
-7133.248
 30
814.000
 70
    32
  0
VERTEX
  8
M45LXLIFT
 62
27
 10
5341.882
 20
-7119.118
 30
814.000
 70
    32
  0
VERTEX
  8
M45LXLIFT
 62
27
 10
5345.734
 20
-7107.450
 30
814.000
 70
    32
  0
VERTEX
  8
M45LXLIFT
 62
27
 10
5353.853
 20
-7096.245
 30
814.000
 70
    32
  0
VERTEX
  8
M45LXLIFT
 62
27
 10
5377.030
 20
-7077.782
 30
814.000
 70
    32
  0
VERTEX
  8
M45LXLIFT
 62
27
 10
5384.266
 20
-7070.716
 30
814.000
 70
    32
  0
VERTEX
  8
M45LXLIFT
 62
27
 10
5385.621
 20
-7063.067
 30
814.000
 70
    32
  0
VERTEX
  8
M45LXLIFT
 62
27
 10
5382.410
 20
-7053.213
 30
814.000
 70
    32
  0
VERTEX
  8
M45LXLIFT
 62
27
 10
5378.079
 20
-7042.874
 30
814.000
 70
    32
  0
VERTEX
  8
M45LXLIFT
 62
27
 10
5372.569
 20
-7034.493
 30
814.000
 70
    32
  0
VERTEX
  8
M45LXLIFT
 62
27
 10
5368.952
 20
-7028.537
 30
814.000
 70
    32
  0
VERTEX
  8
M45LXLIFT
 62
27
 10
5367.859
 20
-7019.635
 30
814.000
 70
    32
  0
VERTEX
  8
M45LXLIFT
 62
27
 10
5370.818
 20
-7007.642
 30
814.000
 70
    32
  0
VERTEX
  8
M45LXLIFT
 62
27
 10
5355.507
 20
-6998.835
 30
814.000
 70
    32
  0
VERTEX
  8
M45LXLIFT
 62
27
 10
5344.008
 20
-6990.169
 30
814.000
 70
    32
  0
VERTEX
  8
M45LXLIFT
 62
27
 10
5337.646
 20
-6997.683
 30
814.000
 70
    32
  0
VERTEX
  8
M45LXLIFT
 62
27
 10
5330.433
 20
-7007.895
 30
814.000
 70
    32
  0
VERTEX
  8
M45LXLIFT
 62
27
 10
5327.192
 20
-7021.730
 30
814.000
 70
    32
  0
VERTEX
  8
M45LXLIFT
 62
27
 10
5324.953
 20
-7035.592
 30
814.000
 70
    32
  0
VERTEX
  8
M45LXLIFT
 62
27
 10
5320.237
 20
-7054.983
 30
814.000
 70
    32
  0
VERTEX
  8
M45LXLIFT
 62
27
 10
5318.304
 20
-7064.367
 30
814.000
 70
    32
  0
VERTEX
  8
M45LXLIFT
 62
27
 10
5311.863
 20
-7080.228
 30
814.000
 70
    32
  0
VERTEX
  8
M45LXLIFT
 62
27
 10
5309.089
 20
-7093.065
 30
814.000
 70
    32
  0
VERTEX
  8
M45LXLIFT
 62
27
 10
5311.957
 20
-7111.350
 30
814.000
 70
    32
  0
VERTEX
  8
M45LXLIFT
 62
27
 10
5315.498
 20
-7127.287
 30
814.000
 70
    32
  0
SEQEND
  8
M45LXLIFT
  0
POLYLINE
  8
M45LXLIFT
 62
3
 66
     1
 70
     9
  0
VERTEX
  8
M45LXLIFT
 62
3
 10
5301.203
 20
-6986.093
 30
816.000
 70
    32
  0
VERTEX
  8
M45LXLIFT
 62
3
 10
5286.884
 20
-6998.805
 30
816.000
 70
    32
  0
VERTEX
  8
M45LXLIFT
 62
3
 10
5269.586
 20
-7012.507
 30
816.000
 70
    32
  0
VERTEX
  8
M45LXLIFT
 62
3
 10
5246.605
 20
-7025.155
 30
816.000
 70
    32
  0
VERTEX
  8
M45LXLIFT
 62
3
 10
5228.894
 20
-7034.144
 30
816.000
 70
    32
  0
VERTEX
  8
M45LXLIFT
 62
3
 10
5208.994
 20
-7040.599
 30
816.000
 70
    32
  0
VERTEX
  8
M45LXLIFT
 62
3
 10
5207.783
 20
-7025.458
 30
816.000
 70
    32
  0
VERTEX
  8
M45LXLIFT
 62
3
 10
5207.900
 20
-7011.084
 30
816.000
 70
    32
  0
VERTEX
  8
M45LXLIFT
 62
3
 10
5211.423
 20
-7006.530
 30
816.000
 70
    32
  0
VERTEX
  8
M45LXLIFT
 62
3
 10
5220.544
 20
-6989.570
 30
816.000
 70
    32
  0
VERTEX
  8
M45LXLIFT
 62
3
 10
5239.812
 20
-6979.436
 30
816.000
 70
    32
  0
VERTEX
  8
M45LXLIFT
 62
3
 10
5261.447
 20
-6977.267
 30
816.000
 70
    32
  0
VERTEX
  8
M45LXLIFT
 62
3
 10
5280.422
 20
-6974.001
 30
816.000
 70
    32
  0
VERTEX
  8
M45LXLIFT
 62
3
 10
5292.778
 20
-6973.748
 30
816.000
 70
    32
  0
SEQEND
  8
M45LXLIFT
  0
POLYLINE
  8
M45LXLIFT
 62
7
 66
     1
 70
     9
  0
VERTEX
  8
M45LXLIFT
 62
7
 10
5323.601
 20
-7209.070
 30
677.122
 70
    32
  0
VERTEX
  8
M45LXLIFT
 62
7
 10
5320.331
 20
-7204.245
 30
677.129
 70
    32
  0
VERTEX
  8
M45LXLIFT
 62
7
 10
5322.620
 20
-7201.687
 30
677.134
 70
    32
  0
VERTEX
  8
M45LXLIFT
 62
7
 10
5320.304
 20
-7191.616
 30
677.152
 70
    32
  0
VERTEX
  8
M45LXLIFT
 62
7
 10
5319.035
 20
-7169.317
 30
677.191
 70
    32
  0
VERTEX
  8
M45LXLIFT
 62
7
 10
5314.206
 20
-7153.421
 30
677.217
 70
    32
  0
VERTEX
  8
M45LXLIFT
 62
7
 10
5301.863
 20
-7137.362
 30
677.241
 70
    32
  0
VERTEX
  8
M45LXLIFT
 62
7
 10
5297.959
 20
-7127.350
 30
677.253
 70
    32
  0
VERTEX
  8
M45LXLIFT
 62
7
 10
5297.802
 20
-7123.116
 30
677.256
 70
    32
  0
VERTEX
  8
M45LXLIFT
 62
7
 10
5301.293
 20
-7119.631
 30
677.262
 70
    32
  0
VERTEX
  8
M45LXLIFT
 62
7
 10
5312.449
 20
-7113.211
 30
677.279
 70
    32
  0
VERTEX
  8
M45LXLIFT
 62
7
 10
5326.019
 20
-7109.969
 30
677.296
 70
    32
  0
VERTEX
  8
M45LXLIFT
 62
7
 10
5334.137
 20
-7109.756
 30
677.302
 70
    32
  0
VERTEX
  8
M45LXLIFT
 62
7
 10
5352.209
 20
-7120.745
 30
677.289
 70
    32
  0
VERTEX
  8
M45LXLIFT
 62
7
 10
5354.741
 20
-7124.714
 30
677.283
 70
    32
  0
VERTEX
  8
M45LXLIFT
 62
7
 10
5356.238
 20
-7136.494
 30
677.263
 70
    32
  0
VERTEX
  8
M45LXLIFT
 62
7
 10
5349.754
 20
-7152.191
 30
677.232
 70
    32
  0
VERTEX
  8
M45LXLIFT
 62
7
 10
5349.534
 20
-7174.810
 30
677.192
 70
    32
  0
VERTEX
  8
M45LXLIFT
 62
7
 10
5349.756
 20
-7178.423
 30
677.186
 70
    32
  0
VERTEX
  8
M45LXLIFT
 62
7
 10
5355.810
 20
-7186.854
 30
677.173
 70
    32
  0
VERTEX
  8
M45LXLIFT
 62
7
 10
5357.502
 20
-7194.387
 30
677.160
 70
    32
  0
VERTEX
  8
M45LXLIFT
 62
7
 10
5361.103
 20
-7203.351
 30
677.145
 70
    32
  0
VERTEX
  8
M45LXLIFT
 62
7
 10
5380.098
 20
-7232.058
 30
677.101
 70
    32
  0
VERTEX
  8
M45LXLIFT
 62
7
 10
5382.300
 20
-7239.042
 30
677.090
 70
    32
  0
VERTEX
  8
M45LXLIFT
 62
7
 10
5379.922
 20
-7246.373
 30
677.076
 70
    32
  0
VERTEX
  8
M45LXLIFT
 62
7
 10
5380.978
 20
-7253.400
 30
677.064
 70
    32
  0
VERTEX
  8
M45LXLIFT
 62
7
 10
5379.671
 20
-7256.274
 30
677.058
 70
    32
  0
VERTEX
  8
M45LXLIFT
 62
7
 10
5372.425
 20
-7258.575
 30
677.051
 70
    32
  0
VERTEX
  8
M45LXLIFT
 62
7
 10
5365.974
 20
-7265.615
 30
677.036
 70
    32
  0
VERTEX
  8
M45LXLIFT
 62
7
 10
5363.361
 20
-7264.210
 30
677.038
 70
    32
  0
VERTEX
  8
M45LXLIFT
 62
7
 10
5358.591
 20
-7257.056
 30
677.049
 70
    32
  0
VERTEX
  8
M45LXLIFT
 62
7
 10
5357.940
 20
-7251.428
 30
677.059
 70
    32
  0
VERTEX
  8
M45LXLIFT
 62
7
 10
5351.036
 20
-7231.988
 30
677.091
 70
    32
  0
VERTEX
  8
M45LXLIFT
 62
7
 10
5339.801
 20
-7207.674
 30
677.130
 70
    32
  0
SEQEND
  8
M45LXLIFT
  0
POLYLINE
  8
M45LXLIFT
 62
6
 66
     1
 70
     9
  0
VERTEX
  8
M45LXLIFT
 62
6
 10
5465.546
 20
-7118.837
 30
677.246
 70
    32
  0
VERTEX
  8
M45LXLIFT
 62
6
 10
5478.327
 20
-7137.176
 30
677.210
 70
    32
  0
VERTEX
  8
M45LXLIFT
 62
6
 10
5477.709
 20
-7139.583
 30
677.207
 70
    32
  0
VERTEX
  8
M45LXLIFT
 62
6
 10
5474.266
 20
-7142.007
 30
677.206
 70
    32
  0
VERTEX
  8
M45LXLIFT
 62
6
 10
5469.771
 20
-7137.493
 30
677.216
 70
    32
  0
VERTEX
  8
M45LXLIFT
 62
6
 10
5464.375
 20
-7142.021
 30
677.213
 70
    32
  0
VERTEX
  8
M45LXLIFT
 62
6
 10
5464.166
 20
-7145.915
 30
677.208
 70
    32
  0
VERTEX
  8
M45LXLIFT
 62
6
 10
5447.225
 20
-7153.521
 30
677.210
 70
    32
  0
VERTEX
  8
M45LXLIFT
 62
6
 10
5442.122
 20
-7154.064
 30
677.212
 70
    32
  0
VERTEX
  8
M45LXLIFT
 62
6
 10
5421.371
 20
-7149.446
 30
677.234
 70
    32
  0
VERTEX
  8
M45LXLIFT
 62
6
 10
5413.309
 20
-7146.388
 30
677.245
 70
    32
  0
VERTEX
  8
M45LXLIFT
 62
6
 10
5411.564
 20
-7137.444
 30
677.259
 70
    32
  0
VERTEX
  8
M45LXLIFT
 62
6
 10
5422.608
 20
-7128.025
 30
677.264
 70
    32
  0
VERTEX
  8
M45LXLIFT
 62
6
 10
5423.804
 20
-7124.537
 30
677.268
 70
    32
  0
VERTEX
  8
M45LXLIFT
 62
6
 10
5418.880
 20
-7118.007
 30
677.281
 70
    32
  0
VERTEX
  8
M45LXLIFT
 62
6
 10
5426.586
 20
-7111.450
 30
677.285
 70
    32
  0
VERTEX
  8
M45LXLIFT
 62
6
 10
5431.020
 20
-7119.058
 30
677.271
 70
    32
  0
VERTEX
  8
M45LXLIFT
 62
6
 10
5433.558
 20
-7118.434
 30
677.270
 70
    32
  0
VERTEX
  8
M45LXLIFT
 62
6
 10
5448.979
 20
-7105.585
 30
677.277
 70
    32
  0
VERTEX
  8
M45LXLIFT
 62
6
 10
5460.616
 20
-7112.130
 30
677.259
 70
    32
  0
SEQEND
  8
M45LXLIFT
  0
POLYLINE
  8
M45LXLIFT
 62
3
 66
     1
 70
     9
  0
VERTEX
  8
M45LXLIFT
 62
3
 10
5447.369
 20
-7209.778
 30
677.129
 70
    32
  0
VERTEX
  8
M45LXLIFT
 62
3
 10
5428.580
 20
-7189.012
 30
677.172
 70
    32
  0
VERTEX
  8
M45LXLIFT
 62
3
 10
5433.120
 20
-7180.453
 30
677.181
 70
    32
  0
VERTEX
  8
M45LXLIFT
 62
3
 10
5438.644
 20
-7176.980
 30
677.182
 70
    32
  0
VERTEX
  8
M45LXLIFT
 62
3
 10
5467.199
 20
-7177.687
 30
677.160
 70
    32
  0
VERTEX
  8
M45LXLIFT
 62
3
 10
5481.154
 20
-7170.545
 30
677.160
 70
    32
  0
VERTEX
  8
M45LXLIFT
 62
3
 10
5482.075
 20
-7157.263
 30
677.179
 70
    32
  0
VERTEX
  8
M45LXLIFT
 62
3
 10
5494.953
 20
-7171.093
 30
677.149
 70
    32
  0
VERTEX
  8
M45LXLIFT
 62
3
 10
5493.957
 20
-7179.963
 30
677.137
 70
    32
  0
VERTEX
  8
M45LXLIFT
 62
3
 10
5500.854
 20
-7187.303
 30
677.122
 70
    32
  0
VERTEX
  8
M45LXLIFT
 62
3
 10
5493.488
 20
-7193.494
 30
677.118
 70
    32
  0
VERTEX
  8
M45LXLIFT
 62
3
 10
5479.137
 20
-7194.733
 30
677.127
 70
    32
  0
VERTEX
  8
M45LXLIFT
 62
3
 10
5463.725
 20
-7198.307
 30
677.133
 70
    32
  0
VERTEX
  8
M45LXLIFT
 62
3
 10
5453.046
 20
-7208.066
 30
677.127
 70
    32
  0
SEQEND
  8
M45LXLIFT
  0
POLYLINE
  8
M45LXLIFT
 62
13
 66
     1
 70
     9
  0
VERTEX
  8
M45LXLIFT
 62
13
 10
5330.941
 20
-7318.849
 30
676.929
 70
    32
  0
VERTEX
  8
M45LXLIFT
 62
13
 10
5332.085
 20
-7325.872
 30
676.917
 70
    32
  0
VERTEX
  8
M45LXLIFT
 62
13
 10
5335.460
 20
-7331.135
 30
676.909
 70
    32
  0
VERTEX
  8
M45LXLIFT
 62
13
 10
5311.672
 20
-7349.417
 30
676.868
 70
    32
  0
VERTEX
  8
M45LXLIFT
 62
13
 10
5303.848
 20
-7348.029
 30
676.867
 70
    32
  0
VERTEX
  8
M45LXLIFT
 62
13
 10
5301.806
 20
-7342.982
 30
676.876
 70
    32
  0
VERTEX
  8
M45LXLIFT
 62
13
 10
5305.475
 20
-7334.720
 30
676.892
 70
    32
  0
VERTEX
  8
M45LXLIFT
 62
13
 10
5306.421
 20
-7326.912
 30
676.906
 70
    32
  0
VERTEX
  8
M45LXLIFT
 62
13
 10
5303.160
 20
-7312.813
 30
676.930
 70
    32
  0
VERTEX
  8
M45LXLIFT
 62
13
 10
5296.225
 20
-7306.800
 30
676.938
 70
    32
  0
VERTEX
  8
M45LXLIFT
 62
13
 10
5284.199
 20
-7292.142
 30
676.960
 70
    32
  0
VERTEX
  8
M45LXLIFT
 62
13
 10
5275.825
 20
-7278.321
 30
676.981
 70
    32
  0
VERTEX
  8
M45LXLIFT
 62
13
 10
5286.644
 20
-7267.586
 30
677.004
 70
    32
  0
VERTEX
  8
M45LXLIFT
 62
13
 10
5288.937
 20
-7260.347
 30
677.018
 70
    32
  0
VERTEX
  8
M45LXLIFT
 62
13
 10
5298.411
 20
-7260.967
 30
677.020
 70
    32
  0
VERTEX
  8
M45LXLIFT
 62
13
 10
5304.409
 20
-7263.129
 30
677.019
 70
    32
  0
VERTEX
  8
M45LXLIFT
 62
13
 10
5316.457
 20
-7278.404
 30
676.996
 70
    32
  0
VERTEX
  8
M45LXLIFT
 62
13
 10
5321.067
 20
-7283.621
 30
676.988
 70
    32
  0
VERTEX
  8
M45LXLIFT
 62
13
 10
5330.476
 20
-7299.170
 30
676.964
 70
    32
  0
VERTEX
  8
M45LXLIFT
 62
13
 10
5332.286
 20
-7307.493
 30
676.950
 70
    32
  0
SEQEND
  8
M45LXLIFT
  0
POLYLINE
  8
M45LXLIFT
 62
8
 66
     1
 70
     9
  0
VERTEX
  8
M45LXLIFT
 62
8
 10
4863.324
 20
-6669.076
 30
675.971
 70
    32
  0
VERTEX
  8
M45LXLIFT
 62
8
 10
4860.236
 20
-6671.229
 30
675.968
 70
    32
  0
VERTEX
  8
M45LXLIFT
 62
8
 10
4866.941
 20
-6699.795
 30
676.013
 70
    32
  0
VERTEX
  8
M45LXLIFT
 62
8
 10
4852.116
 20
-6708.328
 30
675.997
 70
    32
  0
VERTEX
  8
M45LXLIFT
 62
8
 10
4834.228
 20
-6717.424
 30
675.976
 70
    32
  0
VERTEX
  8
M45LXLIFT
 62
8
 10
4809.924
 20
-6698.560
 30
675.910
 70
    32
  0
VERTEX
  8
M45LXLIFT
 62
8
 10
4796.809
 20
-6679.423
 30
675.864
 70
    32
  0
VERTEX
  8
M45LXLIFT
 62
8
 10
4795.719
 20
-6672.059
 30
675.853
 70
    32
  0
VERTEX
  8
M45LXLIFT
 62
8
 10
4792.704
 20
-6669.447
 30
675.844
 70
    32
  0
VERTEX
  8
M45LXLIFT
 62
8
 10
4792.031
 20
-6665.858
 30
675.839
 70
    32
  0
VERTEX
  8
M45LXLIFT
 62
8
 10
4792.110
 20
-6656.860
 30
675.828
 70
    32
  0
VERTEX
  8
M45LXLIFT
 62
8
 10
4801.364
 20
-6650.139
 30
675.837
 70
    32
  0
VERTEX
  8
M45LXLIFT
 62
8
 10
4785.076
 20
-6650.794
 30
675.809
 70
    32
  0
VERTEX
  8
M45LXLIFT
 62
8
 10
4784.606
 20
-6643.494
 30
675.799
 70
    32
  0
VERTEX
  8
M45LXLIFT
 62
8
 10
4800.249
 20
-6642.159
 30
675.826
 70
    32
  0
VERTEX
  8
M45LXLIFT
 62
8
 10
4806.197
 20
-6643.155
 30
675.837
 70
    32
  0
VERTEX
  8
M45LXLIFT
 62
8
 10
4806.717
 20
-6636.344
 30
675.830
 70
    32
  0
VERTEX
  8
M45LXLIFT
 62
8
 10
4819.754
 20
-6635.996
 30
675.853
 70
    32
  0
VERTEX
  8
M45LXLIFT
 62
8
 10
4819.853
 20
-6638.461
 30
675.856
 70
    32
  0
VERTEX
  8
M45LXLIFT
 62
8
 10
4835.026
 20
-6627.622
 30
675.871
 70
    32
  0
SEQEND
  8
M45LXLIFT
  0
POLYLINE
  8
M45LXLIFT
 62
3
 66
     1
 70
     9
  0
VERTEX
  8
M45LXLIFT
 62
3
 10
4907.933
 20
-6765.254
 30
676.164
 70
    32
  0
VERTEX
  8
M45LXLIFT
 62
3
 10
4911.234
 20
-6770.589
 30
676.177
 70
    32
  0
VERTEX
  8
M45LXLIFT
 62
3
 10
4894.382
 20
-6783.524
 30
676.162
 70
    32
  0
VERTEX
  8
M45LXLIFT
 62
3
 10
4887.293
 20
-6784.867
 30
676.151
 70
    32
  0
VERTEX
  8
M45LXLIFT
 62
3
 10
4884.436
 20
-6781.808
 30
676.142
 70
    32
  0
VERTEX
  8
M45LXLIFT
 62
3
 10
4879.864
 20
-6775.554
 30
676.126
 70
    32
  0
VERTEX
  8
M45LXLIFT
 62
3
 10
4847.396
 20
-6737.882
 30
676.024
 70
    32
  0
VERTEX
  8
M45LXLIFT
 62
3
 10
4849.365
 20
-6721.048
 30
676.007
 70
    32
  0
VERTEX
  8
M45LXLIFT
 62
3
 10
4859.847
 20
-6714.190
 30
676.018
 70
    32
  0
VERTEX
  8
M45LXLIFT
 62
3
 10
4880.362
 20
-6717.774
 30
676.059
 70
    32
  0
VERTEX
  8
M45LXLIFT
 62
3
 10
4880.603
 20
-6723.761
 30
676.066
 70
    32
  0
VERTEX
  8
M45LXLIFT
 62
3
 10
4894.114
 20
-6748.350
 30
676.120
 70
    32
  0
VERTEX
  8
M45LXLIFT
 62
3
 10
4902.730
 20
-6758.673
 30
676.147
 70
    32
  0
SEQEND
  8
M45LXLIFT
  0
POLYLINE
  8
M45LXLIFT
 62
7
 66
     1
 70
     9
  0
VERTEX
  8
M45LXLIFT
 62
7
 10
4978.439
 20
-6827.851
 30
676.365
 70
    32
  0
VERTEX
  8
M45LXLIFT
 62
7
 10
4972.023
 20
-6828.374
 30
676.354
 70
    32
  0
VERTEX
  8
M45LXLIFT
 62
7
 10
4969.907
 20
-6830.575
 30
676.353
 70
    32
  0
VERTEX
  8
M45LXLIFT
 62
7
 10
4971.117
 20
-6840.932
 30
676.367
 70
    32
  0
VERTEX
  8
M45LXLIFT
 62
7
 10
4966.154
 20
-6855.682
 30
676.376
 70
    32
  0
VERTEX
  8
M45LXLIFT
 62
7
 10
4963.929
 20
-6857.359
 30
676.374
 70
    32
  0
VERTEX
  8
M45LXLIFT
 62
7
 10
4958.139
 20
-6855.916
 30
676.362
 70
    32
  0
VERTEX
  8
M45LXLIFT
 62
7
 10
4956.127
 20
-6849.736
 30
676.351
 70
    32
  0
VERTEX
  8
M45LXLIFT
 62
7
 10
4952.115
 20
-6846.458
 30
676.340
 70
    32
  0
VERTEX
  8
M45LXLIFT
 62
7
 10
4952.500
 20
-6834.097
 30
676.326
 70
    32
  0
VERTEX
  8
M45LXLIFT
 62
7
 10
4949.818
 20
-6826.621
 30
676.312
 70
    32
  0
VERTEX
  8
M45LXLIFT
 62
7
 10
4939.490
 20
-6813.192
 30
676.278
 70
    32
  0
VERTEX
  8
M45LXLIFT
 62
7
 10
4935.104
 20
-6804.991
 30
676.260
 70
    32
  0
VERTEX
  8
M45LXLIFT
 62
7
 10
4932.513
 20
-6795.395
 30
676.244
 70
    32
  0
VERTEX
  8
M45LXLIFT
 62
7
 10
4931.662
 20
-6785.199
 30
676.231
 70
    32
  0
VERTEX
  8
M45LXLIFT
 62
7
 10
4941.243
 20
-6775.643
 30
676.236
 70
    32
  0
VERTEX
  8
M45LXLIFT
 62
7
 10
4949.140
 20
-6768.095
 30
676.242
 70
    32
  0
VERTEX
  8
M45LXLIFT
 62
7
 10
4956.494
 20
-6768.945
 30
676.256
 70
    32
  0
VERTEX
  8
M45LXLIFT
 62
7
 10
4960.143
 20
-6771.973
 30
676.266
 70
    32
  0
VERTEX
  8
M45LXLIFT
 62
7
 10
4959.500
 20
-6777.907
 30
676.272
 70
    32
  0
VERTEX
  8
M45LXLIFT
 62
7
 10
4964.956
 20
-6786.418
 30
676.292
 70
    32
  0
VERTEX
  8
M45LXLIFT
 62
7
 10
4964.953
 20
-6788.535
 30
676.294
 70
    32
  0
VERTEX
  8
M45LXLIFT
 62
7
 10
4961.260
 20
-6790.976
 30
676.291
 70
    32
  0
VERTEX
  8
M45LXLIFT
 62
7
 10
4983.336
 20
-6821.593
 30
676.366
 70
    32
  0
SEQEND
  8
M45LXLIFT
  0
POLYLINE
  8
M45LXLIFT
 62
1
 66
     1
 70
     9
  0
VERTEX
  8
M45LXLIFT
 62
1
 10
5269.826
 20
-7278.876
 30
816.000
 70
    32
  0
VERTEX
  8
M45LXLIFT
 62
1
 10
5259.357
 20
-7276.127
 30
816.000
 70
    32
  0
VERTEX
  8
M45LXLIFT
 62
1
 10
5245.773
 20
-7269.568
 30
816.000
 70
    32
  0
VERTEX
  8
M45LXLIFT
 62
1
 10
5237.700
 20
-7262.132
 30
816.000
 70
    32
  0
VERTEX
  8
M45LXLIFT
 62
1
 10
5240.848
 20
-7253.786
 30
816.000
 70
    32
  0
VERTEX
  8
M45LXLIFT
 62
1
 10
5238.986
 20
-7244.943
 30
816.000
 70
    32
  0
VERTEX
  8
M45LXLIFT
 62
1
 10
5242.227
 20
-7234.541
 30
816.000
 70
    32
  0
VERTEX
  8
M45LXLIFT
 62
1
 10
5249.295
 20
-7229.616
 30
816.000
 70
    32
  0
VERTEX
  8
M45LXLIFT
 62
1
 10
5254.907
 20
-7233.956
 30
816.000
 70
    32
  0
VERTEX
  8
M45LXLIFT
 62
1
 10
5262.654
 20
-7236.897
 30
816.000
 70
    32
  0
VERTEX
  8
M45LXLIFT
 62
1
 10
5269.060
 20
-7235.892
 30
816.000
 70
    32
  0
VERTEX
  8
M45LXLIFT
 62
1
 10
5277.278
 20
-7232.189
 30
816.000
 70
    32
  0
VERTEX
  8
M45LXLIFT
 62
1
 10
5287.329
 20
-7229.740
 30
816.000
 70
    32
  0
VERTEX
  8
M45LXLIFT
 62
1
 10
5289.319
 20
-7233.523
 30
816.000
 70
    32
  0
VERTEX
  8
M45LXLIFT
 62
1
 10
5289.025
 20
-7243.011
 30
816.000
 70
    32
  0
VERTEX
  8
M45LXLIFT
 62
1
 10
5287.395
 20
-7252.631
 30
816.000
 70
    32
  0
VERTEX
  8
M45LXLIFT
 62
1
 10
5290.420
 20
-7264.892
 30
816.000
 70
    32
  0
VERTEX
  8
M45LXLIFT
 62
1
 10
5287.819
 20
-7270.617
 30
816.000
 70
    32
  0
VERTEX
  8
M45LXLIFT
 62
1
 10
5283.126
 20
-7282.011
 30
816.000
 70
    32
  0
SEQEND
  8
M45LXLIFT
  0
POLYLINE
  8
M45LXLIFT
 62
1
 66
     1
 70
     9
  0
VERTEX
  8
M45LXLIFT
 62
1
 10
5321.169
 20
-7114.104
 30
782.000
 70
    32
  0
VERTEX
  8
M45LXLIFT
 62
1
 10
5325.602
 20
-7110.026
 30
782.000
 70
    32
  0
VERTEX
  8
M45LXLIFT
 62
1
 10
5341.788
 20
-7098.273
 30
782.000
 70
    32
  0
VERTEX
  8
M45LXLIFT
 62
1
 10
5362.382
 20
-7085.650
 30
782.000
 70
    32
  0
VERTEX
  8
M45LXLIFT
 62
1
 10
5387.749
 20
-7073.971
 30
782.000
 70
    32
  0
VERTEX
  8
M45LXLIFT
 62
1
 10
5398.168
 20
-7072.021
 30
782.000
 70
    32
  0
VERTEX
  8
M45LXLIFT
 62
1
 10
5404.891
 20
-7083.385
 30
782.000
 70
    32
  0
VERTEX
  8
M45LXLIFT
 62
1
 10
5406.654
 20
-7090.755
 30
782.000
 70
    32
  0
VERTEX
  8
M45LXLIFT
 62
1
 10
5401.351
 20
-7106.039
 30
782.000
 70
    32
  0
VERTEX
  8
M45LXLIFT
 62
1
 10
5395.577
 20
-7118.485
 30
782.000
 70
    32
  0
VERTEX
  8
M45LXLIFT
 62
1
 10
5382.266
 20
-7129.081
 30
782.000
 70
    32
  0
VERTEX
  8
M45LXLIFT
 62
1
 10
5357.156
 20
-7144.196
 30
782.000
 70
    32
  0
VERTEX
  8
M45LXLIFT
 62
1
 10
5340.681
 20
-7150.996
 30
782.000
 70
    32
  0
VERTEX
  8
M45LXLIFT
 62
1
 10
5331.859
 20
-7140.209
 30
782.000
 70
    32
  0
VERTEX
  8
M45LXLIFT
 62
1
 10
5321.718
 20
-7128.538
 30
782.000
 70
    32
  0
SEQEND
  8
M45LXLIFT
  0
POLYLINE
  8
M45LXLIFT
 62
1
 66
     1
 70
     9
  0
VERTEX
  8
M45LXLIFT
 62
1
 10
5492.397
 20
-7177.281
 30
710.000
 70
    32
  0
VERTEX
  8
M45LXLIFT
 62
1
 10
5490.187
 20
-7187.871
 30
710.000
 70
    32
  0
VERTEX
  8
M45LXLIFT
 62
1
 10
5482.608
 20
-7191.179
 30
710.000
 70
    32
  0
VERTEX
  8
M45LXLIFT
 62
1
 10
5466.662
 20
-7195.655
 30
710.000
 70
    32
  0
VERTEX
  8
M45LXLIFT
 62
1
 10
5449.262
 20
-7202.916
 30
710.000
 70
    32
  0
VERTEX
  8
M45LXLIFT
 62
1
 10
5440.001
 20
-7202.996
 30
710.000
 70
    32
  0
VERTEX
  8
M45LXLIFT
 62
1
 10
5434.542
 20
-7197.838
 30
710.000
 70
    32
  0
VERTEX
  8
M45LXLIFT
 62
1
 10
5437.040
 20
-7187.798
 30
710.000
 70
    32
  0
VERTEX
  8
M45LXLIFT
 62
1
 10
5446.384
 20
-7186.033
 30
710.000
 70
    32
  0
VERTEX
  8
M45LXLIFT
 62
1
 10
5467.480
 20
-7180.437
 30
710.000
 70
    32
  0
VERTEX
  8
M45LXLIFT
 62
1
 10
5483.677
 20
-7163.860
 30
710.000
 70
    32
  0
SEQEND
  8
M45LXLIFT
  0
POLYLINE
  8
M45LXLIFT
 62
1
 66
     1
 70
     9
  0
VERTEX
  8
M45LXLIFT
 62
1
 10
5351.093
 20
-7238.135
 30
731.000
 70
    32
  0
VERTEX
  8
M45LXLIFT
 62
1
 10
5341.251
 20
-7227.178
 30
731.000
 70
    32
  0
VERTEX
  8
M45LXLIFT
 62
1
 10
5330.015
 20
-7214.631
 30
731.000
 70
    32
  0
VERTEX
  8
M45LXLIFT
 62
1
 10
5318.595
 20
-7203.312
 30
731.000
 70
    32
  0
VERTEX
  8
M45LXLIFT
 62
1
 10
5316.852
 20
-7196.522
 30
731.000
 70
    32
  0
VERTEX
  8
M45LXLIFT
 62
1
 10
5318.959
 20
-7189.179
 30
731.000
 70
    32
  0
VERTEX
  8
M45LXLIFT
 62
1
 10
5331.963
 20
-7182.846
 30
731.000
 70
    32
  0
VERTEX
  8
M45LXLIFT
 62
1
 10
5339.762
 20
-7189.855
 30
731.000
 70
    32
  0
VERTEX
  8
M45LXLIFT
 62
1
 10
5344.286
 20
-7190.660
 30
731.000
 70
    32
  0
VERTEX
  8
M45LXLIFT
 62
1
 10
5356.430
 20
-7206.357
 30
731.000
 70
    32
  0
VERTEX
  8
M45LXLIFT
 62
1
 10
5366.732
 20
-7221.777
 30
731.000
 70
    32
  0
VERTEX
  8
M45LXLIFT
 62
1
 10
5362.283
 20
-7232.596
 30
731.000
 70
    32
  0
SEQEND
  8
M45LXLIFT
  0
POLYLINE
  8
M45LXLIFT
 62
1
 66
     1
 70
     9
  0
VERTEX
  8
M45LXLIFT
 62
1
 10
5246.346
 20
-7027.803
 30
811.000
 70
    32
  0
VERTEX
  8
M45LXLIFT
 62
1
 10
5247.291
 20
-7044.520
 30
811.000
 70
    32
  0
VERTEX
  8
M45LXLIFT
 62
1
 10
5246.210
 20
-7062.636
 30
811.000
 70
    32
  0
VERTEX
  8
M45LXLIFT
 62
1
 10
5246.253
 20
-7076.081
 30
811.000
 70
    32
  0
VERTEX
  8
M45LXLIFT
 62
1
 10
5250.233
 20
-7094.373
 30
811.000
 70
    32
  0
VERTEX
  8
M45LXLIFT
 62
1
 10
5256.810
 20
-7108.648
 30
811.000
 70
    32
  0
VERTEX
  8
M45LXLIFT
 62
1
 10
5263.143
 20
-7117.299
 30
811.000
 70
    32
  0
VERTEX
  8
M45LXLIFT
 62
1
 10
5268.504
 20
-7117.141
 30
811.000
 70
    32
  0
VERTEX
  8
M45LXLIFT
 62
1
 10
5273.119
 20
-7113.923
 30
811.000
 70
    32
  0
VERTEX
  8
M45LXLIFT
 62
1
 10
5277.585
 20
-7118.596
 30
811.000
 70
    32
  0
VERTEX
  8
M45LXLIFT
 62
1
 10
5269.506
 20
-7127.461
 30
811.000
 70
    32
  0
VERTEX
  8
M45LXLIFT
 62
1
 10
5264.730
 20
-7136.496
 30
811.000
 70
    32
  0
VERTEX
  8
M45LXLIFT
 62
1
 10
5254.570
 20
-7136.831
 30
811.000
 70
    32
  0
VERTEX
  8
M45LXLIFT
 62
1
 10
5251.492
 20
-7127.400
 30
811.000
 70
    32
  0
VERTEX
  8
M45LXLIFT
 62
1
 10
5240.380
 20
-7113.215
 30
811.000
 70
    32
  0
VERTEX
  8
M45LXLIFT
 62
1
 10
5234.278
 20
-7103.844
 30
811.000
 70
    32
  0
VERTEX
  8
M45LXLIFT
 62
1
 10
5234.643
 20
-7089.328
 30
811.000
 70
    32
  0
VERTEX
  8
M45LXLIFT
 62
1
 10
5232.221
 20
-7072.835
 30
811.000
 70
    32
  0
VERTEX
  8
M45LXLIFT
 62
1
 10
5227.356
 20
-7051.148
 30
811.000
 70
    32
  0
VERTEX
  8
M45LXLIFT
 62
1
 10
5228.330
 20
-7033.331
 30
811.000
 70
    32
  0
SEQEND
  8
M45LXLIFT
  0
POLYLINE
  8
M45LXLIFT
 62
1
 66
     1
 70
     9
  0
VERTEX
  8
M45LXLIFT
 62
1
 10
5457.711
 20
-6964.544
 30
753.000
 70
    32
  0
VERTEX
  8
M45LXLIFT
 62
1
 10
5454.537
 20
-6973.167
 30
753.000
 70
    32
  0
VERTEX
  8
M45LXLIFT
 62
1
 10
5454.227
 20
-6979.157
 30
753.000
 70
    32
  0
VERTEX
  8
M45LXLIFT
 62
1
 10
5451.366
 20
-6985.376
 30
753.000
 70
    32
  0
VERTEX
  8
M45LXLIFT
 62
1
 10
5440.613
 20
-6983.755
 30
753.000
 70
    32
  0
VERTEX
  8
M45LXLIFT
 62
1
 10
5430.810
 20
-6983.289
 30
753.000
 70
    32
  0
VERTEX
  8
M45LXLIFT
 62
1
 10
5421.545
 20
-6988.631
 30
753.000
 70
    32
  0
VERTEX
  8
M45LXLIFT
 62
1
 10
5418.596
 20
-6997.416
 30
753.000
 70
    32
  0
VERTEX
  8
M45LXLIFT
 62
1
 10
5416.713
 20
-7005.424
 30
753.000
 70
    32
  0
VERTEX
  8
M45LXLIFT
 62
1
 10
5422.273
 20
-7012.899
 30
753.000
 70
    32
  0
VERTEX
  8
M45LXLIFT
 62
1
 10
5427.695
 20
-7024.064
 30
753.000
 70
    32
  0
VERTEX
  8
M45LXLIFT
 62
1
 10
5412.648
 20
-7041.018
 30
753.000
 70
    32
  0
VERTEX
  8
M45LXLIFT
 62
1
 10
5400.431
 20
-7026.650
 30
753.000
 70
    32
  0
VERTEX
  8
M45LXLIFT
 62
1
 10
5396.809
 20
-7029.291
 30
753.000
 70
    32
  0
VERTEX
  8
M45LXLIFT
 62
1
 10
5390.606
 20
-7023.916
 30
753.000
 70
    32
  0
VERTEX
  8
M45LXLIFT
 62
1
 10
5380.829
 20
-7017.667
 30
753.000
 70
    32
  0
VERTEX
  8
M45LXLIFT
 62
1
 10
5375.954
 20
-7010.236
 30
753.000
 70
    32
  0
VERTEX
  8
M45LXLIFT
 62
1
 10
5372.905
 20
-7000.387
 30
753.000
 70
    32
  0
VERTEX
  8
M45LXLIFT
 62
1
 10
5371.096
 20
-6989.850
 30
753.000
 70
    32
  0
VERTEX
  8
M45LXLIFT
 62
1
 10
5371.318
 20
-6981.205
 30
753.000
 70
    32
  0
VERTEX
  8
M45LXLIFT
 62
1
 10
5377.564
 20
-6974.257
 30
753.000
 70
    32
  0
VERTEX
  8
M45LXLIFT
 62
1
 10
5389.133
 20
-6971.478
 30
753.000
 70
    32
  0
VERTEX
  8
M45LXLIFT
 62
1
 10
5400.315
 20
-6969.958
 30
753.000
 70
    32
  0
VERTEX
  8
M45LXLIFT
 62
1
 10
5409.706
 20
-6967.026
 30
753.000
 70
    32
  0
VERTEX
  8
M45LXLIFT
 62
1
 10
5417.337
 20
-6961.680
 30
753.000
 70
    32
  0
VERTEX
  8
M45LXLIFT
 62
1
 10
5424.548
 20
-6956.204
 30
753.000
 70
    32
  0
VERTEX
  8
M45LXLIFT
 62
1
 10
5429.221
 20
-6952.470
 30
753.000
 70
    32
  0
VERTEX
  8
M45LXLIFT
 62
1
 10
5438.401
 20
-6956.110
 30
753.000
 70
    32
  0
SEQEND
  8
M45LXLIFT
  0
POLYLINE
  8
M45LXLIFT
 62
1
 66
     1
 70
     9
  0
VERTEX
  8
M45LXLIFT
 62
1
 10
5302.203
 20
-6985.093
 30
826.000
 70
    32
  0
VERTEX
  8
M45LXLIFT
 62
1
 10
5287.884
 20
-6997.805
 30
826.000
 70
    32
  0
VERTEX
  8
M45LXLIFT
 62
1
 10
5270.586
 20
-7011.507
 30
826.000
 70
    32
  0
VERTEX
  8
M45LXLIFT
 62
1
 10
5247.605
 20
-7024.155
 30
826.000
 70
    32
  0
VERTEX
  8
M45LXLIFT
 62
1
 10
5229.894
 20
-7033.144
 30
826.000
 70
    32
  0
VERTEX
  8
M45LXLIFT
 62
1
 10
5209.994
 20
-7039.599
 30
826.000
 70
    32
  0
VERTEX
  8
M45LXLIFT
 62
1
 10
5208.783
 20
-7024.458
 30
826.000
 70
    32
  0
VERTEX
  8
M45LXLIFT
 62
1
 10
5208.900
 20
-7010.084
 30
826.000
 70
    32
  0
VERTEX
  8
M45LXLIFT
 62
1
 10
5212.423
 20
-7005.530
 30
826.000
 70
    32
  0
VERTEX
  8
M45LXLIFT
 62
1
 10
5221.544
 20
-6988.570
 30
826.000
 70
    32
  0
VERTEX
  8
M45LXLIFT
 62
1
 10
5240.812
 20
-6978.436
 30
826.000
 70
    32
  0
VERTEX
  8
M45LXLIFT
 62
1
 10
5262.447
 20
-6976.267
 30
826.000
 70
    32
  0
VERTEX
  8
M45LXLIFT
 62
1
 10
5281.422
 20
-6973.001
 30
826.000
 70
    32
  0
VERTEX
  8
M45LXLIFT
 62
1
 10
5293.778
 20
-6972.748
 30
826.000
 70
    32
  0
SEQEND
  8
M45LXLIFT
  0
POLYLINE
  8
M45LXLIFT
 62
1
 66
     1
 70
     9
  0
VERTEX
  8
M45LXLIFT
 62
1
 10
5390.593
 20
-6887.734
 30
819.000
 70
    32
  0
VERTEX
  8
M45LXLIFT
 62
1
 10
5402.929
 20
-6900.204
 30
819.000
 70
    32
  0
VERTEX
  8
M45LXLIFT
 62
1
 10
5403.963
 20
-6917.397
 30
819.000
 70
    32
  0
VERTEX
  8
M45LXLIFT
 62
1
 10
5398.964
 20
-6924.612
 30
819.000
 70
    32
  0
VERTEX
  8
M45LXLIFT
 62
1
 10
5386.017
 20
-6927.605
 30
819.000
 70
    32
  0
VERTEX
  8
M45LXLIFT
 62
1
 10
5373.059
 20
-6928.842
 30
819.000
 70
    32
  0
VERTEX
  8
M45LXLIFT
 62
1
 10
5367.222
 20
-6933.936
 30
819.000
 70
    32
  0
VERTEX
  8
M45LXLIFT
 62
1
 10
5373.522
 20
-6944.702
 30
819.000
 70
    32
  0
VERTEX
  8
M45LXLIFT
 62
1
 10
5366.267
 20
-6950.543
 30
819.000
 70
    32
  0
VERTEX
  8
M45LXLIFT
 62
1
 10
5360.610
 20
-6959.360
 30
819.000
 70
    32
  0
VERTEX
  8
M45LXLIFT
 62
1
 10
5350.509
 20
-6950.707
 30
819.000
 70
    32
  0
VERTEX
  8
M45LXLIFT
 62
1
 10
5353.163
 20
-6939.097
 30
819.000
 70
    32
  0
VERTEX
  8
M45LXLIFT
 62
1
 10
5356.461
 20
-6926.446
 30
819.000
 70
    32
  0
VERTEX
  8
M45LXLIFT
 62
1
 10
5351.935
 20
-6918.743
 30
819.000
 70
    32
  0
VERTEX
  8
M45LXLIFT
 62
1
 10
5348.793
 20
-6913.298
 30
819.000
 70
    32
  0
VERTEX
  8
M45LXLIFT
 62
1
 10
5353.386
 20
-6908.598
 30
819.000
 70
    32
  0
VERTEX
  8
M45LXLIFT
 62
1
 10
5364.423
 20
-6897.570
 30
819.000
 70
    32
  0
VERTEX
  8
M45LXLIFT
 62
1
 10
5371.488
 20
-6886.250
 30
819.000
 70
    32
  0
VERTEX
  8
M45LXLIFT
 62
1
 10
5378.536
 20
-6881.008
 30
819.000
 70
    32
  0
SEQEND
  8
M45LXLIFT
  0
POLYLINE
  8
M45LXLIFT
 62
1
 66
     1
 70
     9
  0
VERTEX
  8
M45LXLIFT
 62
1
 10
5316.498
 20
-7126.287
 30
824.000
 70
    32
  0
VERTEX
  8
M45LXLIFT
 62
1
 10
5312.957
 20
-7110.350
 30
824.000
 70
    32
  0
VERTEX
  8
M45LXLIFT
 62
1
 10
5310.089
 20
-7092.065
 30
824.000
 70
    32
  0
VERTEX
  8
M45LXLIFT
 62
1
 10
5312.863
 20
-7079.228
 30
824.000
 70
    32
  0
VERTEX
  8
M45LXLIFT
 62
1
 10
5319.304
 20
-7063.367
 30
824.000
 70
    32
  0
VERTEX
  8
M45LXLIFT
 62
1
 10
5321.237
 20
-7053.983
 30
824.000
 70
    32
  0
VERTEX
  8
M45LXLIFT
 62
1
 10
5325.953
 20
-7034.592
 30
824.000
 70
    32
  0
VERTEX
  8
M45LXLIFT
 62
1
 10
5328.192
 20
-7020.730
 30
824.000
 70
    32
  0
VERTEX
  8
M45LXLIFT
 62
1
 10
5331.433
 20
-7006.895
 30
824.000
 70
    32
  0
VERTEX
  8
M45LXLIFT
 62
1
 10
5338.646
 20
-6996.683
 30
824.000
 70
    32
  0
VERTEX
  8
M45LXLIFT
 62
1
 10
5345.008
 20
-6989.169
 30
824.000
 70
    32
  0
VERTEX
  8
M45LXLIFT
 62
1
 10
5356.507
 20
-6997.835
 30
824.000
 70
    32
  0
VERTEX
  8
M45LXLIFT
 62
1
 10
5371.818
 20
-7006.642
 30
824.000
 70
    32
  0
VERTEX
  8
M45LXLIFT
 62
1
 10
5368.859
 20
-7018.635
 30
824.000
 70
    32
  0
VERTEX
  8
M45LXLIFT
 62
1
 10
5369.952
 20
-7027.537
 30
824.000
 70
    32
  0
VERTEX
  8
M45LXLIFT
 62
1
 10
5373.569
 20
-7033.493
 30
824.000
 70
    32
  0
VERTEX
  8
M45LXLIFT
 62
1
 10
5379.079
 20
-7041.874
 30
824.000
 70
    32
  0
VERTEX
  8
M45LXLIFT
 62
1
 10
5383.410
 20
-7052.213
 30
824.000
 70
    32
  0
VERTEX
  8
M45LXLIFT
 62
1
 10
5386.621
 20
-7062.067
 30
824.000
 70
    32
  0
VERTEX
  8
M45LXLIFT
 62
1
 10
5385.266
 20
-7069.716
 30
824.000
 70
    32
  0
VERTEX
  8
M45LXLIFT
 62
1
 10
5378.030
 20
-7076.782
 30
824.000
 70
    32
  0
VERTEX
  8
M45LXLIFT
 62
1
 10
5354.853
 20
-7095.245
 30
824.000
 70
    32
  0
VERTEX
  8
M45LXLIFT
 62
1
 10
5346.734
 20
-7106.450
 30
824.000
 70
    32
  0
VERTEX
  8
M45LXLIFT
 62
1
 10
5342.882
 20
-7118.118
 30
824.000
 70
    32
  0
VERTEX
  8
M45LXLIFT
 62
1
 10
5337.459
 20
-7132.248
 30
824.000
 70
    32
  0
SEQEND
  8
M45LXLIFT
  0
POLYLINE
  8
M45LXLIFT
 62
1
 66
     1
 70
     9
  0
VERTEX
  8
M45LXLIFT
 62
1
 10
4787.368
 20
-6699.313
 30
728.000
 70
    32
  0
VERTEX
  8
M45LXLIFT
 62
1
 10
4785.463
 20
-6693.189
 30
728.000
 70
    32
  0
VERTEX
  8
M45LXLIFT
 62
1
 10
4783.590
 20
-6680.165
 30
728.000
 70
    32
  0
VERTEX
  8
M45LXLIFT
 62
1
 10
4777.664
 20
-6666.532
 30
728.000
 70
    32
  0
VERTEX
  8
M45LXLIFT
 62
1
 10
4771.083
 20
-6648.908
 30
728.000
 70
    32
  0
VERTEX
  8
M45LXLIFT
 62
1
 10
4765.302
 20
-6637.243
 30
728.000
 70
    32
  0
VERTEX
  8
M45LXLIFT
 62
1
 10
4763.394
 20
-6624.025
 30
728.000
 70
    32
  0
VERTEX
  8
M45LXLIFT
 62
1
 10
4760.407
 20
-6609.640
 30
728.000
 70
    32
  0
VERTEX
  8
M45LXLIFT
 62
1
 10
4765.174
 20
-6605.899
 30
728.000
 70
    32
  0
VERTEX
  8
M45LXLIFT
 62
1
 10
4778.663
 20
-6603.028
 30
728.000
 70
    32
  0
VERTEX
  8
M45LXLIFT
 62
1
 10
4795.175
 20
-6594.648
 30
728.000
 70
    32
  0
VERTEX
  8
M45LXLIFT
 62
1
 10
4797.356
 20
-6603.952
 30
728.000
 70
    32
  0
VERTEX
  8
M45LXLIFT
 62
1
 10
4799.702
 20
-6619.684
 30
728.000
 70
    32
  0
VERTEX
  8
M45LXLIFT
 62
1
 10
4799.869
 20
-6630.695
 30
728.000
 70
    32
  0
VERTEX
  8
M45LXLIFT
 62
1
 10
4807.533
 20
-6634.419
 30
728.000
 70
    32
  0
VERTEX
  8
M45LXLIFT
 62
1
 10
4811.863
 20
-6625.653
 30
728.000
 70
    32
  0
VERTEX
  8
M45LXLIFT
 62
1
 10
4817.555
 20
-6620.356
 30
728.000
 70
    32
  0
VERTEX
  8
M45LXLIFT
 62
1
 10
4812.067
 20
-6616.770
 30
728.000
 70
    32
  0
VERTEX
  8
M45LXLIFT
 62
1
 10
4811.646
 20
-6599.506
 30
728.000
 70
    32
  0
VERTEX
  8
M45LXLIFT
 62
1
 10
4818.328
 20
-6600.572
 30
728.000
 70
    32
  0
VERTEX
  8
M45LXLIFT
 62
1
 10
4832.430
 20
-6600.304
 30
728.000
 70
    32
  0
VERTEX
  8
M45LXLIFT
 62
1
 10
4838.019
 20
-6606.982
 30
728.000
 70
    32
  0
VERTEX
  8
M45LXLIFT
 62
1
 10
4852.156
 20
-6616.512
 30
728.000
 70
    32
  0
VERTEX
  8
M45LXLIFT
 62
1
 10
4859.187
 20
-6622.778
 30
728.000
 70
    32
  0
VERTEX
  8
M45LXLIFT
 62
1
 10
4856.764
 20
-6630.135
 30
728.000
 70
    32
  0
VERTEX
  8
M45LXLIFT
 62
1
 10
4853.705
 20
-6645.495
 30
728.000
 70
    32
  0
VERTEX
  8
M45LXLIFT
 62
1
 10
4853.740
 20
-6655.293
 30
728.000
 70
    32
  0
VERTEX
  8
M45LXLIFT
 62
1
 10
4846.191
 20
-6657.487
 30
728.000
 70
    32
  0
VERTEX
  8
M45LXLIFT
 62
1
 10
4833.721
 20
-6650.655
 30
728.000
 70
    32
  0
VERTEX
  8
M45LXLIFT
 62
1
 10
4821.965
 20
-6644.496
 30
728.000
 70
    32
  0
VERTEX
  8
M45LXLIFT
 62
1
 10
4807.348
 20
-6645.691
 30
728.000
 70
    32
  0
VERTEX
  8
M45LXLIFT
 62
1
 10
4796.315
 20
-6651.441
 30
728.000
 70
    32
  0
VERTEX
  8
M45LXLIFT
 62
1
 10
4795.024
 20
-6660.036
 30
728.000
 70
    32
  0
VERTEX
  8
M45LXLIFT
 62
1
 10
4792.501
 20
-6676.418
 30
728.000
 70
    32
  0
VERTEX
  8
M45LXLIFT
 62
1
 10
4794.578
 20
-6705.230
 30
728.000
 70
    32
  0
VERTEX
  8
M45LXLIFT
 62
1
 10
4789.157
 20
-6707.052
 30
728.000
 70
    32
  0
SEQEND
  8
M45LXLIFT
  0
POLYLINE
  8
M45LXLIFT
 62
1
 66
     1
 70
     9
  0
VERTEX
  8
M45LXLIFT
 62
1
 10
4894.639
 20
-6664.984
 30
784.000
 70
    32
  0
VERTEX
  8
M45LXLIFT
 62
1
 10
4895.623
 20
-6680.333
 30
784.000
 70
    32
  0
VERTEX
  8
M45LXLIFT
 62
1
 10
4899.770
 20
-6695.525
 30
784.000
 70
    32
  0
VERTEX
  8
M45LXLIFT
 62
1
 10
4902.237
 20
-6709.776
 30
784.000
 70
    32
  0
VERTEX
  8
M45LXLIFT
 62
1
 10
4906.224
 20
-6722.242
 30
784.000
 70
    32
  0
VERTEX
  8
M45LXLIFT
 62
1
 10
4909.878
 20
-6734.848
 30
784.000
 70
    32
  0
VERTEX
  8
M45LXLIFT
 62
1
 10
4917.054
 20
-6749.108
 30
784.000
 70
    32
  0
VERTEX
  8
M45LXLIFT
 62
1
 10
4922.683
 20
-6757.295
 30
784.000
 70
    32
  0
VERTEX
  8
M45LXLIFT
 62
1
 10
4925.243
 20
-6767.539
 30
784.000
 70
    32
  0
VERTEX
  8
M45LXLIFT
 62
1
 10
4935.412
 20
-6784.066
 30
784.000
 70
    32
  0
VERTEX
  8
M45LXLIFT
 62
1
 10
4941.963
 20
-6797.040
 30
784.000
 70
    32
  0
VERTEX
  8
M45LXLIFT
 62
1
 10
4943.899
 20
-6802.605
 30
784.000
 70
    32
  0
VERTEX
  8
M45LXLIFT
 62
1
 10
4936.783
 20
-6808.206
 30
784.000
 70
    32
  0
VERTEX
  8
M45LXLIFT
 62
1
 10
4928.781
 20
-6809.214
 30
784.000
 70
    32
  0
VERTEX
  8
M45LXLIFT
 62
1
 10
4922.584
 20
-6804.837
 30
784.000
 70
    32
  0
VERTEX
  8
M45LXLIFT
 62
1
 10
4916.826
 20
-6794.557
 30
784.000
 70
    32
  0
VERTEX
  8
M45LXLIFT
 62
1
 10
4911.147
 20
-6785.859
 30
784.000
 70
    32
  0
VERTEX
  8
M45LXLIFT
 62
1
 10
4906.340
 20
-6772.140
 30
784.000
 70
    32
  0
VERTEX
  8
M45LXLIFT
 62
1
 10
4904.968
 20
-6760.251
 30
784.000
 70
    32
  0
VERTEX
  8
M45LXLIFT
 62
1
 10
4904.982
 20
-6751.709
 30
784.000
 70
    32
  0
VERTEX
  8
M45LXLIFT
 62
1
 10
4899.213
 20
-6737.282
 30
784.000
 70
    32
  0
VERTEX
  8
M45LXLIFT
 62
1
 10
4894.715
 20
-6727.818
 30
784.000
 70
    32
  0
VERTEX
  8
M45LXLIFT
 62
1
 10
4886.224
 20
-6719.016
 30
784.000
 70
    32
  0
VERTEX
  8
M45LXLIFT
 62
1
 10
4879.241
 20
-6701.769
 30
784.000
 70
    32
  0
VERTEX
  8
M45LXLIFT
 62
1
 10
4876.228
 20
-6681.909
 30
784.000
 70
    32
  0
VERTEX
  8
M45LXLIFT
 62
1
 10
4873.884
 20
-6664.724
 30
784.000
 70
    32
  0
VERTEX
  8
M45LXLIFT
 62
1
 10
4875.292
 20
-6658.211
 30
784.000
 70
    32
  0
SEQEND
  8
M45LXLIFT
  0
POLYLINE
  8
M45LXLIFT
 62
1
 66
     1
 70
     9
  0
VERTEX
  8
M45LXLIFT
 62
1
 10
4870.451
 20
-6736.925
 30
710.000
 70
    32
  0
VERTEX
  8
M45LXLIFT
 62
1
 10
4888.423
 20
-6746.353
 30
710.000
 70
    32
  0
VERTEX
  8
M45LXLIFT
 62
1
 10
4898.038
 20
-6753.275
 30
710.000
 70
    32
  0
VERTEX
  8
M45LXLIFT
 62
1
 10
4905.148
 20
-6763.329
 30
710.000
 70
    32
  0
VERTEX
  8
M45LXLIFT
 62
1
 10
4908.341
 20
-6775.476
 30
710.000
 70
    32
  0
VERTEX
  8
M45LXLIFT
 62
1
 10
4904.395
 20
-6779.767
 30
710.000
 70
    32
  0
VERTEX
  8
M45LXLIFT
 62
1
 10
4893.069
 20
-6782.145
 30
710.000
 70
    32
  0
VERTEX
  8
M45LXLIFT
 62
1
 10
4882.384
 20
-6772.411
 30
710.000
 70
    32
  0
VERTEX
  8
M45LXLIFT
 62
1
 10
4869.912
 20
-6754.403
 30
710.000
 70
    32
  0
VERTEX
  8
M45LXLIFT
 62
1
 10
4861.125
 20
-6742.197
 30
710.000
 70
    32
  0
SEQEND
  8
M45LXLIFT
  0
POLYLINE
  8
M45LXLIFT
 62
1
 66
     1
 70
     9
  0
VERTEX
  8
M45LXLIFT
 62
1
 10
4697.929
 20
-6417.236
 30
821.000
 70
    32
  0
VERTEX
  8
M45LXLIFT
 62
1
 10
4674.348
 20
-6431.061
 30
821.000
 70
    32
  0
VERTEX
  8
M45LXLIFT
 62
1
 10
4654.347
 20
-6444.374
 30
821.000
 70
    32
  0
VERTEX
  8
M45LXLIFT
 62
1
 10
4649.657
 20
-6441.538
 30
821.000
 70
    32
  0
VERTEX
  8
M45LXLIFT
 62
1
 10
4640.906
 20
-6432.192
 30
821.000
 70
    32
  0
VERTEX
  8
M45LXLIFT
 62
1
 10
4636.814
 20
-6417.653
 30
821.000
 70
    32
  0
VERTEX
  8
M45LXLIFT
 62
1
 10
4639.317
 20
-6410.347
 30
821.000
 70
    32
  0
VERTEX
  8
M45LXLIFT
 62
1
 10
4651.351
 20
-6398.452
 30
821.000
 70
    32
  0
VERTEX
  8
M45LXLIFT
 62
1
 10
4651.368
 20
-6389.616
 30
821.000
 70
    32
  0
VERTEX
  8
M45LXLIFT
 62
1
 10
4649.314
 20
-6378.051
 30
821.000
 70
    32
  0
VERTEX
  8
M45LXLIFT
 62
1
 10
4646.997
 20
-6366.576
 30
821.000
 70
    32
  0
VERTEX
  8
M45LXLIFT
 62
1
 10
4644.561
 20
-6352.764
 30
821.000
 70
    32
  0
VERTEX
  8
M45LXLIFT
 62
1
 10
4646.552
 20
-6321.254
 30
821.000
 70
    32
  0
VERTEX
  8
M45LXLIFT
 62
1
 10
4653.104
 20
-6318.264
 30
821.000
 70
    32
  0
VERTEX
  8
M45LXLIFT
 62
1
 10
4662.836
 20
-6324.108
 30
821.000
 70
    32
  0
VERTEX
  8
M45LXLIFT
 62
1
 10
4676.682
 20
-6327.381
 30
821.000
 70
    32
  0
VERTEX
  8
M45LXLIFT
 62
1
 10
4686.123
 20
-6331.682
 30
821.000
 70
    32
  0
VERTEX
  8
M45LXLIFT
 62
1
 10
4696.676
 20
-6348.484
 30
821.000
 70
    32
  0
VERTEX
  8
M45LXLIFT
 62
1
 10
4708.138
 20
-6364.595
 30
821.000
 70
    32
  0
VERTEX
  8
M45LXLIFT
 62
1
 10
4714.395
 20
-6373.851
 30
821.000
 70
    32
  0
VERTEX
  8
M45LXLIFT
 62
1
 10
4716.385
 20
-6383.589
 30
821.000
 70
    32
  0
VERTEX
  8
M45LXLIFT
 62
1
 10
4717.571
 20
-6396.916
 30
821.000
 70
    32
  0
VERTEX
  8
M45LXLIFT
 62
1
 10
4713.035
 20
-6408.081
 30
821.000
 70
    32
  0
SEQEND
  8
M45LXLIFT
  0
POLYLINE
  8
M45LXLIFT
 62
1
 66
     1
 70
     9
  0
VERTEX
  8
M45LXLIFT
 62
1
 10
4727.218
 20
-6426.759
 30
817.000
 70
    32
  0
VERTEX
  8
M45LXLIFT
 62
1
 10
4726.562
 20
-6437.514
 30
817.000
 70
    32
  0
VERTEX
  8
M45LXLIFT
 62
1
 10
4722.168
 20
-6443.056
 30
817.000
 70
    32
  0
VERTEX
  8
M45LXLIFT
 62
1
 10
4709.475
 20
-6453.356
 30
817.000
 70
    32
  0
VERTEX
  8
M45LXLIFT
 62
1
 10
4695.424
 20
-6459.835
 30
817.000
 70
    32
  0
VERTEX
  8
M45LXLIFT
 62
1
 10
4690.513
 20
-6458.160
 30
817.000
 70
    32
  0
VERTEX
  8
M45LXLIFT
 62
1
 10
4682.076
 20
-6466.221
 30
817.000
 70
    32
  0
VERTEX
  8
M45LXLIFT
 62
1
 10
4669.450
 20
-6470.073
 30
817.000
 70
    32
  0
VERTEX
  8
M45LXLIFT
 62
1
 10
4658.990
 20
-6480.553
 30
817.000
 70
    32
  0
VERTEX
  8
M45LXLIFT
 62
1
 10
4658.438
 20
-6488.251
 30
817.000
 70
    32
  0
VERTEX
  8
M45LXLIFT
 62
1
 10
4649.553
 20
-6491.800
 30
817.000
 70
    32
  0
VERTEX
  8
M45LXLIFT
 62
1
 10
4645.729
 20
-6484.005
 30
817.000
 70
    32
  0
VERTEX
  8
M45LXLIFT
 62
1
 10
4641.828
 20
-6474.946
 30
817.000
 70
    32
  0
VERTEX
  8
M45LXLIFT
 62
1
 10
4635.702
 20
-6461.069
 30
817.000
 70
    32
  0
VERTEX
  8
M45LXLIFT
 62
1
 10
4637.364
 20
-6453.961
 30
817.000
 70
    32
  0
VERTEX
  8
M45LXLIFT
 62
1
 10
4641.819
 20
-6449.807
 30
817.000
 70
    32
  0
VERTEX
  8
M45LXLIFT
 62
1
 10
4650.807
 20
-6448.717
 30
817.000
 70
    32
  0
VERTEX
  8
M45LXLIFT
 62
1
 10
4656.637
 20
-6454.216
 30
817.000
 70
    32
  0
VERTEX
  8
M45LXLIFT
 62
1
 10
4665.633
 20
-6448.488
 30
817.000
 70
    32
  0
VERTEX
  8
M45LXLIFT
 62
1
 10
4676.016
 20
-6442.699
 30
817.000
 70
    32
  0
VERTEX
  8
M45LXLIFT
 62
1
 10
4685.791
 20
-6432.188
 30
817.000
 70
    32
  0
VERTEX
  8
M45LXLIFT
 62
1
 10
4698.388
 20
-6423.505
 30
817.000
 70
    32
  0
VERTEX
  8
M45LXLIFT
 62
1
 10
4712.094
 20
-6418.170
 30
817.000
 70
    32
  0
VERTEX
  8
M45LXLIFT
 62
1
 10
4722.098
 20
-6416.530
 30
817.000
 70
    32
  0
SEQEND
  8
M45LXLIFT
  0
POLYLINE
  8
M45LXLIFT
 62
1
 66
     1
 70
     9
  0
VERTEX
  8
M45LXLIFT
 62
1
 10
4708.410
 20
-6466.503
 30
796.000
 70
    32
  0
VERTEX
  8
M45LXLIFT
 62
1
 10
4713.555
 20
-6460.375
 30
796.000
 70
    32
  0
VERTEX
  8
M45LXLIFT
 62
1
 10
4724.731
 20
-6449.427
 30
796.000
 70
    32
  0
VERTEX
  8
M45LXLIFT
 62
1
 10
4729.694
 20
-6446.966
 30
796.000
 70
    32
  0
VERTEX
  8
M45LXLIFT
 62
1
 10
4743.872
 20
-6449.504
 30
796.000
 70
    32
  0
VERTEX
  8
M45LXLIFT
 62
1
 10
4750.078
 20
-6457.788
 30
796.000
 70
    32
  0
VERTEX
  8
M45LXLIFT
 62
1
 10
4760.181
 20
-6464.094
 30
796.000
 70
    32
  0
VERTEX
  8
M45LXLIFT
 62
1
 10
4770.844
 20
-6468.098
 30
796.000
 70
    32
  0
VERTEX
  8
M45LXLIFT
 62
1
 10
4772.611
 20
-6476.347
 30
796.000
 70
    32
  0
VERTEX
  8
M45LXLIFT
 62
1
 10
4772.002
 20
-6483.650
 30
796.000
 70
    32
  0
VERTEX
  8
M45LXLIFT
 62
1
 10
4777.253
 20
-6488.802
 30
796.000
 70
    32
  0
VERTEX
  8
M45LXLIFT
 62
1
 10
4785.571
 20
-6495.806
 30
796.000
 70
    32
  0
VERTEX
  8
M45LXLIFT
 62
1
 10
4781.095
 20
-6504.403
 30
796.000
 70
    32
  0
VERTEX
  8
M45LXLIFT
 62
1
 10
4773.911
 20
-6512.196
 30
796.000
 70
    32
  0
VERTEX
  8
M45LXLIFT
 62
1
 10
4763.915
 20
-6514.854
 30
796.000
 70
    32
  0
VERTEX
  8
M45LXLIFT
 62
1
 10
4753.419
 20
-6514.253
 30
796.000
 70
    32
  0
VERTEX
  8
M45LXLIFT
 62
1
 10
4745.182
 20
-6513.142
 30
796.000
 70
    32
  0
VERTEX
  8
M45LXLIFT
 62
1
 10
4735.563
 20
-6512.534
 30
796.000
 70
    32
  0
VERTEX
  8
M45LXLIFT
 62
1
 10
4727.524
 20
-6505.317
 30
796.000
 70
    32
  0
VERTEX
  8
M45LXLIFT
 62
1
 10
4717.840
 20
-6498.692
 30
796.000
 70
    32
  0
VERTEX
  8
M45LXLIFT
 62
1
 10
4712.212
 20
-6490.297
 30
796.000
 70
    32
  0
VERTEX
  8
M45LXLIFT
 62
1
 10
4706.734
 20
-6483.113
 30
796.000
 70
    32
  0
VERTEX
  8
M45LXLIFT
 62
1
 10
4699.795
 20
-6477.483
 30
796.000
 70
    32
  0
VERTEX
  8
M45LXLIFT
 62
1
 10
4700.425
 20
-6472.812
 30
796.000
 70
    32
  0
SEQEND
  8
M45LXLIFT
  0
POLYLINE
  8
M45LXLIFT
 62
1
 66
     1
 70
     9
  0
VERTEX
  8
M45LXLIFT
 62
1
 10
4810.163
 20
-6564.086
 30
799.000
 70
    32
  0
VERTEX
  8
M45LXLIFT
 62
1
 10
4806.131
 20
-6560.100
 30
799.000
 70
    32
  0
VERTEX
  8
M45LXLIFT
 62
1
 10
4799.288
 20
-6562.119
 30
799.000
 70
    32
  0
VERTEX
  8
M45LXLIFT
 62
1
 10
4792.712
 20
-6560.294
 30
799.000
 70
    32
  0
VERTEX
  8
M45LXLIFT
 62
1
 10
4793.647
 20
-6554.286
 30
799.000
 70
    32
  0
VERTEX
  8
M45LXLIFT
 62
1
 10
4796.124
 20
-6547.986
 30
799.000
 70
    32
  0
VERTEX
  8
M45LXLIFT
 62
1
 10
4802.551
 20
-6542.093
 30
799.000
 70
    32
  0
VERTEX
  8
M45LXLIFT
 62
1
 10
4813.498
 20
-6542.129
 30
799.000
 70
    32
  0
VERTEX
  8
M45LXLIFT
 62
1
 10
4822.235
 20
-6546.499
 30
799.000
 70
    32
  0
VERTEX
  8
M45LXLIFT
 62
1
 10
4831.035
 20
-6554.570
 30
799.000
 70
    32
  0
VERTEX
  8
M45LXLIFT
 62
1
 10
4832.241
 20
-6562.806
 30
799.000
 70
    32
  0
VERTEX
  8
M45LXLIFT
 62
1
 10
4830.811
 20
-6570.624
 30
799.000
 70
    32
  0
VERTEX
  8
M45LXLIFT
 62
1
 10
4826.011
 20
-6573.732
 30
799.000
 70
    32
  0
VERTEX
  8
M45LXLIFT
 62
1
 10
4818.737
 20
-6570.123
 30
799.000
 70
    32
  0
SEQEND
  8
M45LXLIFT
  0
ENDSEC
  0
EOF
