999
********************************
999
*   DXF File - Entities Only   *
999
*        3D Data Format        *
999
*     Output from ENVISAGE     *
999
*     31-Dec-2007 15:09:15     *
999
********************************
  0
SECTION 
  2
HEADER
  9
$ACADVER
  1
AC1009
  9
$EXTMIN
 10
-290000.000
 20
-250000.000
 30
-4000.000
  9
$EXTMAX
 10
320000.000
 20
160000.000
 30
6000.000
  0
ENDSEC
  0
SECTION
  2
ENTITIES
  0
POLYLINE
  8
M47LXLIFT
 62
6
 66
     1
 70
     9
  0
VERTEX
  8
M47LXLIFT
 62
6
 10
4819.551
 20
-6644.556
 30
664.000
 70
    32
  0
VERTEX
  8
M47LXLIFT
 62
6
 10
4842.542
 20
-6646.732
 30
664.000
 70
    32
  0
VERTEX
  8
M47LXLIFT
 62
6
 10
4845.356
 20
-6645.681
 30
664.000
 70
    32
  0
VERTEX
  8
M47LXLIFT
 62
6
 10
4863.891
 20
-6670.539
 30
664.000
 70
    32
  0
VERTEX
  8
M47LXLIFT
 62
6
 10
4871.248
 20
-6686.778
 30
664.000
 70
    32
  0
VERTEX
  8
M47LXLIFT
 62
6
 10
4873.808
 20
-6697.704
 30
664.000
 70
    32
  0
VERTEX
  8
M47LXLIFT
 62
6
 10
4868.107
 20
-6702.563
 30
664.000
 70
    32
  0
VERTEX
  8
M47LXLIFT
 62
6
 10
4862.415
 20
-6698.111
 30
664.000
 70
    32
  0
VERTEX
  8
M47LXLIFT
 62
6
 10
4842.847
 20
-6702.345
 30
664.000
 70
    32
  0
VERTEX
  8
M47LXLIFT
 62
6
 10
4832.416
 20
-6697.623
 30
664.000
 70
    32
  0
VERTEX
  8
M47LXLIFT
 62
6
 10
4826.536
 20
-6703.585
 30
664.000
 70
    32
  0
VERTEX
  8
M47LXLIFT
 62
6
 10
4814.155
 20
-6689.988
 30
664.000
 70
    32
  0
VERTEX
  8
M47LXLIFT
 62
6
 10
4810.910
 20
-6652.396
 30
664.000
 70
    32
  0
SEQEND
  8
M47LXLIFT
  0
POLYLINE
  8
M47LXLIFT
 62
3
 66
     1
 70
     9
  0
VERTEX
  8
M47LXLIFT
 62
3
 10
4996.271
 20
-6877.707
 30
628.000
 70
    32
  0
VERTEX
  8
M47LXLIFT
 62
3
 10
4989.082
 20
-6881.619
 30
628.000
 70
    32
  0
VERTEX
  8
M47LXLIFT
 62
3
 10
4989.434
 20
-6887.757
 30
628.000
 70
    32
  0
VERTEX
  8
M47LXLIFT
 62
3
 10
4989.995
 20
-6899.259
 30
628.000
 70
    32
  0
VERTEX
  8
M47LXLIFT
 62
3
 10
4983.685
 20
-6903.166
 30
628.000
 70
    32
  0
VERTEX
  8
M47LXLIFT
 62
3
 10
4973.412
 20
-6906.217
 30
628.000
 70
    32
  0
VERTEX
  8
M47LXLIFT
 62
3
 10
4966.819
 20
-6903.934
 30
628.000
 70
    32
  0
VERTEX
  8
M47LXLIFT
 62
3
 10
4962.707
 20
-6898.663
 30
628.000
 70
    32
  0
VERTEX
  8
M47LXLIFT
 62
3
 10
4967.329
 20
-6891.951
 30
628.000
 70
    32
  0
VERTEX
  8
M47LXLIFT
 62
3
 10
4969.437
 20
-6882.509
 30
628.000
 70
    32
  0
VERTEX
  8
M47LXLIFT
 62
3
 10
4969.013
 20
-6861.296
 30
628.000
 70
    32
  0
VERTEX
  8
M47LXLIFT
 62
3
 10
4966.547
 20
-6845.830
 30
628.000
 70
    32
  0
VERTEX
  8
M47LXLIFT
 62
3
 10
4971.381
 20
-6836.196
 30
628.000
 70
    32
  0
VERTEX
  8
M47LXLIFT
 62
3
 10
4977.755
 20
-6825.393
 30
628.000
 70
    32
  0
VERTEX
  8
M47LXLIFT
 62
3
 10
4982.670
 20
-6823.429
 30
628.000
 70
    32
  0
VERTEX
  8
M47LXLIFT
 62
3
 10
4986.729
 20
-6828.630
 30
628.000
 70
    32
  0
VERTEX
  8
M47LXLIFT
 62
3
 10
4993.128
 20
-6836.913
 30
628.000
 70
    32
  0
VERTEX
  8
M47LXLIFT
 62
3
 10
4995.497
 20
-6844.833
 30
628.000
 70
    32
  0
VERTEX
  8
M47LXLIFT
 62
3
 10
4996.685
 20
-6855.416
 30
628.000
 70
    32
  0
VERTEX
  8
M47LXLIFT
 62
3
 10
4998.710
 20
-6861.719
 30
628.000
 70
    32
  0
VERTEX
  8
M47LXLIFT
 62
3
 10
5003.884
 20
-6873.915
 30
628.000
 70
    32
  0
SEQEND
  8
M47LXLIFT
  0
POLYLINE
  8
M47LXLIFT
 62
3
 66
     1
 70
     9
  0
VERTEX
  8
M47LXLIFT
 62
3
 10
4991.396
 20
-6880.886
 30
646.000
 70
    32
  0
VERTEX
  8
M47LXLIFT
 62
3
 10
4989.637
 20
-6886.399
 30
646.000
 70
    32
  0
VERTEX
  8
M47LXLIFT
 62
3
 10
4983.814
 20
-6889.752
 30
646.000
 70
    32
  0
VERTEX
  8
M47LXLIFT
 62
3
 10
4972.952
 20
-6894.696
 30
646.000
 70
    32
  0
VERTEX
  8
M47LXLIFT
 62
3
 10
4968.358
 20
-6892.705
 30
646.000
 70
    32
  0
VERTEX
  8
M47LXLIFT
 62
3
 10
4965.876
 20
-6887.336
 30
646.000
 70
    32
  0
VERTEX
  8
M47LXLIFT
 62
3
 10
4965.548
 20
-6881.491
 30
646.000
 70
    32
  0
VERTEX
  8
M47LXLIFT
 62
3
 10
4967.024
 20
-6874.989
 30
646.000
 70
    32
  0
VERTEX
  8
M47LXLIFT
 62
3
 10
4964.966
 20
-6871.702
 30
646.000
 70
    32
  0
VERTEX
  8
M47LXLIFT
 62
3
 10
4962.096
 20
-6862.052
 30
646.000
 70
    32
  0
VERTEX
  8
M47LXLIFT
 62
3
 10
4959.219
 20
-6852.841
 30
646.000
 70
    32
  0
VERTEX
  8
M47LXLIFT
 62
3
 10
4958.025
 20
-6846.103
 30
646.000
 70
    32
  0
VERTEX
  8
M47LXLIFT
 62
3
 10
4963.750
 20
-6839.018
 30
646.000
 70
    32
  0
VERTEX
  8
M47LXLIFT
 62
3
 10
4969.168
 20
-6834.655
 30
646.000
 70
    32
  0
VERTEX
  8
M47LXLIFT
 62
3
 10
4975.230
 20
-6836.125
 30
646.000
 70
    32
  0
VERTEX
  8
M47LXLIFT
 62
3
 10
4978.219
 20
-6843.842
 30
646.000
 70
    32
  0
VERTEX
  8
M47LXLIFT
 62
3
 10
4982.464
 20
-6855.537
 30
646.000
 70
    32
  0
SEQEND
  8
M47LXLIFT
  0
POLYLINE
  8
M47LXLIFT
 62
3
 66
     1
 70
     9
  0
VERTEX
  8
M47LXLIFT
 62
3
 10
4988.992
 20
-6878.128
 30
637.000
 70
    32
  0
VERTEX
  8
M47LXLIFT
 62
3
 10
4984.343
 20
-6882.055
 30
637.000
 70
    32
  0
VERTEX
  8
M47LXLIFT
 62
3
 10
4981.460
 20
-6887.960
 30
637.000
 70
    32
  0
VERTEX
  8
M47LXLIFT
 62
3
 10
4978.518
 20
-6890.644
 30
637.000
 70
    32
  0
VERTEX
  8
M47LXLIFT
 62
3
 10
4972.323
 20
-6890.801
 30
637.000
 70
    32
  0
VERTEX
  8
M47LXLIFT
 62
3
 10
4963.082
 20
-6892.303
 30
637.000
 70
    32
  0
VERTEX
  8
M47LXLIFT
 62
3
 10
4963.054
 20
-6882.098
 30
637.000
 70
    32
  0
VERTEX
  8
M47LXLIFT
 62
3
 10
4964.611
 20
-6875.418
 30
637.000
 70
    32
  0
VERTEX
  8
M47LXLIFT
 62
3
 10
4964.933
 20
-6867.787
 30
637.000
 70
    32
  0
VERTEX
  8
M47LXLIFT
 62
3
 10
4960.048
 20
-6858.831
 30
637.000
 70
    32
  0
VERTEX
  8
M47LXLIFT
 62
3
 10
4957.711
 20
-6848.892
 30
637.000
 70
    32
  0
VERTEX
  8
M47LXLIFT
 62
3
 10
4960.594
 20
-6840.595
 30
637.000
 70
    32
  0
VERTEX
  8
M47LXLIFT
 62
3
 10
4967.609
 20
-6834.838
 30
637.000
 70
    32
  0
VERTEX
  8
M47LXLIFT
 62
3
 10
4975.266
 20
-6835.793
 30
637.000
 70
    32
  0
VERTEX
  8
M47LXLIFT
 62
3
 10
4982.807
 20
-6838.682
 30
637.000
 70
    32
  0
VERTEX
  8
M47LXLIFT
 62
3
 10
4985.053
 20
-6846.403
 30
637.000
 70
    32
  0
VERTEX
  8
M47LXLIFT
 62
3
 10
4986.860
 20
-6857.707
 30
637.000
 70
    32
  0
VERTEX
  8
M47LXLIFT
 62
3
 10
4985.840
 20
-6869.761
 30
637.000
 70
    32
  0
SEQEND
  8
M47LXLIFT
  0
POLYLINE
  8
M47LXLIFT
 62
3
 66
     1
 70
     9
  0
VERTEX
  8
M47LXLIFT
 62
3
 10
4968.257
 20
-6914.531
 30
654.000
 70
    32
  0
VERTEX
  8
M47LXLIFT
 62
3
 10
4977.845
 20
-6914.773
 30
654.000
 70
    32
  0
VERTEX
  8
M47LXLIFT
 62
3
 10
4986.942
 20
-6914.935
 30
654.000
 70
    32
  0
VERTEX
  8
M47LXLIFT
 62
3
 10
4993.415
 20
-6911.901
 30
654.000
 70
    32
  0
VERTEX
  8
M47LXLIFT
 62
3
 10
4993.814
 20
-6903.283
 30
654.000
 70
    32
  0
VERTEX
  8
M47LXLIFT
 62
3
 10
4991.254
 20
-6892.357
 30
654.000
 70
    32
  0
VERTEX
  8
M47LXLIFT
 62
3
 10
4989.915
 20
-6880.120
 30
654.000
 70
    32
  0
VERTEX
  8
M47LXLIFT
 62
3
 10
4990.761
 20
-6873.776
 30
654.000
 70
    32
  0
VERTEX
  8
M47LXLIFT
 62
3
 10
4984.030
 20
-6861.415
 30
654.000
 70
    32
  0
VERTEX
  8
M47LXLIFT
 62
3
 10
4982.728
 20
-6850.883
 30
654.000
 70
    32
  0
VERTEX
  8
M47LXLIFT
 62
3
 10
4981.497
 20
-6840.299
 30
654.000
 70
    32
  0
VERTEX
  8
M47LXLIFT
 62
3
 10
4980.125
 20
-6830.574
 30
654.000
 70
    32
  0
VERTEX
  8
M47LXLIFT
 62
3
 10
4982.735
 20
-6826.532
 30
654.000
 70
    32
  0
VERTEX
  8
M47LXLIFT
 62
3
 10
4976.425
 20
-6811.597
 30
654.000
 70
    32
  0
VERTEX
  8
M47LXLIFT
 62
3
 10
4964.798
 20
-6812.280
 30
654.000
 70
    32
  0
VERTEX
  8
M47LXLIFT
 62
3
 10
4954.360
 20
-6814.164
 30
654.000
 70
    32
  0
VERTEX
  8
M47LXLIFT
 62
3
 10
4948.211
 20
-6819.454
 30
654.000
 70
    32
  0
VERTEX
  8
M47LXLIFT
 62
3
 10
4949.086
 20
-6830.294
 30
654.000
 70
    32
  0
VERTEX
  8
M47LXLIFT
 62
3
 10
4956.083
 20
-6848.739
 30
654.000
 70
    32
  0
VERTEX
  8
M47LXLIFT
 62
3
 10
4962.763
 20
-6867.196
 30
654.000
 70
    32
  0
VERTEX
  8
M47LXLIFT
 62
3
 10
4967.063
 20
-6873.624
 30
654.000
 70
    32
  0
VERTEX
  8
M47LXLIFT
 62
3
 10
4966.458
 20
-6884.663
 30
654.000
 70
    32
  0
VERTEX
  8
M47LXLIFT
 62
3
 10
4968.367
 20
-6899.195
 30
654.000
 70
    32
  0
SEQEND
  8
M47LXLIFT
  0
POLYLINE
  8
M47LXLIFT
 62
13
 66
     1
 70
     9
  0
VERTEX
  8
M47LXLIFT
 62
13
 10
5385.774
 20
-7282.270
 30
652.000
 70
    32
  0
VERTEX
  8
M47LXLIFT
 62
13
 10
5379.583
 20
-7265.794
 30
652.000
 70
    32
  0
VERTEX
  8
M47LXLIFT
 62
13
 10
5372.606
 20
-7238.049
 30
652.000
 70
    32
  0
VERTEX
  8
M47LXLIFT
 62
13
 10
5365.222
 20
-7220.376
 30
652.000
 70
    32
  0
VERTEX
  8
M47LXLIFT
 62
13
 10
5358.520
 20
-7203.945
 30
652.000
 70
    32
  0
VERTEX
  8
M47LXLIFT
 62
13
 10
5355.239
 20
-7182.644
 30
652.000
 70
    32
  0
VERTEX
  8
M47LXLIFT
 62
13
 10
5354.163
 20
-7170.824
 30
652.000
 70
    32
  0
VERTEX
  8
M47LXLIFT
 62
13
 10
5369.522
 20
-7158.600
 30
652.000
 70
    32
  0
VERTEX
  8
M47LXLIFT
 62
13
 10
5356.133
 20
-7153.319
 30
652.000
 70
    32
  0
VERTEX
  8
M47LXLIFT
 62
13
 10
5345.317
 20
-7143.348
 30
652.000
 70
    32
  0
VERTEX
  8
M47LXLIFT
 62
13
 10
5331.039
 20
-7140.885
 30
652.000
 70
    32
  0
VERTEX
  8
M47LXLIFT
 62
13
 10
5329.302
 20
-7153.767
 30
652.000
 70
    32
  0
VERTEX
  8
M47LXLIFT
 62
13
 10
5325.020
 20
-7159.697
 30
652.000
 70
    32
  0
VERTEX
  8
M47LXLIFT
 62
13
 10
5329.547
 20
-7168.036
 30
652.000
 70
    32
  0
VERTEX
  8
M47LXLIFT
 62
13
 10
5319.353
 20
-7186.183
 30
652.000
 70
    32
  0
VERTEX
  8
M47LXLIFT
 62
13
 10
5311.479
 20
-7204.385
 30
652.000
 70
    32
  0
VERTEX
  8
M47LXLIFT
 62
13
 10
5314.182
 20
-7217.849
 30
652.000
 70
    32
  0
VERTEX
  8
M47LXLIFT
 62
13
 10
5324.695
 20
-7222.609
 30
652.000
 70
    32
  0
VERTEX
  8
M47LXLIFT
 62
13
 10
5333.727
 20
-7222.033
 30
652.000
 70
    32
  0
VERTEX
  8
M47LXLIFT
 62
13
 10
5339.196
 20
-7227.627
 30
652.000
 70
    32
  0
VERTEX
  8
M47LXLIFT
 62
13
 10
5341.715
 20
-7248.176
 30
652.000
 70
    32
  0
VERTEX
  8
M47LXLIFT
 62
13
 10
5349.909
 20
-7264.719
 30
652.000
 70
    32
  0
VERTEX
  8
M47LXLIFT
 62
13
 10
5357.015
 20
-7283.355
 30
652.000
 70
    32
  0
VERTEX
  8
M47LXLIFT
 62
13
 10
5363.628
 20
-7293.224
 30
652.000
 70
    32
  0
VERTEX
  8
M47LXLIFT
 62
13
 10
5372.156
 20
-7297.793
 30
652.000
 70
    32
  0
VERTEX
  8
M47LXLIFT
 62
13
 10
5380.266
 20
-7291.152
 30
652.000
 70
    32
  0
SEQEND
  8
M47LXLIFT
  0
POLYLINE
  8
M47LXLIFT
 62
13
 66
     1
 70
     9
  0
VERTEX
  8
M47LXLIFT
 62
13
 10
5384.987
 20
-7291.586
 30
657.000
 70
    32
  0
VERTEX
  8
M47LXLIFT
 62
13
 10
5384.560
 20
-7280.316
 30
657.000
 70
    32
  0
VERTEX
  8
M47LXLIFT
 62
13
 10
5383.437
 20
-7259.808
 30
657.000
 70
    32
  0
VERTEX
  8
M47LXLIFT
 62
13
 10
5379.901
 20
-7244.066
 30
657.000
 70
    32
  0
VERTEX
  8
M47LXLIFT
 62
13
 10
5374.793
 20
-7231.403
 30
657.000
 70
    32
  0
VERTEX
  8
M47LXLIFT
 62
13
 10
5365.379
 20
-7219.674
 30
657.000
 70
    32
  0
VERTEX
  8
M47LXLIFT
 62
13
 10
5362.303
 20
-7209.985
 30
657.000
 70
    32
  0
VERTEX
  8
M47LXLIFT
 62
13
 10
5360.024
 20
-7203.510
 30
657.000
 70
    32
  0
VERTEX
  8
M47LXLIFT
 62
13
 10
5355.776
 20
-7203.321
 30
657.000
 70
    32
  0
VERTEX
  8
M47LXLIFT
 62
13
 10
5351.192
 20
-7200.559
 30
657.000
 70
    32
  0
VERTEX
  8
M47LXLIFT
 62
13
 10
5349.872
 20
-7193.611
 30
657.000
 70
    32
  0
VERTEX
  8
M47LXLIFT
 62
13
 10
5357.092
 20
-7188.307
 30
657.000
 70
    32
  0
VERTEX
  8
M47LXLIFT
 62
13
 10
5357.749
 20
-7183.507
 30
657.000
 70
    32
  0
VERTEX
  8
M47LXLIFT
 62
13
 10
5354.213
 20
-7176.637
 30
657.000
 70
    32
  0
VERTEX
  8
M47LXLIFT
 62
13
 10
5353.474
 20
-7169.595
 30
657.000
 70
    32
  0
VERTEX
  8
M47LXLIFT
 62
13
 10
5359.801
 20
-7159.741
 30
657.000
 70
    32
  0
VERTEX
  8
M47LXLIFT
 62
13
 10
5363.798
 20
-7149.507
 30
657.000
 70
    32
  0
VERTEX
  8
M47LXLIFT
 62
13
 10
5357.138
 20
-7139.800
 30
657.000
 70
    32
  0
VERTEX
  8
M47LXLIFT
 62
13
 10
5350.469
 20
-7130.532
 30
657.000
 70
    32
  0
VERTEX
  8
M47LXLIFT
 62
13
 10
5348.032
 20
-7119.626
 30
657.000
 70
    32
  0
VERTEX
  8
M47LXLIFT
 62
13
 10
5345.380
 20
-7114.285
 30
657.000
 70
    32
  0
VERTEX
  8
M47LXLIFT
 62
13
 10
5337.694
 20
-7120.897
 30
657.000
 70
    32
  0
VERTEX
  8
M47LXLIFT
 62
13
 10
5330.894
 20
-7132.499
 30
657.000
 70
    32
  0
VERTEX
  8
M47LXLIFT
 62
13
 10
5328.966
 20
-7144.707
 30
657.000
 70
    32
  0
VERTEX
  8
M47LXLIFT
 62
13
 10
5323.405
 20
-7157.580
 30
657.000
 70
    32
  0
VERTEX
  8
M47LXLIFT
 62
13
 10
5319.057
 20
-7175.749
 30
657.000
 70
    32
  0
VERTEX
  8
M47LXLIFT
 62
13
 10
5315.633
 20
-7195.200
 30
657.000
 70
    32
  0
VERTEX
  8
M47LXLIFT
 62
13
 10
5315.135
 20
-7201.726
 30
657.000
 70
    32
  0
VERTEX
  8
M47LXLIFT
 62
13
 10
5321.926
 20
-7211.014
 30
657.000
 70
    32
  0
VERTEX
  8
M47LXLIFT
 62
13
 10
5336.626
 20
-7213.097
 30
657.000
 70
    32
  0
VERTEX
  8
M47LXLIFT
 62
13
 10
5342.958
 20
-7222.499
 30
657.000
 70
    32
  0
VERTEX
  8
M47LXLIFT
 62
13
 10
5348.664
 20
-7236.895
 30
657.000
 70
    32
  0
VERTEX
  8
M47LXLIFT
 62
13
 10
5356.822
 20
-7260.564
 30
657.000
 70
    32
  0
VERTEX
  8
M47LXLIFT
 62
13
 10
5365.563
 20
-7281.433
 30
657.000
 70
    32
  0
VERTEX
  8
M47LXLIFT
 62
13
 10
5369.357
 20
-7292.120
 30
657.000
 70
    32
  0
SEQEND
  8
M47LXLIFT
  0
POLYLINE
  8
M47LXLIFT
 62
13
 66
     1
 70
     9
  0
VERTEX
  8
M47LXLIFT
 62
13
 10
5348.984
 20
-7147.139
 30
642.000
 70
    32
  0
VERTEX
  8
M47LXLIFT
 62
13
 10
5349.240
 20
-7164.683
 30
642.000
 70
    32
  0
VERTEX
  8
M47LXLIFT
 62
13
 10
5350.058
 20
-7176.272
 30
642.000
 70
    32
  0
VERTEX
  8
M47LXLIFT
 62
13
 10
5349.057
 20
-7185.810
 30
642.000
 70
    32
  0
VERTEX
  8
M47LXLIFT
 62
13
 10
5354.712
 20
-7196.272
 30
642.000
 70
    32
  0
VERTEX
  8
M47LXLIFT
 62
13
 10
5360.264
 20
-7213.770
 30
642.000
 70
    32
  0
VERTEX
  8
M47LXLIFT
 62
13
 10
5368.248
 20
-7228.629
 30
642.000
 70
    32
  0
VERTEX
  8
M47LXLIFT
 62
13
 10
5375.559
 20
-7243.760
 30
642.000
 70
    32
  0
VERTEX
  8
M47LXLIFT
 62
13
 10
5391.835
 20
-7270.316
 30
642.000
 70
    32
  0
VERTEX
  8
M47LXLIFT
 62
13
 10
5399.755
 20
-7290.769
 30
642.000
 70
    32
  0
VERTEX
  8
M47LXLIFT
 62
13
 10
5392.922
 20
-7298.569
 30
642.000
 70
    32
  0
VERTEX
  8
M47LXLIFT
 62
13
 10
5385.828
 20
-7301.229
 30
642.000
 70
    32
  0
VERTEX
  8
M47LXLIFT
 62
13
 10
5374.381
 20
-7298.354
 30
642.000
 70
    32
  0
VERTEX
  8
M47LXLIFT
 62
13
 10
5364.389
 20
-7294.637
 30
642.000
 70
    32
  0
VERTEX
  8
M47LXLIFT
 62
13
 10
5361.360
 20
-7283.897
 30
642.000
 70
    32
  0
VERTEX
  8
M47LXLIFT
 62
13
 10
5356.365
 20
-7271.650
 30
642.000
 70
    32
  0
VERTEX
  8
M47LXLIFT
 62
13
 10
5349.566
 20
-7260.063
 30
642.000
 70
    32
  0
VERTEX
  8
M47LXLIFT
 62
13
 10
5353.088
 20
-7250.103
 30
642.000
 70
    32
  0
VERTEX
  8
M47LXLIFT
 62
13
 10
5354.134
 20
-7241.075
 30
642.000
 70
    32
  0
VERTEX
  8
M47LXLIFT
 62
13
 10
5346.067
 20
-7230.736
 30
642.000
 70
    32
  0
VERTEX
  8
M47LXLIFT
 62
13
 10
5335.059
 20
-7223.082
 30
642.000
 70
    32
  0
VERTEX
  8
M47LXLIFT
 62
13
 10
5330.544
 20
-7220.166
 30
642.000
 70
    32
  0
VERTEX
  8
M47LXLIFT
 62
13
 10
5321.906
 20
-7225.038
 30
642.000
 70
    32
  0
VERTEX
  8
M47LXLIFT
 62
13
 10
5317.153
 20
-7227.626
 30
642.000
 70
    32
  0
VERTEX
  8
M47LXLIFT
 62
13
 10
5309.613
 20
-7228.326
 30
642.000
 70
    32
  0
VERTEX
  8
M47LXLIFT
 62
13
 10
5304.367
 20
-7223.658
 30
642.000
 70
    32
  0
VERTEX
  8
M47LXLIFT
 62
13
 10
5302.205
 20
-7215.006
 30
642.000
 70
    32
  0
VERTEX
  8
M47LXLIFT
 62
13
 10
5304.958
 20
-7203.539
 30
642.000
 70
    32
  0
VERTEX
  8
M47LXLIFT
 62
13
 10
5308.744
 20
-7191.103
 30
642.000
 70
    32
  0
VERTEX
  8
M47LXLIFT
 62
13
 10
5314.324
 20
-7183.671
 30
642.000
 70
    32
  0
VERTEX
  8
M47LXLIFT
 62
13
 10
5320.406
 20
-7170.652
 30
642.000
 70
    32
  0
VERTEX
  8
M47LXLIFT
 62
13
 10
5326.269
 20
-7161.817
 30
642.000
 70
    32
  0
VERTEX
  8
M47LXLIFT
 62
13
 10
5330.122
 20
-7154.554
 30
642.000
 70
    32
  0
VERTEX
  8
M47LXLIFT
 62
13
 10
5333.251
 20
-7151.081
 30
642.000
 70
    32
  0
VERTEX
  8
M47LXLIFT
 62
13
 10
5339.051
 20
-7149.036
 30
642.000
 70
    32
  0
SEQEND
  8
M47LXLIFT
  0
POLYLINE
  8
M47LXLIFT
 62
13
 66
     1
 70
     9
  0
VERTEX
  8
M47LXLIFT
 62
13
 10
5327.913
 20
-7240.692
 30
620.000
 70
    32
  0
VERTEX
  8
M47LXLIFT
 62
13
 10
5341.202
 20
-7240.141
 30
620.000
 70
    32
  0
VERTEX
  8
M47LXLIFT
 62
13
 10
5354.925
 20
-7241.231
 30
620.000
 70
    32
  0
VERTEX
  8
M47LXLIFT
 62
13
 10
5363.301
 20
-7252.733
 30
620.000
 70
    32
  0
VERTEX
  8
M47LXLIFT
 62
13
 10
5369.372
 20
-7265.696
 30
620.000
 70
    32
  0
VERTEX
  8
M47LXLIFT
 62
13
 10
5381.375
 20
-7274.123
 30
620.000
 70
    32
  0
VERTEX
  8
M47LXLIFT
 62
13
 10
5395.976
 20
-7287.611
 30
620.000
 70
    32
  0
VERTEX
  8
M47LXLIFT
 62
13
 10
5402.125
 20
-7290.087
 30
620.000
 70
    32
  0
VERTEX
  8
M47LXLIFT
 62
13
 10
5406.818
 20
-7287.430
 30
620.000
 70
    32
  0
VERTEX
  8
M47LXLIFT
 62
13
 10
5408.635
 20
-7279.480
 30
620.000
 70
    32
  0
VERTEX
  8
M47LXLIFT
 62
13
 10
5398.805
 20
-7266.428
 30
620.000
 70
    32
  0
VERTEX
  8
M47LXLIFT
 62
13
 10
5390.927
 20
-7255.759
 30
620.000
 70
    32
  0
VERTEX
  8
M47LXLIFT
 62
13
 10
5383.176
 20
-7251.082
 30
620.000
 70
    32
  0
VERTEX
  8
M47LXLIFT
 62
13
 10
5374.870
 20
-7248.329
 30
620.000
 70
    32
  0
VERTEX
  8
M47LXLIFT
 62
13
 10
5373.266
 20
-7244.934
 30
620.000
 70
    32
  0
VERTEX
  8
M47LXLIFT
 62
13
 10
5378.695
 20
-7241.198
 30
620.000
 70
    32
  0
VERTEX
  8
M47LXLIFT
 62
13
 10
5379.406
 20
-7230.685
 30
620.000
 70
    32
  0
VERTEX
  8
M47LXLIFT
 62
13
 10
5376.133
 20
-7221.117
 30
620.000
 70
    32
  0
VERTEX
  8
M47LXLIFT
 62
13
 10
5369.366
 20
-7211.376
 30
620.000
 70
    32
  0
VERTEX
  8
M47LXLIFT
 62
13
 10
5363.197
 20
-7196.638
 30
620.000
 70
    32
  0
VERTEX
  8
M47LXLIFT
 62
13
 10
5363.060
 20
-7182.722
 30
620.000
 70
    32
  0
VERTEX
  8
M47LXLIFT
 62
13
 10
5364.792
 20
-7174.507
 30
620.000
 70
    32
  0
VERTEX
  8
M47LXLIFT
 62
13
 10
5364.174
 20
-7167.243
 30
620.000
 70
    32
  0
VERTEX
  8
M47LXLIFT
 62
13
 10
5359.328
 20
-7160.885
 30
620.000
 70
    32
  0
VERTEX
  8
M47LXLIFT
 62
13
 10
5354.087
 20
-7166.222
 30
620.000
 70
    32
  0
VERTEX
  8
M47LXLIFT
 62
13
 10
5348.307
 20
-7176.189
 30
620.000
 70
    32
  0
VERTEX
  8
M47LXLIFT
 62
13
 10
5339.003
 20
-7188.180
 30
620.000
 70
    32
  0
VERTEX
  8
M47LXLIFT
 62
13
 10
5331.234
 20
-7198.400
 30
620.000
 70
    32
  0
VERTEX
  8
M47LXLIFT
 62
13
 10
5325.019
 20
-7205.532
 30
620.000
 70
    32
  0
VERTEX
  8
M47LXLIFT
 62
13
 10
5321.042
 20
-7217.229
 30
620.000
 70
    32
  0
VERTEX
  8
M47LXLIFT
 62
13
 10
5321.260
 20
-7226.631
 30
620.000
 70
    32
  0
SEQEND
  8
M47LXLIFT
  0
POLYLINE
  8
M47LXLIFT
 62
13
 66
     1
 70
     9
  0
VERTEX
  8
M47LXLIFT
 62
13
 10
5292.974
 20
-7308.881
 30
600.000
 70
    32
  0
VERTEX
  8
M47LXLIFT
 62
13
 10
5294.555
 20
-7295.906
 30
600.000
 70
    32
  0
VERTEX
  8
M47LXLIFT
 62
13
 10
5301.902
 20
-7282.400
 30
600.000
 70
    32
  0
VERTEX
  8
M47LXLIFT
 62
13
 10
5311.934
 20
-7269.793
 30
600.000
 70
    32
  0
VERTEX
  8
M47LXLIFT
 62
13
 10
5320.600
 20
-7258.909
 30
600.000
 70
    32
  0
VERTEX
  8
M47LXLIFT
 62
13
 10
5328.440
 20
-7247.316
 30
600.000
 70
    32
  0
VERTEX
  8
M47LXLIFT
 62
13
 10
5333.575
 20
-7234.947
 30
600.000
 70
    32
  0
VERTEX
  8
M47LXLIFT
 62
13
 10
5343.437
 20
-7212.977
 30
600.000
 70
    32
  0
VERTEX
  8
M47LXLIFT
 62
13
 10
5354.561
 20
-7212.098
 30
600.000
 70
    32
  0
VERTEX
  8
M47LXLIFT
 62
13
 10
5362.017
 20
-7213.495
 30
600.000
 70
    32
  0
VERTEX
  8
M47LXLIFT
 62
13
 10
5371.717
 20
-7230.221
 30
600.000
 70
    32
  0
VERTEX
  8
M47LXLIFT
 62
13
 10
5377.927
 20
-7242.631
 30
600.000
 70
    32
  0
VERTEX
  8
M47LXLIFT
 62
13
 10
5367.801
 20
-7250.240
 30
600.000
 70
    32
  0
VERTEX
  8
M47LXLIFT
 62
13
 10
5349.980
 20
-7257.483
 30
600.000
 70
    32
  0
VERTEX
  8
M47LXLIFT
 62
13
 10
5336.492
 20
-7267.798
 30
600.000
 70
    32
  0
VERTEX
  8
M47LXLIFT
 62
13
 10
5329.073
 20
-7292.454
 30
600.000
 70
    32
  0
VERTEX
  8
M47LXLIFT
 62
13
 10
5323.012
 20
-7315.072
 30
600.000
 70
    32
  0
VERTEX
  8
M47LXLIFT
 62
13
 10
5312.129
 20
-7320.092
 30
600.000
 70
    32
  0
VERTEX
  8
M47LXLIFT
 62
13
 10
5297.802
 20
-7316.452
 30
600.000
 70
    32
  0
SEQEND
  8
M47LXLIFT
  0
POLYLINE
  8
M47LXLIFT
 62
13
 66
     1
 70
     9
  0
VERTEX
  8
M47LXLIFT
 62
13
 10
5418.339
 20
-7290.993
 30
611.000
 70
    32
  0
VERTEX
  8
M47LXLIFT
 62
13
 10
5410.869
 20
-7293.442
 30
611.000
 70
    32
  0
VERTEX
  8
M47LXLIFT
 62
13
 10
5402.640
 20
-7290.122
 30
611.000
 70
    32
  0
VERTEX
  8
M47LXLIFT
 62
13
 10
5400.195
 20
-7282.213
 30
611.000
 70
    32
  0
VERTEX
  8
M47LXLIFT
 62
13
 10
5395.528
 20
-7275.287
 30
611.000
 70
    32
  0
VERTEX
  8
M47LXLIFT
 62
13
 10
5388.538
 20
-7270.835
 30
611.000
 70
    32
  0
VERTEX
  8
M47LXLIFT
 62
13
 10
5382.281
 20
-7269.008
 30
611.000
 70
    32
  0
VERTEX
  8
M47LXLIFT
 62
13
 10
5375.299
 20
-7267.824
 30
611.000
 70
    32
  0
VERTEX
  8
M47LXLIFT
 62
13
 10
5375.377
 20
-7262.747
 30
611.000
 70
    32
  0
VERTEX
  8
M47LXLIFT
 62
13
 10
5378.340
 20
-7259.364
 30
611.000
 70
    32
  0
VERTEX
  8
M47LXLIFT
 62
13
 10
5376.107
 20
-7255.445
 30
611.000
 70
    32
  0
VERTEX
  8
M47LXLIFT
 62
13
 10
5370.118
 20
-7253.092
 30
611.000
 70
    32
  0
VERTEX
  8
M47LXLIFT
 62
13
 10
5362.164
 20
-7250.442
 30
611.000
 70
    32
  0
VERTEX
  8
M47LXLIFT
 62
13
 10
5356.325
 20
-7247.107
 30
611.000
 70
    32
  0
VERTEX
  8
M47LXLIFT
 62
13
 10
5344.977
 20
-7246.958
 30
611.000
 70
    32
  0
VERTEX
  8
M47LXLIFT
 62
13
 10
5337.592
 20
-7251.745
 30
611.000
 70
    32
  0
VERTEX
  8
M47LXLIFT
 62
13
 10
5336.390
 20
-7260.923
 30
611.000
 70
    32
  0
VERTEX
  8
M47LXLIFT
 62
13
 10
5335.917
 20
-7275.238
 30
611.000
 70
    32
  0
VERTEX
  8
M47LXLIFT
 62
13
 10
5327.892
 20
-7291.298
 30
611.000
 70
    32
  0
VERTEX
  8
M47LXLIFT
 62
13
 10
5327.207
 20
-7303.695
 30
611.000
 70
    32
  0
VERTEX
  8
M47LXLIFT
 62
13
 10
5319.644
 20
-7312.978
 30
611.000
 70
    32
  0
VERTEX
  8
M47LXLIFT
 62
13
 10
5311.482
 20
-7318.337
 30
611.000
 70
    32
  0
VERTEX
  8
M47LXLIFT
 62
13
 10
5303.078
 20
-7314.928
 30
611.000
 70
    32
  0
VERTEX
  8
M47LXLIFT
 62
13
 10
5297.785
 20
-7309.226
 30
611.000
 70
    32
  0
VERTEX
  8
M47LXLIFT
 62
13
 10
5295.452
 20
-7298.507
 30
611.000
 70
    32
  0
VERTEX
  8
M47LXLIFT
 62
13
 10
5296.583
 20
-7289.381
 30
611.000
 70
    32
  0
VERTEX
  8
M47LXLIFT
 62
13
 10
5300.313
 20
-7282.595
 30
611.000
 70
    32
  0
VERTEX
  8
M47LXLIFT
 62
13
 10
5307.299
 20
-7285.413
 30
611.000
 70
    32
  0
VERTEX
  8
M47LXLIFT
 62
13
 10
5313.180
 20
-7279.771
 30
611.000
 70
    32
  0
VERTEX
  8
M47LXLIFT
 62
13
 10
5314.229
 20
-7269.941
 30
611.000
 70
    32
  0
VERTEX
  8
M47LXLIFT
 62
13
 10
5321.420
 20
-7271.408
 30
611.000
 70
    32
  0
VERTEX
  8
M47LXLIFT
 62
13
 10
5324.811
 20
-7271.419
 30
611.000
 70
    32
  0
VERTEX
  8
M47LXLIFT
 62
13
 10
5325.619
 20
-7261.113
 30
611.000
 70
    32
  0
VERTEX
  8
M47LXLIFT
 62
13
 10
5325.459
 20
-7246.828
 30
611.000
 70
    32
  0
VERTEX
  8
M47LXLIFT
 62
13
 10
5328.306
 20
-7234.255
 30
611.000
 70
    32
  0
VERTEX
  8
M47LXLIFT
 62
13
 10
5331.738
 20
-7221.143
 30
611.000
 70
    32
  0
VERTEX
  8
M47LXLIFT
 62
13
 10
5336.342
 20
-7208.585
 30
611.000
 70
    32
  0
VERTEX
  8
M47LXLIFT
 62
13
 10
5341.631
 20
-7210.580
 30
611.000
 70
    32
  0
VERTEX
  8
M47LXLIFT
 62
13
 10
5347.869
 20
-7208.384
 30
611.000
 70
    32
  0
VERTEX
  8
M47LXLIFT
 62
13
 10
5351.394
 20
-7202.950
 30
611.000
 70
    32
  0
VERTEX
  8
M47LXLIFT
 62
13
 10
5359.682
 20
-7201.316
 30
611.000
 70
    32
  0
VERTEX
  8
M47LXLIFT
 62
13
 10
5368.991
 20
-7203.732
 30
611.000
 70
    32
  0
VERTEX
  8
M47LXLIFT
 62
13
 10
5375.132
 20
-7210.882
 30
611.000
 70
    32
  0
VERTEX
  8
M47LXLIFT
 62
13
 10
5369.717
 20
-7217.600
 30
611.000
 70
    32
  0
VERTEX
  8
M47LXLIFT
 62
13
 10
5374.093
 20
-7227.686
 30
611.000
 70
    32
  0
VERTEX
  8
M47LXLIFT
 62
13
 10
5381.906
 20
-7238.733
 30
611.000
 70
    32
  0
VERTEX
  8
M47LXLIFT
 62
13
 10
5397.795
 20
-7250.376
 30
611.000
 70
    32
  0
VERTEX
  8
M47LXLIFT
 62
13
 10
5406.619
 20
-7268.423
 30
611.000
 70
    32
  0
VERTEX
  8
M47LXLIFT
 62
13
 10
5415.760
 20
-7274.018
 30
611.000
 70
    32
  0
VERTEX
  8
M47LXLIFT
 62
13
 10
5420.640
 20
-7278.715
 30
611.000
 70
    32
  0
VERTEX
  8
M47LXLIFT
 62
13
 10
5419.728
 20
-7282.660
 30
611.000
 70
    32
  0
SEQEND
  8
M47LXLIFT
  0
POLYLINE
  8
M47LXLIFT
 62
13
 66
     1
 70
     9
  0
VERTEX
  8
M47LXLIFT
 62
13
 10
5344.278
 20
-7156.719
 30
632.000
 70
    32
  0
VERTEX
  8
M47LXLIFT
 62
13
 10
5344.211
 20
-7151.248
 30
632.000
 70
    32
  0
VERTEX
  8
M47LXLIFT
 62
13
 10
5352.015
 20
-7150.182
 30
632.000
 70
    32
  0
VERTEX
  8
M47LXLIFT
 62
13
 10
5353.772
 20
-7161.659
 30
632.000
 70
    32
  0
VERTEX
  8
M47LXLIFT
 62
13
 10
5350.180
 20
-7170.018
 30
632.000
 70
    32
  0
VERTEX
  8
M47LXLIFT
 62
13
 10
5353.019
 20
-7183.213
 30
632.000
 70
    32
  0
VERTEX
  8
M47LXLIFT
 62
13
 10
5356.820
 20
-7195.346
 30
632.000
 70
    32
  0
VERTEX
  8
M47LXLIFT
 62
13
 10
5355.080
 20
-7207.600
 30
632.000
 70
    32
  0
VERTEX
  8
M47LXLIFT
 62
13
 10
5361.510
 20
-7217.959
 30
632.000
 70
    32
  0
VERTEX
  8
M47LXLIFT
 62
13
 10
5364.591
 20
-7224.344
 30
632.000
 70
    32
  0
VERTEX
  8
M47LXLIFT
 62
13
 10
5369.759
 20
-7229.697
 30
632.000
 70
    32
  0
VERTEX
  8
M47LXLIFT
 62
13
 10
5374.778
 20
-7236.599
 30
632.000
 70
    32
  0
VERTEX
  8
M47LXLIFT
 62
13
 10
5376.324
 20
-7242.272
 30
632.000
 70
    32
  0
VERTEX
  8
M47LXLIFT
 62
13
 10
5376.751
 20
-7251.997
 30
632.000
 70
    32
  0
VERTEX
  8
M47LXLIFT
 62
13
 10
5380.254
 20
-7267.229
 30
632.000
 70
    32
  0
VERTEX
  8
M47LXLIFT
 62
13
 10
5386.780
 20
-7273.207
 30
632.000
 70
    32
  0
VERTEX
  8
M47LXLIFT
 62
13
 10
5394.555
 20
-7276.028
 30
632.000
 70
    32
  0
VERTEX
  8
M47LXLIFT
 62
13
 10
5396.256
 20
-7281.032
 30
632.000
 70
    32
  0
VERTEX
  8
M47LXLIFT
 62
13
 10
5391.771
 20
-7287.198
 30
632.000
 70
    32
  0
VERTEX
  8
M47LXLIFT
 62
13
 10
5383.433
 20
-7290.325
 30
632.000
 70
    32
  0
VERTEX
  8
M47LXLIFT
 62
13
 10
5375.015
 20
-7285.784
 30
632.000
 70
    32
  0
VERTEX
  8
M47LXLIFT
 62
13
 10
5373.124
 20
-7275.293
 30
632.000
 70
    32
  0
VERTEX
  8
M47LXLIFT
 62
13
 10
5369.198
 20
-7265.904
 30
632.000
 70
    32
  0
VERTEX
  8
M47LXLIFT
 62
13
 10
5361.001
 20
-7256.998
 30
632.000
 70
    32
  0
VERTEX
  8
M47LXLIFT
 62
13
 10
5354.028
 20
-7246.942
 30
632.000
 70
    32
  0
VERTEX
  8
M47LXLIFT
 62
13
 10
5348.183
 20
-7234.152
 30
632.000
 70
    32
  0
VERTEX
  8
M47LXLIFT
 62
13
 10
5340.409
 20
-7216.641
 30
632.000
 70
    32
  0
VERTEX
  8
M47LXLIFT
 62
13
 10
5326.374
 20
-7214.155
 30
632.000
 70
    32
  0
VERTEX
  8
M47LXLIFT
 62
13
 10
5318.485
 20
-7209.874
 30
632.000
 70
    32
  0
VERTEX
  8
M47LXLIFT
 62
13
 10
5317.841
 20
-7198.989
 30
632.000
 70
    32
  0
VERTEX
  8
M47LXLIFT
 62
13
 10
5322.342
 20
-7180.773
 30
632.000
 70
    32
  0
VERTEX
  8
M47LXLIFT
 62
13
 10
5331.593
 20
-7165.466
 30
632.000
 70
    32
  0
SEQEND
  8
M47LXLIFT
  0
POLYLINE
  8
M47LXLIFT
 62
13
 66
     1
 70
     9
  0
VERTEX
  8
M47LXLIFT
 62
13
 10
5405.416
 20
-7206.624
 30
548.000
 70
    32
  0
VERTEX
  8
M47LXLIFT
 62
13
 10
5401.737
 20
-7223.180
 30
548.000
 70
    32
  0
VERTEX
  8
M47LXLIFT
 62
13
 10
5396.287
 20
-7253.554
 30
548.000
 70
    32
  0
VERTEX
  8
M47LXLIFT
 62
13
 10
5391.536
 20
-7280.448
 30
548.000
 70
    32
  0
VERTEX
  8
M47LXLIFT
 62
13
 10
5386.175
 20
-7315.800
 30
548.000
 70
    32
  0
VERTEX
  8
M47LXLIFT
 62
13
 10
5380.026
 20
-7329.481
 30
548.000
 70
    32
  0
VERTEX
  8
M47LXLIFT
 62
13
 10
5369.106
 20
-7349.565
 30
548.000
 70
    32
  0
VERTEX
  8
M47LXLIFT
 62
13
 10
5364.973
 20
-7354.616
 30
548.000
 70
    32
  0
VERTEX
  8
M47LXLIFT
 62
13
 10
5351.674
 20
-7350.157
 30
548.000
 70
    32
  0
VERTEX
  8
M47LXLIFT
 62
13
 10
5335.736
 20
-7345.688
 30
548.000
 70
    32
  0
VERTEX
  8
M47LXLIFT
 62
13
 10
5327.892
 20
-7335.302
 30
548.000
 70
    32
  0
VERTEX
  8
M47LXLIFT
 62
13
 10
5325.991
 20
-7314.788
 30
548.000
 70
    32
  0
VERTEX
  8
M47LXLIFT
 62
13
 10
5327.892
 20
-7293.636
 30
548.000
 70
    32
  0
VERTEX
  8
M47LXLIFT
 62
13
 10
5342.271
 20
-7270.098
 30
548.000
 70
    32
  0
VERTEX
  8
M47LXLIFT
 62
13
 10
5353.513
 20
-7258.546
 30
548.000
 70
    32
  0
VERTEX
  8
M47LXLIFT
 62
13
 10
5362.364
 20
-7241.867
 30
548.000
 70
    32
  0
VERTEX
  8
M47LXLIFT
 62
13
 10
5369.310
 20
-7221.453
 30
548.000
 70
    32
  0
VERTEX
  8
M47LXLIFT
 62
13
 10
5379.356
 20
-7204.760
 30
548.000
 70
    32
  0
VERTEX
  8
M47LXLIFT
 62
13
 10
5388.899
 20
-7201.820
 30
548.000
 70
    32
  0
SEQEND
  8
M47LXLIFT
  0
POLYLINE
  8
M47LXLIFT
 62
13
 66
     1
 70
     9
  0
VERTEX
  8
M47LXLIFT
 62
13
 10
5382.291
 20
-7202.316
 30
537.000
 70
    32
  0
VERTEX
  8
M47LXLIFT
 62
13
 10
5384.776
 20
-7211.327
 30
537.000
 70
    32
  0
VERTEX
  8
M47LXLIFT
 62
13
 10
5375.467
 20
-7215.463
 30
537.000
 70
    32
  0
VERTEX
  8
M47LXLIFT
 62
13
 10
5366.725
 20
-7225.327
 30
537.000
 70
    32
  0
VERTEX
  8
M47LXLIFT
 62
13
 10
5363.675
 20
-7234.870
 30
537.000
 70
    32
  0
VERTEX
  8
M47LXLIFT
 62
13
 10
5364.260
 20
-7241.792
 30
537.000
 70
    32
  0
VERTEX
  8
M47LXLIFT
 62
13
 10
5368.833
 20
-7247.148
 30
537.000
 70
    32
  0
VERTEX
  8
M47LXLIFT
 62
13
 10
5366.381
 20
-7257.340
 30
537.000
 70
    32
  0
VERTEX
  8
M47LXLIFT
 62
13
 10
5359.980
 20
-7272.368
 30
537.000
 70
    32
  0
VERTEX
  8
M47LXLIFT
 62
13
 10
5362.816
 20
-7281.994
 30
537.000
 70
    32
  0
VERTEX
  8
M47LXLIFT
 62
13
 10
5359.679
 20
-7291.273
 30
537.000
 70
    32
  0
VERTEX
  8
M47LXLIFT
 62
13
 10
5359.931
 20
-7299.215
 30
537.000
 70
    32
  0
VERTEX
  8
M47LXLIFT
 62
13
 10
5354.157
 20
-7307.618
 30
537.000
 70
    32
  0
VERTEX
  8
M47LXLIFT
 62
13
 10
5352.735
 20
-7308.796
 30
537.000
 70
    32
  0
VERTEX
  8
M47LXLIFT
 62
13
 10
5346.185
 20
-7313.826
 30
537.000
 70
    32
  0
VERTEX
  8
M47LXLIFT
 62
13
 10
5338.277
 20
-7333.722
 30
537.000
 70
    32
  0
VERTEX
  8
M47LXLIFT
 62
13
 10
5333.819
 20
-7339.928
 30
537.000
 70
    32
  0
VERTEX
  8
M47LXLIFT
 62
13
 10
5340.338
 20
-7362.500
 30
537.000
 70
    32
  0
VERTEX
  8
M47LXLIFT
 62
13
 10
5347.383
 20
-7361.932
 30
537.000
 70
    32
  0
VERTEX
  8
M47LXLIFT
 62
13
 10
5358.063
 20
-7359.183
 30
537.000
 70
    32
  0
VERTEX
  8
M47LXLIFT
 62
13
 10
5368.801
 20
-7362.653
 30
537.000
 70
    32
  0
VERTEX
  8
M47LXLIFT
 62
13
 10
5374.005
 20
-7366.655
 30
537.000
 70
    32
  0
VERTEX
  8
M47LXLIFT
 62
13
 10
5382.102
 20
-7363.099
 30
537.000
 70
    32
  0
VERTEX
  8
M47LXLIFT
 62
13
 10
5387.123
 20
-7358.229
 30
537.000
 70
    32
  0
VERTEX
  8
M47LXLIFT
 62
13
 10
5391.930
 20
-7348.684
 30
537.000
 70
    32
  0
VERTEX
  8
M47LXLIFT
 62
13
 10
5391.319
 20
-7331.782
 30
537.000
 70
    32
  0
VERTEX
  8
M47LXLIFT
 62
13
 10
5390.708
 20
-7314.002
 30
537.000
 70
    32
  0
VERTEX
  8
M47LXLIFT
 62
13
 10
5394.665
 20
-7296.745
 30
537.000
 70
    32
  0
VERTEX
  8
M47LXLIFT
 62
13
 10
5396.713
 20
-7287.624
 30
537.000
 70
    32
  0
VERTEX
  8
M47LXLIFT
 62
13
 10
5406.644
 20
-7269.836
 30
537.000
 70
    32
  0
VERTEX
  8
M47LXLIFT
 62
13
 10
5412.772
 20
-7264.683
 30
537.000
 70
    32
  0
VERTEX
  8
M47LXLIFT
 62
13
 10
5407.687
 20
-7256.306
 30
537.000
 70
    32
  0
VERTEX
  8
M47LXLIFT
 62
13
 10
5406.784
 20
-7247.205
 30
537.000
 70
    32
  0
VERTEX
  8
M47LXLIFT
 62
13
 10
5405.313
 20
-7231.060
 30
537.000
 70
    32
  0
VERTEX
  8
M47LXLIFT
 62
13
 10
5405.549
 20
-7217.917
 30
537.000
 70
    32
  0
VERTEX
  8
M47LXLIFT
 62
13
 10
5411.213
 20
-7204.103
 30
537.000
 70
    32
  0
VERTEX
  8
M47LXLIFT
 62
13
 10
5393.622
 20
-7199.408
 30
537.000
 70
    32
  0
VERTEX
  8
M47LXLIFT
 62
13
 10
5391.968
 20
-7196.475
 30
537.000
 70
    32
  0
SEQEND
  8
M47LXLIFT
  0
POLYLINE
  8
M47LXLIFT
 62
13
 66
     1
 70
     9
  0
VERTEX
  8
M47LXLIFT
 62
13
 10
5312.488
 20
-7329.343
 30
590.000
 70
    32
  0
VERTEX
  8
M47LXLIFT
 62
13
 10
5317.771
 20
-7328.528
 30
590.000
 70
    32
  0
VERTEX
  8
M47LXLIFT
 62
13
 10
5323.937
 20
-7324.455
 30
590.000
 70
    32
  0
VERTEX
  8
M47LXLIFT
 62
13
 10
5323.413
 20
-7316.890
 30
590.000
 70
    32
  0
VERTEX
  8
M47LXLIFT
 62
13
 10
5325.133
 20
-7309.862
 30
590.000
 70
    32
  0
VERTEX
  8
M47LXLIFT
 62
13
 10
5331.326
 20
-7306.421
 30
590.000
 70
    32
  0
VERTEX
  8
M47LXLIFT
 62
13
 10
5335.008
 20
-7298.503
 30
590.000
 70
    32
  0
VERTEX
  8
M47LXLIFT
 62
13
 10
5337.000
 20
-7289.317
 30
590.000
 70
    32
  0
VERTEX
  8
M47LXLIFT
 62
13
 10
5340.200
 20
-7280.444
 30
590.000
 70
    32
  0
VERTEX
  8
M47LXLIFT
 62
13
 10
5340.839
 20
-7272.682
 30
590.000
 70
    32
  0
VERTEX
  8
M47LXLIFT
 62
13
 10
5339.499
 20
-7264.299
 30
590.000
 70
    32
  0
VERTEX
  8
M47LXLIFT
 62
13
 10
5341.555
 20
-7259.965
 30
590.000
 70
    32
  0
VERTEX
  8
M47LXLIFT
 62
13
 10
5351.205
 20
-7254.105
 30
590.000
 70
    32
  0
VERTEX
  8
M47LXLIFT
 62
13
 10
5363.244
 20
-7249.873
 30
590.000
 70
    32
  0
VERTEX
  8
M47LXLIFT
 62
13
 10
5375.240
 20
-7246.327
 30
590.000
 70
    32
  0
VERTEX
  8
M47LXLIFT
 62
13
 10
5383.908
 20
-7240.315
 30
590.000
 70
    32
  0
VERTEX
  8
M47LXLIFT
 62
13
 10
5380.619
 20
-7223.014
 30
590.000
 70
    32
  0
VERTEX
  8
M47LXLIFT
 62
13
 10
5375.435
 20
-7219.946
 30
590.000
 70
    32
  0
VERTEX
  8
M47LXLIFT
 62
13
 10
5365.372
 20
-7216.309
 30
590.000
 70
    32
  0
VERTEX
  8
M47LXLIFT
 62
13
 10
5358.216
 20
-7215.009
 30
590.000
 70
    32
  0
VERTEX
  8
M47LXLIFT
 62
13
 10
5348.764
 20
-7224.862
 30
590.000
 70
    32
  0
VERTEX
  8
M47LXLIFT
 62
13
 10
5340.981
 20
-7233.275
 30
590.000
 70
    32
  0
VERTEX
  8
M47LXLIFT
 62
13
 10
5333.596
 20
-7240.744
 30
590.000
 70
    32
  0
VERTEX
  8
M47LXLIFT
 62
13
 10
5329.819
 20
-7249.276
 30
590.000
 70
    32
  0
VERTEX
  8
M47LXLIFT
 62
13
 10
5325.284
 20
-7259.452
 30
590.000
 70
    32
  0
VERTEX
  8
M47LXLIFT
 62
13
 10
5325.125
 20
-7265.338
 30
590.000
 70
    32
  0
VERTEX
  8
M47LXLIFT
 62
13
 10
5327.572
 20
-7269.428
 30
590.000
 70
    32
  0
VERTEX
  8
M47LXLIFT
 62
13
 10
5319.581
 20
-7274.728
 30
590.000
 70
    32
  0
VERTEX
  8
M47LXLIFT
 62
13
 10
5313.137
 20
-7281.400
 30
590.000
 70
    32
  0
VERTEX
  8
M47LXLIFT
 62
13
 10
5306.335
 20
-7294.431
 30
590.000
 70
    32
  0
VERTEX
  8
M47LXLIFT
 62
13
 10
5302.958
 20
-7304.848
 30
590.000
 70
    32
  0
VERTEX
  8
M47LXLIFT
 62
13
 10
5303.749
 20
-7313.524
 30
590.000
 70
    32
  0
SEQEND
  8
M47LXLIFT
  0
POLYLINE
  8
M47LXLIFT
 62
13
 66
     1
 70
     9
  0
VERTEX
  8
M47LXLIFT
 62
13
 10
5319.928
 20
-7333.075
 30
579.000
 70
    32
  0
VERTEX
  8
M47LXLIFT
 62
13
 10
5325.869
 20
-7335.000
 30
579.000
 70
    32
  0
VERTEX
  8
M47LXLIFT
 62
13
 10
5327.567
 20
-7327.581
 30
579.000
 70
    32
  0
VERTEX
  8
M47LXLIFT
 62
13
 10
5326.696
 20
-7321.865
 30
579.000
 70
    32
  0
VERTEX
  8
M47LXLIFT
 62
13
 10
5334.718
 20
-7306.314
 30
579.000
 70
    32
  0
VERTEX
  8
M47LXLIFT
 62
13
 10
5342.776
 20
-7289.637
 30
579.000
 70
    32
  0
VERTEX
  8
M47LXLIFT
 62
13
 10
5349.885
 20
-7272.571
 30
579.000
 70
    32
  0
VERTEX
  8
M47LXLIFT
 62
13
 10
5363.209
 20
-7250.310
 30
579.000
 70
    32
  0
VERTEX
  8
M47LXLIFT
 62
13
 10
5369.596
 20
-7247.399
 30
579.000
 70
    32
  0
VERTEX
  8
M47LXLIFT
 62
13
 10
5377.293
 20
-7251.085
 30
579.000
 70
    32
  0
VERTEX
  8
M47LXLIFT
 62
13
 10
5383.302
 20
-7241.650
 30
579.000
 70
    32
  0
VERTEX
  8
M47LXLIFT
 62
13
 10
5387.499
 20
-7219.956
 30
579.000
 70
    32
  0
VERTEX
  8
M47LXLIFT
 62
13
 10
5385.536
 20
-7214.836
 30
579.000
 70
    32
  0
VERTEX
  8
M47LXLIFT
 62
13
 10
5378.715
 20
-7213.350
 30
579.000
 70
    32
  0
VERTEX
  8
M47LXLIFT
 62
13
 10
5366.578
 20
-7216.059
 30
579.000
 70
    32
  0
VERTEX
  8
M47LXLIFT
 62
13
 10
5356.412
 20
-7218.173
 30
579.000
 70
    32
  0
VERTEX
  8
M47LXLIFT
 62
13
 10
5350.203
 20
-7219.414
 30
579.000
 70
    32
  0
VERTEX
  8
M47LXLIFT
 62
13
 10
5345.295
 20
-7233.404
 30
579.000
 70
    32
  0
VERTEX
  8
M47LXLIFT
 62
13
 10
5340.544
 20
-7249.365
 30
579.000
 70
    32
  0
VERTEX
  8
M47LXLIFT
 62
13
 10
5331.133
 20
-7264.967
 30
579.000
 70
    32
  0
VERTEX
  8
M47LXLIFT
 62
13
 10
5324.828
 20
-7272.098
 30
579.000
 70
    32
  0
VERTEX
  8
M47LXLIFT
 62
13
 10
5314.925
 20
-7287.630
 30
579.000
 70
    32
  0
VERTEX
  8
M47LXLIFT
 62
13
 10
5307.102
 20
-7298.750
 30
579.000
 70
    32
  0
VERTEX
  8
M47LXLIFT
 62
13
 10
5305.655
 20
-7316.192
 30
579.000
 70
    32
  0
VERTEX
  8
M47LXLIFT
 62
13
 10
5313.310
 20
-7324.520
 30
579.000
 70
    32
  0
SEQEND
  8
M47LXLIFT
  0
POLYLINE
  8
M47LXLIFT
 62
13
 66
     1
 70
     9
  0
VERTEX
  8
M47LXLIFT
 62
13
 10
5397.495
 20
-7241.151
 30
569.000
 70
    32
  0
VERTEX
  8
M47LXLIFT
 62
13
 10
5393.324
 20
-7225.575
 30
569.000
 70
    32
  0
VERTEX
  8
M47LXLIFT
 62
13
 10
5393.765
 20
-7211.100
 30
569.000
 70
    32
  0
VERTEX
  8
M47LXLIFT
 62
13
 10
5389.261
 20
-7208.505
 30
569.000
 70
    32
  0
VERTEX
  8
M47LXLIFT
 62
13
 10
5373.996
 20
-7207.877
 30
569.000
 70
    32
  0
VERTEX
  8
M47LXLIFT
 62
13
 10
5362.164
 20
-7205.834
 30
569.000
 70
    32
  0
VERTEX
  8
M47LXLIFT
 62
13
 10
5355.719
 20
-7219.244
 30
569.000
 70
    32
  0
VERTEX
  8
M47LXLIFT
 62
13
 10
5355.659
 20
-7228.868
 30
569.000
 70
    32
  0
VERTEX
  8
M47LXLIFT
 62
13
 10
5351.598
 20
-7235.095
 30
569.000
 70
    32
  0
VERTEX
  8
M47LXLIFT
 62
13
 10
5344.112
 20
-7253.945
 30
569.000
 70
    32
  0
VERTEX
  8
M47LXLIFT
 62
13
 10
5331.094
 20
-7271.928
 30
569.000
 70
    32
  0
VERTEX
  8
M47LXLIFT
 62
13
 10
5319.779
 20
-7285.078
 30
569.000
 70
    32
  0
VERTEX
  8
M47LXLIFT
 62
13
 10
5313.794
 20
-7294.341
 30
569.000
 70
    32
  0
VERTEX
  8
M47LXLIFT
 62
13
 10
5312.617
 20
-7304.671
 30
569.000
 70
    32
  0
VERTEX
  8
M47LXLIFT
 62
13
 10
5321.096
 20
-7315.255
 30
569.000
 70
    32
  0
VERTEX
  8
M47LXLIFT
 62
13
 10
5329.403
 20
-7328.142
 30
569.000
 70
    32
  0
VERTEX
  8
M47LXLIFT
 62
13
 10
5346.278
 20
-7328.141
 30
569.000
 70
    32
  0
VERTEX
  8
M47LXLIFT
 62
13
 10
5356.921
 20
-7325.716
 30
569.000
 70
    32
  0
VERTEX
  8
M47LXLIFT
 62
13
 10
5361.410
 20
-7320.374
 30
569.000
 70
    32
  0
VERTEX
  8
M47LXLIFT
 62
13
 10
5368.896
 20
-7301.525
 30
569.000
 70
    32
  0
VERTEX
  8
M47LXLIFT
 62
13
 10
5377.126
 20
-7287.576
 30
569.000
 70
    32
  0
VERTEX
  8
M47LXLIFT
 62
13
 10
5384.116
 20
-7270.286
 30
569.000
 70
    32
  0
VERTEX
  8
M47LXLIFT
 62
13
 10
5383.977
 20
-7251.879
 30
569.000
 70
    32
  0
SEQEND
  8
M47LXLIFT
  0
POLYLINE
  8
M47LXLIFT
 62
13
 66
     1
 70
     9
  0
VERTEX
  8
M47LXLIFT
 62
13
 10
5396.784
 20
-7209.101
 30
558.000
 70
    32
  0
VERTEX
  8
M47LXLIFT
 62
13
 10
5397.023
 20
-7218.380
 30
558.000
 70
    32
  0
VERTEX
  8
M47LXLIFT
 62
13
 10
5393.070
 20
-7234.734
 30
558.000
 70
    32
  0
VERTEX
  8
M47LXLIFT
 62
13
 10
5392.163
 20
-7249.303
 30
558.000
 70
    32
  0
VERTEX
  8
M47LXLIFT
 62
13
 10
5394.601
 20
-7263.391
 30
558.000
 70
    32
  0
VERTEX
  8
M47LXLIFT
 62
13
 10
5388.470
 20
-7296.000
 30
558.000
 70
    32
  0
VERTEX
  8
M47LXLIFT
 62
13
 10
5385.405
 20
-7309.098
 30
558.000
 70
    32
  0
VERTEX
  8
M47LXLIFT
 62
13
 10
5381.524
 20
-7317.793
 30
558.000
 70
    32
  0
VERTEX
  8
M47LXLIFT
 62
13
 10
5364.034
 20
-7332.270
 30
558.000
 70
    32
  0
VERTEX
  8
M47LXLIFT
 62
13
 10
5346.910
 20
-7343.221
 30
558.000
 70
    32
  0
VERTEX
  8
M47LXLIFT
 62
13
 10
5335.520
 20
-7344.889
 30
558.000
 70
    32
  0
VERTEX
  8
M47LXLIFT
 62
13
 10
5329.774
 20
-7337.447
 30
558.000
 70
    32
  0
VERTEX
  8
M47LXLIFT
 62
13
 10
5321.943
 20
-7330.872
 30
558.000
 70
    32
  0
VERTEX
  8
M47LXLIFT
 62
13
 10
5317.799
 20
-7315.635
 30
558.000
 70
    32
  0
VERTEX
  8
M47LXLIFT
 62
13
 10
5318.701
 20
-7303.895
 30
558.000
 70
    32
  0
VERTEX
  8
M47LXLIFT
 62
13
 10
5319.022
 20
-7292.252
 30
558.000
 70
    32
  0
VERTEX
  8
M47LXLIFT
 62
13
 10
5320.244
 20
-7284.082
 30
558.000
 70
    32
  0
VERTEX
  8
M47LXLIFT
 62
13
 10
5333.035
 20
-7273.896
 30
558.000
 70
    32
  0
VERTEX
  8
M47LXLIFT
 62
13
 10
5343.518
 20
-7267.999
 30
558.000
 70
    32
  0
VERTEX
  8
M47LXLIFT
 62
13
 10
5348.866
 20
-7259.975
 30
558.000
 70
    32
  0
VERTEX
  8
M47LXLIFT
 62
13
 10
5353.329
 20
-7242.382
 30
558.000
 70
    32
  0
VERTEX
  8
M47LXLIFT
 62
13
 10
5360.161
 20
-7223.714
 30
558.000
 70
    32
  0
VERTEX
  8
M47LXLIFT
 62
13
 10
5367.247
 20
-7209.425
 30
558.000
 70
    32
  0
VERTEX
  8
M47LXLIFT
 62
13
 10
5380.382
 20
-7199.859
 30
558.000
 70
    32
  0
VERTEX
  8
M47LXLIFT
 62
13
 10
5387.689
 20
-7204.968
 30
558.000
 70
    32
  0
SEQEND
  8
M47LXLIFT
  0
POLYLINE
  8
M47LXLIFT
 62
27
 66
     1
 70
     9
  0
VERTEX
  8
M47LXLIFT
 62
27
 10
5380.288
 20
-7183.492
 30
630.000
 70
    32
  0
VERTEX
  8
M47LXLIFT
 62
27
 10
5388.910
 20
-7177.829
 30
630.000
 70
    32
  0
VERTEX
  8
M47LXLIFT
 62
27
 10
5398.021
 20
-7174.556
 30
630.000
 70
    32
  0
VERTEX
  8
M47LXLIFT
 62
27
 10
5407.807
 20
-7169.556
 30
630.000
 70
    32
  0
VERTEX
  8
M47LXLIFT
 62
27
 10
5407.846
 20
-7164.225
 30
630.000
 70
    32
  0
VERTEX
  8
M47LXLIFT
 62
27
 10
5402.888
 20
-7152.749
 30
630.000
 70
    32
  0
VERTEX
  8
M47LXLIFT
 62
27
 10
5395.290
 20
-7150.015
 30
630.000
 70
    32
  0
VERTEX
  8
M47LXLIFT
 62
27
 10
5387.409
 20
-7153.016
 30
630.000
 70
    32
  0
VERTEX
  8
M47LXLIFT
 62
27
 10
5377.338
 20
-7154.589
 30
630.000
 70
    32
  0
VERTEX
  8
M47LXLIFT
 62
27
 10
5371.927
 20
-7152.844
 30
630.000
 70
    32
  0
VERTEX
  8
M47LXLIFT
 62
27
 10
5362.255
 20
-7159.304
 30
630.000
 70
    32
  0
VERTEX
  8
M47LXLIFT
 62
27
 10
5356.544
 20
-7163.419
 30
630.000
 70
    32
  0
VERTEX
  8
M47LXLIFT
 62
27
 10
5367.726
 20
-7180.329
 30
630.000
 70
    32
  0
VERTEX
  8
M47LXLIFT
 62
27
 10
5376.679
 20
-7180.048
 30
630.000
 70
    32
  0
SEQEND
  8
M47LXLIFT
  0
POLYLINE
  8
M47LXLIFT
 62
27
 66
     1
 70
     9
  0
VERTEX
  8
M47LXLIFT
 62
27
 10
5411.799
 20
-7157.445
 30
620.000
 70
    32
  0
VERTEX
  8
M47LXLIFT
 62
27
 10
5417.239
 20
-7162.827
 30
620.000
 70
    32
  0
VERTEX
  8
M47LXLIFT
 62
27
 10
5414.808
 20
-7168.292
 30
620.000
 70
    32
  0
VERTEX
  8
M47LXLIFT
 62
27
 10
5403.949
 20
-7173.374
 30
620.000
 70
    32
  0
VERTEX
  8
M47LXLIFT
 62
27
 10
5394.072
 20
-7177.415
 30
620.000
 70
    32
  0
VERTEX
  8
M47LXLIFT
 62
27
 10
5378.004
 20
-7174.448
 30
620.000
 70
    32
  0
VERTEX
  8
M47LXLIFT
 62
27
 10
5367.731
 20
-7176.604
 30
620.000
 70
    32
  0
VERTEX
  8
M47LXLIFT
 62
27
 10
5363.634
 20
-7170.679
 30
620.000
 70
    32
  0
VERTEX
  8
M47LXLIFT
 62
27
 10
5367.280
 20
-7166.285
 30
620.000
 70
    32
  0
VERTEX
  8
M47LXLIFT
 62
27
 10
5375.964
 20
-7164.634
 30
620.000
 70
    32
  0
VERTEX
  8
M47LXLIFT
 62
27
 10
5388.677
 20
-7161.352
 30
620.000
 70
    32
  0
VERTEX
  8
M47LXLIFT
 62
27
 10
5396.086
 20
-7154.219
 30
620.000
 70
    32
  0
VERTEX
  8
M47LXLIFT
 62
27
 10
5405.285
 20
-7148.499
 30
620.000
 70
    32
  0
SEQEND
  8
M47LXLIFT
  0
POLYLINE
  8
M47LXLIFT
 62
7
 66
     1
 70
     9
  0
VERTEX
  8
M47LXLIFT
 62
7
 10
5461.322
 20
-7148.731
 30
649.000
 70
    32
  0
VERTEX
  8
M47LXLIFT
 62
7
 10
5470.439
 20
-7157.109
 30
649.000
 70
    32
  0
VERTEX
  8
M47LXLIFT
 62
7
 10
5482.270
 20
-7161.890
 30
649.000
 70
    32
  0
VERTEX
  8
M47LXLIFT
 62
7
 10
5491.526
 20
-7168.213
 30
649.000
 70
    32
  0
VERTEX
  8
M47LXLIFT
 62
7
 10
5504.245
 20
-7185.603
 30
649.000
 70
    32
  0
VERTEX
  8
M47LXLIFT
 62
7
 10
5511.531
 20
-7195.201
 30
649.000
 70
    32
  0
VERTEX
  8
M47LXLIFT
 62
7
 10
5510.653
 20
-7199.531
 30
649.000
 70
    32
  0
VERTEX
  8
M47LXLIFT
 62
7
 10
5503.140
 20
-7204.001
 30
649.000
 70
    32
  0
VERTEX
  8
M47LXLIFT
 62
7
 10
5502.495
 20
-7212.399
 30
649.000
 70
    32
  0
VERTEX
  8
M47LXLIFT
 62
7
 10
5509.744
 20
-7225.391
 30
649.000
 70
    32
  0
VERTEX
  8
M47LXLIFT
 62
7
 10
5515.132
 20
-7228.327
 30
649.000
 70
    32
  0
VERTEX
  8
M47LXLIFT
 62
7
 10
5517.101
 20
-7240.478
 30
649.000
 70
    32
  0
VERTEX
  8
M47LXLIFT
 62
7
 10
5521.129
 20
-7249.179
 30
649.000
 70
    32
  0
VERTEX
  8
M47LXLIFT
 62
7
 10
5517.198
 20
-7263.979
 30
649.000
 70
    32
  0
VERTEX
  8
M47LXLIFT
 62
7
 10
5527.338
 20
-7266.727
 30
649.000
 70
    32
  0
VERTEX
  8
M47LXLIFT
 62
7
 10
5536.316
 20
-7268.472
 30
649.000
 70
    32
  0
VERTEX
  8
M47LXLIFT
 62
7
 10
5536.263
 20
-7259.712
 30
649.000
 70
    32
  0
VERTEX
  8
M47LXLIFT
 62
7
 10
5540.034
 20
-7253.827
 30
649.000
 70
    32
  0
VERTEX
  8
M47LXLIFT
 62
7
 10
5546.472
 20
-7245.031
 30
649.000
 70
    32
  0
VERTEX
  8
M47LXLIFT
 62
7
 10
5548.052
 20
-7234.326
 30
649.000
 70
    32
  0
VERTEX
  8
M47LXLIFT
 62
7
 10
5547.897
 20
-7224.227
 30
649.000
 70
    32
  0
VERTEX
  8
M47LXLIFT
 62
7
 10
5543.461
 20
-7215.713
 30
649.000
 70
    32
  0
VERTEX
  8
M47LXLIFT
 62
7
 10
5545.037
 20
-7193.171
 30
649.000
 70
    32
  0
VERTEX
  8
M47LXLIFT
 62
7
 10
5538.704
 20
-7191.029
 30
649.000
 70
    32
  0
VERTEX
  8
M47LXLIFT
 62
7
 10
5539.222
 20
-7180.659
 30
649.000
 70
    32
  0
VERTEX
  8
M47LXLIFT
 62
7
 10
5539.784
 20
-7176.341
 30
649.000
 70
    32
  0
VERTEX
  8
M47LXLIFT
 62
7
 10
5534.191
 20
-7163.235
 30
649.000
 70
    32
  0
VERTEX
  8
M47LXLIFT
 62
7
 10
5530.288
 20
-7152.161
 30
649.000
 70
    32
  0
VERTEX
  8
M47LXLIFT
 62
7
 10
5519.057
 20
-7138.472
 30
649.000
 70
    32
  0
VERTEX
  8
M47LXLIFT
 62
7
 10
5508.780
 20
-7122.353
 30
649.000
 70
    32
  0
VERTEX
  8
M47LXLIFT
 62
7
 10
5500.755
 20
-7123.719
 30
649.000
 70
    32
  0
VERTEX
  8
M47LXLIFT
 62
7
 10
5501.660
 20
-7128.712
 30
649.000
 70
    32
  0
VERTEX
  8
M47LXLIFT
 62
7
 10
5488.400
 20
-7128.551
 30
649.000
 70
    32
  0
VERTEX
  8
M47LXLIFT
 62
7
 10
5478.922
 20
-7128.364
 30
649.000
 70
    32
  0
VERTEX
  8
M47LXLIFT
 62
7
 10
5464.513
 20
-7136.206
 30
649.000
 70
    32
  0
VERTEX
  8
M47LXLIFT
 62
7
 10
5463.019
 20
-7141.634
 30
649.000
 70
    32
  0
SEQEND
  8
M47LXLIFT
  0
POLYLINE
  8
M47LXLIFT
 62
7
 66
     1
 70
     9
  0
VERTEX
  8
M47LXLIFT
 62
7
 10
5542.574
 20
-7240.729
 30
628.000
 70
    32
  0
VERTEX
  8
M47LXLIFT
 62
7
 10
5533.501
 20
-7241.433
 30
628.000
 70
    32
  0
VERTEX
  8
M47LXLIFT
 62
7
 10
5527.496
 20
-7240.360
 30
628.000
 70
    32
  0
VERTEX
  8
M47LXLIFT
 62
7
 10
5527.063
 20
-7232.517
 30
628.000
 70
    32
  0
VERTEX
  8
M47LXLIFT
 62
7
 10
5508.084
 20
-7206.065
 30
628.000
 70
    32
  0
VERTEX
  8
M47LXLIFT
 62
7
 10
5498.807
 20
-7193.120
 30
628.000
 70
    32
  0
VERTEX
  8
M47LXLIFT
 62
7
 10
5484.228
 20
-7184.973
 30
628.000
 70
    32
  0
VERTEX
  8
M47LXLIFT
 62
7
 10
5468.729
 20
-7175.758
 30
628.000
 70
    32
  0
VERTEX
  8
M47LXLIFT
 62
7
 10
5452.959
 20
-7168.515
 30
628.000
 70
    32
  0
VERTEX
  8
M47LXLIFT
 62
7
 10
5445.590
 20
-7165.938
 30
628.000
 70
    32
  0
VERTEX
  8
M47LXLIFT
 62
7
 10
5445.706
 20
-7158.672
 30
628.000
 70
    32
  0
VERTEX
  8
M47LXLIFT
 62
7
 10
5446.919
 20
-7152.560
 30
628.000
 70
    32
  0
VERTEX
  8
M47LXLIFT
 62
7
 10
5459.791
 20
-7145.659
 30
628.000
 70
    32
  0
VERTEX
  8
M47LXLIFT
 62
7
 10
5467.723
 20
-7151.452
 30
628.000
 70
    32
  0
VERTEX
  8
M47LXLIFT
 62
7
 10
5488.543
 20
-7158.947
 30
628.000
 70
    32
  0
VERTEX
  8
M47LXLIFT
 62
7
 10
5510.192
 20
-7148.915
 30
628.000
 70
    32
  0
VERTEX
  8
M47LXLIFT
 62
7
 10
5517.876
 20
-7148.272
 30
628.000
 70
    32
  0
VERTEX
  8
M47LXLIFT
 62
7
 10
5527.738
 20
-7156.024
 30
628.000
 70
    32
  0
VERTEX
  8
M47LXLIFT
 62
7
 10
5535.907
 20
-7166.056
 30
628.000
 70
    32
  0
VERTEX
  8
M47LXLIFT
 62
7
 10
5545.198
 20
-7172.475
 30
628.000
 70
    32
  0
VERTEX
  8
M47LXLIFT
 62
7
 10
5551.488
 20
-7180.179
 30
628.000
 70
    32
  0
VERTEX
  8
M47LXLIFT
 62
7
 10
5559.665
 20
-7191.530
 30
628.000
 70
    32
  0
VERTEX
  8
M47LXLIFT
 62
7
 10
5563.688
 20
-7196.537
 30
628.000
 70
    32
  0
VERTEX
  8
M47LXLIFT
 62
7
 10
5556.886
 20
-7209.542
 30
628.000
 70
    32
  0
VERTEX
  8
M47LXLIFT
 62
7
 10
5561.176
 20
-7218.102
 30
628.000
 70
    32
  0
SEQEND
  8
M47LXLIFT
  0
POLYLINE
  8
M47LXLIFT
 62
7
 66
     1
 70
     9
  0
VERTEX
  8
M47LXLIFT
 62
7
 10
5515.172
 20
-7133.799
 30
638.000
 70
    32
  0
VERTEX
  8
M47LXLIFT
 62
7
 10
5502.466
 20
-7137.714
 30
638.000
 70
    32
  0
VERTEX
  8
M47LXLIFT
 62
7
 10
5491.466
 20
-7139.191
 30
638.000
 70
    32
  0
VERTEX
  8
M47LXLIFT
 62
7
 10
5479.930
 20
-7141.276
 30
638.000
 70
    32
  0
VERTEX
  8
M47LXLIFT
 62
7
 10
5472.448
 20
-7141.607
 30
638.000
 70
    32
  0
VERTEX
  8
M47LXLIFT
 62
7
 10
5466.711
 20
-7140.451
 30
638.000
 70
    32
  0
VERTEX
  8
M47LXLIFT
 62
7
 10
5460.220
 20
-7146.480
 30
638.000
 70
    32
  0
VERTEX
  8
M47LXLIFT
 62
7
 10
5460.972
 20
-7156.484
 30
638.000
 70
    32
  0
VERTEX
  8
M47LXLIFT
 62
7
 10
5467.105
 20
-7163.117
 30
638.000
 70
    32
  0
VERTEX
  8
M47LXLIFT
 62
7
 10
5481.553
 20
-7171.314
 30
638.000
 70
    32
  0
VERTEX
  8
M47LXLIFT
 62
7
 10
5490.071
 20
-7173.601
 30
638.000
 70
    32
  0
VERTEX
  8
M47LXLIFT
 62
7
 10
5500.296
 20
-7179.432
 30
638.000
 70
    32
  0
VERTEX
  8
M47LXLIFT
 62
7
 10
5504.618
 20
-7188.362
 30
638.000
 70
    32
  0
VERTEX
  8
M47LXLIFT
 62
7
 10
5511.774
 20
-7203.279
 30
638.000
 70
    32
  0
VERTEX
  8
M47LXLIFT
 62
7
 10
5519.681
 20
-7224.612
 30
638.000
 70
    32
  0
VERTEX
  8
M47LXLIFT
 62
7
 10
5521.529
 20
-7248.829
 30
638.000
 70
    32
  0
VERTEX
  8
M47LXLIFT
 62
7
 10
5521.479
 20
-7252.347
 30
638.000
 70
    32
  0
VERTEX
  8
M47LXLIFT
 62
7
 10
5527.060
 20
-7253.290
 30
638.000
 70
    32
  0
VERTEX
  8
M47LXLIFT
 62
7
 10
5534.730
 20
-7254.563
 30
638.000
 70
    32
  0
VERTEX
  8
M47LXLIFT
 62
7
 10
5537.815
 20
-7256.560
 30
638.000
 70
    32
  0
VERTEX
  8
M47LXLIFT
 62
7
 10
5545.995
 20
-7255.394
 30
638.000
 70
    32
  0
VERTEX
  8
M47LXLIFT
 62
7
 10
5549.020
 20
-7246.993
 30
638.000
 70
    32
  0
VERTEX
  8
M47LXLIFT
 62
7
 10
5552.101
 20
-7232.242
 30
638.000
 70
    32
  0
VERTEX
  8
M47LXLIFT
 62
7
 10
5551.637
 20
-7210.824
 30
638.000
 70
    32
  0
VERTEX
  8
M47LXLIFT
 62
7
 10
5553.128
 20
-7197.773
 30
638.000
 70
    32
  0
VERTEX
  8
M47LXLIFT
 62
7
 10
5556.121
 20
-7191.571
 30
638.000
 70
    32
  0
VERTEX
  8
M47LXLIFT
 62
7
 10
5550.868
 20
-7184.950
 30
638.000
 70
    32
  0
VERTEX
  8
M47LXLIFT
 62
7
 10
5542.872
 20
-7172.167
 30
638.000
 70
    32
  0
VERTEX
  8
M47LXLIFT
 62
7
 10
5538.026
 20
-7160.573
 30
638.000
 70
    32
  0
VERTEX
  8
M47LXLIFT
 62
7
 10
5533.115
 20
-7150.984
 30
638.000
 70
    32
  0
VERTEX
  8
M47LXLIFT
 62
7
 10
5522.656
 20
-7139.449
 30
638.000
 70
    32
  0
SEQEND
  8
M47LXLIFT
  0
POLYLINE
  8
M47LXLIFT
 62
7
 66
     1
 70
     9
  0
VERTEX
  8
M47LXLIFT
 62
7
 10
5520.168
 20
-7238.210
 30
579.000
 70
    32
  0
VERTEX
  8
M47LXLIFT
 62
7
 10
5505.641
 20
-7226.567
 30
579.000
 70
    32
  0
VERTEX
  8
M47LXLIFT
 62
7
 10
5487.505
 20
-7204.668
 30
579.000
 70
    32
  0
VERTEX
  8
M47LXLIFT
 62
7
 10
5476.109
 20
-7192.220
 30
579.000
 70
    32
  0
VERTEX
  8
M47LXLIFT
 62
7
 10
5473.753
 20
-7178.941
 30
579.000
 70
    32
  0
VERTEX
  8
M47LXLIFT
 62
7
 10
5474.700
 20
-7167.582
 30
579.000
 70
    32
  0
VERTEX
  8
M47LXLIFT
 62
7
 10
5482.865
 20
-7163.232
 30
579.000
 70
    32
  0
VERTEX
  8
M47LXLIFT
 62
7
 10
5494.200
 20
-7168.699
 30
579.000
 70
    32
  0
VERTEX
  8
M47LXLIFT
 62
7
 10
5503.422
 20
-7176.184
 30
579.000
 70
    32
  0
VERTEX
  8
M47LXLIFT
 62
7
 10
5512.458
 20
-7177.990
 30
579.000
 70
    32
  0
VERTEX
  8
M47LXLIFT
 62
7
 10
5533.548
 20
-7173.745
 30
579.000
 70
    32
  0
VERTEX
  8
M47LXLIFT
 62
7
 10
5544.114
 20
-7175.395
 30
579.000
 70
    32
  0
VERTEX
  8
M47LXLIFT
 62
7
 10
5556.610
 20
-7180.212
 30
579.000
 70
    32
  0
VERTEX
  8
M47LXLIFT
 62
7
 10
5565.156
 20
-7193.693
 30
579.000
 70
    32
  0
VERTEX
  8
M47LXLIFT
 62
7
 10
5570.399
 20
-7204.374
 30
579.000
 70
    32
  0
VERTEX
  8
M47LXLIFT
 62
7
 10
5563.354
 20
-7212.717
 30
579.000
 70
    32
  0
VERTEX
  8
M47LXLIFT
 62
7
 10
5553.708
 20
-7219.932
 30
579.000
 70
    32
  0
VERTEX
  8
M47LXLIFT
 62
7
 10
5541.987
 20
-7227.161
 30
579.000
 70
    32
  0
SEQEND
  8
M47LXLIFT
  0
POLYLINE
  8
M47LXLIFT
 62
7
 66
     1
 70
     9
  0
VERTEX
  8
M47LXLIFT
 62
7
 10
5536.135
 20
-7247.633
 30
569.000
 70
    32
  0
VERTEX
  8
M47LXLIFT
 62
7
 10
5522.749
 20
-7244.654
 30
569.000
 70
    32
  0
VERTEX
  8
M47LXLIFT
 62
7
 10
5509.546
 20
-7237.297
 30
569.000
 70
    32
  0
VERTEX
  8
M47LXLIFT
 62
7
 10
5497.926
 20
-7228.676
 30
569.000
 70
    32
  0
VERTEX
  8
M47LXLIFT
 62
7
 10
5493.575
 20
-7219.872
 30
569.000
 70
    32
  0
VERTEX
  8
M47LXLIFT
 62
7
 10
5491.102
 20
-7207.522
 30
569.000
 70
    32
  0
VERTEX
  8
M47LXLIFT
 62
7
 10
5485.998
 20
-7195.892
 30
569.000
 70
    32
  0
VERTEX
  8
M47LXLIFT
 62
7
 10
5487.898
 20
-7184.164
 30
569.000
 70
    32
  0
VERTEX
  8
M47LXLIFT
 62
7
 10
5500.900
 20
-7180.345
 30
569.000
 70
    32
  0
VERTEX
  8
M47LXLIFT
 62
7
 10
5508.247
 20
-7174.444
 30
569.000
 70
    32
  0
VERTEX
  8
M47LXLIFT
 62
7
 10
5514.954
 20
-7174.235
 30
569.000
 70
    32
  0
VERTEX
  8
M47LXLIFT
 62
7
 10
5534.866
 20
-7177.355
 30
569.000
 70
    32
  0
VERTEX
  8
M47LXLIFT
 62
7
 10
5541.714
 20
-7175.846
 30
569.000
 70
    32
  0
VERTEX
  8
M47LXLIFT
 62
7
 10
5551.005
 20
-7173.209
 30
569.000
 70
    32
  0
VERTEX
  8
M47LXLIFT
 62
7
 10
5560.832
 20
-7180.415
 30
569.000
 70
    32
  0
VERTEX
  8
M47LXLIFT
 62
7
 10
5570.975
 20
-7198.060
 30
569.000
 70
    32
  0
VERTEX
  8
M47LXLIFT
 62
7
 10
5576.021
 20
-7220.510
 30
569.000
 70
    32
  0
VERTEX
  8
M47LXLIFT
 62
7
 10
5565.279
 20
-7226.383
 30
569.000
 70
    32
  0
VERTEX
  8
M47LXLIFT
 62
7
 10
5548.385
 20
-7231.733
 30
569.000
 70
    32
  0
VERTEX
  8
M47LXLIFT
 62
7
 10
5542.717
 20
-7235.756
 30
569.000
 70
    32
  0
SEQEND
  8
M47LXLIFT
  0
POLYLINE
  8
M47LXLIFT
 62
7
 66
     1
 70
     9
  0
VERTEX
  8
M47LXLIFT
 62
7
 10
5562.167
 20
-7226.600
 30
596.000
 70
    32
  0
VERTEX
  8
M47LXLIFT
 62
7
 10
5575.224
 20
-7222.519
 30
596.000
 70
    32
  0
VERTEX
  8
M47LXLIFT
 62
7
 10
5582.676
 20
-7219.500
 30
596.000
 70
    32
  0
VERTEX
  8
M47LXLIFT
 62
7
 10
5573.011
 20
-7201.455
 30
596.000
 70
    32
  0
VERTEX
  8
M47LXLIFT
 62
7
 10
5562.234
 20
-7182.906
 30
596.000
 70
    32
  0
VERTEX
  8
M47LXLIFT
 62
7
 10
5553.172
 20
-7170.577
 30
596.000
 70
    32
  0
VERTEX
  8
M47LXLIFT
 62
7
 10
5549.030
 20
-7163.060
 30
596.000
 70
    32
  0
VERTEX
  8
M47LXLIFT
 62
7
 10
5532.721
 20
-7159.209
 30
596.000
 70
    32
  0
VERTEX
  8
M47LXLIFT
 62
7
 10
5522.171
 20
-7159.681
 30
596.000
 70
    32
  0
VERTEX
  8
M47LXLIFT
 62
7
 10
5505.274
 20
-7157.432
 30
596.000
 70
    32
  0
VERTEX
  8
M47LXLIFT
 62
7
 10
5490.087
 20
-7156.989
 30
596.000
 70
    32
  0
VERTEX
  8
M47LXLIFT
 62
7
 10
5480.287
 20
-7156.391
 30
596.000
 70
    32
  0
VERTEX
  8
M47LXLIFT
 62
7
 10
5472.861
 20
-7166.289
 30
596.000
 70
    32
  0
VERTEX
  8
M47LXLIFT
 62
7
 10
5469.579
 20
-7175.189
 30
596.000
 70
    32
  0
VERTEX
  8
M47LXLIFT
 62
7
 10
5469.954
 20
-7181.497
 30
596.000
 70
    32
  0
VERTEX
  8
M47LXLIFT
 62
7
 10
5484.453
 20
-7188.572
 30
596.000
 70
    32
  0
VERTEX
  8
M47LXLIFT
 62
7
 10
5496.681
 20
-7201.566
 30
596.000
 70
    32
  0
VERTEX
  8
M47LXLIFT
 62
7
 10
5510.019
 20
-7218.408
 30
596.000
 70
    32
  0
VERTEX
  8
M47LXLIFT
 62
7
 10
5525.173
 20
-7219.413
 30
596.000
 70
    32
  0
VERTEX
  8
M47LXLIFT
 62
7
 10
5537.114
 20
-7212.997
 30
596.000
 70
    32
  0
VERTEX
  8
M47LXLIFT
 62
7
 10
5549.594
 20
-7210.078
 30
596.000
 70
    32
  0
SEQEND
  8
M47LXLIFT
  0
POLYLINE
  8
M47LXLIFT
 62
7
 66
     1
 70
     9
  0
VERTEX
  8
M47LXLIFT
 62
7
 10
5532.468
 20
-7261.966
 30
659.000
 70
    32
  0
VERTEX
  8
M47LXLIFT
 62
7
 10
5533.184
 20
-7253.336
 30
659.000
 70
    32
  0
VERTEX
  8
M47LXLIFT
 62
7
 10
5532.709
 20
-7240.044
 30
659.000
 70
    32
  0
VERTEX
  8
M47LXLIFT
 62
7
 10
5536.871
 20
-7230.340
 30
659.000
 70
    32
  0
VERTEX
  8
M47LXLIFT
 62
7
 10
5544.565
 20
-7223.289
 30
659.000
 70
    32
  0
VERTEX
  8
M47LXLIFT
 62
7
 10
5540.627
 20
-7209.244
 30
659.000
 70
    32
  0
VERTEX
  8
M47LXLIFT
 62
7
 10
5535.083
 20
-7185.750
 30
659.000
 70
    32
  0
VERTEX
  8
M47LXLIFT
 62
7
 10
5524.981
 20
-7158.177
 30
659.000
 70
    32
  0
VERTEX
  8
M47LXLIFT
 62
7
 10
5509.382
 20
-7134.994
 30
659.000
 70
    32
  0
VERTEX
  8
M47LXLIFT
 62
7
 10
5497.112
 20
-7121.100
 30
659.000
 70
    32
  0
VERTEX
  8
M47LXLIFT
 62
7
 10
5491.678
 20
-7123.171
 30
659.000
 70
    32
  0
VERTEX
  8
M47LXLIFT
 62
7
 10
5482.514
 20
-7124.571
 30
659.000
 70
    32
  0
VERTEX
  8
M47LXLIFT
 62
7
 10
5470.778
 20
-7137.884
 30
659.000
 70
    32
  0
VERTEX
  8
M47LXLIFT
 62
7
 10
5453.633
 20
-7151.952
 30
659.000
 70
    32
  0
VERTEX
  8
M47LXLIFT
 62
7
 10
5455.291
 20
-7156.061
 30
659.000
 70
    32
  0
VERTEX
  8
M47LXLIFT
 62
7
 10
5461.448
 20
-7153.038
 30
659.000
 70
    32
  0
VERTEX
  8
M47LXLIFT
 62
7
 10
5475.245
 20
-7157.176
 30
659.000
 70
    32
  0
VERTEX
  8
M47LXLIFT
 62
7
 10
5488.036
 20
-7162.471
 30
659.000
 70
    32
  0
VERTEX
  8
M47LXLIFT
 62
7
 10
5499.992
 20
-7177.132
 30
659.000
 70
    32
  0
VERTEX
  8
M47LXLIFT
 62
7
 10
5502.793
 20
-7183.881
 30
659.000
 70
    32
  0
VERTEX
  8
M47LXLIFT
 62
7
 10
5500.766
 20
-7200.163
 30
659.000
 70
    32
  0
VERTEX
  8
M47LXLIFT
 62
7
 10
5502.685
 20
-7220.423
 30
659.000
 70
    32
  0
VERTEX
  8
M47LXLIFT
 62
7
 10
5504.330
 20
-7229.626
 30
659.000
 70
    32
  0
VERTEX
  8
M47LXLIFT
 62
7
 10
5498.158
 20
-7236.989
 30
659.000
 70
    32
  0
VERTEX
  8
M47LXLIFT
 62
7
 10
5503.913
 20
-7250.701
 30
659.000
 70
    32
  0
VERTEX
  8
M47LXLIFT
 62
7
 10
5509.315
 20
-7253.847
 30
659.000
 70
    32
  0
VERTEX
  8
M47LXLIFT
 62
7
 10
5513.110
 20
-7252.956
 30
659.000
 70
    32
  0
VERTEX
  8
M47LXLIFT
 62
7
 10
5517.225
 20
-7258.976
 30
659.000
 70
    32
  0
VERTEX
  8
M47LXLIFT
 62
7
 10
5522.346
 20
-7263.839
 30
659.000
 70
    32
  0
SEQEND
  8
M47LXLIFT
  0
POLYLINE
  8
M47LXLIFT
 62
7
 66
     1
 70
     9
  0
VERTEX
  8
M47LXLIFT
 62
7
 10
5543.765
 20
-7238.558
 30
618.000
 70
    32
  0
VERTEX
  8
M47LXLIFT
 62
7
 10
5546.918
 20
-7230.504
 30
618.000
 70
    32
  0
VERTEX
  8
M47LXLIFT
 62
7
 10
5552.256
 20
-7225.748
 30
618.000
 70
    32
  0
VERTEX
  8
M47LXLIFT
 62
7
 10
5561.394
 20
-7226.808
 30
618.000
 70
    32
  0
VERTEX
  8
M47LXLIFT
 62
7
 10
5565.692
 20
-7222.266
 30
618.000
 70
    32
  0
VERTEX
  8
M47LXLIFT
 62
7
 10
5569.244
 20
-7212.074
 30
618.000
 70
    32
  0
VERTEX
  8
M47LXLIFT
 62
7
 10
5569.613
 20
-7203.330
 30
618.000
 70
    32
  0
VERTEX
  8
M47LXLIFT
 62
7
 10
5561.899
 20
-7196.019
 30
618.000
 70
    32
  0
VERTEX
  8
M47LXLIFT
 62
7
 10
5549.463
 20
-7175.956
 30
618.000
 70
    32
  0
VERTEX
  8
M47LXLIFT
 62
7
 10
5542.232
 20
-7166.771
 30
618.000
 70
    32
  0
VERTEX
  8
M47LXLIFT
 62
7
 10
5529.913
 20
-7159.553
 30
618.000
 70
    32
  0
VERTEX
  8
M47LXLIFT
 62
7
 10
5523.296
 20
-7150.464
 30
618.000
 70
    32
  0
VERTEX
  8
M47LXLIFT
 62
7
 10
5513.252
 20
-7147.564
 30
618.000
 70
    32
  0
VERTEX
  8
M47LXLIFT
 62
7
 10
5503.017
 20
-7157.082
 30
618.000
 70
    32
  0
VERTEX
  8
M47LXLIFT
 62
7
 10
5495.477
 20
-7161.051
 30
618.000
 70
    32
  0
VERTEX
  8
M47LXLIFT
 62
7
 10
5473.551
 20
-7156.156
 30
618.000
 70
    32
  0
VERTEX
  8
M47LXLIFT
 62
7
 10
5458.706
 20
-7158.599
 30
618.000
 70
    32
  0
VERTEX
  8
M47LXLIFT
 62
7
 10
5453.623
 20
-7166.539
 30
618.000
 70
    32
  0
VERTEX
  8
M47LXLIFT
 62
7
 10
5460.804
 20
-7179.236
 30
618.000
 70
    32
  0
VERTEX
  8
M47LXLIFT
 62
7
 10
5471.947
 20
-7185.138
 30
618.000
 70
    32
  0
VERTEX
  8
M47LXLIFT
 62
7
 10
5475.645
 20
-7193.202
 30
618.000
 70
    32
  0
VERTEX
  8
M47LXLIFT
 62
7
 10
5497.241
 20
-7208.984
 30
618.000
 70
    32
  0
VERTEX
  8
M47LXLIFT
 62
7
 10
5510.531
 20
-7219.625
 30
618.000
 70
    32
  0
VERTEX
  8
M47LXLIFT
 62
7
 10
5521.148
 20
-7232.863
 30
618.000
 70
    32
  0
VERTEX
  8
M47LXLIFT
 62
7
 10
5532.322
 20
-7237.764
 30
618.000
 70
    32
  0
SEQEND
  8
M47LXLIFT
  0
POLYLINE
  8
M47LXLIFT
 62
7
 66
     1
 70
     9
  0
VERTEX
  8
M47LXLIFT
 62
7
 10
5546.077
 20
-7237.790
 30
606.000
 70
    32
  0
VERTEX
  8
M47LXLIFT
 62
7
 10
5540.557
 20
-7240.220
 30
606.000
 70
    32
  0
VERTEX
  8
M47LXLIFT
 62
7
 10
5529.775
 20
-7237.581
 30
606.000
 70
    32
  0
VERTEX
  8
M47LXLIFT
 62
7
 10
5515.330
 20
-7225.529
 30
606.000
 70
    32
  0
VERTEX
  8
M47LXLIFT
 62
7
 10
5502.661
 20
-7213.370
 30
606.000
 70
    32
  0
VERTEX
  8
M47LXLIFT
 62
7
 10
5494.748
 20
-7207.962
 30
606.000
 70
    32
  0
VERTEX
  8
M47LXLIFT
 62
7
 10
5486.347
 20
-7206.186
 30
606.000
 70
    32
  0
VERTEX
  8
M47LXLIFT
 62
7
 10
5480.608
 20
-7195.139
 30
606.000
 70
    32
  0
VERTEX
  8
M47LXLIFT
 62
7
 10
5483.392
 20
-7190.033
 30
606.000
 70
    32
  0
VERTEX
  8
M47LXLIFT
 62
7
 10
5473.593
 20
-7185.470
 30
606.000
 70
    32
  0
VERTEX
  8
M47LXLIFT
 62
7
 10
5464.225
 20
-7181.789
 30
606.000
 70
    32
  0
VERTEX
  8
M47LXLIFT
 62
7
 10
5465.795
 20
-7170.593
 30
606.000
 70
    32
  0
VERTEX
  8
M47LXLIFT
 62
7
 10
5472.715
 20
-7160.585
 30
606.000
 70
    32
  0
VERTEX
  8
M47LXLIFT
 62
7
 10
5482.872
 20
-7158.229
 30
606.000
 70
    32
  0
VERTEX
  8
M47LXLIFT
 62
7
 10
5495.604
 20
-7160.849
 30
606.000
 70
    32
  0
VERTEX
  8
M47LXLIFT
 62
7
 10
5509.506
 20
-7160.317
 30
606.000
 70
    32
  0
VERTEX
  8
M47LXLIFT
 62
7
 10
5523.422
 20
-7158.028
 30
606.000
 70
    32
  0
VERTEX
  8
M47LXLIFT
 62
7
 10
5534.577
 20
-7160.284
 30
606.000
 70
    32
  0
VERTEX
  8
M47LXLIFT
 62
7
 10
5550.004
 20
-7170.411
 30
606.000
 70
    32
  0
VERTEX
  8
M47LXLIFT
 62
7
 10
5560.359
 20
-7186.241
 30
606.000
 70
    32
  0
VERTEX
  8
M47LXLIFT
 62
7
 10
5574.747
 20
-7206.954
 30
606.000
 70
    32
  0
VERTEX
  8
M47LXLIFT
 62
7
 10
5574.788
 20
-7212.488
 30
606.000
 70
    32
  0
VERTEX
  8
M47LXLIFT
 62
7
 10
5582.083
 20
-7220.316
 30
606.000
 70
    32
  0
VERTEX
  8
M47LXLIFT
 62
7
 10
5578.555
 20
-7224.116
 30
606.000
 70
    32
  0
VERTEX
  8
M47LXLIFT
 62
7
 10
5570.333
 20
-7226.137
 30
606.000
 70
    32
  0
VERTEX
  8
M47LXLIFT
 62
7
 10
5566.443
 20
-7231.076
 30
606.000
 70
    32
  0
VERTEX
  8
M47LXLIFT
 62
7
 10
5560.775
 20
-7228.269
 30
606.000
 70
    32
  0
VERTEX
  8
M47LXLIFT
 62
7
 10
5555.821
 20
-7226.136
 30
606.000
 70
    32
  0
SEQEND
  8
M47LXLIFT
  0
POLYLINE
  8
M47LXLIFT
 62
3
 66
     1
 70
     9
  0
VERTEX
  8
M47LXLIFT
 62
3
 10
5542.400
 20
-7235.967
 30
549.000
 70
    32
  0
VERTEX
  8
M47LXLIFT
 62
3
 10
5548.047
 20
-7240.753
 30
549.000
 70
    32
  0
VERTEX
  8
M47LXLIFT
 62
3
 10
5551.034
 20
-7246.971
 30
549.000
 70
    32
  0
VERTEX
  8
M47LXLIFT
 62
3
 10
5551.529
 20
-7256.471
 30
549.000
 70
    32
  0
VERTEX
  8
M47LXLIFT
 62
3
 10
5542.880
 20
-7270.917
 30
549.000
 70
    32
  0
VERTEX
  8
M47LXLIFT
 62
3
 10
5541.551
 20
-7284.297
 30
549.000
 70
    32
  0
VERTEX
  8
M47LXLIFT
 62
3
 10
5536.432
 20
-7294.797
 30
549.000
 70
    32
  0
VERTEX
  8
M47LXLIFT
 62
3
 10
5534.789
 20
-7302.161
 30
549.000
 70
    32
  0
VERTEX
  8
M47LXLIFT
 62
3
 10
5538.576
 20
-7305.920
 30
549.000
 70
    32
  0
VERTEX
  8
M47LXLIFT
 62
3
 10
5544.704
 20
-7303.549
 30
549.000
 70
    32
  0
VERTEX
  8
M47LXLIFT
 62
3
 10
5553.766
 20
-7307.766
 30
549.000
 70
    32
  0
VERTEX
  8
M47LXLIFT
 62
3
 10
5560.519
 20
-7308.000
 30
549.000
 70
    32
  0
VERTEX
  8
M47LXLIFT
 62
3
 10
5562.834
 20
-7299.477
 30
549.000
 70
    32
  0
VERTEX
  8
M47LXLIFT
 62
3
 10
5568.232
 20
-7294.799
 30
549.000
 70
    32
  0
VERTEX
  8
M47LXLIFT
 62
3
 10
5581.729
 20
-7287.598
 30
549.000
 70
    32
  0
VERTEX
  8
M47LXLIFT
 62
3
 10
5590.526
 20
-7286.749
 30
549.000
 70
    32
  0
VERTEX
  8
M47LXLIFT
 62
3
 10
5600.692
 20
-7292.007
 30
549.000
 70
    32
  0
VERTEX
  8
M47LXLIFT
 62
3
 10
5607.284
 20
-7292.908
 30
549.000
 70
    32
  0
VERTEX
  8
M47LXLIFT
 62
3
 10
5607.658
 20
-7286.490
 30
549.000
 70
    32
  0
VERTEX
  8
M47LXLIFT
 62
3
 10
5603.373
 20
-7274.111
 30
549.000
 70
    32
  0
VERTEX
  8
M47LXLIFT
 62
3
 10
5599.511
 20
-7266.570
 30
549.000
 70
    32
  0
VERTEX
  8
M47LXLIFT
 62
3
 10
5595.081
 20
-7245.308
 30
549.000
 70
    32
  0
VERTEX
  8
M47LXLIFT
 62
3
 10
5589.129
 20
-7242.175
 30
549.000
 70
    32
  0
VERTEX
  8
M47LXLIFT
 62
3
 10
5581.077
 20
-7240.934
 30
549.000
 70
    32
  0
VERTEX
  8
M47LXLIFT
 62
3
 10
5573.266
 20
-7236.335
 30
549.000
 70
    32
  0
VERTEX
  8
M47LXLIFT
 62
3
 10
5564.876
 20
-7236.553
 30
549.000
 70
    32
  0
VERTEX
  8
M47LXLIFT
 62
3
 10
5558.100
 20
-7227.455
 30
549.000
 70
    32
  0
SEQEND
  8
M47LXLIFT
  0
POLYLINE
  8
M47LXLIFT
 62
3
 66
     1
 70
     9
  0
VERTEX
  8
M47LXLIFT
 62
3
 10
5609.595
 20
-7291.638
 30
539.000
 70
    32
  0
VERTEX
  8
M47LXLIFT
 62
3
 10
5604.002
 20
-7283.314
 30
539.000
 70
    32
  0
VERTEX
  8
M47LXLIFT
 62
3
 10
5602.273
 20
-7274.724
 30
539.000
 70
    32
  0
VERTEX
  8
M47LXLIFT
 62
3
 10
5595.359
 20
-7262.887
 30
539.000
 70
    32
  0
VERTEX
  8
M47LXLIFT
 62
3
 10
5584.213
 20
-7254.778
 30
539.000
 70
    32
  0
VERTEX
  8
M47LXLIFT
 62
3
 10
5574.280
 20
-7248.285
 30
539.000
 70
    32
  0
VERTEX
  8
M47LXLIFT
 62
3
 10
5566.722
 20
-7243.635
 30
539.000
 70
    32
  0
VERTEX
  8
M47LXLIFT
 62
3
 10
5557.533
 20
-7244.714
 30
539.000
 70
    32
  0
VERTEX
  8
M47LXLIFT
 62
3
 10
5544.080
 20
-7228.560
 30
539.000
 70
    32
  0
VERTEX
  8
M47LXLIFT
 62
3
 10
5542.450
 20
-7234.290
 30
539.000
 70
    32
  0
VERTEX
  8
M47LXLIFT
 62
3
 10
5550.644
 20
-7242.857
 30
539.000
 70
    32
  0
VERTEX
  8
M47LXLIFT
 62
3
 10
5558.949
 20
-7256.836
 30
539.000
 70
    32
  0
VERTEX
  8
M47LXLIFT
 62
3
 10
5563.277
 20
-7265.232
 30
539.000
 70
    32
  0
VERTEX
  8
M47LXLIFT
 62
3
 10
5562.038
 20
-7275.283
 30
539.000
 70
    32
  0
VERTEX
  8
M47LXLIFT
 62
3
 10
5556.230
 20
-7285.249
 30
539.000
 70
    32
  0
VERTEX
  8
M47LXLIFT
 62
3
 10
5549.385
 20
-7295.006
 30
539.000
 70
    32
  0
VERTEX
  8
M47LXLIFT
 62
3
 10
5551.820
 20
-7307.022
 30
539.000
 70
    32
  0
VERTEX
  8
M47LXLIFT
 62
3
 10
5555.723
 20
-7310.024
 30
539.000
 70
    32
  0
VERTEX
  8
M47LXLIFT
 62
3
 10
5562.642
 20
-7305.924
 30
539.000
 70
    32
  0
VERTEX
  8
M47LXLIFT
 62
3
 10
5563.215
 20
-7297.473
 30
539.000
 70
    32
  0
VERTEX
  8
M47LXLIFT
 62
3
 10
5572.999
 20
-7293.968
 30
539.000
 70
    32
  0
VERTEX
  8
M47LXLIFT
 62
3
 10
5577.386
 20
-7287.376
 30
539.000
 70
    32
  0
VERTEX
  8
M47LXLIFT
 62
3
 10
5587.470
 20
-7286.173
 30
539.000
 70
    32
  0
VERTEX
  8
M47LXLIFT
 62
3
 10
5597.353
 20
-7296.550
 30
539.000
 70
    32
  0
VERTEX
  8
M47LXLIFT
 62
3
 10
5603.260
 20
-7300.463
 30
539.000
 70
    32
  0
SEQEND
  8
M47LXLIFT
  0
POLYLINE
  8
M47LXLIFT
 62
6
 66
     1
 70
     9
  0
VERTEX
  8
M47LXLIFT
 62
6
 10
5456.616
 20
-7340.305
 30
537.000
 70
    32
  0
VERTEX
  8
M47LXLIFT
 62
6
 10
5458.440
 20
-7336.297
 30
537.000
 70
    32
  0
VERTEX
  8
M47LXLIFT
 62
6
 10
5457.890
 20
-7329.129
 30
537.000
 70
    32
  0
VERTEX
  8
M47LXLIFT
 62
6
 10
5458.687
 20
-7315.125
 30
537.000
 70
    32
  0
VERTEX
  8
M47LXLIFT
 62
6
 10
5448.429
 20
-7296.790
 30
537.000
 70
    32
  0
VERTEX
  8
M47LXLIFT
 62
6
 10
5441.676
 20
-7288.678
 30
537.000
 70
    32
  0
VERTEX
  8
M47LXLIFT
 62
6
 10
5428.712
 20
-7291.605
 30
537.000
 70
    32
  0
VERTEX
  8
M47LXLIFT
 62
6
 10
5422.246
 20
-7291.628
 30
537.000
 70
    32
  0
VERTEX
  8
M47LXLIFT
 62
6
 10
5415.221
 20
-7295.587
 30
537.000
 70
    32
  0
VERTEX
  8
M47LXLIFT
 62
6
 10
5413.998
 20
-7303.758
 30
537.000
 70
    32
  0
VERTEX
  8
M47LXLIFT
 62
6
 10
5417.607
 20
-7312.803
 30
537.000
 70
    32
  0
VERTEX
  8
M47LXLIFT
 62
6
 10
5416.630
 20
-7322.766
 30
537.000
 70
    32
  0
VERTEX
  8
M47LXLIFT
 62
6
 10
5410.416
 20
-7329.413
 30
537.000
 70
    32
  0
VERTEX
  8
M47LXLIFT
 62
6
 10
5419.981
 20
-7338.489
 30
537.000
 70
    32
  0
VERTEX
  8
M47LXLIFT
 62
6
 10
5429.601
 20
-7349.392
 30
537.000
 70
    32
  0
VERTEX
  8
M47LXLIFT
 62
6
 10
5436.210
 20
-7353.217
 30
537.000
 70
    32
  0
VERTEX
  8
M47LXLIFT
 62
6
 10
5451.314
 20
-7345.826
 30
537.000
 70
    32
  0
SEQEND
  8
M47LXLIFT
  0
POLYLINE
  8
M47LXLIFT
 62
6
 66
     1
 70
     9
  0
VERTEX
  8
M47LXLIFT
 62
6
 10
5441.049
 20
-7343.872
 30
563.000
 70
    32
  0
VERTEX
  8
M47LXLIFT
 62
6
 10
5448.011
 20
-7335.976
 30
563.000
 70
    32
  0
VERTEX
  8
M47LXLIFT
 62
6
 10
5453.391
 20
-7328.145
 30
563.000
 70
    32
  0
VERTEX
  8
M47LXLIFT
 62
6
 10
5455.797
 20
-7315.635
 30
563.000
 70
    32
  0
VERTEX
  8
M47LXLIFT
 62
6
 10
5451.453
 20
-7299.675
 30
563.000
 70
    32
  0
VERTEX
  8
M47LXLIFT
 62
6
 10
5445.796
 20
-7290.865
 30
563.000
 70
    32
  0
VERTEX
  8
M47LXLIFT
 62
6
 10
5438.347
 20
-7284.664
 30
563.000
 70
    32
  0
VERTEX
  8
M47LXLIFT
 62
6
 10
5429.637
 20
-7286.879
 30
563.000
 70
    32
  0
VERTEX
  8
M47LXLIFT
 62
6
 10
5425.951
 20
-7297.930
 30
563.000
 70
    32
  0
VERTEX
  8
M47LXLIFT
 62
6
 10
5421.239
 20
-7310.707
 30
563.000
 70
    32
  0
VERTEX
  8
M47LXLIFT
 62
6
 10
5420.153
 20
-7326.819
 30
563.000
 70
    32
  0
VERTEX
  8
M47LXLIFT
 62
6
 10
5419.392
 20
-7337.261
 30
563.000
 70
    32
  0
SEQEND
  8
M47LXLIFT
  0
POLYLINE
  8
M47LXLIFT
 62
6
 66
     1
 70
     9
  0
VERTEX
  8
M47LXLIFT
 62
6
 10
5434.587
 20
-7349.593
 30
551.000
 70
    32
  0
VERTEX
  8
M47LXLIFT
 62
6
 10
5442.080
 20
-7344.341
 30
551.000
 70
    32
  0
VERTEX
  8
M47LXLIFT
 62
6
 10
5451.882
 20
-7332.327
 30
551.000
 70
    32
  0
VERTEX
  8
M47LXLIFT
 62
6
 10
5455.917
 20
-7319.782
 30
551.000
 70
    32
  0
VERTEX
  8
M47LXLIFT
 62
6
 10
5455.002
 20
-7309.279
 30
551.000
 70
    32
  0
VERTEX
  8
M47LXLIFT
 62
6
 10
5447.680
 20
-7300.478
 30
551.000
 70
    32
  0
VERTEX
  8
M47LXLIFT
 62
6
 10
5438.364
 20
-7293.710
 30
551.000
 70
    32
  0
VERTEX
  8
M47LXLIFT
 62
6
 10
5431.864
 20
-7291.313
 30
551.000
 70
    32
  0
VERTEX
  8
M47LXLIFT
 62
6
 10
5422.086
 20
-7296.293
 30
551.000
 70
    32
  0
VERTEX
  8
M47LXLIFT
 62
6
 10
5418.471
 20
-7299.095
 30
551.000
 70
    32
  0
VERTEX
  8
M47LXLIFT
 62
6
 10
5418.693
 20
-7306.166
 30
551.000
 70
    32
  0
VERTEX
  8
M47LXLIFT
 62
6
 10
5422.838
 20
-7313.057
 30
551.000
 70
    32
  0
VERTEX
  8
M47LXLIFT
 62
6
 10
5416.795
 20
-7321.286
 30
551.000
 70
    32
  0
VERTEX
  8
M47LXLIFT
 62
6
 10
5416.731
 20
-7324.733
 30
551.000
 70
    32
  0
VERTEX
  8
M47LXLIFT
 62
6
 10
5419.102
 20
-7330.862
 30
551.000
 70
    32
  0
VERTEX
  8
M47LXLIFT
 62
6
 10
5419.443
 20
-7339.270
 30
551.000
 70
    32
  0
VERTEX
  8
M47LXLIFT
 62
6
 10
5427.481
 20
-7344.468
 30
551.000
 70
    32
  0
SEQEND
  8
M47LXLIFT
  0
POLYLINE
  8
M47LXLIFT
 62
8
 66
     1
 70
     9
  0
VERTEX
  8
M47LXLIFT
 62
8
 10
5348.058
 20
-7304.407
 30
651.000
 70
    32
  0
VERTEX
  8
M47LXLIFT
 62
8
 10
5339.765
 20
-7316.938
 30
651.000
 70
    32
  0
VERTEX
  8
M47LXLIFT
 62
8
 10
5333.674
 20
-7331.457
 30
651.000
 70
    32
  0
VERTEX
  8
M47LXLIFT
 62
8
 10
5327.871
 20
-7353.262
 30
651.000
 70
    32
  0
VERTEX
  8
M47LXLIFT
 62
8
 10
5323.493
 20
-7354.265
 30
651.000
 70
    32
  0
VERTEX
  8
M47LXLIFT
 62
8
 10
5316.141
 20
-7349.820
 30
651.000
 70
    32
  0
VERTEX
  8
M47LXLIFT
 62
8
 10
5308.686
 20
-7336.543
 30
651.000
 70
    32
  0
VERTEX
  8
M47LXLIFT
 62
8
 10
5299.789
 20
-7313.340
 30
651.000
 70
    32
  0
VERTEX
  8
M47LXLIFT
 62
8
 10
5303.581
 20
-7306.137
 30
651.000
 70
    32
  0
VERTEX
  8
M47LXLIFT
 62
8
 10
5297.331
 20
-7295.570
 30
651.000
 70
    32
  0
VERTEX
  8
M47LXLIFT
 62
8
 10
5296.659
 20
-7285.956
 30
651.000
 70
    32
  0
VERTEX
  8
M47LXLIFT
 62
8
 10
5291.950
 20
-7277.965
 30
651.000
 70
    32
  0
VERTEX
  8
M47LXLIFT
 62
8
 10
5287.918
 20
-7271.655
 30
651.000
 70
    32
  0
VERTEX
  8
M47LXLIFT
 62
8
 10
5291.588
 20
-7258.892
 30
651.000
 70
    32
  0
VERTEX
  8
M47LXLIFT
 62
8
 10
5299.591
 20
-7250.155
 30
651.000
 70
    32
  0
VERTEX
  8
M47LXLIFT
 62
8
 10
5309.247
 20
-7248.041
 30
651.000
 70
    32
  0
VERTEX
  8
M47LXLIFT
 62
8
 10
5320.655
 20
-7255.085
 30
651.000
 70
    32
  0
VERTEX
  8
M47LXLIFT
 62
8
 10
5328.293
 20
-7266.817
 30
651.000
 70
    32
  0
VERTEX
  8
M47LXLIFT
 62
8
 10
5335.415
 20
-7283.377
 30
651.000
 70
    32
  0
VERTEX
  8
M47LXLIFT
 62
8
 10
5342.809
 20
-7293.874
 30
651.000
 70
    32
  0
SEQEND
  8
M47LXLIFT
  0
POLYLINE
  8
M47LXLIFT
 62
8
 66
     1
 70
     9
  0
VERTEX
  8
M47LXLIFT
 62
8
 10
5316.244
 20
-7239.383
 30
642.000
 70
    32
  0
VERTEX
  8
M47LXLIFT
 62
8
 10
5324.078
 20
-7253.588
 30
642.000
 70
    32
  0
VERTEX
  8
M47LXLIFT
 62
8
 10
5329.319
 20
-7265.874
 30
642.000
 70
    32
  0
VERTEX
  8
M47LXLIFT
 62
8
 10
5340.587
 20
-7277.473
 30
642.000
 70
    32
  0
VERTEX
  8
M47LXLIFT
 62
8
 10
5348.914
 20
-7292.953
 30
642.000
 70
    32
  0
VERTEX
  8
M47LXLIFT
 62
8
 10
5349.939
 20
-7309.611
 30
642.000
 70
    32
  0
VERTEX
  8
M47LXLIFT
 62
8
 10
5345.511
 20
-7318.925
 30
642.000
 70
    32
  0
VERTEX
  8
M47LXLIFT
 62
8
 10
5337.720
 20
-7324.811
 30
642.000
 70
    32
  0
VERTEX
  8
M47LXLIFT
 62
8
 10
5331.889
 20
-7331.447
 30
642.000
 70
    32
  0
VERTEX
  8
M47LXLIFT
 62
8
 10
5327.319
 20
-7340.864
 30
642.000
 70
    32
  0
VERTEX
  8
M47LXLIFT
 62
8
 10
5324.883
 20
-7349.925
 30
642.000
 70
    32
  0
VERTEX
  8
M47LXLIFT
 62
8
 10
5319.399
 20
-7349.564
 30
642.000
 70
    32
  0
VERTEX
  8
M47LXLIFT
 62
8
 10
5314.203
 20
-7336.593
 30
642.000
 70
    32
  0
VERTEX
  8
M47LXLIFT
 62
8
 10
5311.122
 20
-7325.781
 30
642.000
 70
    32
  0
VERTEX
  8
M47LXLIFT
 62
8
 10
5307.454
 20
-7316.702
 30
642.000
 70
    32
  0
VERTEX
  8
M47LXLIFT
 62
8
 10
5302.001
 20
-7312.946
 30
642.000
 70
    32
  0
VERTEX
  8
M47LXLIFT
 62
8
 10
5296.187
 20
-7308.692
 30
642.000
 70
    32
  0
VERTEX
  8
M47LXLIFT
 62
8
 10
5294.296
 20
-7299.516
 30
642.000
 70
    32
  0
VERTEX
  8
M47LXLIFT
 62
8
 10
5295.852
 20
-7285.657
 30
642.000
 70
    32
  0
VERTEX
  8
M47LXLIFT
 62
8
 10
5294.453
 20
-7277.755
 30
642.000
 70
    32
  0
VERTEX
  8
M47LXLIFT
 62
8
 10
5290.015
 20
-7269.563
 30
642.000
 70
    32
  0
VERTEX
  8
M47LXLIFT
 62
8
 10
5291.603
 20
-7258.291
 30
642.000
 70
    32
  0
VERTEX
  8
M47LXLIFT
 62
8
 10
5295.455
 20
-7248.635
 30
642.000
 70
    32
  0
VERTEX
  8
M47LXLIFT
 62
8
 10
5297.975
 20
-7241.036
 30
642.000
 70
    32
  0
VERTEX
  8
M47LXLIFT
 62
8
 10
5306.259
 20
-7240.012
 30
642.000
 70
    32
  0
SEQEND
  8
M47LXLIFT
  0
POLYLINE
  8
M47LXLIFT
 62
8
 66
     1
 70
     9
  0
VERTEX
  8
M47LXLIFT
 62
8
 10
5347.213
 20
-7301.345
 30
661.000
 70
    32
  0
VERTEX
  8
M47LXLIFT
 62
8
 10
5339.538
 20
-7310.979
 30
661.000
 70
    32
  0
VERTEX
  8
M47LXLIFT
 62
8
 10
5334.440
 20
-7321.789
 30
661.000
 70
    32
  0
VERTEX
  8
M47LXLIFT
 62
8
 10
5329.646
 20
-7334.976
 30
661.000
 70
    32
  0
VERTEX
  8
M47LXLIFT
 62
8
 10
5326.855
 20
-7345.533
 30
661.000
 70
    32
  0
VERTEX
  8
M47LXLIFT
 62
8
 10
5321.245
 20
-7352.924
 30
661.000
 70
    32
  0
VERTEX
  8
M47LXLIFT
 62
8
 10
5315.466
 20
-7352.862
 30
661.000
 70
    32
  0
VERTEX
  8
M47LXLIFT
 62
8
 10
5313.852
 20
-7343.853
 30
661.000
 70
    32
  0
VERTEX
  8
M47LXLIFT
 62
8
 10
5310.351
 20
-7335.227
 30
661.000
 70
    32
  0
VERTEX
  8
M47LXLIFT
 62
8
 10
5309.461
 20
-7326.021
 30
661.000
 70
    32
  0
VERTEX
  8
M47LXLIFT
 62
8
 10
5309.282
 20
-7315.546
 30
661.000
 70
    32
  0
VERTEX
  8
M47LXLIFT
 62
8
 10
5303.637
 20
-7304.243
 30
661.000
 70
    32
  0
VERTEX
  8
M47LXLIFT
 62
8
 10
5300.378
 20
-7297.608
 30
661.000
 70
    32
  0
VERTEX
  8
M47LXLIFT
 62
8
 10
5294.603
 20
-7284.018
 30
661.000
 70
    32
  0
VERTEX
  8
M47LXLIFT
 62
8
 10
5290.401
 20
-7273.516
 30
661.000
 70
    32
  0
VERTEX
  8
M47LXLIFT
 62
8
 10
5288.778
 20
-7264.945
 30
661.000
 70
    32
  0
VERTEX
  8
M47LXLIFT
 62
8
 10
5295.301
 20
-7255.816
 30
661.000
 70
    32
  0
VERTEX
  8
M47LXLIFT
 62
8
 10
5302.596
 20
-7248.511
 30
661.000
 70
    32
  0
VERTEX
  8
M47LXLIFT
 62
8
 10
5307.158
 20
-7247.933
 30
661.000
 70
    32
  0
VERTEX
  8
M47LXLIFT
 62
8
 10
5317.852
 20
-7257.983
 30
661.000
 70
    32
  0
VERTEX
  8
M47LXLIFT
 62
8
 10
5324.287
 20
-7267.528
 30
661.000
 70
    32
  0
VERTEX
  8
M47LXLIFT
 62
8
 10
5336.028
 20
-7285.048
 30
661.000
 70
    32
  0
VERTEX
  8
M47LXLIFT
 62
8
 10
5343.273
 20
-7292.711
 30
661.000
 70
    32
  0
SEQEND
  8
M47LXLIFT
  0
POLYLINE
  8
M47LXLIFT
 62
8
 66
     1
 70
     9
  0
VERTEX
  8
M47LXLIFT
 62
8
 10
5318.458
 20
-7249.984
 30
631.000
 70
    32
  0
VERTEX
  8
M47LXLIFT
 62
8
 10
5303.010
 20
-7261.492
 30
631.000
 70
    32
  0
VERTEX
  8
M47LXLIFT
 62
8
 10
5298.202
 20
-7269.559
 30
631.000
 70
    32
  0
VERTEX
  8
M47LXLIFT
 62
8
 10
5301.571
 20
-7277.051
 30
631.000
 70
    32
  0
VERTEX
  8
M47LXLIFT
 62
8
 10
5301.387
 20
-7287.572
 30
631.000
 70
    32
  0
VERTEX
  8
M47LXLIFT
 62
8
 10
5299.406
 20
-7300.672
 30
631.000
 70
    32
  0
VERTEX
  8
M47LXLIFT
 62
8
 10
5298.847
 20
-7310.263
 30
631.000
 70
    32
  0
VERTEX
  8
M47LXLIFT
 62
8
 10
5303.674
 20
-7320.402
 30
631.000
 70
    32
  0
VERTEX
  8
M47LXLIFT
 62
8
 10
5310.632
 20
-7331.022
 30
631.000
 70
    32
  0
VERTEX
  8
M47LXLIFT
 62
8
 10
5309.509
 20
-7349.324
 30
631.000
 70
    32
  0
VERTEX
  8
M47LXLIFT
 62
8
 10
5310.051
 20
-7363.711
 30
631.000
 70
    32
  0
VERTEX
  8
M47LXLIFT
 62
8
 10
5315.387
 20
-7370.593
 30
631.000
 70
    32
  0
VERTEX
  8
M47LXLIFT
 62
8
 10
5320.559
 20
-7373.623
 30
631.000
 70
    32
  0
VERTEX
  8
M47LXLIFT
 62
8
 10
5321.769
 20
-7367.072
 30
631.000
 70
    32
  0
VERTEX
  8
M47LXLIFT
 62
8
 10
5322.651
 20
-7355.579
 30
631.000
 70
    32
  0
VERTEX
  8
M47LXLIFT
 62
8
 10
5329.644
 20
-7354.025
 30
631.000
 70
    32
  0
VERTEX
  8
M47LXLIFT
 62
8
 10
5329.150
 20
-7350.756
 30
631.000
 70
    32
  0
VERTEX
  8
M47LXLIFT
 62
8
 10
5325.908
 20
-7346.923
 30
631.000
 70
    32
  0
VERTEX
  8
M47LXLIFT
 62
8
 10
5325.979
 20
-7332.180
 30
631.000
 70
    32
  0
VERTEX
  8
M47LXLIFT
 62
8
 10
5328.002
 20
-7314.190
 30
631.000
 70
    32
  0
VERTEX
  8
M47LXLIFT
 62
8
 10
5326.092
 20
-7294.657
 30
631.000
 70
    32
  0
VERTEX
  8
M47LXLIFT
 62
8
 10
5323.403
 20
-7283.115
 30
631.000
 70
    32
  0
VERTEX
  8
M47LXLIFT
 62
8
 10
5317.057
 20
-7274.902
 30
631.000
 70
    32
  0
SEQEND
  8
M47LXLIFT
  0
POLYLINE
  8
M47LXLIFT
 62
8
 66
     1
 70
     9
  0
VERTEX
  8
M47LXLIFT
 62
8
 10
5315.879
 20
-7366.360
 30
622.000
 70
    32
  0
VERTEX
  8
M47LXLIFT
 62
8
 10
5312.732
 20
-7362.785
 30
622.000
 70
    32
  0
VERTEX
  8
M47LXLIFT
 62
8
 10
5313.495
 20
-7353.537
 30
622.000
 70
    32
  0
VERTEX
  8
M47LXLIFT
 62
8
 10
5314.337
 20
-7336.192
 30
622.000
 70
    32
  0
VERTEX
  8
M47LXLIFT
 62
8
 10
5313.947
 20
-7320.288
 30
622.000
 70
    32
  0
VERTEX
  8
M47LXLIFT
 62
8
 10
5308.479
 20
-7311.883
 30
622.000
 70
    32
  0
VERTEX
  8
M47LXLIFT
 62
8
 10
5300.410
 20
-7304.830
 30
622.000
 70
    32
  0
VERTEX
  8
M47LXLIFT
 62
8
 10
5299.731
 20
-7293.155
 30
622.000
 70
    32
  0
VERTEX
  8
M47LXLIFT
 62
8
 10
5303.902
 20
-7280.231
 30
622.000
 70
    32
  0
VERTEX
  8
M47LXLIFT
 62
8
 10
5305.644
 20
-7267.555
 30
622.000
 70
    32
  0
VERTEX
  8
M47LXLIFT
 62
8
 10
5302.500
 20
-7257.567
 30
622.000
 70
    32
  0
VERTEX
  8
M47LXLIFT
 62
8
 10
5311.795
 20
-7251.233
 30
622.000
 70
    32
  0
VERTEX
  8
M47LXLIFT
 62
8
 10
5320.285
 20
-7259.610
 30
622.000
 70
    32
  0
VERTEX
  8
M47LXLIFT
 62
8
 10
5318.343
 20
-7273.953
 30
622.000
 70
    32
  0
VERTEX
  8
M47LXLIFT
 62
8
 10
5327.651
 20
-7289.123
 30
622.000
 70
    32
  0
VERTEX
  8
M47LXLIFT
 62
8
 10
5330.144
 20
-7311.645
 30
622.000
 70
    32
  0
VERTEX
  8
M47LXLIFT
 62
8
 10
5325.587
 20
-7327.022
 30
622.000
 70
    32
  0
VERTEX
  8
M47LXLIFT
 62
8
 10
5326.220
 20
-7349.378
 30
622.000
 70
    32
  0
VERTEX
  8
M47LXLIFT
 62
8
 10
5330.180
 20
-7362.574
 30
622.000
 70
    32
  0
VERTEX
  8
M47LXLIFT
 62
8
 10
5335.532
 20
-7372.910
 30
622.000
 70
    32
  0
VERTEX
  8
M47LXLIFT
 62
8
 10
5331.841
 20
-7376.793
 30
622.000
 70
    32
  0
VERTEX
  8
M47LXLIFT
 62
8
 10
5324.458
 20
-7373.368
 30
622.000
 70
    32
  0
SEQEND
  8
M47LXLIFT
  0
POLYLINE
  8
M47LXLIFT
 62
11
 66
     1
 70
     9
  0
VERTEX
  8
M47LXLIFT
 62
11
 10
5400.116
 20
-7413.406
 30
540.000
 70
    32
  0
VERTEX
  8
M47LXLIFT
 62
11
 10
5394.016
 20
-7431.174
 30
540.000
 70
    32
  0
VERTEX
  8
M47LXLIFT
 62
11
 10
5390.517
 20
-7450.943
 30
540.000
 70
    32
  0
VERTEX
  8
M47LXLIFT
 62
11
 10
5390.611
 20
-7458.674
 30
540.000
 70
    32
  0
VERTEX
  8
M47LXLIFT
 62
11
 10
5403.254
 20
-7471.262
 30
540.000
 70
    32
  0
VERTEX
  8
M47LXLIFT
 62
11
 10
5408.795
 20
-7479.076
 30
540.000
 70
    32
  0
VERTEX
  8
M47LXLIFT
 62
11
 10
5403.755
 20
-7482.752
 30
540.000
 70
    32
  0
VERTEX
  8
M47LXLIFT
 62
11
 10
5393.629
 20
-7474.976
 30
540.000
 70
    32
  0
VERTEX
  8
M47LXLIFT
 62
11
 10
5384.410
 20
-7482.451
 30
540.000
 70
    32
  0
VERTEX
  8
M47LXLIFT
 62
11
 10
5374.122
 20
-7492.597
 30
540.000
 70
    32
  0
VERTEX
  8
M47LXLIFT
 62
11
 10
5364.410
 20
-7497.806
 30
540.000
 70
    32
  0
VERTEX
  8
M47LXLIFT
 62
11
 10
5354.950
 20
-7488.431
 30
540.000
 70
    32
  0
VERTEX
  8
M47LXLIFT
 62
11
 10
5353.046
 20
-7480.631
 30
540.000
 70
    32
  0
VERTEX
  8
M47LXLIFT
 62
11
 10
5359.822
 20
-7472.245
 30
540.000
 70
    32
  0
VERTEX
  8
M47LXLIFT
 62
11
 10
5361.326
 20
-7463.863
 30
540.000
 70
    32
  0
VERTEX
  8
M47LXLIFT
 62
11
 10
5361.337
 20
-7454.955
 30
540.000
 70
    32
  0
VERTEX
  8
M47LXLIFT
 62
11
 10
5353.160
 20
-7446.264
 30
540.000
 70
    32
  0
VERTEX
  8
M47LXLIFT
 62
11
 10
5354.648
 20
-7440.201
 30
540.000
 70
    32
  0
VERTEX
  8
M47LXLIFT
 62
11
 10
5349.845
 20
-7432.052
 30
540.000
 70
    32
  0
VERTEX
  8
M47LXLIFT
 62
11
 10
5362.806
 20
-7424.733
 30
540.000
 70
    32
  0
VERTEX
  8
M47LXLIFT
 62
11
 10
5368.266
 20
-7419.422
 30
540.000
 70
    32
  0
VERTEX
  8
M47LXLIFT
 62
11
 10
5370.642
 20
-7423.901
 30
540.000
 70
    32
  0
VERTEX
  8
M47LXLIFT
 62
11
 10
5382.722
 20
-7414.386
 30
540.000
 70
    32
  0
VERTEX
  8
M47LXLIFT
 62
11
 10
5390.818
 20
-7409.513
 30
540.000
 70
    32
  0
SEQEND
  8
M47LXLIFT
  0
POLYLINE
  8
M47LXLIFT
 62
11
 66
     1
 70
     9
  0
VERTEX
  8
M47LXLIFT
 62
11
 10
5401.700
 20
-7434.166
 30
565.000
 70
    32
  0
VERTEX
  8
M47LXLIFT
 62
11
 10
5394.805
 20
-7428.742
 30
565.000
 70
    32
  0
VERTEX
  8
M47LXLIFT
 62
11
 10
5378.543
 20
-7427.642
 30
565.000
 70
    32
  0
VERTEX
  8
M47LXLIFT
 62
11
 10
5365.568
 20
-7426.869
 30
565.000
 70
    32
  0
VERTEX
  8
M47LXLIFT
 62
11
 10
5354.531
 20
-7419.347
 30
565.000
 70
    32
  0
VERTEX
  8
M47LXLIFT
 62
11
 10
5352.038
 20
-7405.923
 30
565.000
 70
    32
  0
VERTEX
  8
M47LXLIFT
 62
11
 10
5346.502
 20
-7401.467
 30
565.000
 70
    32
  0
VERTEX
  8
M47LXLIFT
 62
11
 10
5337.696
 20
-7403.424
 30
565.000
 70
    32
  0
VERTEX
  8
M47LXLIFT
 62
11
 10
5337.178
 20
-7414.362
 30
565.000
 70
    32
  0
VERTEX
  8
M47LXLIFT
 62
11
 10
5339.107
 20
-7437.017
 30
565.000
 70
    32
  0
VERTEX
  8
M47LXLIFT
 62
11
 10
5347.463
 20
-7463.260
 30
565.000
 70
    32
  0
VERTEX
  8
M47LXLIFT
 62
11
 10
5354.946
 20
-7478.599
 30
565.000
 70
    32
  0
VERTEX
  8
M47LXLIFT
 62
11
 10
5364.676
 20
-7486.420
 30
565.000
 70
    32
  0
VERTEX
  8
M47LXLIFT
 62
11
 10
5376.971
 20
-7485.512
 30
565.000
 70
    32
  0
VERTEX
  8
M47LXLIFT
 62
11
 10
5389.684
 20
-7478.311
 30
565.000
 70
    32
  0
VERTEX
  8
M47LXLIFT
 62
11
 10
5389.652
 20
-7467.665
 30
565.000
 70
    32
  0
VERTEX
  8
M47LXLIFT
 62
11
 10
5400.470
 20
-7465.330
 30
565.000
 70
    32
  0
VERTEX
  8
M47LXLIFT
 62
11
 10
5402.166
 20
-7455.710
 30
565.000
 70
    32
  0
VERTEX
  8
M47LXLIFT
 62
11
 10
5404.470
 20
-7451.852
 30
565.000
 70
    32
  0
VERTEX
  8
M47LXLIFT
 62
11
 10
5403.358
 20
-7446.893
 30
565.000
 70
    32
  0
SEQEND
  8
M47LXLIFT
  0
POLYLINE
  8
M47LXLIFT
 62
11
 66
     1
 70
     9
  0
VERTEX
  8
M47LXLIFT
 62
11
 10
5330.924
 20
-7473.731
 30
571.000
 70
    32
  0
VERTEX
  8
M47LXLIFT
 62
11
 10
5336.840
 20
-7455.363
 30
571.000
 70
    32
  0
VERTEX
  8
M47LXLIFT
 62
11
 10
5340.687
 20
-7431.735
 30
571.000
 70
    32
  0
VERTEX
  8
M47LXLIFT
 62
11
 10
5342.541
 20
-7426.286
 30
571.000
 70
    32
  0
VERTEX
  8
M47LXLIFT
 62
11
 10
5353.411
 20
-7423.645
 30
571.000
 70
    32
  0
VERTEX
  8
M47LXLIFT
 62
11
 10
5362.663
 20
-7422.216
 30
571.000
 70
    32
  0
VERTEX
  8
M47LXLIFT
 62
11
 10
5377.593
 20
-7434.545
 30
571.000
 70
    32
  0
VERTEX
  8
M47LXLIFT
 62
11
 10
5380.986
 20
-7435.411
 30
571.000
 70
    32
  0
VERTEX
  8
M47LXLIFT
 62
11
 10
5386.819
 20
-7452.019
 30
571.000
 70
    32
  0
VERTEX
  8
M47LXLIFT
 62
11
 10
5384.237
 20
-7463.392
 30
571.000
 70
    32
  0
VERTEX
  8
M47LXLIFT
 62
11
 10
5380.461
 20
-7473.024
 30
571.000
 70
    32
  0
VERTEX
  8
M47LXLIFT
 62
11
 10
5365.696
 20
-7481.322
 30
571.000
 70
    32
  0
VERTEX
  8
M47LXLIFT
 62
11
 10
5353.211
 20
-7481.657
 30
571.000
 70
    32
  0
VERTEX
  8
M47LXLIFT
 62
11
 10
5344.083
 20
-7483.104
 30
571.000
 70
    32
  0
SEQEND
  8
M47LXLIFT
  0
POLYLINE
  8
M47LXLIFT
 62
11
 66
     1
 70
     9
  0
VERTEX
  8
M47LXLIFT
 62
11
 10
5348.881
 20
-7391.877
 30
556.000
 70
    32
  0
VERTEX
  8
M47LXLIFT
 62
11
 10
5353.933
 20
-7412.538
 30
556.000
 70
    32
  0
VERTEX
  8
M47LXLIFT
 62
11
 10
5358.173
 20
-7418.360
 30
556.000
 70
    32
  0
VERTEX
  8
M47LXLIFT
 62
11
 10
5362.934
 20
-7420.869
 30
556.000
 70
    32
  0
VERTEX
  8
M47LXLIFT
 62
11
 10
5390.619
 20
-7413.526
 30
556.000
 70
    32
  0
VERTEX
  8
M47LXLIFT
 62
11
 10
5394.091
 20
-7419.038
 30
556.000
 70
    32
  0
VERTEX
  8
M47LXLIFT
 62
11
 10
5404.038
 20
-7422.551
 30
556.000
 70
    32
  0
VERTEX
  8
M47LXLIFT
 62
11
 10
5410.564
 20
-7428.229
 30
556.000
 70
    32
  0
VERTEX
  8
M47LXLIFT
 62
11
 10
5405.445
 20
-7439.998
 30
556.000
 70
    32
  0
VERTEX
  8
M47LXLIFT
 62
11
 10
5411.343
 20
-7452.870
 30
556.000
 70
    32
  0
VERTEX
  8
M47LXLIFT
 62
11
 10
5409.682
 20
-7459.839
 30
556.000
 70
    32
  0
VERTEX
  8
M47LXLIFT
 62
11
 10
5391.645
 20
-7468.195
 30
556.000
 70
    32
  0
VERTEX
  8
M47LXLIFT
 62
11
 10
5388.395
 20
-7474.474
 30
556.000
 70
    32
  0
VERTEX
  8
M47LXLIFT
 62
11
 10
5390.420
 20
-7479.193
 30
556.000
 70
    32
  0
VERTEX
  8
M47LXLIFT
 62
11
 10
5376.765
 20
-7483.271
 30
556.000
 70
    32
  0
VERTEX
  8
M47LXLIFT
 62
11
 10
5365.453
 20
-7485.643
 30
556.000
 70
    32
  0
VERTEX
  8
M47LXLIFT
 62
11
 10
5357.593
 20
-7483.653
 30
556.000
 70
    32
  0
VERTEX
  8
M47LXLIFT
 62
11
 10
5355.970
 20
-7471.578
 30
556.000
 70
    32
  0
VERTEX
  8
M47LXLIFT
 62
11
 10
5351.873
 20
-7459.241
 30
556.000
 70
    32
  0
VERTEX
  8
M47LXLIFT
 62
11
 10
5342.767
 20
-7439.577
 30
556.000
 70
    32
  0
VERTEX
  8
M47LXLIFT
 62
11
 10
5335.682
 20
-7419.855
 30
556.000
 70
    32
  0
VERTEX
  8
M47LXLIFT
 62
11
 10
5332.090
 20
-7407.911
 30
556.000
 70
    32
  0
VERTEX
  8
M47LXLIFT
 62
11
 10
5337.466
 20
-7394.107
 30
556.000
 70
    32
  0
SEQEND
  8
M47LXLIFT
  0
POLYLINE
  8
M47LXLIFT
 62
11
 66
     1
 70
     9
  0
VERTEX
  8
M47LXLIFT
 62
11
 10
5414.183
 20
-7422.902
 30
548.000
 70
    32
  0
VERTEX
  8
M47LXLIFT
 62
11
 10
5412.018
 20
-7433.835
 30
548.000
 70
    32
  0
VERTEX
  8
M47LXLIFT
 62
11
 10
5409.899
 20
-7441.443
 30
548.000
 70
    32
  0
VERTEX
  8
M47LXLIFT
 62
11
 10
5402.714
 20
-7444.163
 30
548.000
 70
    32
  0
VERTEX
  8
M47LXLIFT
 62
11
 10
5390.293
 20
-7450.453
 30
548.000
 70
    32
  0
VERTEX
  8
M47LXLIFT
 62
11
 10
5383.198
 20
-7462.864
 30
548.000
 70
    32
  0
VERTEX
  8
M47LXLIFT
 62
11
 10
5381.294
 20
-7474.589
 30
548.000
 70
    32
  0
VERTEX
  8
M47LXLIFT
 62
11
 10
5379.566
 20
-7481.249
 30
548.000
 70
    32
  0
VERTEX
  8
M47LXLIFT
 62
11
 10
5369.001
 20
-7484.731
 30
548.000
 70
    32
  0
VERTEX
  8
M47LXLIFT
 62
11
 10
5357.186
 20
-7483.442
 30
548.000
 70
    32
  0
VERTEX
  8
M47LXLIFT
 62
11
 10
5358.355
 20
-7475.883
 30
548.000
 70
    32
  0
VERTEX
  8
M47LXLIFT
 62
11
 10
5360.771
 20
-7468.821
 30
548.000
 70
    32
  0
VERTEX
  8
M47LXLIFT
 62
11
 10
5354.879
 20
-7458.406
 30
548.000
 70
    32
  0
VERTEX
  8
M47LXLIFT
 62
11
 10
5351.035
 20
-7450.742
 30
548.000
 70
    32
  0
VERTEX
  8
M47LXLIFT
 62
11
 10
5345.538
 20
-7438.060
 30
548.000
 70
    32
  0
VERTEX
  8
M47LXLIFT
 62
11
 10
5336.863
 20
-7428.621
 30
548.000
 70
    32
  0
VERTEX
  8
M47LXLIFT
 62
11
 10
5335.230
 20
-7417.447
 30
548.000
 70
    32
  0
VERTEX
  8
M47LXLIFT
 62
11
 10
5334.600
 20
-7406.294
 30
548.000
 70
    32
  0
VERTEX
  8
M47LXLIFT
 62
11
 10
5341.193
 20
-7401.602
 30
548.000
 70
    32
  0
VERTEX
  8
M47LXLIFT
 62
11
 10
5349.344
 20
-7404.743
 30
548.000
 70
    32
  0
VERTEX
  8
M47LXLIFT
 62
11
 10
5361.908
 20
-7418.522
 30
548.000
 70
    32
  0
VERTEX
  8
M47LXLIFT
 62
11
 10
5366.458
 20
-7425.221
 30
548.000
 70
    32
  0
VERTEX
  8
M47LXLIFT
 62
11
 10
5379.769
 20
-7415.856
 30
548.000
 70
    32
  0
VERTEX
  8
M47LXLIFT
 62
11
 10
5388.917
 20
-7410.030
 30
548.000
 70
    32
  0
VERTEX
  8
M47LXLIFT
 62
11
 10
5395.184
 20
-7408.433
 30
548.000
 70
    32
  0
VERTEX
  8
M47LXLIFT
 62
11
 10
5401.631
 20
-7415.912
 30
548.000
 70
    32
  0
VERTEX
  8
M47LXLIFT
 62
11
 10
5408.231
 20
-7419.769
 30
548.000
 70
    32
  0
SEQEND
  8
M47LXLIFT
  0
POLYLINE
  8
M47LXLIFT
 62
3
 66
     1
 70
     9
  0
VERTEX
  8
M47LXLIFT
 62
3
 10
5619.795
 20
-7256.527
 30
526.036
 70
    32
  0
VERTEX
  8
M47LXLIFT
 62
3
 10
5634.975
 20
-7290.522
 30
526.044
 70
    32
  0
VERTEX
  8
M47LXLIFT
 62
3
 10
5635.567
 20
-7304.325
 30
526.046
 70
    32
  0
VERTEX
  8
M47LXLIFT
 62
3
 10
5647.460
 20
-7336.530
 30
526.053
 70
    32
  0
VERTEX
  8
M47LXLIFT
 62
3
 10
5644.119
 20
-7339.685
 30
526.053
 70
    32
  0
VERTEX
  8
M47LXLIFT
 62
3
 10
5643.485
 20
-7349.762
 30
526.055
 70
    32
  0
VERTEX
  8
M47LXLIFT
 62
3
 10
5645.861
 20
-7351.814
 30
526.055
 70
    32
  0
VERTEX
  8
M47LXLIFT
 62
3
 10
5645.197
 20
-7355.116
 30
526.056
 70
    32
  0
VERTEX
  8
M47LXLIFT
 62
3
 10
5644.718
 20
-7364.961
 30
526.057
 70
    32
  0
VERTEX
  8
M47LXLIFT
 62
3
 10
5641.922
 20
-7386.301
 30
526.060
 70
    32
  0
VERTEX
  8
M47LXLIFT
 62
3
 10
5630.534
 20
-7391.145
 30
526.060
 70
    32
  0
VERTEX
  8
M47LXLIFT
 62
3
 10
5623.491
 20
-7379.795
 30
526.058
 70
    32
  0
VERTEX
  8
M47LXLIFT
 62
3
 10
5620.753
 20
-7373.121
 30
526.056
 70
    32
  0
VERTEX
  8
M47LXLIFT
 62
3
 10
5610.578
 20
-7357.647
 30
526.053
 70
    32
  0
VERTEX
  8
M47LXLIFT
 62
3
 10
5601.214
 20
-7343.407
 30
526.050
 70
    32
  0
VERTEX
  8
M47LXLIFT
 62
3
 10
5585.575
 20
-7344.647
 30
526.049
 70
    32
  0
VERTEX
  8
M47LXLIFT
 62
3
 10
5547.801
 20
-7334.905
 30
526.043
 70
    32
  0
VERTEX
  8
M47LXLIFT
 62
3
 10
5539.763
 20
-7324.998
 30
526.040
 70
    32
  0
VERTEX
  8
M47LXLIFT
 62
3
 10
5554.498
 20
-7309.237
 30
526.039
 70
    32
  0
VERTEX
  8
M47LXLIFT
 62
3
 10
5560.334
 20
-7302.994
 30
526.039
 70
    32
  0
VERTEX
  8
M47LXLIFT
 62
3
 10
5570.667
 20
-7291.942
 30
526.038
 70
    32
  0
VERTEX
  8
M47LXLIFT
 62
3
 10
5566.224
 20
-7285.368
 30
526.036
 70
    32
  0
VERTEX
  8
M47LXLIFT
 62
3
 10
5552.832
 20
-7271.154
 30
526.031
 70
    32
  0
VERTEX
  8
M47LXLIFT
 62
3
 10
5559.415
 20
-7254.112
 30
526.028
 70
    32
  0
VERTEX
  8
M47LXLIFT
 62
3
 10
5570.819
 20
-7250.148
 30
526.030
 70
    32
  0
VERTEX
  8
M47LXLIFT
 62
3
 10
5601.706
 20
-7229.251
 30
526.030
 70
    32
  0
VERTEX
  8
M47LXLIFT
 62
3
 10
5615.699
 20
-7249.683
 30
526.035
 70
    32
  0
SEQEND
  8
M47LXLIFT
  0
POLYLINE
  8
M47LXLIFT
 62
6
 66
     1
 70
     9
  0
VERTEX
  8
M47LXLIFT
 62
6
 10
5449.684
 20
-7346.011
 30
526.023
 70
    32
  0
VERTEX
  8
M47LXLIFT
 62
6
 10
5445.225
 20
-7345.579
 30
526.023
 70
    32
  0
VERTEX
  8
M47LXLIFT
 62
6
 10
5435.796
 20
-7350.793
 30
526.027
 70
    32
  0
VERTEX
  8
M47LXLIFT
 62
6
 10
5420.898
 20
-7347.111
 30
526.027
 70
    32
  0
VERTEX
  8
M47LXLIFT
 62
6
 10
5413.740
 20
-7337.188
 30
526.022
 70
    32
  0
VERTEX
  8
M47LXLIFT
 62
6
 10
5409.505
 20
-7326.440
 30
526.016
 70
    32
  0
VERTEX
  8
M47LXLIFT
 62
6
 10
5415.439
 20
-7318.594
 30
526.011
 70
    32
  0
VERTEX
  8
M47LXLIFT
 62
6
 10
5418.425
 20
-7317.275
 30
526.010
 70
    32
  0
VERTEX
  8
M47LXLIFT
 62
6
 10
5411.831
 20
-7300.339
 30
526.001
 70
    32
  0
VERTEX
  8
M47LXLIFT
 62
6
 10
5414.431
 20
-7295.086
 30
525.998
 70
    32
  0
VERTEX
  8
M47LXLIFT
 62
6
 10
5420.944
 20
-7291.136
 30
525.997
 70
    32
  0
VERTEX
  8
M47LXLIFT
 62
6
 10
5438.998
 20
-7287.126
 30
526.001
 70
    32
  0
VERTEX
  8
M47LXLIFT
 62
6
 10
5459.031
 20
-7315.899
 30
526.015
 70
    32
  0
VERTEX
  8
M47LXLIFT
 62
6
 10
5455.620
 20
-7322.117
 30
526.016
 70
    32
  0
VERTEX
  8
M47LXLIFT
 62
6
 10
5456.885
 20
-7328.043
 30
526.018
 70
    32
  0
VERTEX
  8
M47LXLIFT
 62
6
 10
5457.339
 20
-7335.936
 30
526.020
 70
    32
  0
VERTEX
  8
M47LXLIFT
 62
6
 10
5457.493
 20
-7341.722
 30
526.022
 70
    32
  0
SEQEND
  8
M47LXLIFT
  0
POLYLINE
  8
M47LXLIFT
 62
13
 66
     1
 70
     9
  0
VERTEX
  8
M47LXLIFT
 62
13
 10
5408.399
 20
-7287.184
 30
525.994
 70
    32
  0
VERTEX
  8
M47LXLIFT
 62
13
 10
5406.276
 20
-7293.626
 30
525.998
 70
    32
  0
VERTEX
  8
M47LXLIFT
 62
13
 10
5402.715
 20
-7328.600
 30
526.018
 70
    32
  0
VERTEX
  8
M47LXLIFT
 62
13
 10
5401.720
 20
-7333.051
 30
526.021
 70
    32
  0
VERTEX
  8
M47LXLIFT
 62
13
 10
5397.321
 20
-7339.146
 30
526.025
 70
    32
  0
VERTEX
  8
M47LXLIFT
 62
13
 10
5398.322
 20
-7357.200
 30
526.036
 70
    32
  0
VERTEX
  8
M47LXLIFT
 62
13
 10
5392.049
 20
-7359.737
 30
526.038
 70
    32
  0
VERTEX
  8
M47LXLIFT
 62
13
 10
5373.540
 20
-7359.866
 30
526.040
 70
    32
  0
VERTEX
  8
M47LXLIFT
 62
13
 10
5369.937
 20
-7359.102
 30
526.040
 70
    32
  0
VERTEX
  8
M47LXLIFT
 62
13
 10
5359.545
 20
-7352.473
 30
526.038
 70
    32
  0
VERTEX
  8
M47LXLIFT
 62
13
 10
5355.865
 20
-7354.332
 30
526.039
 70
    32
  0
VERTEX
  8
M47LXLIFT
 62
13
 10
5352.871
 20
-7353.205
 30
526.039
 70
    32
  0
VERTEX
  8
M47LXLIFT
 62
13
 10
5339.208
 20
-7344.663
 30
526.036
 70
    32
  0
VERTEX
  8
M47LXLIFT
 62
13
 10
5338.184
 20
-7333.313
 30
526.029
 70
    32
  0
VERTEX
  8
M47LXLIFT
 62
13
 10
5341.333
 20
-7322.173
 30
526.022
 70
    32
  0
VERTEX
  8
M47LXLIFT
 62
13
 10
5359.412
 20
-7303.434
 30
526.009
 70
    32
  0
VERTEX
  8
M47LXLIFT
 62
13
 10
5374.389
 20
-7291.454
 30
526.001
 70
    32
  0
VERTEX
  8
M47LXLIFT
 62
13
 10
5375.244
 20
-7249.013
 30
525.976
 70
    32
  0
VERTEX
  8
M47LXLIFT
 62
13
 10
5373.912
 20
-7249.976
 30
525.977
 70
    32
  0
VERTEX
  8
M47LXLIFT
 62
13
 10
5367.309
 20
-7239.942
 30
525.972
 70
    32
  0
VERTEX
  8
M47LXLIFT
 62
13
 10
5370.019
 20
-7237.981
 30
525.970
 70
    32
  0
VERTEX
  8
M47LXLIFT
 62
13
 10
5365.878
 20
-7236.227
 30
525.970
 70
    32
  0
VERTEX
  8
M47LXLIFT
 62
13
 10
5368.186
 20
-7231.313
 30
525.967
 70
    32
  0
VERTEX
  8
M47LXLIFT
 62
13
 10
5376.565
 20
-7229.477
 30
525.967
 70
    32
  0
VERTEX
  8
M47LXLIFT
 62
13
 10
5391.458
 20
-7211.657
 30
525.966
 70
    32
  0
VERTEX
  8
M47LXLIFT
 62
13
 10
5399.607
 20
-7198.634
 30
525.965
 70
    32
  0
VERTEX
  8
M47LXLIFT
 62
13
 10
5416.103
 20
-7189.038
 30
525.967
 70
    32
  0
VERTEX
  8
M47LXLIFT
 62
13
 10
5427.630
 20
-7186.093
 30
525.970
 70
    32
  0
VERTEX
  8
M47LXLIFT
 62
13
 10
5427.082
 20
-7193.985
 30
525.972
 70
    32
  0
VERTEX
  8
M47LXLIFT
 62
13
 10
5429.979
 20
-7219.925
 30
525.980
 70
    32
  0
VERTEX
  8
M47LXLIFT
 62
13
 10
5425.410
 20
-7235.401
 30
525.983
 70
    32
  0
VERTEX
  8
M47LXLIFT
 62
13
 10
5415.502
 20
-7246.448
 30
525.983
 70
    32
  0
VERTEX
  8
M47LXLIFT
 62
13
 10
5411.358
 20
-7254.016
 30
525.984
 70
    32
  0
VERTEX
  8
M47LXLIFT
 62
13
 10
5410.277
 20
-7262.658
 30
525.986
 70
    32
  0
SEQEND
  8
M47LXLIFT
  0
POLYLINE
  8
M47LXLIFT
 62
1
 66
     1
 70
     9
  0
VERTEX
  8
M47LXLIFT
 62
1
 10
5331.924
 20
-7472.731
 30
581.000
 70
    32
  0
VERTEX
  8
M47LXLIFT
 62
1
 10
5337.840
 20
-7454.363
 30
581.000
 70
    32
  0
VERTEX
  8
M47LXLIFT
 62
1
 10
5341.687
 20
-7430.735
 30
581.000
 70
    32
  0
VERTEX
  8
M47LXLIFT
 62
1
 10
5343.541
 20
-7425.286
 30
581.000
 70
    32
  0
VERTEX
  8
M47LXLIFT
 62
1
 10
5354.411
 20
-7422.645
 30
581.000
 70
    32
  0
VERTEX
  8
M47LXLIFT
 62
1
 10
5363.663
 20
-7421.216
 30
581.000
 70
    32
  0
VERTEX
  8
M47LXLIFT
 62
1
 10
5378.593
 20
-7433.545
 30
581.000
 70
    32
  0
VERTEX
  8
M47LXLIFT
 62
1
 10
5381.986
 20
-7434.411
 30
581.000
 70
    32
  0
VERTEX
  8
M47LXLIFT
 62
1
 10
5387.819
 20
-7451.019
 30
581.000
 70
    32
  0
VERTEX
  8
M47LXLIFT
 62
1
 10
5385.237
 20
-7462.392
 30
581.000
 70
    32
  0
VERTEX
  8
M47LXLIFT
 62
1
 10
5381.461
 20
-7472.024
 30
581.000
 70
    32
  0
VERTEX
  8
M47LXLIFT
 62
1
 10
5366.696
 20
-7480.322
 30
581.000
 70
    32
  0
VERTEX
  8
M47LXLIFT
 62
1
 10
5354.211
 20
-7480.657
 30
581.000
 70
    32
  0
VERTEX
  8
M47LXLIFT
 62
1
 10
5345.083
 20
-7482.104
 30
581.000
 70
    32
  0
SEQEND
  8
M47LXLIFT
  0
POLYLINE
  8
M47LXLIFT
 62
1
 66
     1
 70
     9
  0
VERTEX
  8
M47LXLIFT
 62
1
 10
5420.392
 20
-7336.261
 30
573.000
 70
    32
  0
VERTEX
  8
M47LXLIFT
 62
1
 10
5421.153
 20
-7325.819
 30
573.000
 70
    32
  0
VERTEX
  8
M47LXLIFT
 62
1
 10
5422.239
 20
-7309.707
 30
573.000
 70
    32
  0
VERTEX
  8
M47LXLIFT
 62
1
 10
5426.951
 20
-7296.930
 30
573.000
 70
    32
  0
VERTEX
  8
M47LXLIFT
 62
1
 10
5430.637
 20
-7285.879
 30
573.000
 70
    32
  0
VERTEX
  8
M47LXLIFT
 62
1
 10
5439.347
 20
-7283.664
 30
573.000
 70
    32
  0
VERTEX
  8
M47LXLIFT
 62
1
 10
5446.796
 20
-7289.865
 30
573.000
 70
    32
  0
VERTEX
  8
M47LXLIFT
 62
1
 10
5452.453
 20
-7298.675
 30
573.000
 70
    32
  0
VERTEX
  8
M47LXLIFT
 62
1
 10
5456.797
 20
-7314.635
 30
573.000
 70
    32
  0
VERTEX
  8
M47LXLIFT
 62
1
 10
5454.391
 20
-7327.145
 30
573.000
 70
    32
  0
VERTEX
  8
M47LXLIFT
 62
1
 10
5449.011
 20
-7334.976
 30
573.000
 70
    32
  0
VERTEX
  8
M47LXLIFT
 62
1
 10
5442.049
 20
-7342.872
 30
573.000
 70
    32
  0
SEQEND
  8
M47LXLIFT
  0
POLYLINE
  8
M47LXLIFT
 62
1
 66
     1
 70
     9
  0
VERTEX
  8
M47LXLIFT
 62
1
 10
5559.100
 20
-7226.455
 30
559.000
 70
    32
  0
VERTEX
  8
M47LXLIFT
 62
1
 10
5565.876
 20
-7235.553
 30
559.000
 70
    32
  0
VERTEX
  8
M47LXLIFT
 62
1
 10
5574.266
 20
-7235.335
 30
559.000
 70
    32
  0
VERTEX
  8
M47LXLIFT
 62
1
 10
5582.077
 20
-7239.934
 30
559.000
 70
    32
  0
VERTEX
  8
M47LXLIFT
 62
1
 10
5590.129
 20
-7241.175
 30
559.000
 70
    32
  0
VERTEX
  8
M47LXLIFT
 62
1
 10
5596.081
 20
-7244.308
 30
559.000
 70
    32
  0
VERTEX
  8
M47LXLIFT
 62
1
 10
5600.511
 20
-7265.570
 30
559.000
 70
    32
  0
VERTEX
  8
M47LXLIFT
 62
1
 10
5604.373
 20
-7273.111
 30
559.000
 70
    32
  0
VERTEX
  8
M47LXLIFT
 62
1
 10
5608.658
 20
-7285.490
 30
559.000
 70
    32
  0
VERTEX
  8
M47LXLIFT
 62
1
 10
5608.284
 20
-7291.908
 30
559.000
 70
    32
  0
VERTEX
  8
M47LXLIFT
 62
1
 10
5601.692
 20
-7291.007
 30
559.000
 70
    32
  0
VERTEX
  8
M47LXLIFT
 62
1
 10
5591.526
 20
-7285.749
 30
559.000
 70
    32
  0
VERTEX
  8
M47LXLIFT
 62
1
 10
5582.729
 20
-7286.598
 30
559.000
 70
    32
  0
VERTEX
  8
M47LXLIFT
 62
1
 10
5569.232
 20
-7293.799
 30
559.000
 70
    32
  0
VERTEX
  8
M47LXLIFT
 62
1
 10
5563.834
 20
-7298.477
 30
559.000
 70
    32
  0
VERTEX
  8
M47LXLIFT
 62
1
 10
5561.519
 20
-7307.000
 30
559.000
 70
    32
  0
VERTEX
  8
M47LXLIFT
 62
1
 10
5554.766
 20
-7306.766
 30
559.000
 70
    32
  0
VERTEX
  8
M47LXLIFT
 62
1
 10
5545.704
 20
-7302.549
 30
559.000
 70
    32
  0
VERTEX
  8
M47LXLIFT
 62
1
 10
5539.576
 20
-7304.920
 30
559.000
 70
    32
  0
VERTEX
  8
M47LXLIFT
 62
1
 10
5535.789
 20
-7301.161
 30
559.000
 70
    32
  0
VERTEX
  8
M47LXLIFT
 62
1
 10
5537.432
 20
-7293.797
 30
559.000
 70
    32
  0
VERTEX
  8
M47LXLIFT
 62
1
 10
5542.551
 20
-7283.297
 30
559.000
 70
    32
  0
VERTEX
  8
M47LXLIFT
 62
1
 10
5543.880
 20
-7269.917
 30
559.000
 70
    32
  0
VERTEX
  8
M47LXLIFT
 62
1
 10
5552.529
 20
-7255.471
 30
559.000
 70
    32
  0
VERTEX
  8
M47LXLIFT
 62
1
 10
5552.034
 20
-7245.971
 30
559.000
 70
    32
  0
VERTEX
  8
M47LXLIFT
 62
1
 10
5549.047
 20
-7239.753
 30
559.000
 70
    32
  0
VERTEX
  8
M47LXLIFT
 62
1
 10
5543.400
 20
-7234.967
 30
559.000
 70
    32
  0
SEQEND
  8
M47LXLIFT
  0
POLYLINE
  8
M47LXLIFT
 62
1
 66
     1
 70
     9
  0
VERTEX
  8
M47LXLIFT
 62
1
 10
5523.346
 20
-7262.839
 30
669.000
 70
    32
  0
VERTEX
  8
M47LXLIFT
 62
1
 10
5518.225
 20
-7257.976
 30
669.000
 70
    32
  0
VERTEX
  8
M47LXLIFT
 62
1
 10
5514.110
 20
-7251.956
 30
669.000
 70
    32
  0
VERTEX
  8
M47LXLIFT
 62
1
 10
5510.315
 20
-7252.847
 30
669.000
 70
    32
  0
VERTEX
  8
M47LXLIFT
 62
1
 10
5504.913
 20
-7249.701
 30
669.000
 70
    32
  0
VERTEX
  8
M47LXLIFT
 62
1
 10
5499.158
 20
-7235.989
 30
669.000
 70
    32
  0
VERTEX
  8
M47LXLIFT
 62
1
 10
5505.330
 20
-7228.626
 30
669.000
 70
    32
  0
VERTEX
  8
M47LXLIFT
 62
1
 10
5503.685
 20
-7219.423
 30
669.000
 70
    32
  0
VERTEX
  8
M47LXLIFT
 62
1
 10
5501.766
 20
-7199.163
 30
669.000
 70
    32
  0
VERTEX
  8
M47LXLIFT
 62
1
 10
5503.793
 20
-7182.881
 30
669.000
 70
    32
  0
VERTEX
  8
M47LXLIFT
 62
1
 10
5500.992
 20
-7176.132
 30
669.000
 70
    32
  0
VERTEX
  8
M47LXLIFT
 62
1
 10
5489.036
 20
-7161.471
 30
669.000
 70
    32
  0
VERTEX
  8
M47LXLIFT
 62
1
 10
5476.245
 20
-7156.176
 30
669.000
 70
    32
  0
VERTEX
  8
M47LXLIFT
 62
1
 10
5462.448
 20
-7152.038
 30
669.000
 70
    32
  0
VERTEX
  8
M47LXLIFT
 62
1
 10
5456.291
 20
-7155.061
 30
669.000
 70
    32
  0
VERTEX
  8
M47LXLIFT
 62
1
 10
5454.633
 20
-7150.952
 30
669.000
 70
    32
  0
VERTEX
  8
M47LXLIFT
 62
1
 10
5471.778
 20
-7136.884
 30
669.000
 70
    32
  0
VERTEX
  8
M47LXLIFT
 62
1
 10
5483.514
 20
-7123.571
 30
669.000
 70
    32
  0
VERTEX
  8
M47LXLIFT
 62
1
 10
5492.678
 20
-7122.171
 30
669.000
 70
    32
  0
VERTEX
  8
M47LXLIFT
 62
1
 10
5498.112
 20
-7120.100
 30
669.000
 70
    32
  0
VERTEX
  8
M47LXLIFT
 62
1
 10
5510.382
 20
-7133.994
 30
669.000
 70
    32
  0
VERTEX
  8
M47LXLIFT
 62
1
 10
5525.981
 20
-7157.177
 30
669.000
 70
    32
  0
VERTEX
  8
M47LXLIFT
 62
1
 10
5536.083
 20
-7184.750
 30
669.000
 70
    32
  0
VERTEX
  8
M47LXLIFT
 62
1
 10
5541.627
 20
-7208.244
 30
669.000
 70
    32
  0
VERTEX
  8
M47LXLIFT
 62
1
 10
5545.565
 20
-7222.289
 30
669.000
 70
    32
  0
VERTEX
  8
M47LXLIFT
 62
1
 10
5537.871
 20
-7229.340
 30
669.000
 70
    32
  0
VERTEX
  8
M47LXLIFT
 62
1
 10
5533.709
 20
-7239.044
 30
669.000
 70
    32
  0
VERTEX
  8
M47LXLIFT
 62
1
 10
5534.184
 20
-7252.336
 30
669.000
 70
    32
  0
VERTEX
  8
M47LXLIFT
 62
1
 10
5533.468
 20
-7260.966
 30
669.000
 70
    32
  0
SEQEND
  8
M47LXLIFT
  0
POLYLINE
  8
M47LXLIFT
 62
1
 66
     1
 70
     9
  0
VERTEX
  8
M47LXLIFT
 62
1
 10
5348.213
 20
-7300.345
 30
671.000
 70
    32
  0
VERTEX
  8
M47LXLIFT
 62
1
 10
5340.538
 20
-7309.979
 30
671.000
 70
    32
  0
VERTEX
  8
M47LXLIFT
 62
1
 10
5335.440
 20
-7320.789
 30
671.000
 70
    32
  0
VERTEX
  8
M47LXLIFT
 62
1
 10
5330.646
 20
-7333.976
 30
671.000
 70
    32
  0
VERTEX
  8
M47LXLIFT
 62
1
 10
5327.855
 20
-7344.533
 30
671.000
 70
    32
  0
VERTEX
  8
M47LXLIFT
 62
1
 10
5322.245
 20
-7351.924
 30
671.000
 70
    32
  0
VERTEX
  8
M47LXLIFT
 62
1
 10
5316.466
 20
-7351.862
 30
671.000
 70
    32
  0
VERTEX
  8
M47LXLIFT
 62
1
 10
5314.852
 20
-7342.853
 30
671.000
 70
    32
  0
VERTEX
  8
M47LXLIFT
 62
1
 10
5311.351
 20
-7334.227
 30
671.000
 70
    32
  0
VERTEX
  8
M47LXLIFT
 62
1
 10
5310.461
 20
-7325.021
 30
671.000
 70
    32
  0
VERTEX
  8
M47LXLIFT
 62
1
 10
5310.282
 20
-7314.546
 30
671.000
 70
    32
  0
VERTEX
  8
M47LXLIFT
 62
1
 10
5304.637
 20
-7303.243
 30
671.000
 70
    32
  0
VERTEX
  8
M47LXLIFT
 62
1
 10
5301.378
 20
-7296.608
 30
671.000
 70
    32
  0
VERTEX
  8
M47LXLIFT
 62
1
 10
5295.603
 20
-7283.018
 30
671.000
 70
    32
  0
VERTEX
  8
M47LXLIFT
 62
1
 10
5291.401
 20
-7272.516
 30
671.000
 70
    32
  0
VERTEX
  8
M47LXLIFT
 62
1
 10
5289.778
 20
-7263.945
 30
671.000
 70
    32
  0
VERTEX
  8
M47LXLIFT
 62
1
 10
5296.301
 20
-7254.816
 30
671.000
 70
    32
  0
VERTEX
  8
M47LXLIFT
 62
1
 10
5303.596
 20
-7247.511
 30
671.000
 70
    32
  0
VERTEX
  8
M47LXLIFT
 62
1
 10
5308.158
 20
-7246.933
 30
671.000
 70
    32
  0
VERTEX
  8
M47LXLIFT
 62
1
 10
5318.852
 20
-7256.983
 30
671.000
 70
    32
  0
VERTEX
  8
M47LXLIFT
 62
1
 10
5325.287
 20
-7266.528
 30
671.000
 70
    32
  0
VERTEX
  8
M47LXLIFT
 62
1
 10
5337.028
 20
-7284.048
 30
671.000
 70
    32
  0
VERTEX
  8
M47LXLIFT
 62
1
 10
5344.273
 20
-7291.711
 30
671.000
 70
    32
  0
SEQEND
  8
M47LXLIFT
  0
POLYLINE
  8
M47LXLIFT
 62
1
 66
     1
 70
     9
  0
VERTEX
  8
M47LXLIFT
 62
1
 10
5370.357
 20
-7291.120
 30
667.000
 70
    32
  0
VERTEX
  8
M47LXLIFT
 62
1
 10
5366.563
 20
-7280.433
 30
667.000
 70
    32
  0
VERTEX
  8
M47LXLIFT
 62
1
 10
5357.822
 20
-7259.564
 30
667.000
 70
    32
  0
VERTEX
  8
M47LXLIFT
 62
1
 10
5349.664
 20
-7235.895
 30
667.000
 70
    32
  0
VERTEX
  8
M47LXLIFT
 62
1
 10
5343.958
 20
-7221.499
 30
667.000
 70
    32
  0
VERTEX
  8
M47LXLIFT
 62
1
 10
5337.626
 20
-7212.097
 30
667.000
 70
    32
  0
VERTEX
  8
M47LXLIFT
 62
1
 10
5322.926
 20
-7210.014
 30
667.000
 70
    32
  0
VERTEX
  8
M47LXLIFT
 62
1
 10
5316.135
 20
-7200.726
 30
667.000
 70
    32
  0
VERTEX
  8
M47LXLIFT
 62
1
 10
5316.633
 20
-7194.200
 30
667.000
 70
    32
  0
VERTEX
  8
M47LXLIFT
 62
1
 10
5320.057
 20
-7174.749
 30
667.000
 70
    32
  0
VERTEX
  8
M47LXLIFT
 62
1
 10
5324.405
 20
-7156.580
 30
667.000
 70
    32
  0
VERTEX
  8
M47LXLIFT
 62
1
 10
5329.966
 20
-7143.707
 30
667.000
 70
    32
  0
VERTEX
  8
M47LXLIFT
 62
1
 10
5331.894
 20
-7131.499
 30
667.000
 70
    32
  0
VERTEX
  8
M47LXLIFT
 62
1
 10
5338.694
 20
-7119.897
 30
667.000
 70
    32
  0
VERTEX
  8
M47LXLIFT
 62
1
 10
5346.380
 20
-7113.285
 30
667.000
 70
    32
  0
VERTEX
  8
M47LXLIFT
 62
1
 10
5349.032
 20
-7118.626
 30
667.000
 70
    32
  0
VERTEX
  8
M47LXLIFT
 62
1
 10
5351.469
 20
-7129.532
 30
667.000
 70
    32
  0
VERTEX
  8
M47LXLIFT
 62
1
 10
5358.138
 20
-7138.800
 30
667.000
 70
    32
  0
VERTEX
  8
M47LXLIFT
 62
1
 10
5364.798
 20
-7148.507
 30
667.000
 70
    32
  0
VERTEX
  8
M47LXLIFT
 62
1
 10
5360.801
 20
-7158.741
 30
667.000
 70
    32
  0
VERTEX
  8
M47LXLIFT
 62
1
 10
5354.474
 20
-7168.595
 30
667.000
 70
    32
  0
VERTEX
  8
M47LXLIFT
 62
1
 10
5355.213
 20
-7175.637
 30
667.000
 70
    32
  0
VERTEX
  8
M47LXLIFT
 62
1
 10
5358.749
 20
-7182.507
 30
667.000
 70
    32
  0
VERTEX
  8
M47LXLIFT
 62
1
 10
5358.092
 20
-7187.307
 30
667.000
 70
    32
  0
VERTEX
  8
M47LXLIFT
 62
1
 10
5350.872
 20
-7192.611
 30
667.000
 70
    32
  0
VERTEX
  8
M47LXLIFT
 62
1
 10
5352.192
 20
-7199.559
 30
667.000
 70
    32
  0
VERTEX
  8
M47LXLIFT
 62
1
 10
5356.776
 20
-7202.321
 30
667.000
 70
    32
  0
VERTEX
  8
M47LXLIFT
 62
1
 10
5361.024
 20
-7202.510
 30
667.000
 70
    32
  0
VERTEX
  8
M47LXLIFT
 62
1
 10
5363.303
 20
-7208.985
 30
667.000
 70
    32
  0
VERTEX
  8
M47LXLIFT
 62
1
 10
5366.379
 20
-7218.674
 30
667.000
 70
    32
  0
VERTEX
  8
M47LXLIFT
 62
1
 10
5375.793
 20
-7230.403
 30
667.000
 70
    32
  0
VERTEX
  8
M47LXLIFT
 62
1
 10
5380.901
 20
-7243.066
 30
667.000
 70
    32
  0
VERTEX
  8
M47LXLIFT
 62
1
 10
5384.437
 20
-7258.808
 30
667.000
 70
    32
  0
VERTEX
  8
M47LXLIFT
 62
1
 10
5385.560
 20
-7279.316
 30
667.000
 70
    32
  0
VERTEX
  8
M47LXLIFT
 62
1
 10
5385.987
 20
-7290.586
 30
667.000
 70
    32
  0
SEQEND
  8
M47LXLIFT
  0
POLYLINE
  8
M47LXLIFT
 62
1
 66
     1
 70
     9
  0
VERTEX
  8
M47LXLIFT
 62
1
 10
5377.679
 20
-7179.048
 30
640.000
 70
    32
  0
VERTEX
  8
M47LXLIFT
 62
1
 10
5368.726
 20
-7179.329
 30
640.000
 70
    32
  0
VERTEX
  8
M47LXLIFT
 62
1
 10
5357.544
 20
-7162.419
 30
640.000
 70
    32
  0
VERTEX
  8
M47LXLIFT
 62
1
 10
5363.255
 20
-7158.304
 30
640.000
 70
    32
  0
VERTEX
  8
M47LXLIFT
 62
1
 10
5372.927
 20
-7151.844
 30
640.000
 70
    32
  0
VERTEX
  8
M47LXLIFT
 62
1
 10
5378.338
 20
-7153.589
 30
640.000
 70
    32
  0
VERTEX
  8
M47LXLIFT
 62
1
 10
5388.409
 20
-7152.016
 30
640.000
 70
    32
  0
VERTEX
  8
M47LXLIFT
 62
1
 10
5396.290
 20
-7149.015
 30
640.000
 70
    32
  0
VERTEX
  8
M47LXLIFT
 62
1
 10
5403.888
 20
-7151.749
 30
640.000
 70
    32
  0
VERTEX
  8
M47LXLIFT
 62
1
 10
5408.846
 20
-7163.225
 30
640.000
 70
    32
  0
VERTEX
  8
M47LXLIFT
 62
1
 10
5408.807
 20
-7168.556
 30
640.000
 70
    32
  0
VERTEX
  8
M47LXLIFT
 62
1
 10
5399.021
 20
-7173.556
 30
640.000
 70
    32
  0
VERTEX
  8
M47LXLIFT
 62
1
 10
5389.910
 20
-7176.829
 30
640.000
 70
    32
  0
VERTEX
  8
M47LXLIFT
 62
1
 10
5381.288
 20
-7182.492
 30
640.000
 70
    32
  0
SEQEND
  8
M47LXLIFT
  0
POLYLINE
  8
M47LXLIFT
 62
1
 66
     1
 70
     9
  0
VERTEX
  8
M47LXLIFT
 62
1
 10
4820.551
 20
-6643.556
 30
674.000
 70
    32
  0
VERTEX
  8
M47LXLIFT
 62
1
 10
4843.542
 20
-6645.732
 30
674.000
 70
    32
  0
VERTEX
  8
M47LXLIFT
 62
1
 10
4846.356
 20
-6644.681
 30
674.000
 70
    32
  0
VERTEX
  8
M47LXLIFT
 62
1
 10
4864.891
 20
-6669.539
 30
674.000
 70
    32
  0
VERTEX
  8
M47LXLIFT
 62
1
 10
4872.248
 20
-6685.778
 30
674.000
 70
    32
  0
VERTEX
  8
M47LXLIFT
 62
1
 10
4874.808
 20
-6696.704
 30
674.000
 70
    32
  0
VERTEX
  8
M47LXLIFT
 62
1
 10
4869.107
 20
-6701.563
 30
674.000
 70
    32
  0
VERTEX
  8
M47LXLIFT
 62
1
 10
4863.415
 20
-6697.111
 30
674.000
 70
    32
  0
VERTEX
  8
M47LXLIFT
 62
1
 10
4843.847
 20
-6701.345
 30
674.000
 70
    32
  0
VERTEX
  8
M47LXLIFT
 62
1
 10
4833.416
 20
-6696.623
 30
674.000
 70
    32
  0
VERTEX
  8
M47LXLIFT
 62
1
 10
4827.536
 20
-6702.585
 30
674.000
 70
    32
  0
VERTEX
  8
M47LXLIFT
 62
1
 10
4815.155
 20
-6688.988
 30
674.000
 70
    32
  0
VERTEX
  8
M47LXLIFT
 62
1
 10
4811.910
 20
-6651.396
 30
674.000
 70
    32
  0
SEQEND
  8
M47LXLIFT
  0
POLYLINE
  8
M47LXLIFT
 62
1
 66
     1
 70
     9
  0
VERTEX
  8
M47LXLIFT
 62
1
 10
4969.367
 20
-6898.195
 30
664.000
 70
    32
  0
VERTEX
  8
M47LXLIFT
 62
1
 10
4967.458
 20
-6883.663
 30
664.000
 70
    32
  0
VERTEX
  8
M47LXLIFT
 62
1
 10
4968.063
 20
-6872.624
 30
664.000
 70
    32
  0
VERTEX
  8
M47LXLIFT
 62
1
 10
4963.763
 20
-6866.196
 30
664.000
 70
    32
  0
VERTEX
  8
M47LXLIFT
 62
1
 10
4957.083
 20
-6847.739
 30
664.000
 70
    32
  0
VERTEX
  8
M47LXLIFT
 62
1
 10
4950.086
 20
-6829.294
 30
664.000
 70
    32
  0
VERTEX
  8
M47LXLIFT
 62
1
 10
4949.211
 20
-6818.454
 30
664.000
 70
    32
  0
VERTEX
  8
M47LXLIFT
 62
1
 10
4955.360
 20
-6813.164
 30
664.000
 70
    32
  0
VERTEX
  8
M47LXLIFT
 62
1
 10
4965.798
 20
-6811.280
 30
664.000
 70
    32
  0
VERTEX
  8
M47LXLIFT
 62
1
 10
4977.425
 20
-6810.597
 30
664.000
 70
    32
  0
VERTEX
  8
M47LXLIFT
 62
1
 10
4983.735
 20
-6825.532
 30
664.000
 70
    32
  0
VERTEX
  8
M47LXLIFT
 62
1
 10
4981.125
 20
-6829.574
 30
664.000
 70
    32
  0
VERTEX
  8
M47LXLIFT
 62
1
 10
4982.497
 20
-6839.299
 30
664.000
 70
    32
  0
VERTEX
  8
M47LXLIFT
 62
1
 10
4983.728
 20
-6849.883
 30
664.000
 70
    32
  0
VERTEX
  8
M47LXLIFT
 62
1
 10
4985.030
 20
-6860.415
 30
664.000
 70
    32
  0
VERTEX
  8
M47LXLIFT
 62
1
 10
4991.761
 20
-6872.776
 30
664.000
 70
    32
  0
VERTEX
  8
M47LXLIFT
 62
1
 10
4990.915
 20
-6879.120
 30
664.000
 70
    32
  0
VERTEX
  8
M47LXLIFT
 62
1
 10
4992.254
 20
-6891.357
 30
664.000
 70
    32
  0
VERTEX
  8
M47LXLIFT
 62
1
 10
4994.814
 20
-6902.283
 30
664.000
 70
    32
  0
VERTEX
  8
M47LXLIFT
 62
1
 10
4994.415
 20
-6910.901
 30
664.000
 70
    32
  0
VERTEX
  8
M47LXLIFT
 62
1
 10
4987.942
 20
-6913.935
 30
664.000
 70
    32
  0
VERTEX
  8
M47LXLIFT
 62
1
 10
4978.845
 20
-6913.773
 30
664.000
 70
    32
  0
VERTEX
  8
M47LXLIFT
 62
1
 10
4969.257
 20
-6913.531
 30
664.000
 70
    32
  0
SEQEND
  8
M47LXLIFT
  0
ENDSEC
  0
EOF
