999
********************************
999
*   DXF File - Entities Only   *
999
*        3D Data Format        *
999
*     Output from ENVISAGE     *
999
*     31-Dec-2007 15:09:45     *
999
********************************
  0
SECTION 
  2
HEADER
  9
$ACADVER
  1
AC1009
  9
$EXTMIN
 10
-290000.000
 20
-250000.000
 30
-4000.000
  9
$EXTMAX
 10
320000.000
 20
160000.000
 30
6000.000
  0
ENDSEC
  0
SECTION
  2
ENTITIES
  0
POLYLINE
  8
M48LXLIFT
 62
6
 66
     1
 70
     9
  0
VERTEX
  8
M48LXLIFT
 62
6
 10
5641.072
 20
-7282.839
 30
479.000
 70
    32
  0
VERTEX
  8
M48LXLIFT
 62
6
 10
5647.521
 20
-7286.841
 30
479.000
 70
    32
  0
VERTEX
  8
M48LXLIFT
 62
6
 10
5659.230
 20
-7290.190
 30
479.000
 70
    32
  0
VERTEX
  8
M48LXLIFT
 62
6
 10
5663.089
 20
-7296.599
 30
479.000
 70
    32
  0
VERTEX
  8
M48LXLIFT
 62
6
 10
5666.268
 20
-7301.012
 30
479.000
 70
    32
  0
VERTEX
  8
M48LXLIFT
 62
6
 10
5661.431
 20
-7305.252
 30
479.000
 70
    32
  0
VERTEX
  8
M48LXLIFT
 62
6
 10
5670.092
 20
-7319.228
 30
479.000
 70
    32
  0
VERTEX
  8
M48LXLIFT
 62
6
 10
5666.118
 20
-7325.117
 30
479.000
 70
    32
  0
VERTEX
  8
M48LXLIFT
 62
6
 10
5660.738
 20
-7333.856
 30
479.000
 70
    32
  0
VERTEX
  8
M48LXLIFT
 62
6
 10
5658.090
 20
-7334.682
 30
479.000
 70
    32
  0
VERTEX
  8
M48LXLIFT
 62
6
 10
5648.979
 20
-7323.084
 30
479.000
 70
    32
  0
VERTEX
  8
M48LXLIFT
 62
6
 10
5641.643
 20
-7314.099
 30
479.000
 70
    32
  0
VERTEX
  8
M48LXLIFT
 62
6
 10
5639.825
 20
-7302.870
 30
479.000
 70
    32
  0
VERTEX
  8
M48LXLIFT
 62
6
 10
5636.922
 20
-7293.286
 30
479.000
 70
    32
  0
SEQEND
  8
M48LXLIFT
  0
POLYLINE
  8
M48LXLIFT
 62
6
 66
     1
 70
     9
  0
VERTEX
  8
M48LXLIFT
 62
6
 10
5653.972
 20
-7347.753
 30
472.000
 70
    32
  0
VERTEX
  8
M48LXLIFT
 62
6
 10
5662.612
 20
-7338.215
 30
472.000
 70
    32
  0
VERTEX
  8
M48LXLIFT
 62
6
 10
5671.974
 20
-7330.540
 30
472.000
 70
    32
  0
VERTEX
  8
M48LXLIFT
 62
6
 10
5678.442
 20
-7320.863
 30
472.000
 70
    32
  0
VERTEX
  8
M48LXLIFT
 62
6
 10
5673.551
 20
-7311.732
 30
472.000
 70
    32
  0
VERTEX
  8
M48LXLIFT
 62
6
 10
5665.728
 20
-7303.350
 30
472.000
 70
    32
  0
VERTEX
  8
M48LXLIFT
 62
6
 10
5659.154
 20
-7296.660
 30
472.000
 70
    32
  0
VERTEX
  8
M48LXLIFT
 62
6
 10
5653.061
 20
-7298.437
 30
472.000
 70
    32
  0
VERTEX
  8
M48LXLIFT
 62
6
 10
5653.692
 20
-7310.059
 30
472.000
 70
    32
  0
VERTEX
  8
M48LXLIFT
 62
6
 10
5653.680
 20
-7323.464
 30
472.000
 70
    32
  0
VERTEX
  8
M48LXLIFT
 62
6
 10
5650.573
 20
-7331.204
 30
472.000
 70
    32
  0
VERTEX
  8
M48LXLIFT
 62
6
 10
5645.677
 20
-7339.175
 30
472.000
 70
    32
  0
SEQEND
  8
M48LXLIFT
  0
POLYLINE
  8
M48LXLIFT
 62
6
 66
     1
 70
     9
  0
VERTEX
  8
M48LXLIFT
 62
6
 10
5667.188
 20
-7317.101
 30
441.000
 70
    32
  0
VERTEX
  8
M48LXLIFT
 62
6
 10
5673.738
 20
-7324.711
 30
441.000
 70
    32
  0
VERTEX
  8
M48LXLIFT
 62
6
 10
5680.490
 20
-7345.230
 30
441.000
 70
    32
  0
VERTEX
  8
M48LXLIFT
 62
6
 10
5683.792
 20
-7360.441
 30
441.000
 70
    32
  0
VERTEX
  8
M48LXLIFT
 62
6
 10
5681.120
 20
-7372.843
 30
441.000
 70
    32
  0
VERTEX
  8
M48LXLIFT
 62
6
 10
5692.156
 20
-7372.163
 30
441.000
 70
    32
  0
VERTEX
  8
M48LXLIFT
 62
6
 10
5701.138
 20
-7366.893
 30
441.000
 70
    32
  0
VERTEX
  8
M48LXLIFT
 62
6
 10
5705.496
 20
-7359.023
 30
441.000
 70
    32
  0
VERTEX
  8
M48LXLIFT
 62
6
 10
5704.570
 20
-7347.949
 30
441.000
 70
    32
  0
VERTEX
  8
M48LXLIFT
 62
6
 10
5696.347
 20
-7337.756
 30
441.000
 70
    32
  0
VERTEX
  8
M48LXLIFT
 62
6
 10
5691.117
 20
-7325.263
 30
441.000
 70
    32
  0
VERTEX
  8
M48LXLIFT
 62
6
 10
5682.625
 20
-7313.961
 30
441.000
 70
    32
  0
VERTEX
  8
M48LXLIFT
 62
6
 10
5674.906
 20
-7310.254
 30
441.000
 70
    32
  0
VERTEX
  8
M48LXLIFT
 62
6
 10
5670.347
 20
-7309.674
 30
441.000
 70
    32
  0
VERTEX
  8
M48LXLIFT
 62
6
 10
5668.924
 20
-7312.784
 30
441.000
 70
    32
  0
SEQEND
  8
M48LXLIFT
  0
POLYLINE
  8
M48LXLIFT
 62
6
 66
     1
 70
     9
  0
VERTEX
  8
M48LXLIFT
 62
6
 10
5716.031
 20
-7360.762
 30
431.000
 70
    32
  0
VERTEX
  8
M48LXLIFT
 62
6
 10
5702.367
 20
-7370.957
 30
431.000
 70
    32
  0
VERTEX
  8
M48LXLIFT
 62
6
 10
5696.015
 20
-7374.308
 30
431.000
 70
    32
  0
VERTEX
  8
M48LXLIFT
 62
6
 10
5692.379
 20
-7368.916
 30
431.000
 70
    32
  0
VERTEX
  8
M48LXLIFT
 62
6
 10
5699.404
 20
-7360.765
 30
431.000
 70
    32
  0
VERTEX
  8
M48LXLIFT
 62
6
 10
5698.371
 20
-7352.972
 30
431.000
 70
    32
  0
VERTEX
  8
M48LXLIFT
 62
6
 10
5691.557
 20
-7340.564
 30
431.000
 70
    32
  0
VERTEX
  8
M48LXLIFT
 62
6
 10
5683.885
 20
-7324.234
 30
431.000
 70
    32
  0
VERTEX
  8
M48LXLIFT
 62
6
 10
5675.193
 20
-7323.102
 30
431.000
 70
    32
  0
VERTEX
  8
M48LXLIFT
 62
6
 10
5671.577
 20
-7318.343
 30
431.000
 70
    32
  0
VERTEX
  8
M48LXLIFT
 62
6
 10
5672.434
 20
-7314.707
 30
431.000
 70
    32
  0
VERTEX
  8
M48LXLIFT
 62
6
 10
5683.362
 20
-7307.331
 30
431.000
 70
    32
  0
VERTEX
  8
M48LXLIFT
 62
6
 10
5697.019
 20
-7326.295
 30
431.000
 70
    32
  0
VERTEX
  8
M48LXLIFT
 62
6
 10
5708.543
 20
-7344.841
 30
431.000
 70
    32
  0
SEQEND
  8
M48LXLIFT
  0
POLYLINE
  8
M48LXLIFT
 62
6
 66
     1
 70
     9
  0
VERTEX
  8
M48LXLIFT
 62
6
 10
5666.827
 20
-7320.771
 30
420.000
 70
    32
  0
VERTEX
  8
M48LXLIFT
 62
6
 10
5670.569
 20
-7323.033
 30
420.000
 70
    32
  0
VERTEX
  8
M48LXLIFT
 62
6
 10
5677.122
 20
-7325.406
 30
420.000
 70
    32
  0
VERTEX
  8
M48LXLIFT
 62
6
 10
5680.429
 20
-7329.298
 30
420.000
 70
    32
  0
VERTEX
  8
M48LXLIFT
 62
6
 10
5687.292
 20
-7325.875
 30
420.000
 70
    32
  0
VERTEX
  8
M48LXLIFT
 62
6
 10
5693.512
 20
-7334.606
 30
420.000
 70
    32
  0
VERTEX
  8
M48LXLIFT
 62
6
 10
5696.349
 20
-7346.596
 30
420.000
 70
    32
  0
VERTEX
  8
M48LXLIFT
 62
6
 10
5701.119
 20
-7360.762
 30
420.000
 70
    32
  0
VERTEX
  8
M48LXLIFT
 62
6
 10
5706.831
 20
-7367.029
 30
420.000
 70
    32
  0
VERTEX
  8
M48LXLIFT
 62
6
 10
5713.614
 20
-7367.049
 30
420.000
 70
    32
  0
VERTEX
  8
M48LXLIFT
 62
6
 10
5719.732
 20
-7362.319
 30
420.000
 70
    32
  0
VERTEX
  8
M48LXLIFT
 62
6
 10
5719.026
 20
-7354.108
 30
420.000
 70
    32
  0
VERTEX
  8
M48LXLIFT
 62
6
 10
5717.510
 20
-7341.689
 30
420.000
 70
    32
  0
VERTEX
  8
M48LXLIFT
 62
6
 10
5706.339
 20
-7330.388
 30
420.000
 70
    32
  0
VERTEX
  8
M48LXLIFT
 62
6
 10
5696.403
 20
-7318.393
 30
420.000
 70
    32
  0
VERTEX
  8
M48LXLIFT
 62
6
 10
5687.096
 20
-7317.615
 30
420.000
 70
    32
  0
VERTEX
  8
M48LXLIFT
 62
6
 10
5683.621
 20
-7312.754
 30
420.000
 70
    32
  0
VERTEX
  8
M48LXLIFT
 62
6
 10
5675.974
 20
-7310.970
 30
420.000
 70
    32
  0
VERTEX
  8
M48LXLIFT
 62
6
 10
5671.959
 20
-7316.332
 30
420.000
 70
    32
  0
SEQEND
  8
M48LXLIFT
  0
POLYLINE
  8
M48LXLIFT
 62
6
 66
     1
 70
     9
  0
VERTEX
  8
M48LXLIFT
 62
6
 10
5686.126
 20
-7379.067
 30
451.000
 70
    32
  0
VERTEX
  8
M48LXLIFT
 62
6
 10
5691.523
 20
-7374.694
 30
451.000
 70
    32
  0
VERTEX
  8
M48LXLIFT
 62
6
 10
5691.682
 20
-7365.229
 30
451.000
 70
    32
  0
VERTEX
  8
M48LXLIFT
 62
6
 10
5690.380
 20
-7354.656
 30
451.000
 70
    32
  0
VERTEX
  8
M48LXLIFT
 62
6
 10
5690.817
 20
-7341.401
 30
451.000
 70
    32
  0
VERTEX
  8
M48LXLIFT
 62
6
 10
5685.807
 20
-7329.620
 30
451.000
 70
    32
  0
VERTEX
  8
M48LXLIFT
 62
6
 10
5681.187
 20
-7322.991
 30
451.000
 70
    32
  0
VERTEX
  8
M48LXLIFT
 62
6
 10
5684.193
 20
-7317.427
 30
451.000
 70
    32
  0
VERTEX
  8
M48LXLIFT
 62
6
 10
5682.258
 20
-7306.881
 30
451.000
 70
    32
  0
VERTEX
  8
M48LXLIFT
 62
6
 10
5678.957
 20
-7301.463
 30
451.000
 70
    32
  0
VERTEX
  8
M48LXLIFT
 62
6
 10
5675.113
 20
-7303.942
 30
451.000
 70
    32
  0
VERTEX
  8
M48LXLIFT
 62
6
 10
5667.677
 20
-7304.477
 30
451.000
 70
    32
  0
VERTEX
  8
M48LXLIFT
 62
6
 10
5662.642
 20
-7309.347
 30
451.000
 70
    32
  0
VERTEX
  8
M48LXLIFT
 62
6
 10
5669.074
 20
-7322.481
 30
451.000
 70
    32
  0
VERTEX
  8
M48LXLIFT
 62
6
 10
5678.854
 20
-7345.565
 30
451.000
 70
    32
  0
VERTEX
  8
M48LXLIFT
 62
6
 10
5678.774
 20
-7351.711
 30
451.000
 70
    32
  0
VERTEX
  8
M48LXLIFT
 62
6
 10
5671.322
 20
-7358.780
 30
451.000
 70
    32
  0
VERTEX
  8
M48LXLIFT
 62
6
 10
5674.420
 20
-7366.303
 30
451.000
 70
    32
  0
SEQEND
  8
M48LXLIFT
  0
POLYLINE
  8
M48LXLIFT
 62
6
 66
     1
 70
     9
  0
VERTEX
  8
M48LXLIFT
 62
6
 10
5669.560
 20
-7284.262
 30
462.000
 70
    32
  0
VERTEX
  8
M48LXLIFT
 62
6
 10
5661.993
 20
-7286.846
 30
462.000
 70
    32
  0
VERTEX
  8
M48LXLIFT
 62
6
 10
5657.055
 20
-7296.312
 30
462.000
 70
    32
  0
VERTEX
  8
M48LXLIFT
 62
6
 10
5653.832
 20
-7299.639
 30
462.000
 70
    32
  0
VERTEX
  8
M48LXLIFT
 62
6
 10
5655.893
 20
-7312.150
 30
462.000
 70
    32
  0
VERTEX
  8
M48LXLIFT
 62
6
 10
5660.491
 20
-7314.880
 30
462.000
 70
    32
  0
VERTEX
  8
M48LXLIFT
 62
6
 10
5661.427
 20
-7320.932
 30
462.000
 70
    32
  0
VERTEX
  8
M48LXLIFT
 62
6
 10
5657.687
 20
-7328.764
 30
462.000
 70
    32
  0
VERTEX
  8
M48LXLIFT
 62
6
 10
5653.513
 20
-7334.958
 30
462.000
 70
    32
  0
VERTEX
  8
M48LXLIFT
 62
6
 10
5659.069
 20
-7340.791
 30
462.000
 70
    32
  0
VERTEX
  8
M48LXLIFT
 62
6
 10
5667.555
 20
-7345.576
 30
462.000
 70
    32
  0
VERTEX
  8
M48LXLIFT
 62
6
 10
5678.447
 20
-7350.235
 30
462.000
 70
    32
  0
VERTEX
  8
M48LXLIFT
 62
6
 10
5682.765
 20
-7351.540
 30
462.000
 70
    32
  0
VERTEX
  8
M48LXLIFT
 62
6
 10
5686.040
 20
-7343.070
 30
462.000
 70
    32
  0
VERTEX
  8
M48LXLIFT
 62
6
 10
5684.118
 20
-7333.282
 30
462.000
 70
    32
  0
VERTEX
  8
M48LXLIFT
 62
6
 10
5681.280
 20
-7323.729
 30
462.000
 70
    32
  0
VERTEX
  8
M48LXLIFT
 62
6
 10
5678.624
 20
-7315.020
 30
462.000
 70
    32
  0
VERTEX
  8
M48LXLIFT
 62
6
 10
5677.775
 20
-7306.406
 30
462.000
 70
    32
  0
VERTEX
  8
M48LXLIFT
 62
6
 10
5673.473
 20
-7292.162
 30
462.000
 70
    32
  0
SEQEND
  8
M48LXLIFT
  0
POLYLINE
  8
M48LXLIFT
 62
6
 66
     1
 70
     9
  0
VERTEX
  8
M48LXLIFT
 62
6
 10
5627.695
 20
-7421.748
 30
441.000
 70
    32
  0
VERTEX
  8
M48LXLIFT
 62
6
 10
5635.502
 20
-7410.266
 30
441.000
 70
    32
  0
VERTEX
  8
M48LXLIFT
 62
6
 10
5643.930
 20
-7401.266
 30
441.000
 70
    32
  0
VERTEX
  8
M48LXLIFT
 62
6
 10
5653.258
 20
-7394.982
 30
441.000
 70
    32
  0
VERTEX
  8
M48LXLIFT
 62
6
 10
5658.828
 20
-7388.619
 30
441.000
 70
    32
  0
VERTEX
  8
M48LXLIFT
 62
6
 10
5654.083
 20
-7372.179
 30
441.000
 70
    32
  0
VERTEX
  8
M48LXLIFT
 62
6
 10
5660.290
 20
-7360.889
 30
441.000
 70
    32
  0
VERTEX
  8
M48LXLIFT
 62
6
 10
5663.397
 20
-7347.298
 30
441.000
 70
    32
  0
VERTEX
  8
M48LXLIFT
 62
6
 10
5660.841
 20
-7339.049
 30
441.000
 70
    32
  0
VERTEX
  8
M48LXLIFT
 62
6
 10
5654.294
 20
-7332.634
 30
441.000
 70
    32
  0
VERTEX
  8
M48LXLIFT
 62
6
 10
5652.210
 20
-7324.585
 30
441.000
 70
    32
  0
VERTEX
  8
M48LXLIFT
 62
6
 10
5650.951
 20
-7316.475
 30
441.000
 70
    32
  0
VERTEX
  8
M48LXLIFT
 62
6
 10
5640.160
 20
-7317.193
 30
441.000
 70
    32
  0
VERTEX
  8
M48LXLIFT
 62
6
 10
5632.476
 20
-7316.507
 30
441.000
 70
    32
  0
VERTEX
  8
M48LXLIFT
 62
6
 10
5623.171
 20
-7319.402
 30
441.000
 70
    32
  0
VERTEX
  8
M48LXLIFT
 62
6
 10
5607.382
 20
-7319.536
 30
441.000
 70
    32
  0
VERTEX
  8
M48LXLIFT
 62
6
 10
5596.453
 20
-7315.458
 30
441.000
 70
    32
  0
VERTEX
  8
M48LXLIFT
 62
6
 10
5590.651
 20
-7322.100
 30
441.000
 70
    32
  0
VERTEX
  8
M48LXLIFT
 62
6
 10
5591.276
 20
-7331.871
 30
441.000
 70
    32
  0
VERTEX
  8
M48LXLIFT
 62
6
 10
5601.807
 20
-7336.892
 30
441.000
 70
    32
  0
VERTEX
  8
M48LXLIFT
 62
6
 10
5612.880
 20
-7337.600
 30
441.000
 70
    32
  0
VERTEX
  8
M48LXLIFT
 62
6
 10
5613.675
 20
-7347.900
 30
441.000
 70
    32
  0
VERTEX
  8
M48LXLIFT
 62
6
 10
5608.121
 20
-7363.500
 30
441.000
 70
    32
  0
VERTEX
  8
M48LXLIFT
 62
6
 10
5599.897
 20
-7376.049
 30
441.000
 70
    32
  0
VERTEX
  8
M48LXLIFT
 62
6
 10
5590.360
 20
-7391.410
 30
441.000
 70
    32
  0
VERTEX
  8
M48LXLIFT
 62
6
 10
5583.635
 20
-7401.992
 30
441.000
 70
    32
  0
VERTEX
  8
M48LXLIFT
 62
6
 10
5579.848
 20
-7415.102
 30
441.000
 70
    32
  0
VERTEX
  8
M48LXLIFT
 62
6
 10
5584.254
 20
-7430.483
 30
441.000
 70
    32
  0
VERTEX
  8
M48LXLIFT
 62
6
 10
5591.020
 20
-7433.038
 30
441.000
 70
    32
  0
VERTEX
  8
M48LXLIFT
 62
6
 10
5599.641
 20
-7419.545
 30
441.000
 70
    32
  0
VERTEX
  8
M48LXLIFT
 62
6
 10
5603.551
 20
-7404.821
 30
441.000
 70
    32
  0
VERTEX
  8
M48LXLIFT
 62
6
 10
5610.255
 20
-7397.628
 30
441.000
 70
    32
  0
VERTEX
  8
M48LXLIFT
 62
6
 10
5618.458
 20
-7409.577
 30
441.000
 70
    32
  0
SEQEND
  8
M48LXLIFT
  0
POLYLINE
  8
M48LXLIFT
 62
6
 66
     1
 70
     9
  0
VERTEX
  8
M48LXLIFT
 62
6
 10
5639.338
 20
-7388.525
 30
512.000
 70
    32
  0
VERTEX
  8
M48LXLIFT
 62
6
 10
5642.944
 20
-7358.952
 30
512.000
 70
    32
  0
VERTEX
  8
M48LXLIFT
 62
6
 10
5642.824
 20
-7346.369
 30
512.000
 70
    32
  0
VERTEX
  8
M48LXLIFT
 62
6
 10
5644.464
 20
-7339.660
 30
512.000
 70
    32
  0
VERTEX
  8
M48LXLIFT
 62
6
 10
5647.022
 20
-7337.808
 30
512.000
 70
    32
  0
VERTEX
  8
M48LXLIFT
 62
6
 10
5637.866
 20
-7316.932
 30
512.000
 70
    32
  0
VERTEX
  8
M48LXLIFT
 62
6
 10
5634.010
 20
-7299.041
 30
512.000
 70
    32
  0
VERTEX
  8
M48LXLIFT
 62
6
 10
5632.594
 20
-7286.314
 30
512.000
 70
    32
  0
VERTEX
  8
M48LXLIFT
 62
6
 10
5622.772
 20
-7266.462
 30
512.000
 70
    32
  0
VERTEX
  8
M48LXLIFT
 62
6
 10
5619.655
 20
-7255.724
 30
512.000
 70
    32
  0
VERTEX
  8
M48LXLIFT
 62
6
 10
5610.786
 20
-7247.959
 30
512.000
 70
    32
  0
VERTEX
  8
M48LXLIFT
 62
6
 10
5600.933
 20
-7229.861
 30
512.000
 70
    32
  0
VERTEX
  8
M48LXLIFT
 62
6
 10
5574.066
 20
-7247.793
 30
512.000
 70
    32
  0
VERTEX
  8
M48LXLIFT
 62
6
 10
5557.771
 20
-7255.799
 30
512.000
 70
    32
  0
VERTEX
  8
M48LXLIFT
 62
6
 10
5550.106
 20
-7269.144
 30
512.000
 70
    32
  0
VERTEX
  8
M48LXLIFT
 62
6
 10
5565.152
 20
-7286.190
 30
512.000
 70
    32
  0
VERTEX
  8
M48LXLIFT
 62
6
 10
5572.438
 20
-7295.208
 30
512.000
 70
    32
  0
VERTEX
  8
M48LXLIFT
 62
6
 10
5563.544
 20
-7304.462
 30
512.000
 70
    32
  0
VERTEX
  8
M48LXLIFT
 62
6
 10
5545.298
 20
-7316.803
 30
512.000
 70
    32
  0
VERTEX
  8
M48LXLIFT
 62
6
 10
5540.638
 20
-7324.725
 30
512.000
 70
    32
  0
VERTEX
  8
M48LXLIFT
 62
6
 10
5548.424
 20
-7335.332
 30
512.000
 70
    32
  0
VERTEX
  8
M48LXLIFT
 62
6
 10
5568.452
 20
-7342.057
 30
512.000
 70
    32
  0
VERTEX
  8
M48LXLIFT
 62
6
 10
5587.153
 20
-7345.304
 30
512.000
 70
    32
  0
VERTEX
  8
M48LXLIFT
 62
6
 10
5599.042
 20
-7343.628
 30
512.000
 70
    32
  0
VERTEX
  8
M48LXLIFT
 62
6
 10
5613.862
 20
-7366.793
 30
512.000
 70
    32
  0
VERTEX
  8
M48LXLIFT
 62
6
 10
5620.708
 20
-7370.716
 30
512.000
 70
    32
  0
VERTEX
  8
M48LXLIFT
 62
6
 10
5626.356
 20
-7377.023
 30
512.000
 70
    32
  0
VERTEX
  8
M48LXLIFT
 62
6
 10
5625.585
 20
-7387.327
 30
512.000
 70
    32
  0
VERTEX
  8
M48LXLIFT
 62
6
 10
5630.192
 20
-7391.896
 30
512.000
 70
    32
  0
SEQEND
  8
M48LXLIFT
  0
POLYLINE
  8
M48LXLIFT
 62
6
 66
     1
 70
     9
  0
VERTEX
  8
M48LXLIFT
 62
6
 10
5624.739
 20
-7275.568
 30
470.000
 70
    32
  0
VERTEX
  8
M48LXLIFT
 62
6
 10
5631.351
 20
-7291.161
 30
470.000
 70
    32
  0
VERTEX
  8
M48LXLIFT
 62
6
 10
5640.730
 20
-7325.838
 30
470.000
 70
    32
  0
VERTEX
  8
M48LXLIFT
 62
6
 10
5643.884
 20
-7354.004
 30
470.000
 70
    32
  0
VERTEX
  8
M48LXLIFT
 62
6
 10
5641.849
 20
-7370.863
 30
470.000
 70
    32
  0
VERTEX
  8
M48LXLIFT
 62
6
 10
5639.004
 20
-7381.023
 30
470.000
 70
    32
  0
VERTEX
  8
M48LXLIFT
 62
6
 10
5641.886
 20
-7389.350
 30
470.000
 70
    32
  0
VERTEX
  8
M48LXLIFT
 62
6
 10
5635.089
 20
-7393.715
 30
470.000
 70
    32
  0
VERTEX
  8
M48LXLIFT
 62
6
 10
5628.297
 20
-7376.405
 30
470.000
 70
    32
  0
VERTEX
  8
M48LXLIFT
 62
6
 10
5619.907
 20
-7361.798
 30
470.000
 70
    32
  0
VERTEX
  8
M48LXLIFT
 62
6
 10
5615.464
 20
-7358.435
 30
470.000
 70
    32
  0
VERTEX
  8
M48LXLIFT
 62
6
 10
5602.783
 20
-7362.353
 30
470.000
 70
    32
  0
VERTEX
  8
M48LXLIFT
 62
6
 10
5595.722
 20
-7369.310
 30
470.000
 70
    32
  0
VERTEX
  8
M48LXLIFT
 62
6
 10
5593.814
 20
-7380.738
 30
470.000
 70
    32
  0
VERTEX
  8
M48LXLIFT
 62
6
 10
5590.926
 20
-7387.445
 30
470.000
 70
    32
  0
VERTEX
  8
M48LXLIFT
 62
6
 10
5585.374
 20
-7389.367
 30
470.000
 70
    32
  0
VERTEX
  8
M48LXLIFT
 62
6
 10
5573.462
 20
-7386.509
 30
470.000
 70
    32
  0
VERTEX
  8
M48LXLIFT
 62
6
 10
5565.051
 20
-7379.542
 30
470.000
 70
    32
  0
VERTEX
  8
M48LXLIFT
 62
6
 10
5561.391
 20
-7365.146
 30
470.000
 70
    32
  0
VERTEX
  8
M48LXLIFT
 62
6
 10
5570.131
 20
-7351.613
 30
470.000
 70
    32
  0
VERTEX
  8
M48LXLIFT
 62
6
 10
5578.207
 20
-7342.492
 30
470.000
 70
    32
  0
VERTEX
  8
M48LXLIFT
 62
6
 10
5591.875
 20
-7335.339
 30
470.000
 70
    32
  0
VERTEX
  8
M48LXLIFT
 62
6
 10
5597.407
 20
-7324.394
 30
470.000
 70
    32
  0
VERTEX
  8
M48LXLIFT
 62
6
 10
5597.349
 20
-7311.041
 30
470.000
 70
    32
  0
VERTEX
  8
M48LXLIFT
 62
6
 10
5588.779
 20
-7301.795
 30
470.000
 70
    32
  0
VERTEX
  8
M48LXLIFT
 62
6
 10
5589.212
 20
-7293.089
 30
470.000
 70
    32
  0
VERTEX
  8
M48LXLIFT
 62
6
 10
5599.074
 20
-7284.173
 30
470.000
 70
    32
  0
VERTEX
  8
M48LXLIFT
 62
6
 10
5614.160
 20
-7279.677
 30
470.000
 70
    32
  0
SEQEND
  8
M48LXLIFT
  0
POLYLINE
  8
M48LXLIFT
 62
6
 66
     1
 70
     9
  0
VERTEX
  8
M48LXLIFT
 62
6
 10
5598.321
 20
-7246.857
 30
491.000
 70
    32
  0
VERTEX
  8
M48LXLIFT
 62
6
 10
5601.113
 20
-7250.584
 30
491.000
 70
    32
  0
VERTEX
  8
M48LXLIFT
 62
6
 10
5597.994
 20
-7257.378
 30
491.000
 70
    32
  0
VERTEX
  8
M48LXLIFT
 62
6
 10
5590.880
 20
-7263.585
 30
491.000
 70
    32
  0
VERTEX
  8
M48LXLIFT
 62
6
 10
5577.263
 20
-7270.685
 30
491.000
 70
    32
  0
VERTEX
  8
M48LXLIFT
 62
6
 10
5576.203
 20
-7297.326
 30
491.000
 70
    32
  0
VERTEX
  8
M48LXLIFT
 62
6
 10
5588.598
 20
-7301.607
 30
491.000
 70
    32
  0
VERTEX
  8
M48LXLIFT
 62
6
 10
5572.589
 20
-7316.061
 30
491.000
 70
    32
  0
VERTEX
  8
M48LXLIFT
 62
6
 10
5559.598
 20
-7328.990
 30
491.000
 70
    32
  0
VERTEX
  8
M48LXLIFT
 62
6
 10
5546.106
 20
-7352.350
 30
491.000
 70
    32
  0
VERTEX
  8
M48LXLIFT
 62
6
 10
5552.363
 20
-7372.313
 30
491.000
 70
    32
  0
VERTEX
  8
M48LXLIFT
 62
6
 10
5558.715
 20
-7380.081
 30
491.000
 70
    32
  0
VERTEX
  8
M48LXLIFT
 62
6
 10
5572.822
 20
-7383.130
 30
491.000
 70
    32
  0
VERTEX
  8
M48LXLIFT
 62
6
 10
5591.624
 20
-7377.817
 30
491.000
 70
    32
  0
VERTEX
  8
M48LXLIFT
 62
6
 10
5608.170
 20
-7372.829
 30
491.000
 70
    32
  0
VERTEX
  8
M48LXLIFT
 62
6
 10
5622.442
 20
-7373.703
 30
491.000
 70
    32
  0
VERTEX
  8
M48LXLIFT
 62
6
 10
5628.782
 20
-7378.447
 30
491.000
 70
    32
  0
VERTEX
  8
M48LXLIFT
 62
6
 10
5633.310
 20
-7386.988
 30
491.000
 70
    32
  0
VERTEX
  8
M48LXLIFT
 62
6
 10
5640.747
 20
-7382.282
 30
491.000
 70
    32
  0
VERTEX
  8
M48LXLIFT
 62
6
 10
5638.912
 20
-7378.081
 30
491.000
 70
    32
  0
VERTEX
  8
M48LXLIFT
 62
6
 10
5641.672
 20
-7370.788
 30
491.000
 70
    32
  0
VERTEX
  8
M48LXLIFT
 62
6
 10
5643.655
 20
-7358.208
 30
491.000
 70
    32
  0
VERTEX
  8
M48LXLIFT
 62
6
 10
5648.221
 20
-7337.488
 30
491.000
 70
    32
  0
VERTEX
  8
M48LXLIFT
 62
6
 10
5627.222
 20
-7298.259
 30
491.000
 70
    32
  0
VERTEX
  8
M48LXLIFT
 62
6
 10
5630.284
 20
-7277.106
 30
491.000
 70
    32
  0
VERTEX
  8
M48LXLIFT
 62
6
 10
5629.382
 20
-7265.630
 30
491.000
 70
    32
  0
VERTEX
  8
M48LXLIFT
 62
6
 10
5616.987
 20
-7248.571
 30
491.000
 70
    32
  0
VERTEX
  8
M48LXLIFT
 62
6
 10
5606.510
 20
-7238.685
 30
491.000
 70
    32
  0
SEQEND
  8
M48LXLIFT
  0
POLYLINE
  8
M48LXLIFT
 62
6
 66
     1
 70
     9
  0
VERTEX
  8
M48LXLIFT
 62
6
 10
5631.136
 20
-7294.136
 30
460.000
 70
    32
  0
VERTEX
  8
M48LXLIFT
 62
6
 10
5639.887
 20
-7310.458
 30
460.000
 70
    32
  0
VERTEX
  8
M48LXLIFT
 62
6
 10
5647.485
 20
-7328.925
 30
460.000
 70
    32
  0
VERTEX
  8
M48LXLIFT
 62
6
 10
5649.195
 20
-7350.489
 30
460.000
 70
    32
  0
VERTEX
  8
M48LXLIFT
 62
6
 10
5646.921
 20
-7365.399
 30
460.000
 70
    32
  0
VERTEX
  8
M48LXLIFT
 62
6
 10
5641.736
 20
-7378.847
 30
460.000
 70
    32
  0
VERTEX
  8
M48LXLIFT
 62
6
 10
5636.131
 20
-7386.953
 30
460.000
 70
    32
  0
VERTEX
  8
M48LXLIFT
 62
6
 10
5631.273
 20
-7387.888
 30
460.000
 70
    32
  0
VERTEX
  8
M48LXLIFT
 62
6
 10
5626.138
 20
-7378.162
 30
460.000
 70
    32
  0
VERTEX
  8
M48LXLIFT
 62
6
 10
5625.066
 20
-7371.775
 30
460.000
 70
    32
  0
VERTEX
  8
M48LXLIFT
 62
6
 10
5618.757
 20
-7368.336
 30
460.000
 70
    32
  0
VERTEX
  8
M48LXLIFT
 62
6
 10
5609.684
 20
-7379.731
 30
460.000
 70
    32
  0
VERTEX
  8
M48LXLIFT
 62
6
 10
5600.607
 20
-7392.758
 30
460.000
 70
    32
  0
VERTEX
  8
M48LXLIFT
 62
6
 10
5593.868
 20
-7396.476
 30
460.000
 70
    32
  0
VERTEX
  8
M48LXLIFT
 62
6
 10
5579.024
 20
-7400.998
 30
460.000
 70
    32
  0
VERTEX
  8
M48LXLIFT
 62
6
 10
5566.155
 20
-7404.950
 30
460.000
 70
    32
  0
VERTEX
  8
M48LXLIFT
 62
6
 10
5561.514
 20
-7398.883
 30
460.000
 70
    32
  0
VERTEX
  8
M48LXLIFT
 62
6
 10
5567.656
 20
-7386.150
 30
460.000
 70
    32
  0
VERTEX
  8
M48LXLIFT
 62
6
 10
5572.121
 20
-7375.290
 30
460.000
 70
    32
  0
VERTEX
  8
M48LXLIFT
 62
6
 10
5576.465
 20
-7359.197
 30
460.000
 70
    32
  0
VERTEX
  8
M48LXLIFT
 62
6
 10
5581.374
 20
-7341.497
 30
460.000
 70
    32
  0
VERTEX
  8
M48LXLIFT
 62
6
 10
5599.648
 20
-7329.911
 30
460.000
 70
    32
  0
VERTEX
  8
M48LXLIFT
 62
6
 10
5601.540
 20
-7319.842
 30
460.000
 70
    32
  0
VERTEX
  8
M48LXLIFT
 62
6
 10
5605.113
 20
-7307.460
 30
460.000
 70
    32
  0
VERTEX
  8
M48LXLIFT
 62
6
 10
5614.658
 20
-7302.674
 30
460.000
 70
    32
  0
VERTEX
  8
M48LXLIFT
 62
6
 10
5622.810
 20
-7298.360
 30
460.000
 70
    32
  0
SEQEND
  8
M48LXLIFT
  0
POLYLINE
  8
M48LXLIFT
 62
6
 66
     1
 70
     9
  0
VERTEX
  8
M48LXLIFT
 62
6
 10
5607.547
 20
-7436.223
 30
429.000
 70
    32
  0
VERTEX
  8
M48LXLIFT
 62
6
 10
5615.513
 20
-7439.061
 30
429.000
 70
    32
  0
VERTEX
  8
M48LXLIFT
 62
6
 10
5628.994
 20
-7431.481
 30
429.000
 70
    32
  0
VERTEX
  8
M48LXLIFT
 62
6
 10
5634.447
 20
-7423.698
 30
429.000
 70
    32
  0
VERTEX
  8
M48LXLIFT
 62
6
 10
5634.169
 20
-7414.394
 30
429.000
 70
    32
  0
VERTEX
  8
M48LXLIFT
 62
6
 10
5636.559
 20
-7409.123
 30
429.000
 70
    32
  0
VERTEX
  8
M48LXLIFT
 62
6
 10
5643.901
 20
-7400.962
 30
429.000
 70
    32
  0
VERTEX
  8
M48LXLIFT
 62
6
 10
5652.336
 20
-7394.935
 30
429.000
 70
    32
  0
VERTEX
  8
M48LXLIFT
 62
6
 10
5664.642
 20
-7389.489
 30
429.000
 70
    32
  0
VERTEX
  8
M48LXLIFT
 62
6
 10
5666.959
 20
-7380.491
 30
429.000
 70
    32
  0
VERTEX
  8
M48LXLIFT
 62
6
 10
5663.893
 20
-7367.133
 30
429.000
 70
    32
  0
VERTEX
  8
M48LXLIFT
 62
6
 10
5654.628
 20
-7349.782
 30
429.000
 70
    32
  0
VERTEX
  8
M48LXLIFT
 62
6
 10
5644.637
 20
-7336.404
 30
429.000
 70
    32
  0
VERTEX
  8
M48LXLIFT
 62
6
 10
5632.656
 20
-7328.552
 30
429.000
 70
    32
  0
VERTEX
  8
M48LXLIFT
 62
6
 10
5621.698
 20
-7331.954
 30
429.000
 70
    32
  0
VERTEX
  8
M48LXLIFT
 62
6
 10
5616.949
 20
-7337.399
 30
429.000
 70
    32
  0
VERTEX
  8
M48LXLIFT
 62
6
 10
5624.192
 20
-7350.256
 30
429.000
 70
    32
  0
VERTEX
  8
M48LXLIFT
 62
6
 10
5627.055
 20
-7370.131
 30
429.000
 70
    32
  0
VERTEX
  8
M48LXLIFT
 62
6
 10
5619.906
 20
-7375.238
 30
429.000
 70
    32
  0
VERTEX
  8
M48LXLIFT
 62
6
 10
5613.697
 20
-7380.754
 30
429.000
 70
    32
  0
VERTEX
  8
M48LXLIFT
 62
6
 10
5608.306
 20
-7392.705
 30
429.000
 70
    32
  0
VERTEX
  8
M48LXLIFT
 62
6
 10
5600.373
 20
-7405.176
 30
429.000
 70
    32
  0
VERTEX
  8
M48LXLIFT
 62
6
 10
5594.522
 20
-7418.750
 30
429.000
 70
    32
  0
VERTEX
  8
M48LXLIFT
 62
6
 10
5600.345
 20
-7426.900
 30
429.000
 70
    32
  0
SEQEND
  8
M48LXLIFT
  0
POLYLINE
  8
M48LXLIFT
 62
6
 66
     1
 70
     9
  0
VERTEX
  8
M48LXLIFT
 62
6
 10
5665.455
 20
-7368.502
 30
419.000
 70
    32
  0
VERTEX
  8
M48LXLIFT
 62
6
 10
5658.107
 20
-7381.780
 30
419.000
 70
    32
  0
VERTEX
  8
M48LXLIFT
 62
6
 10
5655.252
 20
-7393.600
 30
419.000
 70
    32
  0
VERTEX
  8
M48LXLIFT
 62
6
 10
5646.465
 20
-7419.728
 30
419.000
 70
    32
  0
VERTEX
  8
M48LXLIFT
 62
6
 10
5643.804
 20
-7433.588
 30
419.000
 70
    32
  0
VERTEX
  8
M48LXLIFT
 62
6
 10
5645.223
 20
-7444.987
 30
419.000
 70
    32
  0
VERTEX
  8
M48LXLIFT
 62
6
 10
5638.125
 20
-7449.128
 30
419.000
 70
    32
  0
VERTEX
  8
M48LXLIFT
 62
6
 10
5631.940
 20
-7455.545
 30
419.000
 70
    32
  0
VERTEX
  8
M48LXLIFT
 62
6
 10
5626.504
 20
-7462.828
 30
419.000
 70
    32
  0
VERTEX
  8
M48LXLIFT
 62
6
 10
5622.519
 20
-7458.016
 30
419.000
 70
    32
  0
VERTEX
  8
M48LXLIFT
 62
6
 10
5619.959
 20
-7437.963
 30
419.000
 70
    32
  0
VERTEX
  8
M48LXLIFT
 62
6
 10
5618.511
 20
-7417.199
 30
419.000
 70
    32
  0
VERTEX
  8
M48LXLIFT
 62
6
 10
5619.537
 20
-7403.343
 30
419.000
 70
    32
  0
VERTEX
  8
M48LXLIFT
 62
6
 10
5625.471
 20
-7391.108
 30
419.000
 70
    32
  0
VERTEX
  8
M48LXLIFT
 62
6
 10
5631.428
 20
-7384.532
 30
419.000
 70
    32
  0
VERTEX
  8
M48LXLIFT
 62
6
 10
5634.186
 20
-7371.692
 30
419.000
 70
    32
  0
VERTEX
  8
M48LXLIFT
 62
6
 10
5633.773
 20
-7359.880
 30
419.000
 70
    32
  0
VERTEX
  8
M48LXLIFT
 62
6
 10
5628.491
 20
-7350.349
 30
419.000
 70
    32
  0
VERTEX
  8
M48LXLIFT
 62
6
 10
5629.352
 20
-7341.745
 30
419.000
 70
    32
  0
VERTEX
  8
M48LXLIFT
 62
6
 10
5637.469
 20
-7337.506
 30
419.000
 70
    32
  0
VERTEX
  8
M48LXLIFT
 62
6
 10
5644.208
 20
-7338.651
 30
419.000
 70
    32
  0
VERTEX
  8
M48LXLIFT
 62
6
 10
5652.061
 20
-7345.304
 30
419.000
 70
    32
  0
VERTEX
  8
M48LXLIFT
 62
6
 10
5657.831
 20
-7357.423
 30
419.000
 70
    32
  0
VERTEX
  8
M48LXLIFT
 62
6
 10
5660.915
 20
-7362.790
 30
419.000
 70
    32
  0
SEQEND
  8
M48LXLIFT
  0
POLYLINE
  8
M48LXLIFT
 62
6
 66
     1
 70
     9
  0
VERTEX
  8
M48LXLIFT
 62
6
 10
5644.629
 20
-7357.360
 30
397.000
 70
    32
  0
VERTEX
  8
M48LXLIFT
 62
6
 10
5650.739
 20
-7364.867
 30
397.000
 70
    32
  0
VERTEX
  8
M48LXLIFT
 62
6
 10
5658.736
 20
-7371.980
 30
397.000
 70
    32
  0
VERTEX
  8
M48LXLIFT
 62
6
 10
5664.866
 20
-7375.780
 30
397.000
 70
    32
  0
VERTEX
  8
M48LXLIFT
 62
6
 10
5673.439
 20
-7371.284
 30
397.000
 70
    32
  0
VERTEX
  8
M48LXLIFT
 62
6
 10
5692.213
 20
-7357.959
 30
397.000
 70
    32
  0
VERTEX
  8
M48LXLIFT
 62
6
 10
5704.152
 20
-7349.279
 30
397.000
 70
    32
  0
VERTEX
  8
M48LXLIFT
 62
6
 10
5717.990
 20
-7348.886
 30
397.000
 70
    32
  0
VERTEX
  8
M48LXLIFT
 62
6
 10
5723.816
 20
-7353.015
 30
397.000
 70
    32
  0
VERTEX
  8
M48LXLIFT
 62
6
 10
5729.191
 20
-7354.430
 30
397.000
 70
    32
  0
VERTEX
  8
M48LXLIFT
 62
6
 10
5731.219
 20
-7357.518
 30
397.000
 70
    32
  0
VERTEX
  8
M48LXLIFT
 62
6
 10
5729.868
 20
-7362.085
 30
397.000
 70
    32
  0
VERTEX
  8
M48LXLIFT
 62
6
 10
5732.102
 20
-7370.238
 30
397.000
 70
    32
  0
VERTEX
  8
M48LXLIFT
 62
6
 10
5734.556
 20
-7376.601
 30
397.000
 70
    32
  0
VERTEX
  8
M48LXLIFT
 62
6
 10
5729.911
 20
-7382.912
 30
397.000
 70
    32
  0
VERTEX
  8
M48LXLIFT
 62
6
 10
5716.299
 20
-7393.027
 30
397.000
 70
    32
  0
VERTEX
  8
M48LXLIFT
 62
6
 10
5710.917
 20
-7396.831
 30
397.000
 70
    32
  0
VERTEX
  8
M48LXLIFT
 62
6
 10
5701.259
 20
-7396.249
 30
397.000
 70
    32
  0
VERTEX
  8
M48LXLIFT
 62
6
 10
5692.674
 20
-7401.623
 30
397.000
 70
    32
  0
VERTEX
  8
M48LXLIFT
 62
6
 10
5681.652
 20
-7412.461
 30
397.000
 70
    32
  0
VERTEX
  8
M48LXLIFT
 62
6
 10
5668.504
 20
-7424.411
 30
397.000
 70
    32
  0
VERTEX
  8
M48LXLIFT
 62
6
 10
5658.148
 20
-7430.637
 30
397.000
 70
    32
  0
VERTEX
  8
M48LXLIFT
 62
6
 10
5649.330
 20
-7436.289
 30
397.000
 70
    32
  0
VERTEX
  8
M48LXLIFT
 62
6
 10
5641.900
 20
-7438.323
 30
397.000
 70
    32
  0
VERTEX
  8
M48LXLIFT
 62
6
 10
5640.034
 20
-7431.423
 30
397.000
 70
    32
  0
VERTEX
  8
M48LXLIFT
 62
6
 10
5640.416
 20
-7427.018
 30
397.000
 70
    32
  0
VERTEX
  8
M48LXLIFT
 62
6
 10
5641.767
 20
-7422.450
 30
397.000
 70
    32
  0
VERTEX
  8
M48LXLIFT
 62
6
 10
5638.918
 20
-7415.396
 30
397.000
 70
    32
  0
VERTEX
  8
M48LXLIFT
 62
6
 10
5634.759
 20
-7407.882
 30
397.000
 70
    32
  0
VERTEX
  8
M48LXLIFT
 62
6
 10
5631.072
 20
-7394.594
 30
397.000
 70
    32
  0
VERTEX
  8
M48LXLIFT
 62
6
 10
5631.583
 20
-7384.988
 30
397.000
 70
    32
  0
VERTEX
  8
M48LXLIFT
 62
6
 10
5636.810
 20
-7376.190
 30
397.000
 70
    32
  0
VERTEX
  8
M48LXLIFT
 62
6
 10
5635.002
 20
-7367.727
 30
397.000
 70
    32
  0
VERTEX
  8
M48LXLIFT
 62
6
 10
5633.537
 20
-7362.275
 30
397.000
 70
    32
  0
VERTEX
  8
M48LXLIFT
 62
6
 10
5636.877
 20
-7359.846
 30
397.000
 70
    32
  0
SEQEND
  8
M48LXLIFT
  0
POLYLINE
  8
M48LXLIFT
 62
6
 66
     1
 70
     9
  0
VERTEX
  8
M48LXLIFT
 62
6
 10
5643.812
 20
-7314.826
 30
449.000
 70
    32
  0
VERTEX
  8
M48LXLIFT
 62
6
 10
5652.282
 20
-7326.582
 30
449.000
 70
    32
  0
VERTEX
  8
M48LXLIFT
 62
6
 10
5658.120
 20
-7339.498
 30
449.000
 70
    32
  0
VERTEX
  8
M48LXLIFT
 62
6
 10
5657.800
 20
-7353.211
 30
449.000
 70
    32
  0
VERTEX
  8
M48LXLIFT
 62
6
 10
5654.150
 20
-7363.701
 30
449.000
 70
    32
  0
VERTEX
  8
M48LXLIFT
 62
6
 10
5655.049
 20
-7372.829
 30
449.000
 70
    32
  0
VERTEX
  8
M48LXLIFT
 62
6
 10
5654.020
 20
-7379.015
 30
449.000
 70
    32
  0
VERTEX
  8
M48LXLIFT
 62
6
 10
5647.220
 20
-7385.934
 30
449.000
 70
    32
  0
VERTEX
  8
M48LXLIFT
 62
6
 10
5639.889
 20
-7387.806
 30
449.000
 70
    32
  0
VERTEX
  8
M48LXLIFT
 62
6
 10
5632.658
 20
-7383.408
 30
449.000
 70
    32
  0
VERTEX
  8
M48LXLIFT
 62
6
 10
5627.407
 20
-7378.000
 30
449.000
 70
    32
  0
VERTEX
  8
M48LXLIFT
 62
6
 10
5611.795
 20
-7385.805
 30
449.000
 70
    32
  0
VERTEX
  8
M48LXLIFT
 62
6
 10
5598.893
 20
-7395.981
 30
449.000
 70
    32
  0
VERTEX
  8
M48LXLIFT
 62
6
 10
5588.238
 20
-7402.235
 30
449.000
 70
    32
  0
VERTEX
  8
M48LXLIFT
 62
6
 10
5585.951
 20
-7413.253
 30
449.000
 70
    32
  0
VERTEX
  8
M48LXLIFT
 62
6
 10
5586.321
 20
-7418.527
 30
449.000
 70
    32
  0
VERTEX
  8
M48LXLIFT
 62
6
 10
5579.910
 20
-7422.553
 30
449.000
 70
    32
  0
VERTEX
  8
M48LXLIFT
 62
6
 10
5571.596
 20
-7419.054
 30
449.000
 70
    32
  0
VERTEX
  8
M48LXLIFT
 62
6
 10
5564.663
 20
-7411.938
 30
449.000
 70
    32
  0
VERTEX
  8
M48LXLIFT
 62
6
 10
5561.139
 20
-7400.703
 30
449.000
 70
    32
  0
VERTEX
  8
M48LXLIFT
 62
6
 10
5562.905
 20
-7394.632
 30
449.000
 70
    32
  0
VERTEX
  8
M48LXLIFT
 62
6
 10
5566.672
 20
-7388.622
 30
449.000
 70
    32
  0
VERTEX
  8
M48LXLIFT
 62
6
 10
5585.389
 20
-7368.984
 30
449.000
 70
    32
  0
VERTEX
  8
M48LXLIFT
 62
6
 10
5613.494
 20
-7349.997
 30
449.000
 70
    32
  0
VERTEX
  8
M48LXLIFT
 62
6
 10
5609.069
 20
-7344.529
 30
449.000
 70
    32
  0
VERTEX
  8
M48LXLIFT
 62
6
 10
5601.412
 20
-7340.442
 30
449.000
 70
    32
  0
VERTEX
  8
M48LXLIFT
 62
6
 10
5592.250
 20
-7335.931
 30
449.000
 70
    32
  0
VERTEX
  8
M48LXLIFT
 62
6
 10
5586.686
 20
-7328.903
 30
449.000
 70
    32
  0
VERTEX
  8
M48LXLIFT
 62
6
 10
5589.960
 20
-7325.644
 30
449.000
 70
    32
  0
VERTEX
  8
M48LXLIFT
 62
6
 10
5598.507
 20
-7328.864
 30
449.000
 70
    32
  0
VERTEX
  8
M48LXLIFT
 62
6
 10
5605.585
 20
-7330.221
 30
449.000
 70
    32
  0
VERTEX
  8
M48LXLIFT
 62
6
 10
5604.674
 20
-7321.972
 30
449.000
 70
    32
  0
VERTEX
  8
M48LXLIFT
 62
6
 10
5611.229
 20
-7319.037
 30
449.000
 70
    32
  0
VERTEX
  8
M48LXLIFT
 62
6
 10
5615.753
 20
-7322.258
 30
449.000
 70
    32
  0
VERTEX
  8
M48LXLIFT
 62
6
 10
5625.912
 20
-7320.388
 30
449.000
 70
    32
  0
VERTEX
  8
M48LXLIFT
 62
6
 10
5624.003
 20
-7309.280
 30
449.000
 70
    32
  0
VERTEX
  8
M48LXLIFT
 62
6
 10
5633.878
 20
-7311.640
 30
449.000
 70
    32
  0
SEQEND
  8
M48LXLIFT
  0
POLYLINE
  8
M48LXLIFT
 62
6
 66
     1
 70
     9
  0
VERTEX
  8
M48LXLIFT
 62
6
 10
5654.583
 20
-7340.019
 30
481.000
 70
    32
  0
VERTEX
  8
M48LXLIFT
 62
6
 10
5646.480
 20
-7361.637
 30
481.000
 70
    32
  0
VERTEX
  8
M48LXLIFT
 62
6
 10
5639.757
 20
-7373.614
 30
481.000
 70
    32
  0
VERTEX
  8
M48LXLIFT
 62
6
 10
5635.670
 20
-7384.448
 30
481.000
 70
    32
  0
VERTEX
  8
M48LXLIFT
 62
6
 10
5629.845
 20
-7388.968
 30
481.000
 70
    32
  0
VERTEX
  8
M48LXLIFT
 62
6
 10
5621.514
 20
-7376.051
 30
481.000
 70
    32
  0
VERTEX
  8
M48LXLIFT
 62
6
 10
5617.020
 20
-7366.209
 30
481.000
 70
    32
  0
VERTEX
  8
M48LXLIFT
 62
6
 10
5600.301
 20
-7372.413
 30
481.000
 70
    32
  0
VERTEX
  8
M48LXLIFT
 62
6
 10
5598.529
 20
-7383.310
 30
481.000
 70
    32
  0
VERTEX
  8
M48LXLIFT
 62
6
 10
5590.227
 20
-7387.992
 30
481.000
 70
    32
  0
VERTEX
  8
M48LXLIFT
 62
6
 10
5574.206
 20
-7392.613
 30
481.000
 70
    32
  0
VERTEX
  8
M48LXLIFT
 62
6
 10
5564.711
 20
-7394.588
 30
481.000
 70
    32
  0
VERTEX
  8
M48LXLIFT
 62
6
 10
5557.671
 20
-7388.416
 30
481.000
 70
    32
  0
VERTEX
  8
M48LXLIFT
 62
6
 10
5549.980
 20
-7385.092
 30
481.000
 70
    32
  0
VERTEX
  8
M48LXLIFT
 62
6
 10
5545.113
 20
-7379.085
 30
481.000
 70
    32
  0
VERTEX
  8
M48LXLIFT
 62
6
 10
5552.146
 20
-7362.885
 30
481.000
 70
    32
  0
VERTEX
  8
M48LXLIFT
 62
6
 10
5554.431
 20
-7355.402
 30
481.000
 70
    32
  0
VERTEX
  8
M48LXLIFT
 62
6
 10
5549.148
 20
-7344.614
 30
481.000
 70
    32
  0
VERTEX
  8
M48LXLIFT
 62
6
 10
5554.724
 20
-7333.896
 30
481.000
 70
    32
  0
VERTEX
  8
M48LXLIFT
 62
6
 10
5563.994
 20
-7326.355
 30
481.000
 70
    32
  0
VERTEX
  8
M48LXLIFT
 62
6
 10
5583.920
 20
-7313.949
 30
481.000
 70
    32
  0
VERTEX
  8
M48LXLIFT
 62
6
 10
5586.293
 20
-7305.538
 30
481.000
 70
    32
  0
VERTEX
  8
M48LXLIFT
 62
6
 10
5577.345
 20
-7293.714
 30
481.000
 70
    32
  0
VERTEX
  8
M48LXLIFT
 62
6
 10
5578.039
 20
-7288.674
 30
481.000
 70
    32
  0
VERTEX
  8
M48LXLIFT
 62
6
 10
5587.958
 20
-7282.935
 30
481.000
 70
    32
  0
VERTEX
  8
M48LXLIFT
 62
6
 10
5602.071
 20
-7278.067
 30
481.000
 70
    32
  0
VERTEX
  8
M48LXLIFT
 62
6
 10
5618.440
 20
-7276.330
 30
481.000
 70
    32
  0
VERTEX
  8
M48LXLIFT
 62
6
 10
5626.240
 20
-7284.008
 30
481.000
 70
    32
  0
VERTEX
  8
M48LXLIFT
 62
6
 10
5636.056
 20
-7293.585
 30
481.000
 70
    32
  0
VERTEX
  8
M48LXLIFT
 62
6
 10
5640.793
 20
-7305.415
 30
481.000
 70
    32
  0
VERTEX
  8
M48LXLIFT
 62
6
 10
5641.590
 20
-7315.975
 30
481.000
 70
    32
  0
VERTEX
  8
M48LXLIFT
 62
6
 10
5646.387
 20
-7330.140
 30
481.000
 70
    32
  0
SEQEND
  8
M48LXLIFT
  0
POLYLINE
  8
M48LXLIFT
 62
6
 66
     1
 70
     9
  0
VERTEX
  8
M48LXLIFT
 62
6
 10
5545.127
 20
-7273.114
 30
502.000
 70
    32
  0
VERTEX
  8
M48LXLIFT
 62
6
 10
5551.371
 20
-7282.136
 30
502.000
 70
    32
  0
VERTEX
  8
M48LXLIFT
 62
6
 10
5559.613
 20
-7289.874
 30
502.000
 70
    32
  0
VERTEX
  8
M48LXLIFT
 62
6
 10
5566.408
 20
-7293.212
 30
502.000
 70
    32
  0
VERTEX
  8
M48LXLIFT
 62
6
 10
5578.821
 20
-7298.907
 30
502.000
 70
    32
  0
VERTEX
  8
M48LXLIFT
 62
6
 10
5574.674
 20
-7304.335
 30
502.000
 70
    32
  0
VERTEX
  8
M48LXLIFT
 62
6
 10
5565.991
 20
-7313.947
 30
502.000
 70
    32
  0
VERTEX
  8
M48LXLIFT
 62
6
 10
5549.245
 20
-7326.557
 30
502.000
 70
    32
  0
VERTEX
  8
M48LXLIFT
 62
6
 10
5539.696
 20
-7332.539
 30
502.000
 70
    32
  0
VERTEX
  8
M48LXLIFT
 62
6
 10
5541.195
 20
-7345.903
 30
502.000
 70
    32
  0
VERTEX
  8
M48LXLIFT
 62
6
 10
5551.417
 20
-7352.480
 30
502.000
 70
    32
  0
VERTEX
  8
M48LXLIFT
 62
6
 10
5568.294
 20
-7353.167
 30
502.000
 70
    32
  0
VERTEX
  8
M48LXLIFT
 62
6
 10
5587.220
 20
-7352.640
 30
502.000
 70
    32
  0
VERTEX
  8
M48LXLIFT
 62
6
 10
5602.368
 20
-7357.154
 30
502.000
 70
    32
  0
VERTEX
  8
M48LXLIFT
 62
6
 10
5615.503
 20
-7364.392
 30
502.000
 70
    32
  0
VERTEX
  8
M48LXLIFT
 62
6
 10
5628.577
 20
-7385.839
 30
502.000
 70
    32
  0
VERTEX
  8
M48LXLIFT
 62
6
 10
5635.340
 20
-7381.405
 30
502.000
 70
    32
  0
VERTEX
  8
M48LXLIFT
 62
6
 10
5635.107
 20
-7369.723
 30
502.000
 70
    32
  0
VERTEX
  8
M48LXLIFT
 62
6
 10
5637.124
 20
-7359.860
 30
502.000
 70
    32
  0
VERTEX
  8
M48LXLIFT
 62
6
 10
5645.439
 20
-7350.635
 30
502.000
 70
    32
  0
VERTEX
  8
M48LXLIFT
 62
6
 10
5650.717
 20
-7340.293
 30
502.000
 70
    32
  0
VERTEX
  8
M48LXLIFT
 62
6
 10
5648.149
 20
-7327.404
 30
502.000
 70
    32
  0
VERTEX
  8
M48LXLIFT
 62
6
 10
5637.593
 20
-7302.304
 30
502.000
 70
    32
  0
VERTEX
  8
M48LXLIFT
 62
6
 10
5631.514
 20
-7278.774
 30
502.000
 70
    32
  0
VERTEX
  8
M48LXLIFT
 62
6
 10
5624.387
 20
-7266.684
 30
502.000
 70
    32
  0
VERTEX
  8
M48LXLIFT
 62
6
 10
5615.146
 20
-7250.036
 30
502.000
 70
    32
  0
VERTEX
  8
M48LXLIFT
 62
6
 10
5605.446
 20
-7241.091
 30
502.000
 70
    32
  0
VERTEX
  8
M48LXLIFT
 62
6
 10
5601.583
 20
-7239.168
 30
502.000
 70
    32
  0
VERTEX
  8
M48LXLIFT
 62
6
 10
5582.695
 20
-7250.975
 30
502.000
 70
    32
  0
SEQEND
  8
M48LXLIFT
  0
POLYLINE
  8
M48LXLIFT
 62
6
 66
     1
 70
     9
  0
VERTEX
  8
M48LXLIFT
 62
6
 10
5617.578
 20
-7364.433
 30
387.000
 70
    32
  0
VERTEX
  8
M48LXLIFT
 62
6
 10
5620.891
 20
-7368.755
 30
387.000
 70
    32
  0
VERTEX
  8
M48LXLIFT
 62
6
 10
5637.444
 20
-7379.439
 30
387.000
 70
    32
  0
VERTEX
  8
M48LXLIFT
 62
6
 10
5640.895
 20
-7384.095
 30
387.000
 70
    32
  0
VERTEX
  8
M48LXLIFT
 62
6
 10
5648.620
 20
-7418.703
 30
387.000
 70
    32
  0
VERTEX
  8
M48LXLIFT
 62
6
 10
5643.169
 20
-7419.901
 30
387.000
 70
    32
  0
VERTEX
  8
M48LXLIFT
 62
6
 10
5651.440
 20
-7429.291
 30
387.000
 70
    32
  0
VERTEX
  8
M48LXLIFT
 62
6
 10
5656.048
 20
-7449.813
 30
387.000
 70
    32
  0
VERTEX
  8
M48LXLIFT
 62
6
 10
5693.835
 20
-7448.148
 30
387.000
 70
    32
  0
VERTEX
  8
M48LXLIFT
 62
6
 10
5693.528
 20
-7427.826
 30
387.000
 70
    32
  0
VERTEX
  8
M48LXLIFT
 62
6
 10
5686.571
 20
-7415.932
 30
387.000
 70
    32
  0
VERTEX
  8
M48LXLIFT
 62
6
 10
5698.897
 20
-7403.954
 30
387.000
 70
    32
  0
VERTEX
  8
M48LXLIFT
 62
6
 10
5709.608
 20
-7407.492
 30
387.000
 70
    32
  0
VERTEX
  8
M48LXLIFT
 62
6
 10
5721.121
 20
-7409.015
 30
387.000
 70
    32
  0
VERTEX
  8
M48LXLIFT
 62
6
 10
5730.146
 20
-7403.201
 30
387.000
 70
    32
  0
VERTEX
  8
M48LXLIFT
 62
6
 10
5727.394
 20
-7395.949
 30
387.000
 70
    32
  0
VERTEX
  8
M48LXLIFT
 62
6
 10
5740.536
 20
-7373.421
 30
387.000
 70
    32
  0
VERTEX
  8
M48LXLIFT
 62
6
 10
5736.722
 20
-7370.782
 30
387.000
 70
    32
  0
VERTEX
  8
M48LXLIFT
 62
6
 10
5728.008
 20
-7355.927
 30
387.000
 70
    32
  0
VERTEX
  8
M48LXLIFT
 62
6
 10
5717.446
 20
-7350.967
 30
387.000
 70
    32
  0
VERTEX
  8
M48LXLIFT
 62
6
 10
5685.782
 20
-7353.668
 30
387.000
 70
    32
  0
VERTEX
  8
M48LXLIFT
 62
6
 10
5672.178
 20
-7374.245
 30
387.000
 70
    32
  0
VERTEX
  8
M48LXLIFT
 62
6
 10
5641.920
 20
-7358.196
 30
387.000
 70
    32
  0
VERTEX
  8
M48LXLIFT
 62
6
 10
5650.586
 20
-7347.620
 30
387.000
 70
    32
  0
VERTEX
  8
M48LXLIFT
 62
6
 10
5646.900
 20
-7344.122
 30
387.000
 70
    32
  0
SEQEND
  8
M48LXLIFT
  0
POLYLINE
  8
M48LXLIFT
 62
6
 66
     1
 70
     9
  0
VERTEX
  8
M48LXLIFT
 62
6
 10
5614.030
 20
-7433.881
 30
408.000
 70
    32
  0
VERTEX
  8
M48LXLIFT
 62
6
 10
5621.991
 20
-7431.051
 30
408.000
 70
    32
  0
VERTEX
  8
M48LXLIFT
 62
6
 10
5642.577
 20
-7421.503
 30
408.000
 70
    32
  0
VERTEX
  8
M48LXLIFT
 62
6
 10
5658.822
 20
-7411.997
 30
408.000
 70
    32
  0
VERTEX
  8
M48LXLIFT
 62
6
 10
5666.810
 20
-7402.262
 30
408.000
 70
    32
  0
VERTEX
  8
M48LXLIFT
 62
6
 10
5669.948
 20
-7392.618
 30
408.000
 70
    32
  0
VERTEX
  8
M48LXLIFT
 62
6
 10
5674.084
 20
-7388.902
 30
408.000
 70
    32
  0
VERTEX
  8
M48LXLIFT
 62
6
 10
5681.804
 20
-7390.621
 30
408.000
 70
    32
  0
VERTEX
  8
M48LXLIFT
 62
6
 10
5687.108
 20
-7393.801
 30
408.000
 70
    32
  0
VERTEX
  8
M48LXLIFT
 62
6
 10
5697.509
 20
-7388.510
 30
408.000
 70
    32
  0
VERTEX
  8
M48LXLIFT
 62
6
 10
5690.864
 20
-7380.858
 30
408.000
 70
    32
  0
VERTEX
  8
M48LXLIFT
 62
6
 10
5679.283
 20
-7362.104
 30
408.000
 70
    32
  0
VERTEX
  8
M48LXLIFT
 62
6
 10
5671.068
 20
-7358.237
 30
408.000
 70
    32
  0
VERTEX
  8
M48LXLIFT
 62
6
 10
5661.238
 20
-7359.281
 30
408.000
 70
    32
  0
VERTEX
  8
M48LXLIFT
 62
6
 10
5654.209
 20
-7356.722
 30
408.000
 70
    32
  0
VERTEX
  8
M48LXLIFT
 62
6
 10
5648.737
 20
-7349.623
 30
408.000
 70
    32
  0
VERTEX
  8
M48LXLIFT
 62
6
 10
5641.418
 20
-7351.104
 30
408.000
 70
    32
  0
VERTEX
  8
M48LXLIFT
 62
6
 10
5628.906
 20
-7356.645
 30
408.000
 70
    32
  0
VERTEX
  8
M48LXLIFT
 62
6
 10
5623.338
 20
-7364.481
 30
408.000
 70
    32
  0
VERTEX
  8
M48LXLIFT
 62
6
 10
5623.581
 20
-7372.935
 30
408.000
 70
    32
  0
VERTEX
  8
M48LXLIFT
 62
6
 10
5629.274
 20
-7381.072
 30
408.000
 70
    32
  0
VERTEX
  8
M48LXLIFT
 62
6
 10
5630.240
 20
-7389.320
 30
408.000
 70
    32
  0
VERTEX
  8
M48LXLIFT
 62
6
 10
5630.489
 20
-7402.360
 30
408.000
 70
    32
  0
VERTEX
  8
M48LXLIFT
 62
6
 10
5624.138
 20
-7411.649
 30
408.000
 70
    32
  0
VERTEX
  8
M48LXLIFT
 62
6
 10
5617.288
 20
-7419.230
 30
408.000
 70
    32
  0
VERTEX
  8
M48LXLIFT
 62
6
 10
5609.621
 20
-7425.559
 30
408.000
 70
    32
  0
SEQEND
  8
M48LXLIFT
  0
POLYLINE
  8
M48LXLIFT
 62
6
 66
     1
 70
     9
  0
VERTEX
  8
M48LXLIFT
 62
6
 10
5686.816
 20
-7344.072
 30
409.000
 70
    32
  0
VERTEX
  8
M48LXLIFT
 62
6
 10
5693.803
 20
-7353.219
 30
409.000
 70
    32
  0
VERTEX
  8
M48LXLIFT
 62
6
 10
5697.625
 20
-7362.522
 30
409.000
 70
    32
  0
VERTEX
  8
M48LXLIFT
 62
6
 10
5699.828
 20
-7375.100
 30
409.000
 70
    32
  0
VERTEX
  8
M48LXLIFT
 62
6
 10
5704.987
 20
-7378.823
 30
409.000
 70
    32
  0
VERTEX
  8
M48LXLIFT
 62
6
 10
5713.445
 20
-7375.188
 30
409.000
 70
    32
  0
VERTEX
  8
M48LXLIFT
 62
6
 10
5718.557
 20
-7375.450
 30
409.000
 70
    32
  0
VERTEX
  8
M48LXLIFT
 62
6
 10
5719.145
 20
-7366.053
 30
409.000
 70
    32
  0
VERTEX
  8
M48LXLIFT
 62
6
 10
5713.509
 20
-7360.060
 30
409.000
 70
    32
  0
VERTEX
  8
M48LXLIFT
 62
6
 10
5714.335
 20
-7354.530
 30
409.000
 70
    32
  0
VERTEX
  8
M48LXLIFT
 62
6
 10
5722.970
 20
-7348.032
 30
409.000
 70
    32
  0
VERTEX
  8
M48LXLIFT
 62
6
 10
5723.472
 20
-7343.836
 30
409.000
 70
    32
  0
VERTEX
  8
M48LXLIFT
 62
6
 10
5718.868
 20
-7338.499
 30
409.000
 70
    32
  0
VERTEX
  8
M48LXLIFT
 62
6
 10
5705.902
 20
-7332.792
 30
409.000
 70
    32
  0
VERTEX
  8
M48LXLIFT
 62
6
 10
5695.593
 20
-7326.540
 30
409.000
 70
    32
  0
VERTEX
  8
M48LXLIFT
 62
6
 10
5687.955
 20
-7317.546
 30
409.000
 70
    32
  0
VERTEX
  8
M48LXLIFT
 62
6
 10
5680.074
 20
-7313.541
 30
409.000
 70
    32
  0
VERTEX
  8
M48LXLIFT
 62
6
 10
5675.524
 20
-7318.765
 30
409.000
 70
    32
  0
VERTEX
  8
M48LXLIFT
 62
6
 10
5677.456
 20
-7324.331
 30
409.000
 70
    32
  0
VERTEX
  8
M48LXLIFT
 62
6
 10
5684.408
 20
-7325.307
 30
409.000
 70
    32
  0
VERTEX
  8
M48LXLIFT
 62
6
 10
5691.854
 20
-7339.360
 30
409.000
 70
    32
  0
SEQEND
  8
M48LXLIFT
  0
POLYLINE
  8
M48LXLIFT
 62
4
 66
     1
 70
     9
  0
VERTEX
  8
M48LXLIFT
 62
4
 10
5721.118
 20
-7286.888
 30
409.000
 70
    32
  0
VERTEX
  8
M48LXLIFT
 62
4
 10
5727.868
 20
-7289.217
 30
409.000
 70
    32
  0
VERTEX
  8
M48LXLIFT
 62
4
 10
5735.274
 20
-7293.464
 30
409.000
 70
    32
  0
VERTEX
  8
M48LXLIFT
 62
4
 10
5740.206
 20
-7297.028
 30
409.000
 70
    32
  0
VERTEX
  8
M48LXLIFT
 62
4
 10
5743.651
 20
-7294.151
 30
409.000
 70
    32
  0
VERTEX
  8
M48LXLIFT
 62
4
 10
5747.839
 20
-7295.971
 30
409.000
 70
    32
  0
VERTEX
  8
M48LXLIFT
 62
4
 10
5750.410
 20
-7297.674
 30
409.000
 70
    32
  0
VERTEX
  8
M48LXLIFT
 62
4
 10
5755.649
 20
-7294.563
 30
409.000
 70
    32
  0
VERTEX
  8
M48LXLIFT
 62
4
 10
5747.616
 20
-7286.955
 30
409.000
 70
    32
  0
VERTEX
  8
M48LXLIFT
 62
4
 10
5742.284
 20
-7282.703
 30
409.000
 70
    32
  0
VERTEX
  8
M48LXLIFT
 62
4
 10
5742.765
 20
-7279.069
 30
409.000
 70
    32
  0
VERTEX
  8
M48LXLIFT
 62
4
 10
5748.278
 20
-7266.137
 30
409.000
 70
    32
  0
VERTEX
  8
M48LXLIFT
 62
4
 10
5744.593
 20
-7254.656
 30
409.000
 70
    32
  0
VERTEX
  8
M48LXLIFT
 62
4
 10
5741.288
 20
-7249.451
 30
409.000
 70
    32
  0
VERTEX
  8
M48LXLIFT
 62
4
 10
5735.513
 20
-7243.123
 30
409.000
 70
    32
  0
VERTEX
  8
M48LXLIFT
 62
4
 10
5736.160
 20
-7235.431
 30
409.000
 70
    32
  0
VERTEX
  8
M48LXLIFT
 62
4
 10
5735.659
 20
-7228.698
 30
409.000
 70
    32
  0
VERTEX
  8
M48LXLIFT
 62
4
 10
5730.737
 20
-7226.329
 30
409.000
 70
    32
  0
VERTEX
  8
M48LXLIFT
 62
4
 10
5716.884
 20
-7232.863
 30
409.000
 70
    32
  0
VERTEX
  8
M48LXLIFT
 62
4
 10
5712.818
 20
-7241.992
 30
409.000
 70
    32
  0
VERTEX
  8
M48LXLIFT
 62
4
 10
5713.714
 20
-7252.804
 30
409.000
 70
    32
  0
VERTEX
  8
M48LXLIFT
 62
4
 10
5716.031
 20
-7266.718
 30
409.000
 70
    32
  0
VERTEX
  8
M48LXLIFT
 62
4
 10
5718.817
 20
-7278.755
 30
409.000
 70
    32
  0
SEQEND
  8
M48LXLIFT
  0
POLYLINE
  8
M48LXLIFT
 62
4
 66
     1
 70
     9
  0
VERTEX
  8
M48LXLIFT
 62
4
 10
5714.999
 20
-7287.399
 30
398.000
 70
    32
  0
VERTEX
  8
M48LXLIFT
 62
4
 10
5719.475
 20
-7292.510
 30
398.000
 70
    32
  0
VERTEX
  8
M48LXLIFT
 62
4
 10
5724.662
 20
-7294.713
 30
398.000
 70
    32
  0
VERTEX
  8
M48LXLIFT
 62
4
 10
5730.605
 20
-7295.715
 30
398.000
 70
    32
  0
VERTEX
  8
M48LXLIFT
 62
4
 10
5738.506
 20
-7292.686
 30
398.000
 70
    32
  0
VERTEX
  8
M48LXLIFT
 62
4
 10
5739.256
 20
-7291.924
 30
398.000
 70
    32
  0
VERTEX
  8
M48LXLIFT
 62
4
 10
5743.339
 20
-7287.978
 30
398.000
 70
    32
  0
VERTEX
  8
M48LXLIFT
 62
4
 10
5748.281
 20
-7287.752
 30
398.000
 70
    32
  0
VERTEX
  8
M48LXLIFT
 62
4
 10
5752.751
 20
-7290.911
 30
398.000
 70
    32
  0
VERTEX
  8
M48LXLIFT
 62
4
 10
5758.339
 20
-7287.391
 30
398.000
 70
    32
  0
VERTEX
  8
M48LXLIFT
 62
4
 10
5757.332
 20
-7281.823
 30
398.000
 70
    32
  0
VERTEX
  8
M48LXLIFT
 62
4
 10
5758.159
 20
-7274.594
 30
398.000
 70
    32
  0
VERTEX
  8
M48LXLIFT
 62
4
 10
5758.264
 20
-7267.566
 30
398.000
 70
    32
  0
VERTEX
  8
M48LXLIFT
 62
4
 10
5755.648
 20
-7260.233
 30
398.000
 70
    32
  0
VERTEX
  8
M48LXLIFT
 62
4
 10
5754.241
 20
-7253.218
 30
398.000
 70
    32
  0
VERTEX
  8
M48LXLIFT
 62
4
 10
5750.269
 20
-7244.916
 30
398.000
 70
    32
  0
VERTEX
  8
M48LXLIFT
 62
4
 10
5746.471
 20
-7236.705
 30
398.000
 70
    32
  0
VERTEX
  8
M48LXLIFT
 62
4
 10
5741.168
 20
-7234.043
 30
398.000
 70
    32
  0
VERTEX
  8
M48LXLIFT
 62
4
 10
5734.482
 20
-7233.364
 30
398.000
 70
    32
  0
VERTEX
  8
M48LXLIFT
 62
4
 10
5729.940
 20
-7235.036
 30
398.000
 70
    32
  0
VERTEX
  8
M48LXLIFT
 62
4
 10
5728.267
 20
-7238.861
 30
398.000
 70
    32
  0
VERTEX
  8
M48LXLIFT
 62
4
 10
5729.538
 20
-7250.321
 30
398.000
 70
    32
  0
VERTEX
  8
M48LXLIFT
 62
4
 10
5729.905
 20
-7258.745
 30
398.000
 70
    32
  0
VERTEX
  8
M48LXLIFT
 62
4
 10
5730.434
 20
-7266.942
 30
398.000
 70
    32
  0
VERTEX
  8
M48LXLIFT
 62
4
 10
5729.807
 20
-7274.895
 30
398.000
 70
    32
  0
VERTEX
  8
M48LXLIFT
 62
4
 10
5724.464
 20
-7279.649
 30
398.000
 70
    32
  0
SEQEND
  8
M48LXLIFT
  0
POLYLINE
  8
M48LXLIFT
 62
4
 66
     1
 70
     9
  0
VERTEX
  8
M48LXLIFT
 62
4
 10
5762.125
 20
-7288.996
 30
387.000
 70
    32
  0
VERTEX
  8
M48LXLIFT
 62
4
 10
5756.775
 20
-7294.165
 30
387.000
 70
    32
  0
VERTEX
  8
M48LXLIFT
 62
4
 10
5746.991
 20
-7297.481
 30
387.000
 70
    32
  0
VERTEX
  8
M48LXLIFT
 62
4
 10
5735.351
 20
-7299.768
 30
387.000
 70
    32
  0
VERTEX
  8
M48LXLIFT
 62
4
 10
5726.090
 20
-7300.840
 30
387.000
 70
    32
  0
VERTEX
  8
M48LXLIFT
 62
4
 10
5722.359
 20
-7295.954
 30
387.000
 70
    32
  0
VERTEX
  8
M48LXLIFT
 62
4
 10
5724.707
 20
-7290.716
 30
387.000
 70
    32
  0
VERTEX
  8
M48LXLIFT
 62
4
 10
5735.297
 20
-7281.556
 30
387.000
 70
    32
  0
VERTEX
  8
M48LXLIFT
 62
4
 10
5743.018
 20
-7276.489
 30
387.000
 70
    32
  0
VERTEX
  8
M48LXLIFT
 62
4
 10
5742.920
 20
-7272.080
 30
387.000
 70
    32
  0
VERTEX
  8
M48LXLIFT
 62
4
 10
5729.909
 20
-7259.098
 30
387.000
 70
    32
  0
VERTEX
  8
M48LXLIFT
 62
4
 10
5723.491
 20
-7251.176
 30
387.000
 70
    32
  0
VERTEX
  8
M48LXLIFT
 62
4
 10
5722.332
 20
-7245.040
 30
387.000
 70
    32
  0
VERTEX
  8
M48LXLIFT
 62
4
 10
5729.878
 20
-7239.884
 30
387.000
 70
    32
  0
VERTEX
  8
M48LXLIFT
 62
4
 10
5738.512
 20
-7237.966
 30
387.000
 70
    32
  0
VERTEX
  8
M48LXLIFT
 62
4
 10
5751.474
 20
-7247.049
 30
387.000
 70
    32
  0
VERTEX
  8
M48LXLIFT
 62
4
 10
5764.281
 20
-7258.871
 30
387.000
 70
    32
  0
VERTEX
  8
M48LXLIFT
 62
4
 10
5769.462
 20
-7264.977
 30
387.000
 70
    32
  0
VERTEX
  8
M48LXLIFT
 62
4
 10
5773.282
 20
-7269.688
 30
387.000
 70
    32
  0
VERTEX
  8
M48LXLIFT
 62
4
 10
5771.935
 20
-7274.949
 30
387.000
 70
    32
  0
VERTEX
  8
M48LXLIFT
 62
4
 10
5758.664
 20
-7283.146
 30
387.000
 70
    32
  0
SEQEND
  8
M48LXLIFT
  0
POLYLINE
  8
M48LXLIFT
 62
11
 66
     1
 70
     9
  0
VERTEX
  8
M48LXLIFT
 62
11
 10
5688.622
 20
-7205.327
 30
436.000
 70
    32
  0
VERTEX
  8
M48LXLIFT
 62
11
 10
5693.538
 20
-7214.568
 30
436.000
 70
    32
  0
VERTEX
  8
M48LXLIFT
 62
11
 10
5696.604
 20
-7222.769
 30
436.000
 70
    32
  0
VERTEX
  8
M48LXLIFT
 62
11
 10
5715.229
 20
-7223.388
 30
436.000
 70
    32
  0
VERTEX
  8
M48LXLIFT
 62
11
 10
5720.559
 20
-7228.736
 30
436.000
 70
    32
  0
VERTEX
  8
M48LXLIFT
 62
11
 10
5726.547
 20
-7224.134
 30
436.000
 70
    32
  0
VERTEX
  8
M48LXLIFT
 62
11
 10
5716.887
 20
-7210.640
 30
436.000
 70
    32
  0
VERTEX
  8
M48LXLIFT
 62
11
 10
5713.785
 20
-7205.512
 30
436.000
 70
    32
  0
VERTEX
  8
M48LXLIFT
 62
11
 10
5721.841
 20
-7195.262
 30
436.000
 70
    32
  0
VERTEX
  8
M48LXLIFT
 62
11
 10
5717.403
 20
-7190.240
 30
436.000
 70
    32
  0
VERTEX
  8
M48LXLIFT
 62
11
 10
5702.691
 20
-7196.006
 30
436.000
 70
    32
  0
SEQEND
  8
M48LXLIFT
  0
POLYLINE
  8
M48LXLIFT
 62
11
 66
     1
 70
     9
  0
VERTEX
  8
M48LXLIFT
 62
11
 10
5709.475
 20
-7222.374
 30
426.000
 70
    32
  0
VERTEX
  8
M48LXLIFT
 62
11
 10
5709.474
 20
-7212.549
 30
426.000
 70
    32
  0
VERTEX
  8
M48LXLIFT
 62
11
 10
5702.915
 20
-7198.986
 30
426.000
 70
    32
  0
VERTEX
  8
M48LXLIFT
 62
11
 10
5709.175
 20
-7194.298
 30
426.000
 70
    32
  0
VERTEX
  8
M48LXLIFT
 62
11
 10
5714.352
 20
-7185.524
 30
426.000
 70
    32
  0
VERTEX
  8
M48LXLIFT
 62
11
 10
5724.585
 20
-7180.804
 30
426.000
 70
    32
  0
VERTEX
  8
M48LXLIFT
 62
11
 10
5729.795
 20
-7188.851
 30
426.000
 70
    32
  0
VERTEX
  8
M48LXLIFT
 62
11
 10
5726.527
 20
-7194.101
 30
426.000
 70
    32
  0
VERTEX
  8
M48LXLIFT
 62
11
 10
5721.308
 20
-7195.562
 30
426.000
 70
    32
  0
VERTEX
  8
M48LXLIFT
 62
11
 10
5718.746
 20
-7206.787
 30
426.000
 70
    32
  0
VERTEX
  8
M48LXLIFT
 62
11
 10
5716.154
 20
-7221.597
 30
426.000
 70
    32
  0
SEQEND
  8
M48LXLIFT
  0
POLYLINE
  8
M48LXLIFT
 62
8
 66
     1
 70
     9
  0
VERTEX
  8
M48LXLIFT
 62
8
 10
5518.000
 20
-7436.736
 30
408.000
 70
    32
  0
VERTEX
  8
M48LXLIFT
 62
8
 10
5523.399
 20
-7433.398
 30
408.000
 70
    32
  0
VERTEX
  8
M48LXLIFT
 62
8
 10
5524.472
 20
-7427.905
 30
408.000
 70
    32
  0
VERTEX
  8
M48LXLIFT
 62
8
 10
5517.712
 20
-7405.474
 30
408.000
 70
    32
  0
VERTEX
  8
M48LXLIFT
 62
8
 10
5511.150
 20
-7379.619
 30
408.000
 70
    32
  0
VERTEX
  8
M48LXLIFT
 62
8
 10
5506.665
 20
-7366.763
 30
408.000
 70
    32
  0
VERTEX
  8
M48LXLIFT
 62
8
 10
5494.869
 20
-7367.512
 30
408.000
 70
    32
  0
VERTEX
  8
M48LXLIFT
 62
8
 10
5489.662
 20
-7365.791
 30
408.000
 70
    32
  0
VERTEX
  8
M48LXLIFT
 62
8
 10
5486.974
 20
-7360.239
 30
408.000
 70
    32
  0
VERTEX
  8
M48LXLIFT
 62
8
 10
5478.838
 20
-7349.537
 30
408.000
 70
    32
  0
VERTEX
  8
M48LXLIFT
 62
8
 10
5472.482
 20
-7343.311
 30
408.000
 70
    32
  0
VERTEX
  8
M48LXLIFT
 62
8
 10
5460.656
 20
-7348.892
 30
408.000
 70
    32
  0
VERTEX
  8
M48LXLIFT
 62
8
 10
5463.310
 20
-7356.764
 30
408.000
 70
    32
  0
VERTEX
  8
M48LXLIFT
 62
8
 10
5473.146
 20
-7362.820
 30
408.000
 70
    32
  0
VERTEX
  8
M48LXLIFT
 62
8
 10
5482.115
 20
-7372.577
 30
408.000
 70
    32
  0
VERTEX
  8
M48LXLIFT
 62
8
 10
5494.799
 20
-7391.936
 30
408.000
 70
    32
  0
VERTEX
  8
M48LXLIFT
 62
8
 10
5501.958
 20
-7401.612
 30
408.000
 70
    32
  0
VERTEX
  8
M48LXLIFT
 62
8
 10
5505.461
 20
-7411.369
 30
408.000
 70
    32
  0
VERTEX
  8
M48LXLIFT
 62
8
 10
5510.530
 20
-7423.685
 30
408.000
 70
    32
  0
VERTEX
  8
M48LXLIFT
 62
8
 10
5513.552
 20
-7429.099
 30
408.000
 70
    32
  0
SEQEND
  8
M48LXLIFT
  0
POLYLINE
  8
M48LXLIFT
 62
8
 66
     1
 70
     9
  0
VERTEX
  8
M48LXLIFT
 62
8
 10
5457.966
 20
-7351.210
 30
419.000
 70
    32
  0
VERTEX
  8
M48LXLIFT
 62
8
 10
5461.509
 20
-7349.798
 30
419.000
 70
    32
  0
VERTEX
  8
M48LXLIFT
 62
8
 10
5467.543
 20
-7359.758
 30
419.000
 70
    32
  0
VERTEX
  8
M48LXLIFT
 62
8
 10
5474.597
 20
-7369.621
 30
419.000
 70
    32
  0
VERTEX
  8
M48LXLIFT
 62
8
 10
5470.684
 20
-7377.637
 30
419.000
 70
    32
  0
VERTEX
  8
M48LXLIFT
 62
8
 10
5473.515
 20
-7381.772
 30
419.000
 70
    32
  0
VERTEX
  8
M48LXLIFT
 62
8
 10
5487.256
 20
-7375.241
 30
419.000
 70
    32
  0
VERTEX
  8
M48LXLIFT
 62
8
 10
5495.134
 20
-7365.939
 30
419.000
 70
    32
  0
VERTEX
  8
M48LXLIFT
 62
8
 10
5500.839
 20
-7351.471
 30
419.000
 70
    32
  0
VERTEX
  8
M48LXLIFT
 62
8
 10
5491.285
 20
-7344.435
 30
419.000
 70
    32
  0
VERTEX
  8
M48LXLIFT
 62
8
 10
5478.909
 20
-7327.799
 30
419.000
 70
    32
  0
VERTEX
  8
M48LXLIFT
 62
8
 10
5466.037
 20
-7328.995
 30
419.000
 70
    32
  0
VERTEX
  8
M48LXLIFT
 62
8
 10
5458.860
 20
-7331.994
 30
419.000
 70
    32
  0
VERTEX
  8
M48LXLIFT
 62
8
 10
5454.141
 20
-7344.098
 30
419.000
 70
    32
  0
SEQEND
  8
M48LXLIFT
  0
POLYLINE
  8
M48LXLIFT
 62
2
 66
     1
 70
     9
  0
VERTEX
  8
M48LXLIFT
 62
2
 10
5463.020
 20
-7402.372
 30
437.000
 70
    32
  0
VERTEX
  8
M48LXLIFT
 62
2
 10
5465.271
 20
-7397.569
 30
437.000
 70
    32
  0
VERTEX
  8
M48LXLIFT
 62
2
 10
5459.140
 20
-7385.626
 30
437.000
 70
    32
  0
VERTEX
  8
M48LXLIFT
 62
2
 10
5458.484
 20
-7374.029
 30
437.000
 70
    32
  0
VERTEX
  8
M48LXLIFT
 62
2
 10
5459.802
 20
-7366.317
 30
437.000
 70
    32
  0
VERTEX
  8
M48LXLIFT
 62
2
 10
5472.269
 20
-7358.822
 30
437.000
 70
    32
  0
VERTEX
  8
M48LXLIFT
 62
2
 10
5479.278
 20
-7354.126
 30
437.000
 70
    32
  0
VERTEX
  8
M48LXLIFT
 62
2
 10
5482.134
 20
-7347.029
 30
437.000
 70
    32
  0
VERTEX
  8
M48LXLIFT
 62
2
 10
5478.062
 20
-7339.238
 30
437.000
 70
    32
  0
VERTEX
  8
M48LXLIFT
 62
2
 10
5473.604
 20
-7335.973
 30
437.000
 70
    32
  0
VERTEX
  8
M48LXLIFT
 62
2
 10
5460.966
 20
-7344.572
 30
437.000
 70
    32
  0
VERTEX
  8
M48LXLIFT
 62
2
 10
5459.907
 20
-7352.638
 30
437.000
 70
    32
  0
VERTEX
  8
M48LXLIFT
 62
2
 10
5458.647
 20
-7358.348
 30
437.000
 70
    32
  0
VERTEX
  8
M48LXLIFT
 62
2
 10
5449.579
 20
-7364.987
 30
437.000
 70
    32
  0
VERTEX
  8
M48LXLIFT
 62
2
 10
5437.093
 20
-7360.417
 30
437.000
 70
    32
  0
VERTEX
  8
M48LXLIFT
 62
2
 10
5424.865
 20
-7363.929
 30
437.000
 70
    32
  0
VERTEX
  8
M48LXLIFT
 62
2
 10
5417.863
 20
-7378.740
 30
437.000
 70
    32
  0
VERTEX
  8
M48LXLIFT
 62
2
 10
5408.904
 20
-7391.175
 30
437.000
 70
    32
  0
VERTEX
  8
M48LXLIFT
 62
2
 10
5398.077
 20
-7407.153
 30
437.000
 70
    32
  0
VERTEX
  8
M48LXLIFT
 62
2
 10
5395.949
 20
-7418.069
 30
437.000
 70
    32
  0
VERTEX
  8
M48LXLIFT
 62
2
 10
5403.044
 20
-7422.559
 30
437.000
 70
    32
  0
VERTEX
  8
M48LXLIFT
 62
2
 10
5408.776
 20
-7420.430
 30
437.000
 70
    32
  0
VERTEX
  8
M48LXLIFT
 62
2
 10
5410.599
 20
-7413.111
 30
437.000
 70
    32
  0
VERTEX
  8
M48LXLIFT
 62
2
 10
5414.356
 20
-7402.635
 30
437.000
 70
    32
  0
VERTEX
  8
M48LXLIFT
 62
2
 10
5424.925
 20
-7395.223
 30
437.000
 70
    32
  0
VERTEX
  8
M48LXLIFT
 62
2
 10
5436.867
 20
-7395.186
 30
437.000
 70
    32
  0
VERTEX
  8
M48LXLIFT
 62
2
 10
5446.212
 20
-7396.505
 30
437.000
 70
    32
  0
VERTEX
  8
M48LXLIFT
 62
2
 10
5453.975
 20
-7403.988
 30
437.000
 70
    32
  0
VERTEX
  8
M48LXLIFT
 62
2
 10
5457.111
 20
-7407.677
 30
437.000
 70
    32
  0
SEQEND
  8
M48LXLIFT
  0
POLYLINE
  8
M48LXLIFT
 62
2
 66
     1
 70
     9
  0
VERTEX
  8
M48LXLIFT
 62
2
 10
5518.053
 20
-7341.810
 30
449.000
 70
    32
  0
VERTEX
  8
M48LXLIFT
 62
2
 10
5514.229
 20
-7348.188
 30
449.000
 70
    32
  0
VERTEX
  8
M48LXLIFT
 62
2
 10
5506.478
 20
-7353.953
 30
449.000
 70
    32
  0
VERTEX
  8
M48LXLIFT
 62
2
 10
5503.182
 20
-7348.096
 30
449.000
 70
    32
  0
VERTEX
  8
M48LXLIFT
 62
2
 10
5490.236
 20
-7342.869
 30
449.000
 70
    32
  0
VERTEX
  8
M48LXLIFT
 62
2
 10
5482.893
 20
-7341.596
 30
449.000
 70
    32
  0
VERTEX
  8
M48LXLIFT
 62
2
 10
5471.944
 20
-7342.085
 30
449.000
 70
    32
  0
VERTEX
  8
M48LXLIFT
 62
2
 10
5460.708
 20
-7340.392
 30
449.000
 70
    32
  0
VERTEX
  8
M48LXLIFT
 62
2
 10
5453.270
 20
-7339.733
 30
449.000
 70
    32
  0
VERTEX
  8
M48LXLIFT
 62
2
 10
5448.747
 20
-7345.751
 30
449.000
 70
    32
  0
VERTEX
  8
M48LXLIFT
 62
2
 10
5446.905
 20
-7356.335
 30
449.000
 70
    32
  0
VERTEX
  8
M48LXLIFT
 62
2
 10
5447.657
 20
-7366.005
 30
449.000
 70
    32
  0
VERTEX
  8
M48LXLIFT
 62
2
 10
5451.771
 20
-7383.114
 30
449.000
 70
    32
  0
VERTEX
  8
M48LXLIFT
 62
2
 10
5450.651
 20
-7389.475
 30
449.000
 70
    32
  0
VERTEX
  8
M48LXLIFT
 62
2
 10
5438.050
 20
-7394.105
 30
449.000
 70
    32
  0
VERTEX
  8
M48LXLIFT
 62
2
 10
5423.116
 20
-7393.154
 30
449.000
 70
    32
  0
VERTEX
  8
M48LXLIFT
 62
2
 10
5413.373
 20
-7396.785
 30
449.000
 70
    32
  0
VERTEX
  8
M48LXLIFT
 62
2
 10
5401.052
 20
-7406.864
 30
449.000
 70
    32
  0
VERTEX
  8
M48LXLIFT
 62
2
 10
5391.984
 20
-7416.633
 30
449.000
 70
    32
  0
VERTEX
  8
M48LXLIFT
 62
2
 10
5382.782
 20
-7415.196
 30
449.000
 70
    32
  0
VERTEX
  8
M48LXLIFT
 62
2
 10
5387.793
 20
-7400.016
 30
449.000
 70
    32
  0
VERTEX
  8
M48LXLIFT
 62
2
 10
5391.406
 20
-7386.943
 30
449.000
 70
    32
  0
VERTEX
  8
M48LXLIFT
 62
2
 10
5390.544
 20
-7380.398
 30
449.000
 70
    32
  0
VERTEX
  8
M48LXLIFT
 62
2
 10
5390.618
 20
-7374.691
 30
449.000
 70
    32
  0
VERTEX
  8
M48LXLIFT
 62
2
 10
5391.088
 20
-7361.629
 30
449.000
 70
    32
  0
VERTEX
  8
M48LXLIFT
 62
2
 10
5390.668
 20
-7353.457
 30
449.000
 70
    32
  0
VERTEX
  8
M48LXLIFT
 62
2
 10
5385.816
 20
-7347.105
 30
449.000
 70
    32
  0
VERTEX
  8
M48LXLIFT
 62
2
 10
5392.937
 20
-7335.712
 30
449.000
 70
    32
  0
VERTEX
  8
M48LXLIFT
 62
2
 10
5403.861
 20
-7343.829
 30
449.000
 70
    32
  0
VERTEX
  8
M48LXLIFT
 62
2
 10
5410.040
 20
-7352.147
 30
449.000
 70
    32
  0
VERTEX
  8
M48LXLIFT
 62
2
 10
5413.917
 20
-7361.928
 30
449.000
 70
    32
  0
VERTEX
  8
M48LXLIFT
 62
2
 10
5424.779
 20
-7359.980
 30
449.000
 70
    32
  0
VERTEX
  8
M48LXLIFT
 62
2
 10
5431.393
 20
-7353.849
 30
449.000
 70
    32
  0
VERTEX
  8
M48LXLIFT
 62
2
 10
5431.993
 20
-7345.584
 30
449.000
 70
    32
  0
VERTEX
  8
M48LXLIFT
 62
2
 10
5436.130
 20
-7336.804
 30
449.000
 70
    32
  0
VERTEX
  8
M48LXLIFT
 62
2
 10
5446.226
 20
-7331.719
 30
449.000
 70
    32
  0
VERTEX
  8
M48LXLIFT
 62
2
 10
5462.763
 20
-7329.652
 30
449.000
 70
    32
  0
VERTEX
  8
M48LXLIFT
 62
2
 10
5482.724
 20
-7329.000
 30
449.000
 70
    32
  0
VERTEX
  8
M48LXLIFT
 62
2
 10
5493.888
 20
-7329.550
 30
449.000
 70
    32
  0
VERTEX
  8
M48LXLIFT
 62
2
 10
5508.229
 20
-7327.455
 30
449.000
 70
    32
  0
SEQEND
  8
M48LXLIFT
  0
POLYLINE
  8
M48LXLIFT
 62
7
 66
     1
 70
     9
  0
VERTEX
  8
M48LXLIFT
 62
7
 10
5435.021
 20
-7220.205
 30
503.000
 70
    32
  0
VERTEX
  8
M48LXLIFT
 62
7
 10
5435.479
 20
-7212.065
 30
503.000
 70
    32
  0
VERTEX
  8
M48LXLIFT
 62
7
 10
5423.456
 20
-7208.492
 30
503.000
 70
    32
  0
VERTEX
  8
M48LXLIFT
 62
7
 10
5413.469
 20
-7205.581
 30
503.000
 70
    32
  0
VERTEX
  8
M48LXLIFT
 62
7
 10
5401.494
 20
-7208.779
 30
503.000
 70
    32
  0
VERTEX
  8
M48LXLIFT
 62
7
 10
5393.797
 20
-7220.283
 30
503.000
 70
    32
  0
VERTEX
  8
M48LXLIFT
 62
7
 10
5389.266
 20
-7235.992
 30
503.000
 70
    32
  0
VERTEX
  8
M48LXLIFT
 62
7
 10
5385.869
 20
-7248.541
 30
503.000
 70
    32
  0
VERTEX
  8
M48LXLIFT
 62
7
 10
5382.014
 20
-7259.898
 30
503.000
 70
    32
  0
VERTEX
  8
M48LXLIFT
 62
7
 10
5387.473
 20
-7271.378
 30
503.000
 70
    32
  0
VERTEX
  8
M48LXLIFT
 62
7
 10
5383.145
 20
-7282.981
 30
503.000
 70
    32
  0
VERTEX
  8
M48LXLIFT
 62
7
 10
5385.677
 20
-7295.238
 30
503.000
 70
    32
  0
VERTEX
  8
M48LXLIFT
 62
7
 10
5380.867
 20
-7312.035
 30
503.000
 70
    32
  0
VERTEX
  8
M48LXLIFT
 62
7
 10
5372.717
 20
-7324.979
 30
503.000
 70
    32
  0
VERTEX
  8
M48LXLIFT
 62
7
 10
5359.120
 20
-7333.460
 30
503.000
 70
    32
  0
VERTEX
  8
M48LXLIFT
 62
7
 10
5356.414
 20
-7349.551
 30
503.000
 70
    32
  0
VERTEX
  8
M48LXLIFT
 62
7
 10
5354.233
 20
-7365.027
 30
503.000
 70
    32
  0
VERTEX
  8
M48LXLIFT
 62
7
 10
5354.927
 20
-7369.885
 30
503.000
 70
    32
  0
VERTEX
  8
M48LXLIFT
 62
7
 10
5365.895
 20
-7372.057
 30
503.000
 70
    32
  0
VERTEX
  8
M48LXLIFT
 62
7
 10
5380.642
 20
-7369.187
 30
503.000
 70
    32
  0
VERTEX
  8
M48LXLIFT
 62
7
 10
5390.439
 20
-7373.888
 30
503.000
 70
    32
  0
VERTEX
  8
M48LXLIFT
 62
7
 10
5400.397
 20
-7370.781
 30
503.000
 70
    32
  0
VERTEX
  8
M48LXLIFT
 62
7
 10
5412.594
 20
-7364.233
 30
503.000
 70
    32
  0
VERTEX
  8
M48LXLIFT
 62
7
 10
5415.690
 20
-7350.263
 30
503.000
 70
    32
  0
VERTEX
  8
M48LXLIFT
 62
7
 10
5416.505
 20
-7336.035
 30
503.000
 70
    32
  0
VERTEX
  8
M48LXLIFT
 62
7
 10
5418.015
 20
-7318.210
 30
503.000
 70
    32
  0
VERTEX
  8
M48LXLIFT
 62
7
 10
5420.990
 20
-7305.100
 30
503.000
 70
    32
  0
VERTEX
  8
M48LXLIFT
 62
7
 10
5422.492
 20
-7292.221
 30
503.000
 70
    32
  0
VERTEX
  8
M48LXLIFT
 62
7
 10
5429.552
 20
-7287.454
 30
503.000
 70
    32
  0
VERTEX
  8
M48LXLIFT
 62
7
 10
5429.901
 20
-7277.419
 30
503.000
 70
    32
  0
VERTEX
  8
M48LXLIFT
 62
7
 10
5434.657
 20
-7269.008
 30
503.000
 70
    32
  0
VERTEX
  8
M48LXLIFT
 62
7
 10
5428.837
 20
-7252.529
 30
503.000
 70
    32
  0
VERTEX
  8
M48LXLIFT
 62
7
 10
5425.902
 20
-7240.466
 30
503.000
 70
    32
  0
SEQEND
  8
M48LXLIFT
  0
POLYLINE
  8
M48LXLIFT
 62
7
 66
     1
 70
     9
  0
VERTEX
  8
M48LXLIFT
 62
7
 10
5426.297
 20
-7209.551
 30
513.000
 70
    32
  0
VERTEX
  8
M48LXLIFT
 62
7
 10
5417.015
 20
-7207.499
 30
513.000
 70
    32
  0
VERTEX
  8
M48LXLIFT
 62
7
 10
5402.350
 20
-7210.427
 30
513.000
 70
    32
  0
VERTEX
  8
M48LXLIFT
 62
7
 10
5388.760
 20
-7217.232
 30
513.000
 70
    32
  0
VERTEX
  8
M48LXLIFT
 62
7
 10
5382.866
 20
-7228.537
 30
513.000
 70
    32
  0
VERTEX
  8
M48LXLIFT
 62
7
 10
5378.667
 20
-7243.379
 30
513.000
 70
    32
  0
VERTEX
  8
M48LXLIFT
 62
7
 10
5374.753
 20
-7269.386
 30
513.000
 70
    32
  0
VERTEX
  8
M48LXLIFT
 62
7
 10
5372.930
 20
-7297.234
 30
513.000
 70
    32
  0
VERTEX
  8
M48LXLIFT
 62
7
 10
5370.085
 20
-7306.766
 30
513.000
 70
    32
  0
VERTEX
  8
M48LXLIFT
 62
7
 10
5359.415
 20
-7314.165
 30
513.000
 70
    32
  0
VERTEX
  8
M48LXLIFT
 62
7
 10
5346.924
 20
-7325.481
 30
513.000
 70
    32
  0
VERTEX
  8
M48LXLIFT
 62
7
 10
5351.019
 20
-7331.288
 30
513.000
 70
    32
  0
VERTEX
  8
M48LXLIFT
 62
7
 10
5344.101
 20
-7341.926
 30
513.000
 70
    32
  0
VERTEX
  8
M48LXLIFT
 62
7
 10
5339.342
 20
-7350.460
 30
513.000
 70
    32
  0
VERTEX
  8
M48LXLIFT
 62
7
 10
5342.532
 20
-7366.235
 30
513.000
 70
    32
  0
VERTEX
  8
M48LXLIFT
 62
7
 10
5345.800
 20
-7375.238
 30
513.000
 70
    32
  0
VERTEX
  8
M48LXLIFT
 62
7
 10
5352.768
 20
-7370.952
 30
513.000
 70
    32
  0
VERTEX
  8
M48LXLIFT
 62
7
 10
5367.625
 20
-7366.045
 30
513.000
 70
    32
  0
VERTEX
  8
M48LXLIFT
 62
7
 10
5380.095
 20
-7372.503
 30
513.000
 70
    32
  0
VERTEX
  8
M48LXLIFT
 62
7
 10
5395.559
 20
-7370.080
 30
513.000
 70
    32
  0
VERTEX
  8
M48LXLIFT
 62
7
 10
5406.645
 20
-7364.004
 30
513.000
 70
    32
  0
VERTEX
  8
M48LXLIFT
 62
7
 10
5409.217
 20
-7335.396
 30
513.000
 70
    32
  0
VERTEX
  8
M48LXLIFT
 62
7
 10
5410.824
 20
-7312.035
 30
513.000
 70
    32
  0
VERTEX
  8
M48LXLIFT
 62
7
 10
5421.633
 20
-7279.847
 30
513.000
 70
    32
  0
VERTEX
  8
M48LXLIFT
 62
7
 10
5425.924
 20
-7266.778
 30
513.000
 70
    32
  0
VERTEX
  8
M48LXLIFT
 62
7
 10
5424.722
 20
-7250.756
 30
513.000
 70
    32
  0
VERTEX
  8
M48LXLIFT
 62
7
 10
5427.238
 20
-7232.692
 30
513.000
 70
    32
  0
VERTEX
  8
M48LXLIFT
 62
7
 10
5429.545
 20
-7224.959
 30
513.000
 70
    32
  0
SEQEND
  8
M48LXLIFT
  0
POLYLINE
  8
M48LXLIFT
 62
7
 66
     1
 70
     9
  0
VERTEX
  8
M48LXLIFT
 62
7
 10
5425.743
 20
-7209.285
 30
492.000
 70
    32
  0
VERTEX
  8
M48LXLIFT
 62
7
 10
5424.585
 20
-7229.175
 30
492.000
 70
    32
  0
VERTEX
  8
M48LXLIFT
 62
7
 10
5424.065
 20
-7239.727
 30
492.000
 70
    32
  0
VERTEX
  8
M48LXLIFT
 62
7
 10
5431.308
 20
-7253.241
 30
492.000
 70
    32
  0
VERTEX
  8
M48LXLIFT
 62
7
 10
5436.765
 20
-7259.164
 30
492.000
 70
    32
  0
VERTEX
  8
M48LXLIFT
 62
7
 10
5437.455
 20
-7276.207
 30
492.000
 70
    32
  0
VERTEX
  8
M48LXLIFT
 62
7
 10
5425.310
 20
-7286.254
 30
492.000
 70
    32
  0
VERTEX
  8
M48LXLIFT
 62
7
 10
5428.035
 20
-7296.201
 30
492.000
 70
    32
  0
VERTEX
  8
M48LXLIFT
 62
7
 10
5420.861
 20
-7308.189
 30
492.000
 70
    32
  0
VERTEX
  8
M48LXLIFT
 62
7
 10
5416.154
 20
-7321.648
 30
492.000
 70
    32
  0
VERTEX
  8
M48LXLIFT
 62
7
 10
5412.558
 20
-7342.211
 30
492.000
 70
    32
  0
VERTEX
  8
M48LXLIFT
 62
7
 10
5410.156
 20
-7357.367
 30
492.000
 70
    32
  0
VERTEX
  8
M48LXLIFT
 62
7
 10
5400.389
 20
-7364.401
 30
492.000
 70
    32
  0
VERTEX
  8
M48LXLIFT
 62
7
 10
5385.581
 20
-7374.959
 30
492.000
 70
    32
  0
VERTEX
  8
M48LXLIFT
 62
7
 10
5368.685
 20
-7368.938
 30
492.000
 70
    32
  0
VERTEX
  8
M48LXLIFT
 62
7
 10
5360.289
 20
-7368.705
 30
492.000
 70
    32
  0
VERTEX
  8
M48LXLIFT
 62
7
 10
5354.883
 20
-7360.147
 30
492.000
 70
    32
  0
VERTEX
  8
M48LXLIFT
 62
7
 10
5358.109
 20
-7344.181
 30
492.000
 70
    32
  0
VERTEX
  8
M48LXLIFT
 62
7
 10
5365.619
 20
-7329.353
 30
492.000
 70
    32
  0
VERTEX
  8
M48LXLIFT
 62
7
 10
5378.470
 20
-7311.868
 30
492.000
 70
    32
  0
VERTEX
  8
M48LXLIFT
 62
7
 10
5386.691
 20
-7303.890
 30
492.000
 70
    32
  0
VERTEX
  8
M48LXLIFT
 62
7
 10
5392.213
 20
-7287.354
 30
492.000
 70
    32
  0
VERTEX
  8
M48LXLIFT
 62
7
 10
5392.889
 20
-7269.652
 30
492.000
 70
    32
  0
VERTEX
  8
M48LXLIFT
 62
7
 10
5395.529
 20
-7265.801
 30
492.000
 70
    32
  0
VERTEX
  8
M48LXLIFT
 62
7
 10
5391.518
 20
-7253.316
 30
492.000
 70
    32
  0
VERTEX
  8
M48LXLIFT
 62
7
 10
5397.504
 20
-7238.177
 30
492.000
 70
    32
  0
VERTEX
  8
M48LXLIFT
 62
7
 10
5403.474
 20
-7218.503
 30
492.000
 70
    32
  0
VERTEX
  8
M48LXLIFT
 62
7
 10
5408.497
 20
-7207.739
 30
492.000
 70
    32
  0
VERTEX
  8
M48LXLIFT
 62
7
 10
5416.670
 20
-7203.152
 30
492.000
 70
    32
  0
SEQEND
  8
M48LXLIFT
  0
POLYLINE
  8
M48LXLIFT
 62
7
 66
     1
 70
     9
  0
VERTEX
  8
M48LXLIFT
 62
7
 10
5428.858
 20
-7297.902
 30
473.000
 70
    32
  0
VERTEX
  8
M48LXLIFT
 62
7
 10
5423.431
 20
-7290.257
 30
473.000
 70
    32
  0
VERTEX
  8
M48LXLIFT
 62
7
 10
5414.388
 20
-7283.320
 30
473.000
 70
    32
  0
VERTEX
  8
M48LXLIFT
 62
7
 10
5404.528
 20
-7282.651
 30
473.000
 70
    32
  0
VERTEX
  8
M48LXLIFT
 62
7
 10
5398.843
 20
-7281.294
 30
473.000
 70
    32
  0
VERTEX
  8
M48LXLIFT
 62
7
 10
5394.616
 20
-7274.832
 30
473.000
 70
    32
  0
VERTEX
  8
M48LXLIFT
 62
7
 10
5396.964
 20
-7270.048
 30
473.000
 70
    32
  0
VERTEX
  8
M48LXLIFT
 62
7
 10
5410.636
 20
-7262.458
 30
473.000
 70
    32
  0
VERTEX
  8
M48LXLIFT
 62
7
 10
5416.375
 20
-7254.300
 30
473.000
 70
    32
  0
VERTEX
  8
M48LXLIFT
 62
7
 10
5416.883
 20
-7242.598
 30
473.000
 70
    32
  0
VERTEX
  8
M48LXLIFT
 62
7
 10
5415.201
 20
-7235.454
 30
473.000
 70
    32
  0
VERTEX
  8
M48LXLIFT
 62
7
 10
5425.850
 20
-7226.719
 30
473.000
 70
    32
  0
VERTEX
  8
M48LXLIFT
 62
7
 10
5436.072
 20
-7228.320
 30
473.000
 70
    32
  0
VERTEX
  8
M48LXLIFT
 62
7
 10
5443.949
 20
-7231.761
 30
473.000
 70
    32
  0
VERTEX
  8
M48LXLIFT
 62
7
 10
5446.137
 20
-7236.789
 30
473.000
 70
    32
  0
VERTEX
  8
M48LXLIFT
 62
7
 10
5444.828
 20
-7245.488
 30
473.000
 70
    32
  0
VERTEX
  8
M48LXLIFT
 62
7
 10
5448.124
 20
-7256.885
 30
473.000
 70
    32
  0
VERTEX
  8
M48LXLIFT
 62
7
 10
5449.245
 20
-7278.166
 30
473.000
 70
    32
  0
VERTEX
  8
M48LXLIFT
 62
7
 10
5448.849
 20
-7286.627
 30
473.000
 70
    32
  0
VERTEX
  8
M48LXLIFT
 62
7
 10
5440.765
 20
-7292.051
 30
473.000
 70
    32
  0
SEQEND
  8
M48LXLIFT
  0
POLYLINE
  8
M48LXLIFT
 62
7
 66
     1
 70
     9
  0
VERTEX
  8
M48LXLIFT
 62
7
 10
5404.176
 20
-7231.432
 30
482.000
 70
    32
  0
VERTEX
  8
M48LXLIFT
 62
7
 10
5417.299
 20
-7228.790
 30
482.000
 70
    32
  0
VERTEX
  8
M48LXLIFT
 62
7
 10
5428.583
 20
-7230.500
 30
482.000
 70
    32
  0
VERTEX
  8
M48LXLIFT
 62
7
 10
5439.359
 20
-7243.060
 30
482.000
 70
    32
  0
VERTEX
  8
M48LXLIFT
 62
7
 10
5441.967
 20
-7257.937
 30
482.000
 70
    32
  0
VERTEX
  8
M48LXLIFT
 62
7
 10
5440.906
 20
-7262.917
 30
482.000
 70
    32
  0
VERTEX
  8
M48LXLIFT
 62
7
 10
5453.188
 20
-7290.175
 30
482.000
 70
    32
  0
VERTEX
  8
M48LXLIFT
 62
7
 10
5449.076
 20
-7292.272
 30
482.000
 70
    32
  0
VERTEX
  8
M48LXLIFT
 62
7
 10
5435.706
 20
-7312.279
 30
482.000
 70
    32
  0
VERTEX
  8
M48LXLIFT
 62
7
 10
5425.813
 20
-7322.107
 30
482.000
 70
    32
  0
VERTEX
  8
M48LXLIFT
 62
7
 10
5426.677
 20
-7362.777
 30
482.000
 70
    32
  0
VERTEX
  8
M48LXLIFT
 62
7
 10
5418.631
 20
-7365.113
 30
482.000
 70
    32
  0
VERTEX
  8
M48LXLIFT
 62
7
 10
5398.315
 20
-7382.232
 30
482.000
 70
    32
  0
VERTEX
  8
M48LXLIFT
 62
7
 10
5391.148
 20
-7382.637
 30
482.000
 70
    32
  0
VERTEX
  8
M48LXLIFT
 62
7
 10
5378.915
 20
-7372.856
 30
482.000
 70
    32
  0
VERTEX
  8
M48LXLIFT
 62
7
 10
5374.069
 20
-7359.375
 30
482.000
 70
    32
  0
VERTEX
  8
M48LXLIFT
 62
7
 10
5370.784
 20
-7343.257
 30
482.000
 70
    32
  0
VERTEX
  8
M48LXLIFT
 62
7
 10
5376.958
 20
-7331.568
 30
482.000
 70
    32
  0
VERTEX
  8
M48LXLIFT
 62
7
 10
5392.995
 20
-7320.665
 30
482.000
 70
    32
  0
VERTEX
  8
M48LXLIFT
 62
7
 10
5393.294
 20
-7306.073
 30
482.000
 70
    32
  0
VERTEX
  8
M48LXLIFT
 62
7
 10
5394.260
 20
-7295.108
 30
482.000
 70
    32
  0
VERTEX
  8
M48LXLIFT
 62
7
 10
5383.185
 20
-7297.140
 30
482.000
 70
    32
  0
VERTEX
  8
M48LXLIFT
 62
7
 10
5378.452
 20
-7291.469
 30
482.000
 70
    32
  0
VERTEX
  8
M48LXLIFT
 62
7
 10
5398.881
 20
-7274.809
 30
482.000
 70
    32
  0
SEQEND
  8
M48LXLIFT
  0
POLYLINE
  8
M48LXLIFT
 62
2
 66
     1
 70
     9
  0
VERTEX
  8
M48LXLIFT
 62
2
 10
5432.005
 20
-7361.001
 30
460.000
 70
    32
  0
VERTEX
  8
M48LXLIFT
 62
2
 10
5433.645
 20
-7366.975
 30
460.000
 70
    32
  0
VERTEX
  8
M48LXLIFT
 62
2
 10
5441.892
 20
-7372.476
 30
460.000
 70
    32
  0
VERTEX
  8
M48LXLIFT
 62
2
 10
5445.380
 20
-7380.687
 30
460.000
 70
    32
  0
VERTEX
  8
M48LXLIFT
 62
2
 10
5443.180
 20
-7386.311
 30
460.000
 70
    32
  0
VERTEX
  8
M48LXLIFT
 62
2
 10
5437.575
 20
-7394.416
 30
460.000
 70
    32
  0
VERTEX
  8
M48LXLIFT
 62
2
 10
5426.645
 20
-7395.216
 30
460.000
 70
    32
  0
VERTEX
  8
M48LXLIFT
 62
2
 10
5413.205
 20
-7391.980
 30
460.000
 70
    32
  0
VERTEX
  8
M48LXLIFT
 62
2
 10
5409.035
 20
-7384.918
 30
460.000
 70
    32
  0
VERTEX
  8
M48LXLIFT
 62
2
 10
5405.052
 20
-7378.264
 30
460.000
 70
    32
  0
VERTEX
  8
M48LXLIFT
 62
2
 10
5417.960
 20
-7368.852
 30
460.000
 70
    32
  0
SEQEND
  8
M48LXLIFT
  0
POLYLINE
  8
M48LXLIFT
 62
2
 66
     1
 70
     9
  0
VERTEX
  8
M48LXLIFT
 62
2
 10
5400.297
 20
-7422.224
 30
417.000
 70
    32
  0
VERTEX
  8
M48LXLIFT
 62
2
 10
5408.831
 20
-7427.284
 30
417.000
 70
    32
  0
VERTEX
  8
M48LXLIFT
 62
2
 10
5413.993
 20
-7423.477
 30
417.000
 70
    32
  0
VERTEX
  8
M48LXLIFT
 62
2
 10
5418.159
 20
-7414.620
 30
417.000
 70
    32
  0
VERTEX
  8
M48LXLIFT
 62
2
 10
5418.984
 20
-7408.336
 30
417.000
 70
    32
  0
VERTEX
  8
M48LXLIFT
 62
2
 10
5424.130
 20
-7402.140
 30
417.000
 70
    32
  0
VERTEX
  8
M48LXLIFT
 62
2
 10
5437.202
 20
-7395.885
 30
417.000
 70
    32
  0
VERTEX
  8
M48LXLIFT
 62
2
 10
5444.236
 20
-7390.917
 30
417.000
 70
    32
  0
VERTEX
  8
M48LXLIFT
 62
2
 10
5453.872
 20
-7396.583
 30
417.000
 70
    32
  0
VERTEX
  8
M48LXLIFT
 62
2
 10
5454.245
 20
-7387.466
 30
417.000
 70
    32
  0
VERTEX
  8
M48LXLIFT
 62
2
 10
5453.233
 20
-7380.025
 30
417.000
 70
    32
  0
VERTEX
  8
M48LXLIFT
 62
2
 10
5436.702
 20
-7381.736
 30
417.000
 70
    32
  0
VERTEX
  8
M48LXLIFT
 62
2
 10
5426.219
 20
-7382.916
 30
417.000
 70
    32
  0
VERTEX
  8
M48LXLIFT
 62
2
 10
5416.917
 20
-7383.771
 30
417.000
 70
    32
  0
VERTEX
  8
M48LXLIFT
 62
2
 10
5409.340
 20
-7390.668
 30
417.000
 70
    32
  0
VERTEX
  8
M48LXLIFT
 62
2
 10
5407.150
 20
-7398.505
 30
417.000
 70
    32
  0
VERTEX
  8
M48LXLIFT
 62
2
 10
5404.343
 20
-7408.762
 30
417.000
 70
    32
  0
SEQEND
  8
M48LXLIFT
  0
POLYLINE
  8
M48LXLIFT
 62
2
 66
     1
 70
     9
  0
VERTEX
  8
M48LXLIFT
 62
2
 10
5487.732
 20
-7427.437
 30
408.000
 70
    32
  0
VERTEX
  8
M48LXLIFT
 62
2
 10
5484.063
 20
-7410.808
 30
408.000
 70
    32
  0
VERTEX
  8
M48LXLIFT
 62
2
 10
5478.003
 20
-7399.664
 30
408.000
 70
    32
  0
VERTEX
  8
M48LXLIFT
 62
2
 10
5466.626
 20
-7390.048
 30
408.000
 70
    32
  0
VERTEX
  8
M48LXLIFT
 62
2
 10
5450.365
 20
-7374.866
 30
408.000
 70
    32
  0
VERTEX
  8
M48LXLIFT
 62
2
 10
5439.672
 20
-7379.172
 30
408.000
 70
    32
  0
VERTEX
  8
M48LXLIFT
 62
2
 10
5439.278
 20
-7385.583
 30
408.000
 70
    32
  0
VERTEX
  8
M48LXLIFT
 62
2
 10
5442.736
 20
-7388.927
 30
408.000
 70
    32
  0
VERTEX
  8
M48LXLIFT
 62
2
 10
5451.809
 20
-7387.896
 30
408.000
 70
    32
  0
VERTEX
  8
M48LXLIFT
 62
2
 10
5455.678
 20
-7395.635
 30
408.000
 70
    32
  0
VERTEX
  8
M48LXLIFT
 62
2
 10
5464.626
 20
-7403.003
 30
408.000
 70
    32
  0
VERTEX
  8
M48LXLIFT
 62
2
 10
5466.518
 20
-7414.718
 30
408.000
 70
    32
  0
VERTEX
  8
M48LXLIFT
 62
2
 10
5473.165
 20
-7424.883
 30
408.000
 70
    32
  0
VERTEX
  8
M48LXLIFT
 62
2
 10
5479.280
 20
-7430.194
 30
408.000
 70
    32
  0
SEQEND
  8
M48LXLIFT
  0
POLYLINE
  8
M48LXLIFT
 62
2
 66
     1
 70
     9
  0
VERTEX
  8
M48LXLIFT
 62
2
 10
5453.598
 20
-7382.843
 30
394.000
 70
    32
  0
VERTEX
  8
M48LXLIFT
 62
2
 10
5461.175
 20
-7391.022
 30
394.000
 70
    32
  0
VERTEX
  8
M48LXLIFT
 62
2
 10
5473.640
 20
-7409.661
 30
394.000
 70
    32
  0
VERTEX
  8
M48LXLIFT
 62
2
 10
5474.441
 20
-7416.140
 30
394.000
 70
    32
  0
VERTEX
  8
M48LXLIFT
 62
2
 10
5470.886
 20
-7428.284
 30
394.000
 70
    32
  0
VERTEX
  8
M48LXLIFT
 62
2
 10
5468.521
 20
-7436.088
 30
394.000
 70
    32
  0
VERTEX
  8
M48LXLIFT
 62
2
 10
5460.840
 20
-7438.522
 30
394.000
 70
    32
  0
VERTEX
  8
M48LXLIFT
 62
2
 10
5457.061
 20
-7433.774
 30
394.000
 70
    32
  0
VERTEX
  8
M48LXLIFT
 62
2
 10
5454.582
 20
-7419.607
 30
394.000
 70
    32
  0
VERTEX
  8
M48LXLIFT
 62
2
 10
5457.148
 20
-7410.137
 30
394.000
 70
    32
  0
VERTEX
  8
M48LXLIFT
 62
2
 10
5460.217
 20
-7402.256
 30
394.000
 70
    32
  0
VERTEX
  8
M48LXLIFT
 62
2
 10
5450.721
 20
-7397.862
 30
394.000
 70
    32
  0
VERTEX
  8
M48LXLIFT
 62
2
 10
5446.717
 20
-7388.172
 30
394.000
 70
    32
  0
SEQEND
  8
M48LXLIFT
  0
POLYLINE
  8
M48LXLIFT
 62
2
 66
     1
 70
     9
  0
VERTEX
  8
M48LXLIFT
 62
2
 10
5416.830
 20
-7402.639
 30
427.000
 70
    32
  0
VERTEX
  8
M48LXLIFT
 62
2
 10
5424.939
 20
-7399.328
 30
427.000
 70
    32
  0
VERTEX
  8
M48LXLIFT
 62
2
 10
5432.884
 20
-7395.487
 30
427.000
 70
    32
  0
VERTEX
  8
M48LXLIFT
 62
2
 10
5437.481
 20
-7399.654
 30
427.000
 70
    32
  0
VERTEX
  8
M48LXLIFT
 62
2
 10
5437.962
 20
-7407.732
 30
427.000
 70
    32
  0
VERTEX
  8
M48LXLIFT
 62
2
 10
5440.731
 20
-7415.688
 30
427.000
 70
    32
  0
VERTEX
  8
M48LXLIFT
 62
2
 10
5446.584
 20
-7424.031
 30
427.000
 70
    32
  0
VERTEX
  8
M48LXLIFT
 62
2
 10
5452.988
 20
-7423.019
 30
427.000
 70
    32
  0
VERTEX
  8
M48LXLIFT
 62
2
 10
5457.746
 20
-7418.647
 30
427.000
 70
    32
  0
VERTEX
  8
M48LXLIFT
 62
2
 10
5458.879
 20
-7409.956
 30
427.000
 70
    32
  0
VERTEX
  8
M48LXLIFT
 62
2
 10
5462.084
 20
-7396.760
 30
427.000
 70
    32
  0
VERTEX
  8
M48LXLIFT
 62
2
 10
5460.948
 20
-7384.289
 30
427.000
 70
    32
  0
VERTEX
  8
M48LXLIFT
 62
2
 10
5458.863
 20
-7373.362
 30
427.000
 70
    32
  0
VERTEX
  8
M48LXLIFT
 62
2
 10
5452.632
 20
-7366.908
 30
427.000
 70
    32
  0
VERTEX
  8
M48LXLIFT
 62
2
 10
5446.544
 20
-7355.817
 30
427.000
 70
    32
  0
VERTEX
  8
M48LXLIFT
 62
2
 10
5443.133
 20
-7358.902
 30
427.000
 70
    32
  0
VERTEX
  8
M48LXLIFT
 62
2
 10
5440.008
 20
-7364.050
 30
427.000
 70
    32
  0
VERTEX
  8
M48LXLIFT
 62
2
 10
5442.573
 20
-7369.452
 30
427.000
 70
    32
  0
VERTEX
  8
M48LXLIFT
 62
2
 10
5436.935
 20
-7370.025
 30
427.000
 70
    32
  0
VERTEX
  8
M48LXLIFT
 62
2
 10
5423.772
 20
-7380.618
 30
427.000
 70
    32
  0
VERTEX
  8
M48LXLIFT
 62
2
 10
5415.673
 20
-7387.268
 30
427.000
 70
    32
  0
VERTEX
  8
M48LXLIFT
 62
2
 10
5410.813
 20
-7396.032
 30
427.000
 70
    32
  0
SEQEND
  8
M48LXLIFT
  0
POLYLINE
  8
M48LXLIFT
 62
2
 66
     1
 70
     9
  0
VERTEX
  8
M48LXLIFT
 62
2
 10
5385.992
 20
-7415.530
 30
480.000
 70
    32
  0
VERTEX
  8
M48LXLIFT
 62
2
 10
5393.593
 20
-7423.777
 30
480.000
 70
    32
  0
VERTEX
  8
M48LXLIFT
 62
2
 10
5393.778
 20
-7432.909
 30
480.000
 70
    32
  0
VERTEX
  8
M48LXLIFT
 62
2
 10
5383.310
 20
-7439.420
 30
480.000
 70
    32
  0
VERTEX
  8
M48LXLIFT
 62
2
 10
5377.712
 20
-7443.216
 30
480.000
 70
    32
  0
VERTEX
  8
M48LXLIFT
 62
2
 10
5373.303
 20
-7449.517
 30
480.000
 70
    32
  0
VERTEX
  8
M48LXLIFT
 62
2
 10
5367.523
 20
-7445.815
 30
480.000
 70
    32
  0
VERTEX
  8
M48LXLIFT
 62
2
 10
5369.864
 20
-7437.004
 30
480.000
 70
    32
  0
VERTEX
  8
M48LXLIFT
 62
2
 10
5372.890
 20
-7426.162
 30
480.000
 70
    32
  0
VERTEX
  8
M48LXLIFT
 62
2
 10
5377.559
 20
-7420.215
 30
480.000
 70
    32
  0
SEQEND
  8
M48LXLIFT
  0
POLYLINE
  8
M48LXLIFT
 62
2
 66
     1
 70
     9
  0
VERTEX
  8
M48LXLIFT
 62
2
 10
5391.301
 20
-7412.215
 30
509.000
 70
    32
  0
VERTEX
  8
M48LXLIFT
 62
2
 10
5387.614
 20
-7419.713
 30
509.000
 70
    32
  0
VERTEX
  8
M48LXLIFT
 62
2
 10
5386.081
 20
-7434.591
 30
509.000
 70
    32
  0
VERTEX
  8
M48LXLIFT
 62
2
 10
5384.159
 20
-7457.119
 30
509.000
 70
    32
  0
VERTEX
  8
M48LXLIFT
 62
2
 10
5384.864
 20
-7477.449
 30
509.000
 70
    32
  0
VERTEX
  8
M48LXLIFT
 62
2
 10
5366.145
 20
-7504.499
 30
509.000
 70
    32
  0
VERTEX
  8
M48LXLIFT
 62
2
 10
5352.164
 20
-7494.825
 30
509.000
 70
    32
  0
VERTEX
  8
M48LXLIFT
 62
2
 10
5343.099
 20
-7488.035
 30
509.000
 70
    32
  0
VERTEX
  8
M48LXLIFT
 62
2
 10
5344.851
 20
-7477.384
 30
509.000
 70
    32
  0
VERTEX
  8
M48LXLIFT
 62
2
 10
5361.018
 20
-7473.775
 30
509.000
 70
    32
  0
VERTEX
  8
M48LXLIFT
 62
2
 10
5354.933
 20
-7456.508
 30
509.000
 70
    32
  0
VERTEX
  8
M48LXLIFT
 62
2
 10
5353.150
 20
-7441.162
 30
509.000
 70
    32
  0
VERTEX
  8
M48LXLIFT
 62
2
 10
5359.179
 20
-7420.152
 30
509.000
 70
    32
  0
VERTEX
  8
M48LXLIFT
 62
2
 10
5368.008
 20
-7413.505
 30
509.000
 70
    32
  0
VERTEX
  8
M48LXLIFT
 62
2
 10
5387.607
 20
-7406.872
 30
509.000
 70
    32
  0
SEQEND
  8
M48LXLIFT
  0
POLYLINE
  8
M48LXLIFT
 62
2
 66
     1
 70
     9
  0
VERTEX
  8
M48LXLIFT
 62
2
 10
5371.022
 20
-7418.034
 30
498.000
 70
    32
  0
VERTEX
  8
M48LXLIFT
 62
2
 10
5383.263
 20
-7416.689
 30
498.000
 70
    32
  0
VERTEX
  8
M48LXLIFT
 62
2
 10
5388.827
 20
-7418.853
 30
498.000
 70
    32
  0
VERTEX
  8
M48LXLIFT
 62
2
 10
5389.738
 20
-7427.183
 30
498.000
 70
    32
  0
VERTEX
  8
M48LXLIFT
 62
2
 10
5386.078
 20
-7441.945
 30
498.000
 70
    32
  0
VERTEX
  8
M48LXLIFT
 62
2
 10
5385.363
 20
-7462.599
 30
498.000
 70
    32
  0
VERTEX
  8
M48LXLIFT
 62
2
 10
5379.309
 20
-7468.475
 30
498.000
 70
    32
  0
VERTEX
  8
M48LXLIFT
 62
2
 10
5365.987
 20
-7467.567
 30
498.000
 70
    32
  0
VERTEX
  8
M48LXLIFT
 62
2
 10
5355.432
 20
-7463.585
 30
498.000
 70
    32
  0
VERTEX
  8
M48LXLIFT
 62
2
 10
5350.603
 20
-7458.834
 30
498.000
 70
    32
  0
VERTEX
  8
M48LXLIFT
 62
2
 10
5355.085
 20
-7450.626
 30
498.000
 70
    32
  0
VERTEX
  8
M48LXLIFT
 62
2
 10
5358.166
 20
-7439.420
 30
498.000
 70
    32
  0
VERTEX
  8
M48LXLIFT
 62
2
 10
5362.092
 20
-7429.988
 30
498.000
 70
    32
  0
VERTEX
  8
M48LXLIFT
 62
2
 10
5364.432
 20
-7425.270
 30
498.000
 70
    32
  0
SEQEND
  8
M48LXLIFT
  0
POLYLINE
  8
M48LXLIFT
 62
2
 66
     1
 70
     9
  0
VERTEX
  8
M48LXLIFT
 62
2
 10
5382.670
 20
-7456.413
 30
489.000
 70
    32
  0
VERTEX
  8
M48LXLIFT
 62
2
 10
5373.081
 20
-7460.509
 30
489.000
 70
    32
  0
VERTEX
  8
M48LXLIFT
 62
2
 10
5365.200
 20
-7466.076
 30
489.000
 70
    32
  0
VERTEX
  8
M48LXLIFT
 62
2
 10
5361.780
 20
-7465.080
 30
489.000
 70
    32
  0
VERTEX
  8
M48LXLIFT
 62
2
 10
5356.352
 20
-7456.343
 30
489.000
 70
    32
  0
VERTEX
  8
M48LXLIFT
 62
2
 10
5357.635
 20
-7448.068
 30
489.000
 70
    32
  0
VERTEX
  8
M48LXLIFT
 62
2
 10
5360.589
 20
-7442.265
 30
489.000
 70
    32
  0
VERTEX
  8
M48LXLIFT
 62
2
 10
5360.192
 20
-7431.958
 30
489.000
 70
    32
  0
VERTEX
  8
M48LXLIFT
 62
2
 10
5368.937
 20
-7423.389
 30
489.000
 70
    32
  0
VERTEX
  8
M48LXLIFT
 62
2
 10
5380.864
 20
-7417.285
 30
489.000
 70
    32
  0
VERTEX
  8
M48LXLIFT
 62
2
 10
5387.162
 20
-7416.424
 30
489.000
 70
    32
  0
VERTEX
  8
M48LXLIFT
 62
2
 10
5391.133
 20
-7427.941
 30
489.000
 70
    32
  0
VERTEX
  8
M48LXLIFT
 62
2
 10
5387.607
 20
-7438.804
 30
489.000
 70
    32
  0
SEQEND
  8
M48LXLIFT
  0
POLYLINE
  8
M48LXLIFT
 62
2
 66
     1
 70
     9
  0
VERTEX
  8
M48LXLIFT
 62
2
 10
5397.367
 20
-7384.410
 30
460.000
 70
    32
  0
VERTEX
  8
M48LXLIFT
 62
2
 10
5392.028
 20
-7383.196
 30
460.000
 70
    32
  0
VERTEX
  8
M48LXLIFT
 62
2
 10
5389.577
 20
-7389.220
 30
460.000
 70
    32
  0
VERTEX
  8
M48LXLIFT
 62
2
 10
5388.149
 20
-7398.734
 30
460.000
 70
    32
  0
VERTEX
  8
M48LXLIFT
 62
2
 10
5384.967
 20
-7409.418
 30
460.000
 70
    32
  0
VERTEX
  8
M48LXLIFT
 62
2
 10
5381.733
 20
-7413.622
 30
460.000
 70
    32
  0
VERTEX
  8
M48LXLIFT
 62
2
 10
5377.209
 20
-7418.442
 30
460.000
 70
    32
  0
VERTEX
  8
M48LXLIFT
 62
2
 10
5381.220
 20
-7426.923
 30
460.000
 70
    32
  0
VERTEX
  8
M48LXLIFT
 62
2
 10
5386.962
 20
-7420.347
 30
460.000
 70
    32
  0
VERTEX
  8
M48LXLIFT
 62
2
 10
5394.360
 20
-7417.234
 30
460.000
 70
    32
  0
VERTEX
  8
M48LXLIFT
 62
2
 10
5392.083
 20
-7412.920
 30
460.000
 70
    32
  0
VERTEX
  8
M48LXLIFT
 62
2
 10
5394.166
 20
-7400.430
 30
460.000
 70
    32
  0
SEQEND
  8
M48LXLIFT
  0
POLYLINE
  8
M48LXLIFT
 62
2
 66
     1
 70
     9
  0
VERTEX
  8
M48LXLIFT
 62
2
 10
5351.219
 20
-7493.568
 30
519.000
 70
    32
  0
VERTEX
  8
M48LXLIFT
 62
2
 10
5360.206
 20
-7500.598
 30
519.000
 70
    32
  0
VERTEX
  8
M48LXLIFT
 62
2
 10
5368.043
 20
-7499.906
 30
519.000
 70
    32
  0
VERTEX
  8
M48LXLIFT
 62
2
 10
5375.727
 20
-7489.579
 30
519.000
 70
    32
  0
VERTEX
  8
M48LXLIFT
 62
2
 10
5381.860
 20
-7480.700
 30
519.000
 70
    32
  0
VERTEX
  8
M48LXLIFT
 62
2
 10
5381.156
 20
-7461.178
 30
519.000
 70
    32
  0
VERTEX
  8
M48LXLIFT
 62
2
 10
5383.434
 20
-7431.266
 30
519.000
 70
    32
  0
VERTEX
  8
M48LXLIFT
 62
2
 10
5387.971
 20
-7418.237
 30
519.000
 70
    32
  0
VERTEX
  8
M48LXLIFT
 62
2
 10
5382.007
 20
-7411.942
 30
519.000
 70
    32
  0
VERTEX
  8
M48LXLIFT
 62
2
 10
5371.761
 20
-7413.944
 30
519.000
 70
    32
  0
VERTEX
  8
M48LXLIFT
 62
2
 10
5362.393
 20
-7419.102
 30
519.000
 70
    32
  0
VERTEX
  8
M48LXLIFT
 62
2
 10
5360.924
 20
-7441.605
 30
519.000
 70
    32
  0
VERTEX
  8
M48LXLIFT
 62
2
 10
5357.220
 20
-7468.650
 30
519.000
 70
    32
  0
VERTEX
  8
M48LXLIFT
 62
2
 10
5356.522
 20
-7480.850
 30
519.000
 70
    32
  0
SEQEND
  8
M48LXLIFT
  0
POLYLINE
  8
M48LXLIFT
 62
2
 66
     1
 70
     9
  0
VERTEX
  8
M48LXLIFT
 62
2
 10
5377.403
 20
-7429.582
 30
472.000
 70
    32
  0
VERTEX
  8
M48LXLIFT
 62
2
 10
5375.188
 20
-7421.114
 30
472.000
 70
    32
  0
VERTEX
  8
M48LXLIFT
 62
2
 10
5384.389
 20
-7414.364
 30
472.000
 70
    32
  0
VERTEX
  8
M48LXLIFT
 62
2
 10
5391.947
 20
-7413.888
 30
472.000
 70
    32
  0
VERTEX
  8
M48LXLIFT
 62
2
 10
5396.966
 20
-7417.843
 30
472.000
 70
    32
  0
VERTEX
  8
M48LXLIFT
 62
2
 10
5396.066
 20
-7427.693
 30
472.000
 70
    32
  0
VERTEX
  8
M48LXLIFT
 62
2
 10
5393.625
 20
-7435.409
 30
472.000
 70
    32
  0
VERTEX
  8
M48LXLIFT
 62
2
 10
5386.964
 20
-7435.779
 30
472.000
 70
    32
  0
SEQEND
  8
M48LXLIFT
  0
POLYLINE
  8
M48LXLIFT
 62
2
 66
     1
 70
     9
  0
VERTEX
  8
M48LXLIFT
 62
2
 10
5369.805
 20
-7464.683
 30
465.000
 70
    32
  0
VERTEX
  8
M48LXLIFT
 62
2
 10
5378.511
 20
-7458.037
 30
465.000
 70
    32
  0
VERTEX
  8
M48LXLIFT
 62
2
 10
5389.346
 20
-7452.651
 30
465.000
 70
    32
  0
VERTEX
  8
M48LXLIFT
 62
2
 10
5402.032
 20
-7450.362
 30
465.000
 70
    32
  0
VERTEX
  8
M48LXLIFT
 62
2
 10
5406.495
 20
-7444.017
 30
465.000
 70
    32
  0
VERTEX
  8
M48LXLIFT
 62
2
 10
5411.846
 20
-7438.432
 30
465.000
 70
    32
  0
VERTEX
  8
M48LXLIFT
 62
2
 10
5406.544
 20
-7423.288
 30
465.000
 70
    32
  0
VERTEX
  8
M48LXLIFT
 62
2
 10
5399.068
 20
-7420.095
 30
465.000
 70
    32
  0
VERTEX
  8
M48LXLIFT
 62
2
 10
5390.252
 20
-7413.318
 30
465.000
 70
    32
  0
VERTEX
  8
M48LXLIFT
 62
2
 10
5379.577
 20
-7418.478
 30
465.000
 70
    32
  0
VERTEX
  8
M48LXLIFT
 62
2
 10
5373.329
 20
-7424.617
 30
465.000
 70
    32
  0
VERTEX
  8
M48LXLIFT
 62
2
 10
5373.665
 20
-7431.120
 30
465.000
 70
    32
  0
VERTEX
  8
M48LXLIFT
 62
2
 10
5371.062
 20
-7444.261
 30
465.000
 70
    32
  0
VERTEX
  8
M48LXLIFT
 62
2
 10
5365.920
 20
-7459.275
 30
465.000
 70
    32
  0
SEQEND
  8
M48LXLIFT
  0
POLYLINE
  8
M48LXLIFT
 62
2
 66
     1
 70
     9
  0
VERTEX
  8
M48LXLIFT
 62
2
 10
5411.061
 20
-7417.234
 30
427.000
 70
    32
  0
VERTEX
  8
M48LXLIFT
 62
2
 10
5405.026
 20
-7422.842
 30
427.000
 70
    32
  0
VERTEX
  8
M48LXLIFT
 62
2
 10
5401.738
 20
-7424.436
 30
427.000
 70
    32
  0
VERTEX
  8
M48LXLIFT
 62
2
 10
5397.642
 20
-7421.424
 30
427.000
 70
    32
  0
VERTEX
  8
M48LXLIFT
 62
2
 10
5392.290
 20
-7418.013
 30
427.000
 70
    32
  0
VERTEX
  8
M48LXLIFT
 62
2
 10
5394.362
 20
-7411.242
 30
427.000
 70
    32
  0
VERTEX
  8
M48LXLIFT
 62
2
 10
5402.695
 20
-7408.095
 30
427.000
 70
    32
  0
VERTEX
  8
M48LXLIFT
 62
2
 10
5405.800
 20
-7408.360
 30
427.000
 70
    32
  0
SEQEND
  8
M48LXLIFT
  0
POLYLINE
  8
M48LXLIFT
 62
8
 66
     1
 70
     9
  0
VERTEX
  8
M48LXLIFT
 62
8
 10
5477.910
 20
-7350.391
 30
398.000
 70
    32
  0
VERTEX
  8
M48LXLIFT
 62
8
 10
5486.334
 20
-7351.218
 30
398.000
 70
    32
  0
VERTEX
  8
M48LXLIFT
 62
8
 10
5497.471
 20
-7351.594
 30
398.000
 70
    32
  0
VERTEX
  8
M48LXLIFT
 62
8
 10
5504.383
 20
-7358.410
 30
398.000
 70
    32
  0
VERTEX
  8
M48LXLIFT
 62
8
 10
5513.988
 20
-7367.288
 30
398.000
 70
    32
  0
VERTEX
  8
M48LXLIFT
 62
8
 10
5520.007
 20
-7378.554
 30
398.000
 70
    32
  0
VERTEX
  8
M48LXLIFT
 62
8
 10
5526.801
 20
-7398.058
 30
398.000
 70
    32
  0
VERTEX
  8
M48LXLIFT
 62
8
 10
5537.296
 20
-7422.801
 30
398.000
 70
    32
  0
VERTEX
  8
M48LXLIFT
 62
8
 10
5543.251
 20
-7432.485
 30
398.000
 70
    32
  0
VERTEX
  8
M48LXLIFT
 62
8
 10
5552.810
 20
-7444.437
 30
398.000
 70
    32
  0
VERTEX
  8
M48LXLIFT
 62
8
 10
5558.448
 20
-7455.329
 30
398.000
 70
    32
  0
VERTEX
  8
M48LXLIFT
 62
8
 10
5560.973
 20
-7468.811
 30
398.000
 70
    32
  0
VERTEX
  8
M48LXLIFT
 62
8
 10
5562.678
 20
-7473.547
 30
398.000
 70
    32
  0
VERTEX
  8
M48LXLIFT
 62
8
 10
5549.823
 20
-7468.119
 30
398.000
 70
    32
  0
VERTEX
  8
M48LXLIFT
 62
8
 10
5544.165
 20
-7459.740
 30
398.000
 70
    32
  0
VERTEX
  8
M48LXLIFT
 62
8
 10
5534.522
 20
-7445.133
 30
398.000
 70
    32
  0
VERTEX
  8
M48LXLIFT
 62
8
 10
5526.564
 20
-7434.189
 30
398.000
 70
    32
  0
VERTEX
  8
M48LXLIFT
 62
8
 10
5505.810
 20
-7417.448
 30
398.000
 70
    32
  0
VERTEX
  8
M48LXLIFT
 62
8
 10
5501.516
 20
-7402.428
 30
398.000
 70
    32
  0
VERTEX
  8
M48LXLIFT
 62
8
 10
5495.800
 20
-7388.442
 30
398.000
 70
    32
  0
VERTEX
  8
M48LXLIFT
 62
8
 10
5490.001
 20
-7368.215
 30
398.000
 70
    32
  0
VERTEX
  8
M48LXLIFT
 62
8
 10
5484.957
 20
-7358.738
 30
398.000
 70
    32
  0
VERTEX
  8
M48LXLIFT
 62
8
 10
5477.238
 20
-7357.832
 30
398.000
 70
    32
  0
VERTEX
  8
M48LXLIFT
 62
8
 10
5468.129
 20
-7356.959
 30
398.000
 70
    32
  0
SEQEND
  8
M48LXLIFT
  0
POLYLINE
  8
M48LXLIFT
 62
13
 66
     1
 70
     9
  0
VERTEX
  8
M48LXLIFT
 62
13
 10
5429.732
 20
-7443.637
 30
420.000
 70
    32
  0
VERTEX
  8
M48LXLIFT
 62
13
 10
5435.122
 20
-7454.945
 30
420.000
 70
    32
  0
VERTEX
  8
M48LXLIFT
 62
13
 10
5430.562
 20
-7477.628
 30
420.000
 70
    32
  0
VERTEX
  8
M48LXLIFT
 62
13
 10
5434.294
 20
-7494.088
 30
420.000
 70
    32
  0
VERTEX
  8
M48LXLIFT
 62
13
 10
5448.353
 20
-7489.617
 30
420.000
 70
    32
  0
VERTEX
  8
M48LXLIFT
 62
13
 10
5453.693
 20
-7494.194
 30
420.000
 70
    32
  0
VERTEX
  8
M48LXLIFT
 62
13
 10
5457.344
 20
-7505.364
 30
420.000
 70
    32
  0
VERTEX
  8
M48LXLIFT
 62
13
 10
5448.187
 20
-7516.483
 30
420.000
 70
    32
  0
VERTEX
  8
M48LXLIFT
 62
13
 10
5440.404
 20
-7529.317
 30
420.000
 70
    32
  0
VERTEX
  8
M48LXLIFT
 62
13
 10
5437.538
 20
-7542.455
 30
420.000
 70
    32
  0
VERTEX
  8
M48LXLIFT
 62
13
 10
5433.937
 20
-7548.822
 30
420.000
 70
    32
  0
VERTEX
  8
M48LXLIFT
 62
13
 10
5422.809
 20
-7547.203
 30
420.000
 70
    32
  0
VERTEX
  8
M48LXLIFT
 62
13
 10
5410.546
 20
-7555.590
 30
420.000
 70
    32
  0
VERTEX
  8
M48LXLIFT
 62
13
 10
5401.074
 20
-7551.331
 30
420.000
 70
    32
  0
VERTEX
  8
M48LXLIFT
 62
13
 10
5390.170
 20
-7537.431
 30
420.000
 70
    32
  0
VERTEX
  8
M48LXLIFT
 62
13
 10
5382.602
 20
-7517.249
 30
420.000
 70
    32
  0
VERTEX
  8
M48LXLIFT
 62
13
 10
5386.719
 20
-7514.542
 30
420.000
 70
    32
  0
VERTEX
  8
M48LXLIFT
 62
13
 10
5400.198
 20
-7481.897
 30
420.000
 70
    32
  0
VERTEX
  8
M48LXLIFT
 62
13
 10
5404.547
 20
-7463.517
 30
420.000
 70
    32
  0
VERTEX
  8
M48LXLIFT
 62
13
 10
5404.213
 20
-7452.848
 30
420.000
 70
    32
  0
VERTEX
  8
M48LXLIFT
 62
13
 10
5416.947
 20
-7440.511
 30
420.000
 70
    32
  0
SEQEND
  8
M48LXLIFT
  0
POLYLINE
  8
M48LXLIFT
 62
13
 66
     1
 70
     9
  0
VERTEX
  8
M48LXLIFT
 62
13
 10
5443.913
 20
-7508.740
 30
461.000
 70
    32
  0
VERTEX
  8
M48LXLIFT
 62
13
 10
5437.900
 20
-7499.003
 30
461.000
 70
    32
  0
VERTEX
  8
M48LXLIFT
 62
13
 10
5438.146
 20
-7488.613
 30
461.000
 70
    32
  0
VERTEX
  8
M48LXLIFT
 62
13
 10
5439.304
 20
-7480.816
 30
461.000
 70
    32
  0
VERTEX
  8
M48LXLIFT
 62
13
 10
5435.586
 20
-7468.862
 30
461.000
 70
    32
  0
VERTEX
  8
M48LXLIFT
 62
13
 10
5431.629
 20
-7451.218
 30
461.000
 70
    32
  0
VERTEX
  8
M48LXLIFT
 62
13
 10
5430.013
 20
-7443.489
 30
461.000
 70
    32
  0
VERTEX
  8
M48LXLIFT
 62
13
 10
5424.172
 20
-7443.076
 30
461.000
 70
    32
  0
VERTEX
  8
M48LXLIFT
 62
13
 10
5414.549
 20
-7447.159
 30
461.000
 70
    32
  0
VERTEX
  8
M48LXLIFT
 62
13
 10
5400.370
 20
-7451.848
 30
461.000
 70
    32
  0
VERTEX
  8
M48LXLIFT
 62
13
 10
5390.451
 20
-7462.230
 30
461.000
 70
    32
  0
VERTEX
  8
M48LXLIFT
 62
13
 10
5381.985
 20
-7479.374
 30
461.000
 70
    32
  0
VERTEX
  8
M48LXLIFT
 62
13
 10
5369.144
 20
-7501.988
 30
461.000
 70
    32
  0
VERTEX
  8
M48LXLIFT
 62
13
 10
5366.941
 20
-7520.866
 30
461.000
 70
    32
  0
VERTEX
  8
M48LXLIFT
 62
13
 10
5374.127
 20
-7524.317
 30
461.000
 70
    32
  0
VERTEX
  8
M48LXLIFT
 62
13
 10
5388.639
 20
-7523.512
 30
461.000
 70
    32
  0
VERTEX
  8
M48LXLIFT
 62
13
 10
5417.551
 20
-7530.241
 30
461.000
 70
    32
  0
VERTEX
  8
M48LXLIFT
 62
13
 10
5437.174
 20
-7534.509
 30
461.000
 70
    32
  0
VERTEX
  8
M48LXLIFT
 62
13
 10
5445.976
 20
-7523.638
 30
461.000
 70
    32
  0
SEQEND
  8
M48LXLIFT
  0
POLYLINE
  8
M48LXLIFT
 62
13
 66
     1
 70
     9
  0
VERTEX
  8
M48LXLIFT
 62
13
 10
5441.578
 20
-7508.785
 30
482.000
 70
    32
  0
VERTEX
  8
M48LXLIFT
 62
13
 10
5436.141
 20
-7503.188
 30
482.000
 70
    32
  0
VERTEX
  8
M48LXLIFT
 62
13
 10
5435.906
 20
-7495.358
 30
482.000
 70
    32
  0
VERTEX
  8
M48LXLIFT
 62
13
 10
5444.338
 20
-7484.853
 30
482.000
 70
    32
  0
VERTEX
  8
M48LXLIFT
 62
13
 10
5445.228
 20
-7477.834
 30
482.000
 70
    32
  0
VERTEX
  8
M48LXLIFT
 62
13
 10
5428.937
 20
-7465.571
 30
482.000
 70
    32
  0
VERTEX
  8
M48LXLIFT
 62
13
 10
5415.855
 20
-7457.913
 30
482.000
 70
    32
  0
VERTEX
  8
M48LXLIFT
 62
13
 10
5402.934
 20
-7457.383
 30
482.000
 70
    32
  0
VERTEX
  8
M48LXLIFT
 62
13
 10
5390.695
 20
-7464.253
 30
482.000
 70
    32
  0
VERTEX
  8
M48LXLIFT
 62
13
 10
5372.321
 20
-7479.865
 30
482.000
 70
    32
  0
VERTEX
  8
M48LXLIFT
 62
13
 10
5356.506
 20
-7492.877
 30
482.000
 70
    32
  0
VERTEX
  8
M48LXLIFT
 62
13
 10
5351.397
 20
-7505.744
 30
482.000
 70
    32
  0
VERTEX
  8
M48LXLIFT
 62
13
 10
5353.801
 20
-7512.985
 30
482.000
 70
    32
  0
VERTEX
  8
M48LXLIFT
 62
13
 10
5374.986
 20
-7517.184
 30
482.000
 70
    32
  0
VERTEX
  8
M48LXLIFT
 62
13
 10
5400.959
 20
-7517.826
 30
482.000
 70
    32
  0
VERTEX
  8
M48LXLIFT
 62
13
 10
5421.902
 20
-7520.038
 30
482.000
 70
    32
  0
VERTEX
  8
M48LXLIFT
 62
13
 10
5434.412
 20
-7514.595
 30
482.000
 70
    32
  0
SEQEND
  8
M48LXLIFT
  0
POLYLINE
  8
M48LXLIFT
 62
13
 66
     1
 70
     9
  0
VERTEX
  8
M48LXLIFT
 62
13
 10
5437.523
 20
-7507.210
 30
492.000
 70
    32
  0
VERTEX
  8
M48LXLIFT
 62
13
 10
5425.298
 20
-7517.747
 30
492.000
 70
    32
  0
VERTEX
  8
M48LXLIFT
 62
13
 10
5420.253
 20
-7517.808
 30
492.000
 70
    32
  0
VERTEX
  8
M48LXLIFT
 62
13
 10
5415.216
 20
-7512.016
 30
492.000
 70
    32
  0
VERTEX
  8
M48LXLIFT
 62
13
 10
5407.170
 20
-7507.309
 30
492.000
 70
    32
  0
VERTEX
  8
M48LXLIFT
 62
13
 10
5396.438
 20
-7507.892
 30
492.000
 70
    32
  0
VERTEX
  8
M48LXLIFT
 62
13
 10
5386.699
 20
-7508.952
 30
492.000
 70
    32
  0
VERTEX
  8
M48LXLIFT
 62
13
 10
5374.729
 20
-7506.313
 30
492.000
 70
    32
  0
VERTEX
  8
M48LXLIFT
 62
13
 10
5365.802
 20
-7503.539
 30
492.000
 70
    32
  0
VERTEX
  8
M48LXLIFT
 62
13
 10
5356.447
 20
-7501.074
 30
492.000
 70
    32
  0
VERTEX
  8
M48LXLIFT
 62
13
 10
5353.343
 20
-7493.457
 30
492.000
 70
    32
  0
VERTEX
  8
M48LXLIFT
 62
13
 10
5359.624
 20
-7483.086
 30
492.000
 70
    32
  0
VERTEX
  8
M48LXLIFT
 62
13
 10
5374.045
 20
-7475.298
 30
492.000
 70
    32
  0
VERTEX
  8
M48LXLIFT
 62
13
 10
5385.073
 20
-7469.413
 30
492.000
 70
    32
  0
VERTEX
  8
M48LXLIFT
 62
13
 10
5400.130
 20
-7462.358
 30
492.000
 70
    32
  0
VERTEX
  8
M48LXLIFT
 62
13
 10
5407.066
 20
-7459.961
 30
492.000
 70
    32
  0
VERTEX
  8
M48LXLIFT
 62
13
 10
5415.123
 20
-7459.572
 30
492.000
 70
    32
  0
VERTEX
  8
M48LXLIFT
 62
13
 10
5424.862
 20
-7461.219
 30
492.000
 70
    32
  0
VERTEX
  8
M48LXLIFT
 62
13
 10
5435.454
 20
-7461.494
 30
492.000
 70
    32
  0
VERTEX
  8
M48LXLIFT
 62
13
 10
5443.224
 20
-7468.674
 30
492.000
 70
    32
  0
VERTEX
  8
M48LXLIFT
 62
13
 10
5442.367
 20
-7479.360
 30
492.000
 70
    32
  0
VERTEX
  8
M48LXLIFT
 62
13
 10
5437.304
 20
-7490.370
 30
492.000
 70
    32
  0
VERTEX
  8
M48LXLIFT
 62
13
 10
5433.489
 20
-7496.799
 30
492.000
 70
    32
  0
SEQEND
  8
M48LXLIFT
  0
POLYLINE
  8
M48LXLIFT
 62
13
 66
     1
 70
     9
  0
VERTEX
  8
M48LXLIFT
 62
13
 10
5417.694
 20
-7548.764
 30
398.000
 70
    32
  0
VERTEX
  8
M48LXLIFT
 62
13
 10
5425.621
 20
-7548.758
 30
398.000
 70
    32
  0
VERTEX
  8
M48LXLIFT
 62
13
 10
5436.338
 20
-7550.200
 30
398.000
 70
    32
  0
VERTEX
  8
M48LXLIFT
 62
13
 10
5442.830
 20
-7549.716
 30
398.000
 70
    32
  0
VERTEX
  8
M48LXLIFT
 62
13
 10
5453.975
 20
-7540.092
 30
398.000
 70
    32
  0
VERTEX
  8
M48LXLIFT
 62
13
 10
5455.184
 20
-7532.043
 30
398.000
 70
    32
  0
VERTEX
  8
M48LXLIFT
 62
13
 10
5459.248
 20
-7525.829
 30
398.000
 70
    32
  0
VERTEX
  8
M48LXLIFT
 62
13
 10
5467.899
 20
-7514.867
 30
398.000
 70
    32
  0
VERTEX
  8
M48LXLIFT
 62
13
 10
5469.579
 20
-7511.799
 30
398.000
 70
    32
  0
VERTEX
  8
M48LXLIFT
 62
13
 10
5459.031
 20
-7501.326
 30
398.000
 70
    32
  0
VERTEX
  8
M48LXLIFT
 62
13
 10
5452.403
 20
-7494.304
 30
398.000
 70
    32
  0
VERTEX
  8
M48LXLIFT
 62
13
 10
5448.064
 20
-7478.773
 30
398.000
 70
    32
  0
VERTEX
  8
M48LXLIFT
 62
13
 10
5441.825
 20
-7465.710
 30
398.000
 70
    32
  0
VERTEX
  8
M48LXLIFT
 62
13
 10
5433.368
 20
-7473.055
 30
398.000
 70
    32
  0
VERTEX
  8
M48LXLIFT
 62
13
 10
5423.684
 20
-7481.400
 30
398.000
 70
    32
  0
VERTEX
  8
M48LXLIFT
 62
13
 10
5419.806
 20
-7493.996
 30
398.000
 70
    32
  0
VERTEX
  8
M48LXLIFT
 62
13
 10
5416.555
 20
-7511.787
 30
398.000
 70
    32
  0
VERTEX
  8
M48LXLIFT
 62
13
 10
5416.218
 20
-7522.678
 30
398.000
 70
    32
  0
VERTEX
  8
M48LXLIFT
 62
13
 10
5421.792
 20
-7530.793
 30
398.000
 70
    32
  0
VERTEX
  8
M48LXLIFT
 62
13
 10
5422.722
 20
-7533.267
 30
398.000
 70
    32
  0
VERTEX
  8
M48LXLIFT
 62
13
 10
5413.283
 20
-7540.456
 30
398.000
 70
    32
  0
SEQEND
  8
M48LXLIFT
  0
POLYLINE
  8
M48LXLIFT
 62
13
 66
     1
 70
     9
  0
VERTEX
  8
M48LXLIFT
 62
13
 10
5445.507
 20
-7513.664
 30
472.000
 70
    32
  0
VERTEX
  8
M48LXLIFT
 62
13
 10
5440.995
 20
-7519.501
 30
472.000
 70
    32
  0
VERTEX
  8
M48LXLIFT
 62
13
 10
5432.246
 20
-7520.189
 30
472.000
 70
    32
  0
VERTEX
  8
M48LXLIFT
 62
13
 10
5425.820
 20
-7517.092
 30
472.000
 70
    32
  0
VERTEX
  8
M48LXLIFT
 62
13
 10
5419.128
 20
-7521.598
 30
472.000
 70
    32
  0
VERTEX
  8
M48LXLIFT
 62
13
 10
5407.618
 20
-7523.562
 30
472.000
 70
    32
  0
VERTEX
  8
M48LXLIFT
 62
13
 10
5393.374
 20
-7523.298
 30
472.000
 70
    32
  0
VERTEX
  8
M48LXLIFT
 62
13
 10
5381.628
 20
-7519.338
 30
472.000
 70
    32
  0
VERTEX
  8
M48LXLIFT
 62
13
 10
5371.762
 20
-7517.039
 30
472.000
 70
    32
  0
VERTEX
  8
M48LXLIFT
 62
13
 10
5360.500
 20
-7502.376
 30
472.000
 70
    32
  0
VERTEX
  8
M48LXLIFT
 62
13
 10
5365.248
 20
-7488.305
 30
472.000
 70
    32
  0
VERTEX
  8
M48LXLIFT
 62
13
 10
5377.182
 20
-7476.444
 30
472.000
 70
    32
  0
VERTEX
  8
M48LXLIFT
 62
13
 10
5388.982
 20
-7463.810
 30
472.000
 70
    32
  0
VERTEX
  8
M48LXLIFT
 62
13
 10
5406.740
 20
-7451.133
 30
472.000
 70
    32
  0
VERTEX
  8
M48LXLIFT
 62
13
 10
5418.745
 20
-7450.872
 30
472.000
 70
    32
  0
VERTEX
  8
M48LXLIFT
 62
13
 10
5431.963
 20
-7464.201
 30
472.000
 70
    32
  0
VERTEX
  8
M48LXLIFT
 62
13
 10
5446.590
 20
-7483.568
 30
472.000
 70
    32
  0
VERTEX
  8
M48LXLIFT
 62
13
 10
5438.864
 20
-7497.441
 30
472.000
 70
    32
  0
VERTEX
  8
M48LXLIFT
 62
13
 10
5440.457
 20
-7504.760
 30
472.000
 70
    32
  0
SEQEND
  8
M48LXLIFT
  0
POLYLINE
  8
M48LXLIFT
 62
13
 66
     1
 70
     9
  0
VERTEX
  8
M48LXLIFT
 62
13
 10
5403.284
 20
-7495.187
 30
512.000
 70
    32
  0
VERTEX
  8
M48LXLIFT
 62
13
 10
5408.654
 20
-7507.542
 30
512.000
 70
    32
  0
VERTEX
  8
M48LXLIFT
 62
13
 10
5415.732
 20
-7517.470
 30
512.000
 70
    32
  0
VERTEX
  8
M48LXLIFT
 62
13
 10
5422.919
 20
-7518.872
 30
512.000
 70
    32
  0
VERTEX
  8
M48LXLIFT
 62
13
 10
5425.799
 20
-7511.482
 30
512.000
 70
    32
  0
VERTEX
  8
M48LXLIFT
 62
13
 10
5433.021
 20
-7511.885
 30
512.000
 70
    32
  0
VERTEX
  8
M48LXLIFT
 62
13
 10
5432.845
 20
-7506.706
 30
512.000
 70
    32
  0
VERTEX
  8
M48LXLIFT
 62
13
 10
5428.089
 20
-7502.678
 30
512.000
 70
    32
  0
VERTEX
  8
M48LXLIFT
 62
13
 10
5432.615
 20
-7494.420
 30
512.000
 70
    32
  0
VERTEX
  8
M48LXLIFT
 62
13
 10
5438.217
 20
-7483.760
 30
512.000
 70
    32
  0
VERTEX
  8
M48LXLIFT
 62
13
 10
5436.033
 20
-7473.862
 30
512.000
 70
    32
  0
VERTEX
  8
M48LXLIFT
 62
13
 10
5429.332
 20
-7468.643
 30
512.000
 70
    32
  0
VERTEX
  8
M48LXLIFT
 62
13
 10
5422.814
 20
-7473.252
 30
512.000
 70
    32
  0
VERTEX
  8
M48LXLIFT
 62
13
 10
5418.090
 20
-7480.787
 30
512.000
 70
    32
  0
SEQEND
  8
M48LXLIFT
  0
POLYLINE
  8
M48LXLIFT
 62
13
 66
     1
 70
     9
  0
VERTEX
  8
M48LXLIFT
 62
13
 10
5365.778
 20
-7504.885
 30
502.000
 70
    32
  0
VERTEX
  8
M48LXLIFT
 62
13
 10
5378.012
 20
-7508.739
 30
502.000
 70
    32
  0
VERTEX
  8
M48LXLIFT
 62
13
 10
5390.314
 20
-7511.663
 30
502.000
 70
    32
  0
VERTEX
  8
M48LXLIFT
 62
13
 10
5399.905
 20
-7508.943
 30
502.000
 70
    32
  0
VERTEX
  8
M48LXLIFT
 62
13
 10
5411.562
 20
-7513.780
 30
502.000
 70
    32
  0
VERTEX
  8
M48LXLIFT
 62
13
 10
5418.992
 20
-7519.274
 30
502.000
 70
    32
  0
VERTEX
  8
M48LXLIFT
 62
13
 10
5430.750
 20
-7512.288
 30
502.000
 70
    32
  0
VERTEX
  8
M48LXLIFT
 62
13
 10
5431.566
 20
-7498.498
 30
502.000
 70
    32
  0
VERTEX
  8
M48LXLIFT
 62
13
 10
5434.960
 20
-7475.301
 30
502.000
 70
    32
  0
VERTEX
  8
M48LXLIFT
 62
13
 10
5430.017
 20
-7468.153
 30
502.000
 70
    32
  0
VERTEX
  8
M48LXLIFT
 62
13
 10
5421.634
 20
-7478.309
 30
502.000
 70
    32
  0
VERTEX
  8
M48LXLIFT
 62
13
 10
5407.033
 20
-7475.249
 30
502.000
 70
    32
  0
VERTEX
  8
M48LXLIFT
 62
13
 10
5394.774
 20
-7476.465
 30
502.000
 70
    32
  0
VERTEX
  8
M48LXLIFT
 62
13
 10
5384.673
 20
-7478.361
 30
502.000
 70
    32
  0
VERTEX
  8
M48LXLIFT
 62
13
 10
5376.453
 20
-7491.358
 30
502.000
 70
    32
  0
SEQEND
  8
M48LXLIFT
  0
POLYLINE
  8
M48LXLIFT
 62
13
 66
     1
 70
     9
  0
VERTEX
  8
M48LXLIFT
 62
13
 10
5390.397
 20
-7538.683
 30
431.000
 70
    32
  0
VERTEX
  8
M48LXLIFT
 62
13
 10
5410.936
 20
-7543.552
 30
431.000
 70
    32
  0
VERTEX
  8
M48LXLIFT
 62
13
 10
5432.792
 20
-7534.847
 30
431.000
 70
    32
  0
VERTEX
  8
M48LXLIFT
 62
13
 10
5437.765
 20
-7531.833
 30
431.000
 70
    32
  0
VERTEX
  8
M48LXLIFT
 62
13
 10
5444.084
 20
-7512.417
 30
431.000
 70
    32
  0
VERTEX
  8
M48LXLIFT
 62
13
 10
5452.385
 20
-7493.961
 30
431.000
 70
    32
  0
VERTEX
  8
M48LXLIFT
 62
13
 10
5447.676
 20
-7487.067
 30
431.000
 70
    32
  0
VERTEX
  8
M48LXLIFT
 62
13
 10
5434.940
 20
-7489.796
 30
431.000
 70
    32
  0
VERTEX
  8
M48LXLIFT
 62
13
 10
5424.194
 20
-7478.686
 30
431.000
 70
    32
  0
VERTEX
  8
M48LXLIFT
 62
13
 10
5419.658
 20
-7465.838
 30
431.000
 70
    32
  0
VERTEX
  8
M48LXLIFT
 62
13
 10
5426.477
 20
-7446.820
 30
431.000
 70
    32
  0
VERTEX
  8
M48LXLIFT
 62
13
 10
5422.789
 20
-7437.577
 30
431.000
 70
    32
  0
VERTEX
  8
M48LXLIFT
 62
13
 10
5417.621
 20
-7436.087
 30
431.000
 70
    32
  0
VERTEX
  8
M48LXLIFT
 62
13
 10
5403.619
 20
-7435.834
 30
431.000
 70
    32
  0
VERTEX
  8
M48LXLIFT
 62
13
 10
5399.482
 20
-7437.601
 30
431.000
 70
    32
  0
VERTEX
  8
M48LXLIFT
 62
13
 10
5395.136
 20
-7465.974
 30
431.000
 70
    32
  0
VERTEX
  8
M48LXLIFT
 62
13
 10
5387.172
 20
-7488.077
 30
431.000
 70
    32
  0
VERTEX
  8
M48LXLIFT
 62
13
 10
5384.959
 20
-7507.043
 30
431.000
 70
    32
  0
VERTEX
  8
M48LXLIFT
 62
13
 10
5388.811
 20
-7522.107
 30
431.000
 70
    32
  0
SEQEND
  8
M48LXLIFT
  0
POLYLINE
  8
M48LXLIFT
 62
13
 66
     1
 70
     9
  0
VERTEX
  8
M48LXLIFT
 62
13
 10
5418.310
 20
-7553.994
 30
408.000
 70
    32
  0
VERTEX
  8
M48LXLIFT
 62
13
 10
5431.093
 20
-7550.000
 30
408.000
 70
    32
  0
VERTEX
  8
M48LXLIFT
 62
13
 10
5444.520
 20
-7538.754
 30
408.000
 70
    32
  0
VERTEX
  8
M48LXLIFT
 62
13
 10
5451.731
 20
-7521.616
 30
408.000
 70
    32
  0
VERTEX
  8
M48LXLIFT
 62
13
 10
5452.471
 20
-7502.379
 30
408.000
 70
    32
  0
VERTEX
  8
M48LXLIFT
 62
13
 10
5450.527
 20
-7490.594
 30
408.000
 70
    32
  0
VERTEX
  8
M48LXLIFT
 62
13
 10
5441.951
 20
-7479.890
 30
408.000
 70
    32
  0
VERTEX
  8
M48LXLIFT
 62
13
 10
5434.657
 20
-7463.975
 30
408.000
 70
    32
  0
VERTEX
  8
M48LXLIFT
 62
13
 10
5428.258
 20
-7456.360
 30
408.000
 70
    32
  0
VERTEX
  8
M48LXLIFT
 62
13
 10
5418.002
 20
-7452.691
 30
408.000
 70
    32
  0
VERTEX
  8
M48LXLIFT
 62
13
 10
5412.362
 20
-7458.067
 30
408.000
 70
    32
  0
VERTEX
  8
M48LXLIFT
 62
13
 10
5410.802
 20
-7471.024
 30
408.000
 70
    32
  0
VERTEX
  8
M48LXLIFT
 62
13
 10
5412.667
 20
-7484.180
 30
408.000
 70
    32
  0
VERTEX
  8
M48LXLIFT
 62
13
 10
5413.359
 20
-7499.296
 30
408.000
 70
    32
  0
VERTEX
  8
M48LXLIFT
 62
13
 10
5411.424
 20
-7513.077
 30
408.000
 70
    32
  0
VERTEX
  8
M48LXLIFT
 62
13
 10
5406.832
 20
-7524.891
 30
408.000
 70
    32
  0
VERTEX
  8
M48LXLIFT
 62
13
 10
5407.244
 20
-7539.776
 30
408.000
 70
    32
  0
VERTEX
  8
M48LXLIFT
 62
13
 10
5412.012
 20
-7546.959
 30
408.000
 70
    32
  0
SEQEND
  8
M48LXLIFT
  0
POLYLINE
  8
M48LXLIFT
 62
13
 66
     1
 70
     9
  0
VERTEX
  8
M48LXLIFT
 62
13
 10
5435.486
 20
-7544.471
 30
451.000
 70
    32
  0
VERTEX
  8
M48LXLIFT
 62
13
 10
5431.638
 20
-7536.517
 30
451.000
 70
    32
  0
VERTEX
  8
M48LXLIFT
 62
13
 10
5424.817
 20
-7534.320
 30
451.000
 70
    32
  0
VERTEX
  8
M48LXLIFT
 62
13
 10
5412.605
 20
-7536.057
 30
451.000
 70
    32
  0
VERTEX
  8
M48LXLIFT
 62
13
 10
5402.409
 20
-7535.344
 30
451.000
 70
    32
  0
VERTEX
  8
M48LXLIFT
 62
13
 10
5391.006
 20
-7530.294
 30
451.000
 70
    32
  0
VERTEX
  8
M48LXLIFT
 62
13
 10
5382.135
 20
-7526.332
 30
451.000
 70
    32
  0
VERTEX
  8
M48LXLIFT
 62
13
 10
5373.677
 20
-7521.742
 30
451.000
 70
    32
  0
VERTEX
  8
M48LXLIFT
 62
13
 10
5373.796
 20
-7511.328
 30
451.000
 70
    32
  0
VERTEX
  8
M48LXLIFT
 62
13
 10
5377.254
 20
-7494.020
 30
451.000
 70
    32
  0
VERTEX
  8
M48LXLIFT
 62
13
 10
5385.271
 20
-7477.299
 30
451.000
 70
    32
  0
VERTEX
  8
M48LXLIFT
 62
13
 10
5385.754
 20
-7476.620
 30
451.000
 70
    32
  0
VERTEX
  8
M48LXLIFT
 62
13
 10
5389.928
 20
-7462.378
 30
451.000
 70
    32
  0
VERTEX
  8
M48LXLIFT
 62
13
 10
5401.240
 20
-7451.514
 30
451.000
 70
    32
  0
VERTEX
  8
M48LXLIFT
 62
13
 10
5411.652
 20
-7446.416
 30
451.000
 70
    32
  0
VERTEX
  8
M48LXLIFT
 62
13
 10
5421.725
 20
-7447.110
 30
451.000
 70
    32
  0
VERTEX
  8
M48LXLIFT
 62
13
 10
5435.055
 20
-7461.950
 30
451.000
 70
    32
  0
VERTEX
  8
M48LXLIFT
 62
13
 10
5447.536
 20
-7478.606
 30
451.000
 70
    32
  0
VERTEX
  8
M48LXLIFT
 62
13
 10
5447.657
 20
-7493.519
 30
451.000
 70
    32
  0
VERTEX
  8
M48LXLIFT
 62
13
 10
5446.280
 20
-7504.742
 30
451.000
 70
    32
  0
VERTEX
  8
M48LXLIFT
 62
13
 10
5454.455
 20
-7513.561
 30
451.000
 70
    32
  0
VERTEX
  8
M48LXLIFT
 62
13
 10
5459.944
 20
-7522.274
 30
451.000
 70
    32
  0
VERTEX
  8
M48LXLIFT
 62
13
 10
5456.238
 20
-7530.305
 30
451.000
 70
    32
  0
VERTEX
  8
M48LXLIFT
 62
13
 10
5445.700
 20
-7532.995
 30
451.000
 70
    32
  0
VERTEX
  8
M48LXLIFT
 62
13
 10
5441.963
 20
-7538.004
 30
451.000
 70
    32
  0
SEQEND
  8
M48LXLIFT
  0
POLYLINE
  8
M48LXLIFT
 62
13
 66
     1
 70
     9
  0
VERTEX
  8
M48LXLIFT
 62
13
 10
5401.460
 20
-7438.082
 30
441.000
 70
    32
  0
VERTEX
  8
M48LXLIFT
 62
13
 10
5398.716
 20
-7446.076
 30
441.000
 70
    32
  0
VERTEX
  8
M48LXLIFT
 62
13
 10
5390.355
 20
-7453.829
 30
441.000
 70
    32
  0
VERTEX
  8
M48LXLIFT
 62
13
 10
5391.625
 20
-7465.522
 30
441.000
 70
    32
  0
VERTEX
  8
M48LXLIFT
 62
13
 10
5386.623
 20
-7475.931
 30
441.000
 70
    32
  0
VERTEX
  8
M48LXLIFT
 62
13
 10
5381.142
 20
-7482.119
 30
441.000
 70
    32
  0
VERTEX
  8
M48LXLIFT
 62
13
 10
5383.358
 20
-7503.130
 30
441.000
 70
    32
  0
VERTEX
  8
M48LXLIFT
 62
13
 10
5373.670
 20
-7517.840
 30
441.000
 70
    32
  0
VERTEX
  8
M48LXLIFT
 62
13
 10
5379.748
 20
-7525.251
 30
441.000
 70
    32
  0
VERTEX
  8
M48LXLIFT
 62
13
 10
5391.002
 20
-7530.070
 30
441.000
 70
    32
  0
VERTEX
  8
M48LXLIFT
 62
13
 10
5409.088
 20
-7537.830
 30
441.000
 70
    32
  0
VERTEX
  8
M48LXLIFT
 62
13
 10
5420.711
 20
-7541.072
 30
441.000
 70
    32
  0
VERTEX
  8
M48LXLIFT
 62
13
 10
5428.404
 20
-7536.420
 30
441.000
 70
    32
  0
VERTEX
  8
M48LXLIFT
 62
13
 10
5436.883
 20
-7539.679
 30
441.000
 70
    32
  0
VERTEX
  8
M48LXLIFT
 62
13
 10
5442.496
 20
-7538.725
 30
441.000
 70
    32
  0
VERTEX
  8
M48LXLIFT
 62
13
 10
5447.008
 20
-7534.334
 30
441.000
 70
    32
  0
VERTEX
  8
M48LXLIFT
 62
13
 10
5454.862
 20
-7533.916
 30
441.000
 70
    32
  0
VERTEX
  8
M48LXLIFT
 62
13
 10
5464.904
 20
-7531.134
 30
441.000
 70
    32
  0
VERTEX
  8
M48LXLIFT
 62
13
 10
5465.894
 20
-7527.581
 30
441.000
 70
    32
  0
VERTEX
  8
M48LXLIFT
 62
13
 10
5454.378
 20
-7513.487
 30
441.000
 70
    32
  0
VERTEX
  8
M48LXLIFT
 62
13
 10
5449.289
 20
-7491.968
 30
441.000
 70
    32
  0
VERTEX
  8
M48LXLIFT
 62
13
 10
5440.320
 20
-7462.625
 30
441.000
 70
    32
  0
VERTEX
  8
M48LXLIFT
 62
13
 10
5436.857
 20
-7455.368
 30
441.000
 70
    32
  0
VERTEX
  8
M48LXLIFT
 62
13
 10
5423.591
 20
-7440.814
 30
441.000
 70
    32
  0
VERTEX
  8
M48LXLIFT
 62
13
 10
5418.033
 20
-7436.939
 30
441.000
 70
    32
  0
VERTEX
  8
M48LXLIFT
 62
13
 10
5408.573
 20
-7437.989
 30
441.000
 70
    32
  0
SEQEND
  8
M48LXLIFT
  0
POLYLINE
  8
M48LXLIFT
 62
13
 66
     1
 70
     9
  0
VERTEX
  8
M48LXLIFT
 62
13
 10
5415.036
 20
-7502.310
 30
387.000
 70
    32
  0
VERTEX
  8
M48LXLIFT
 62
13
 10
5423.413
 20
-7514.792
 30
387.000
 70
    32
  0
VERTEX
  8
M48LXLIFT
 62
13
 10
5438.284
 20
-7534.266
 30
387.000
 70
    32
  0
VERTEX
  8
M48LXLIFT
 62
13
 10
5464.283
 20
-7539.261
 30
387.000
 70
    32
  0
VERTEX
  8
M48LXLIFT
 62
13
 10
5472.965
 20
-7531.951
 30
387.000
 70
    32
  0
VERTEX
  8
M48LXLIFT
 62
13
 10
5478.493
 20
-7523.482
 30
387.000
 70
    32
  0
VERTEX
  8
M48LXLIFT
 62
13
 10
5472.897
 20
-7503.692
 30
387.000
 70
    32
  0
VERTEX
  8
M48LXLIFT
 62
13
 10
5461.946
 20
-7480.658
 30
387.000
 70
    32
  0
VERTEX
  8
M48LXLIFT
 62
13
 10
5457.306
 20
-7475.135
 30
387.000
 70
    32
  0
VERTEX
  8
M48LXLIFT
 62
13
 10
5441.672
 20
-7484.864
 30
387.000
 70
    32
  0
VERTEX
  8
M48LXLIFT
 62
13
 10
5426.847
 20
-7494.650
 30
387.000
 70
    32
  0
SEQEND
  8
M48LXLIFT
  0
POLYLINE
  8
M48LXLIFT
 62
3
 66
     1
 70
     9
  0
VERTEX
  8
M48LXLIFT
 62
3
 10
5495.657
 20
-7569.462
 30
416.000
 70
    32
  0
VERTEX
  8
M48LXLIFT
 62
3
 10
5497.610
 20
-7577.736
 30
416.000
 70
    32
  0
VERTEX
  8
M48LXLIFT
 62
3
 10
5501.379
 20
-7583.144
 30
416.000
 70
    32
  0
VERTEX
  8
M48LXLIFT
 62
3
 10
5504.697
 20
-7596.526
 30
416.000
 70
    32
  0
VERTEX
  8
M48LXLIFT
 62
3
 10
5510.580
 20
-7609.981
 30
416.000
 70
    32
  0
VERTEX
  8
M48LXLIFT
 62
3
 10
5518.476
 20
-7622.170
 30
416.000
 70
    32
  0
VERTEX
  8
M48LXLIFT
 62
3
 10
5525.880
 20
-7632.211
 30
416.000
 70
    32
  0
VERTEX
  8
M48LXLIFT
 62
3
 10
5534.127
 20
-7637.918
 30
416.000
 70
    32
  0
VERTEX
  8
M48LXLIFT
 62
3
 10
5541.738
 20
-7644.095
 30
416.000
 70
    32
  0
VERTEX
  8
M48LXLIFT
 62
3
 10
5542.780
 20
-7652.169
 30
416.000
 70
    32
  0
VERTEX
  8
M48LXLIFT
 62
3
 10
5540.534
 20
-7660.375
 30
416.000
 70
    32
  0
VERTEX
  8
M48LXLIFT
 62
3
 10
5544.916
 20
-7672.535
 30
416.000
 70
    32
  0
VERTEX
  8
M48LXLIFT
 62
3
 10
5549.788
 20
-7680.623
 30
416.000
 70
    32
  0
VERTEX
  8
M48LXLIFT
 62
3
 10
5558.698
 20
-7686.933
 30
416.000
 70
    32
  0
VERTEX
  8
M48LXLIFT
 62
3
 10
5563.376
 20
-7692.981
 30
416.000
 70
    32
  0
VERTEX
  8
M48LXLIFT
 62
3
 10
5568.224
 20
-7686.677
 30
416.000
 70
    32
  0
VERTEX
  8
M48LXLIFT
 62
3
 10
5574.015
 20
-7681.206
 30
416.000
 70
    32
  0
VERTEX
  8
M48LXLIFT
 62
3
 10
5573.880
 20
-7669.625
 30
416.000
 70
    32
  0
VERTEX
  8
M48LXLIFT
 62
3
 10
5565.599
 20
-7652.917
 30
416.000
 70
    32
  0
VERTEX
  8
M48LXLIFT
 62
3
 10
5558.515
 20
-7640.348
 30
416.000
 70
    32
  0
VERTEX
  8
M48LXLIFT
 62
3
 10
5546.759
 20
-7629.587
 30
416.000
 70
    32
  0
VERTEX
  8
M48LXLIFT
 62
3
 10
5534.990
 20
-7613.922
 30
416.000
 70
    32
  0
VERTEX
  8
M48LXLIFT
 62
3
 10
5521.961
 20
-7593.292
 30
416.000
 70
    32
  0
VERTEX
  8
M48LXLIFT
 62
3
 10
5519.343
 20
-7578.194
 30
416.000
 70
    32
  0
VERTEX
  8
M48LXLIFT
 62
3
 10
5510.996
 20
-7565.246
 30
416.000
 70
    32
  0
VERTEX
  8
M48LXLIFT
 62
3
 10
5506.993
 20
-7560.557
 30
416.000
 70
    32
  0
VERTEX
  8
M48LXLIFT
 62
3
 10
5501.023
 20
-7564.304
 30
416.000
 70
    32
  0
SEQEND
  8
M48LXLIFT
  0
POLYLINE
  8
M48LXLIFT
 62
3
 66
     1
 70
     9
  0
VERTEX
  8
M48LXLIFT
 62
3
 10
5561.949
 20
-7690.941
 30
389.000
 70
    32
  0
VERTEX
  8
M48LXLIFT
 62
3
 10
5557.623
 20
-7685.841
 30
389.000
 70
    32
  0
VERTEX
  8
M48LXLIFT
 62
3
 10
5552.314
 20
-7683.546
 30
389.000
 70
    32
  0
VERTEX
  8
M48LXLIFT
 62
3
 10
5543.867
 20
-7671.116
 30
389.000
 70
    32
  0
VERTEX
  8
M48LXLIFT
 62
3
 10
5540.744
 20
-7661.298
 30
389.000
 70
    32
  0
VERTEX
  8
M48LXLIFT
 62
3
 10
5541.107
 20
-7652.940
 30
389.000
 70
    32
  0
VERTEX
  8
M48LXLIFT
 62
3
 10
5544.289
 20
-7649.270
 30
389.000
 70
    32
  0
VERTEX
  8
M48LXLIFT
 62
3
 10
5539.941
 20
-7641.782
 30
389.000
 70
    32
  0
VERTEX
  8
M48LXLIFT
 62
3
 10
5532.737
 20
-7636.191
 30
389.000
 70
    32
  0
VERTEX
  8
M48LXLIFT
 62
3
 10
5527.303
 20
-7634.316
 30
389.000
 70
    32
  0
VERTEX
  8
M48LXLIFT
 62
3
 10
5522.260
 20
-7637.835
 30
389.000
 70
    32
  0
VERTEX
  8
M48LXLIFT
 62
3
 10
5515.688
 20
-7629.262
 30
389.000
 70
    32
  0
VERTEX
  8
M48LXLIFT
 62
3
 10
5510.874
 20
-7620.260
 30
389.000
 70
    32
  0
VERTEX
  8
M48LXLIFT
 62
3
 10
5510.007
 20
-7612.159
 30
389.000
 70
    32
  0
VERTEX
  8
M48LXLIFT
 62
3
 10
5513.225
 20
-7608.243
 30
389.000
 70
    32
  0
VERTEX
  8
M48LXLIFT
 62
3
 10
5510.850
 20
-7599.730
 30
389.000
 70
    32
  0
VERTEX
  8
M48LXLIFT
 62
3
 10
5517.743
 20
-7595.167
 30
389.000
 70
    32
  0
VERTEX
  8
M48LXLIFT
 62
3
 10
5526.782
 20
-7602.349
 30
389.000
 70
    32
  0
VERTEX
  8
M48LXLIFT
 62
3
 10
5535.582
 20
-7614.517
 30
389.000
 70
    32
  0
VERTEX
  8
M48LXLIFT
 62
3
 10
5542.322
 20
-7624.496
 30
389.000
 70
    32
  0
VERTEX
  8
M48LXLIFT
 62
3
 10
5550.821
 20
-7634.045
 30
389.000
 70
    32
  0
VERTEX
  8
M48LXLIFT
 62
3
 10
5560.235
 20
-7643.354
 30
389.000
 70
    32
  0
VERTEX
  8
M48LXLIFT
 62
3
 10
5568.610
 20
-7659.226
 30
389.000
 70
    32
  0
VERTEX
  8
M48LXLIFT
 62
3
 10
5574.941
 20
-7673.224
 30
389.000
 70
    32
  0
VERTEX
  8
M48LXLIFT
 62
3
 10
5572.928
 20
-7681.274
 30
389.000
 70
    32
  0
VERTEX
  8
M48LXLIFT
 62
3
 10
5568.249
 20
-7685.726
 30
389.000
 70
    32
  0
SEQEND
  8
M48LXLIFT
  0
POLYLINE
  8
M48LXLIFT
 62
1
 66
     1
 70
     9
  0
VERTEX
  8
M48LXLIFT
 62
1
 10
5502.023
 20
-7563.304
 30
426.000
 70
    32
  0
VERTEX
  8
M48LXLIFT
 62
1
 10
5507.993
 20
-7559.557
 30
426.000
 70
    32
  0
VERTEX
  8
M48LXLIFT
 62
1
 10
5511.996
 20
-7564.246
 30
426.000
 70
    32
  0
VERTEX
  8
M48LXLIFT
 62
1
 10
5520.343
 20
-7577.194
 30
426.000
 70
    32
  0
VERTEX
  8
M48LXLIFT
 62
1
 10
5522.961
 20
-7592.292
 30
426.000
 70
    32
  0
VERTEX
  8
M48LXLIFT
 62
1
 10
5535.990
 20
-7612.922
 30
426.000
 70
    32
  0
VERTEX
  8
M48LXLIFT
 62
1
 10
5547.759
 20
-7628.587
 30
426.000
 70
    32
  0
VERTEX
  8
M48LXLIFT
 62
1
 10
5559.515
 20
-7639.348
 30
426.000
 70
    32
  0
VERTEX
  8
M48LXLIFT
 62
1
 10
5566.599
 20
-7651.917
 30
426.000
 70
    32
  0
VERTEX
  8
M48LXLIFT
 62
1
 10
5574.880
 20
-7668.625
 30
426.000
 70
    32
  0
VERTEX
  8
M48LXLIFT
 62
1
 10
5575.015
 20
-7680.206
 30
426.000
 70
    32
  0
VERTEX
  8
M48LXLIFT
 62
1
 10
5569.224
 20
-7685.677
 30
426.000
 70
    32
  0
VERTEX
  8
M48LXLIFT
 62
1
 10
5564.376
 20
-7691.981
 30
426.000
 70
    32
  0
VERTEX
  8
M48LXLIFT
 62
1
 10
5559.698
 20
-7685.933
 30
426.000
 70
    32
  0
VERTEX
  8
M48LXLIFT
 62
1
 10
5550.788
 20
-7679.623
 30
426.000
 70
    32
  0
VERTEX
  8
M48LXLIFT
 62
1
 10
5545.916
 20
-7671.535
 30
426.000
 70
    32
  0
VERTEX
  8
M48LXLIFT
 62
1
 10
5541.534
 20
-7659.375
 30
426.000
 70
    32
  0
VERTEX
  8
M48LXLIFT
 62
1
 10
5543.780
 20
-7651.169
 30
426.000
 70
    32
  0
VERTEX
  8
M48LXLIFT
 62
1
 10
5542.738
 20
-7643.095
 30
426.000
 70
    32
  0
VERTEX
  8
M48LXLIFT
 62
1
 10
5535.127
 20
-7636.918
 30
426.000
 70
    32
  0
VERTEX
  8
M48LXLIFT
 62
1
 10
5526.880
 20
-7631.211
 30
426.000
 70
    32
  0
VERTEX
  8
M48LXLIFT
 62
1
 10
5519.476
 20
-7621.170
 30
426.000
 70
    32
  0
VERTEX
  8
M48LXLIFT
 62
1
 10
5511.580
 20
-7608.981
 30
426.000
 70
    32
  0
VERTEX
  8
M48LXLIFT
 62
1
 10
5505.697
 20
-7595.526
 30
426.000
 70
    32
  0
VERTEX
  8
M48LXLIFT
 62
1
 10
5502.379
 20
-7582.144
 30
426.000
 70
    32
  0
VERTEX
  8
M48LXLIFT
 62
1
 10
5498.610
 20
-7576.736
 30
426.000
 70
    32
  0
VERTEX
  8
M48LXLIFT
 62
1
 10
5496.657
 20
-7568.462
 30
426.000
 70
    32
  0
SEQEND
  8
M48LXLIFT
  0
POLYLINE
  8
M48LXLIFT
 62
1
 66
     1
 70
     9
  0
VERTEX
  8
M48LXLIFT
 62
1
 10
5419.090
 20
-7479.787
 30
522.000
 70
    32
  0
VERTEX
  8
M48LXLIFT
 62
1
 10
5423.814
 20
-7472.252
 30
522.000
 70
    32
  0
VERTEX
  8
M48LXLIFT
 62
1
 10
5430.332
 20
-7467.643
 30
522.000
 70
    32
  0
VERTEX
  8
M48LXLIFT
 62
1
 10
5437.033
 20
-7472.862
 30
522.000
 70
    32
  0
VERTEX
  8
M48LXLIFT
 62
1
 10
5439.217
 20
-7482.760
 30
522.000
 70
    32
  0
VERTEX
  8
M48LXLIFT
 62
1
 10
5433.615
 20
-7493.420
 30
522.000
 70
    32
  0
VERTEX
  8
M48LXLIFT
 62
1
 10
5429.089
 20
-7501.678
 30
522.000
 70
    32
  0
VERTEX
  8
M48LXLIFT
 62
1
 10
5433.845
 20
-7505.706
 30
522.000
 70
    32
  0
VERTEX
  8
M48LXLIFT
 62
1
 10
5434.021
 20
-7510.885
 30
522.000
 70
    32
  0
VERTEX
  8
M48LXLIFT
 62
1
 10
5426.799
 20
-7510.482
 30
522.000
 70
    32
  0
VERTEX
  8
M48LXLIFT
 62
1
 10
5423.919
 20
-7517.872
 30
522.000
 70
    32
  0
VERTEX
  8
M48LXLIFT
 62
1
 10
5416.732
 20
-7516.470
 30
522.000
 70
    32
  0
VERTEX
  8
M48LXLIFT
 62
1
 10
5409.654
 20
-7506.542
 30
522.000
 70
    32
  0
VERTEX
  8
M48LXLIFT
 62
1
 10
5404.284
 20
-7494.187
 30
522.000
 70
    32
  0
SEQEND
  8
M48LXLIFT
  0
POLYLINE
  8
M48LXLIFT
 62
13
 66
     1
 70
     9
  0
VERTEX
  8
M48LXLIFT
 62
13
 10
5472.885
 20
-7486.921
 30
376.560
 70
    32
  0
VERTEX
  8
M48LXLIFT
 62
13
 10
5477.798
 20
-7505.899
 30
376.518
 70
    32
  0
VERTEX
  8
M48LXLIFT
 62
13
 10
5483.439
 20
-7519.958
 30
376.486
 70
    32
  0
VERTEX
  8
M48LXLIFT
 62
13
 10
5439.292
 20
-7551.795
 30
376.361
 70
    32
  0
VERTEX
  8
M48LXLIFT
 62
13
 10
5421.279
 20
-7524.142
 30
376.354
 70
    32
  0
VERTEX
  8
M48LXLIFT
 62
13
 10
5415.561
 20
-7518.184
 30
376.355
 70
    32
  0
VERTEX
  8
M48LXLIFT
 62
13
 10
5410.971
 20
-7510.778
 30
376.360
 70
    32
  0
VERTEX
  8
M48LXLIFT
 62
13
 10
5421.700
 20
-7504.253
 30
376.384
 70
    32
  0
VERTEX
  8
M48LXLIFT
 62
13
 10
5453.406
 20
-7478.965
 30
376.534
 70
    32
  0
VERTEX
  8
M48LXLIFT
 62
13
 10
5458.053
 20
-7481.402
 30
376.546
 70
    32
  0
VERTEX
  8
M48LXLIFT
 62
13
 10
5466.391
 20
-7481.572
 30
376.573
 70
    32
  0
SEQEND
  8
M48LXLIFT
  0
POLYLINE
  8
M48LXLIFT
 62
6
 66
     1
 70
     9
  0
VERTEX
  8
M48LXLIFT
 62
6
 10
5664.872
 20
-7454.670
 30
376.649
 70
    32
  0
VERTEX
  8
M48LXLIFT
 62
6
 10
5659.721
 20
-7452.584
 30
376.649
 70
    32
  0
VERTEX
  8
M48LXLIFT
 62
6
 10
5654.083
 20
-7444.462
 30
376.669
 70
    32
  0
VERTEX
  8
M48LXLIFT
 62
6
 10
5653.722
 20
-7411.092
 30
376.780
 70
    32
  0
VERTEX
  8
M48LXLIFT
 62
6
 10
5658.741
 20
-7399.541
 30
376.826
 70
    32
  0
VERTEX
  8
M48LXLIFT
 62
6
 10
5671.608
 20
-7392.817
 30
376.866
 70
    32
  0
VERTEX
  8
M48LXLIFT
 62
6
 10
5675.150
 20
-7392.474
 30
376.872
 70
    32
  0
VERTEX
  8
M48LXLIFT
 62
6
 10
5707.488
 20
-7370.787
 30
376.988
 70
    32
  0
VERTEX
  8
M48LXLIFT
 62
6
 10
5726.723
 20
-7360.531
 30
377.011
 70
    32
  0
VERTEX
  8
M48LXLIFT
 62
6
 10
5737.550
 20
-7362.387
 30
377.014
 70
    32
  0
VERTEX
  8
M48LXLIFT
 62
6
 10
5742.531
 20
-7372.485
 30
377.004
 70
    32
  0
VERTEX
  8
M48LXLIFT
 62
6
 10
5746.272
 20
-7375.786
 30
377.002
 70
    32
  0
VERTEX
  8
M48LXLIFT
 62
6
 10
5749.679
 20
-7384.728
 30
376.993
 70
    32
  0
VERTEX
  8
M48LXLIFT
 62
6
 10
5750.124
 20
-7388.414
 30
376.986
 70
    32
  0
VERTEX
  8
M48LXLIFT
 62
6
 10
5747.918
 20
-7392.785
 30
376.968
 70
    32
  0
VERTEX
  8
M48LXLIFT
 62
6
 10
5741.440
 20
-7395.855
 30
376.949
 70
    32
  0
VERTEX
  8
M48LXLIFT
 62
6
 10
5733.907
 20
-7405.076
 30
376.908
 70
    32
  0
VERTEX
  8
M48LXLIFT
 62
6
 10
5723.297
 20
-7411.933
 30
376.871
 70
    32
  0
VERTEX
  8
M48LXLIFT
 62
6
 10
5715.228
 20
-7410.613
 30
376.864
 70
    32
  0
VERTEX
  8
M48LXLIFT
 62
6
 10
5706.161
 20
-7412.163
 30
376.847
 70
    32
  0
VERTEX
  8
M48LXLIFT
 62
6
 10
5693.777
 20
-7423.085
 30
376.794
 70
    32
  0
VERTEX
  8
M48LXLIFT
 62
6
 10
5680.804
 20
-7437.453
 30
376.728
 70
    32
  0
VERTEX
  8
M48LXLIFT
 62
6
 10
5680.551
 20
-7438.929
 30
376.723
 70
    32
  0
SEQEND
  8
M48LXLIFT
  0
POLYLINE
  8
M48LXLIFT
 62
4
 66
     1
 70
     9
  0
VERTEX
  8
M48LXLIFT
 62
4
 10
5734.561
 20
-7293.099
 30
377.096
 70
    32
  0
VERTEX
  8
M48LXLIFT
 62
4
 10
5731.099
 20
-7288.265
 30
377.100
 70
    32
  0
VERTEX
  8
M48LXLIFT
 62
4
 10
5740.935
 20
-7281.388
 30
377.113
 70
    32
  0
VERTEX
  8
M48LXLIFT
 62
4
 10
5744.317
 20
-7286.111
 30
377.109
 70
    32
  0
VERTEX
  8
M48LXLIFT
 62
4
 10
5745.286
 20
-7285.417
 30
377.110
 70
    32
  0
VERTEX
  8
M48LXLIFT
 62
4
 10
5748.033
 20
-7277.557
 30
377.121
 70
    32
  0
VERTEX
  8
M48LXLIFT
 62
4
 10
5746.154
 20
-7253.045
 30
377.149
 70
    32
  0
VERTEX
  8
M48LXLIFT
 62
4
 10
5742.144
 20
-7247.989
 30
377.161
 70
    32
  0
VERTEX
  8
M48LXLIFT
 62
4
 10
5735.999
 20
-7245.416
 30
377.167
 70
    32
  0
VERTEX
  8
M48LXLIFT
 62
4
 10
5734.927
 20
-7237.634
 30
377.189
 70
    32
  0
VERTEX
  8
M48LXLIFT
 62
4
 10
5743.050
 20
-7233.833
 30
377.202
 70
    32
  0
VERTEX
  8
M48LXLIFT
 62
4
 10
5747.838
 20
-7236.933
 30
377.194
 70
    32
  0
VERTEX
  8
M48LXLIFT
 62
4
 10
5757.745
 20
-7251.549
 30
377.157
 70
    32
  0
VERTEX
  8
M48LXLIFT
 62
4
 10
5766.659
 20
-7249.783
 30
377.163
 70
    32
  0
VERTEX
  8
M48LXLIFT
 62
4
 10
5777.703
 20
-7255.918
 30
377.161
 70
    32
  0
VERTEX
  8
M48LXLIFT
 62
4
 10
5787.110
 20
-7255.461
 30
377.166
 70
    32
  0
VERTEX
  8
M48LXLIFT
 62
4
 10
5782.620
 20
-7267.936
 30
377.149
 70
    32
  0
VERTEX
  8
M48LXLIFT
 62
4
 10
5789.915
 20
-7280.364
 30
377.138
 70
    32
  0
VERTEX
  8
M48LXLIFT
 62
4
 10
5783.943
 20
-7284.913
 30
377.129
 70
    32
  0
VERTEX
  8
M48LXLIFT
 62
4
 10
5780.253
 20
-7281.685
 30
377.131
 70
    32
  0
VERTEX
  8
M48LXLIFT
 62
4
 10
5776.654
 20
-7287.907
 30
377.122
 70
    32
  0
VERTEX
  8
M48LXLIFT
 62
4
 10
5778.146
 20
-7307.286
 30
377.100
 70
    32
  0
VERTEX
  8
M48LXLIFT
 62
4
 10
5767.211
 20
-7315.671
 30
377.084
 70
    32
  0
VERTEX
  8
M48LXLIFT
 62
4
 10
5760.459
 20
-7324.772
 30
377.070
 70
    32
  0
VERTEX
  8
M48LXLIFT
 62
4
 10
5755.800
 20
-7327.203
 30
377.065
 70
    32
  0
VERTEX
  8
M48LXLIFT
 62
4
 10
5742.447
 20
-7307.565
 30
377.082
 70
    32
  0
VERTEX
  8
M48LXLIFT
 62
4
 10
5733.801
 20
-7302.993
 30
377.083
 70
    32
  0
SEQEND
  8
M48LXLIFT
  0
POLYLINE
  8
M48LXLIFT
 62
1
 66
     1
 70
     9
  0
VERTEX
  8
M48LXLIFT
 62
1
 10
5631.192
 20
-7390.896
 30
522.000
 70
    32
  0
VERTEX
  8
M48LXLIFT
 62
1
 10
5626.585
 20
-7386.327
 30
522.000
 70
    32
  0
VERTEX
  8
M48LXLIFT
 62
1
 10
5627.356
 20
-7376.023
 30
522.000
 70
    32
  0
VERTEX
  8
M48LXLIFT
 62
1
 10
5621.708
 20
-7369.716
 30
522.000
 70
    32
  0
VERTEX
  8
M48LXLIFT
 62
1
 10
5614.862
 20
-7365.793
 30
522.000
 70
    32
  0
VERTEX
  8
M48LXLIFT
 62
1
 10
5600.042
 20
-7342.628
 30
522.000
 70
    32
  0
VERTEX
  8
M48LXLIFT
 62
1
 10
5588.153
 20
-7344.304
 30
522.000
 70
    32
  0
VERTEX
  8
M48LXLIFT
 62
1
 10
5569.452
 20
-7341.057
 30
522.000
 70
    32
  0
VERTEX
  8
M48LXLIFT
 62
1
 10
5549.424
 20
-7334.332
 30
522.000
 70
    32
  0
VERTEX
  8
M48LXLIFT
 62
1
 10
5541.638
 20
-7323.725
 30
522.000
 70
    32
  0
VERTEX
  8
M48LXLIFT
 62
1
 10
5546.298
 20
-7315.803
 30
522.000
 70
    32
  0
VERTEX
  8
M48LXLIFT
 62
1
 10
5564.544
 20
-7303.462
 30
522.000
 70
    32
  0
VERTEX
  8
M48LXLIFT
 62
1
 10
5573.438
 20
-7294.208
 30
522.000
 70
    32
  0
VERTEX
  8
M48LXLIFT
 62
1
 10
5566.152
 20
-7285.190
 30
522.000
 70
    32
  0
VERTEX
  8
M48LXLIFT
 62
1
 10
5551.106
 20
-7268.144
 30
522.000
 70
    32
  0
VERTEX
  8
M48LXLIFT
 62
1
 10
5558.771
 20
-7254.799
 30
522.000
 70
    32
  0
VERTEX
  8
M48LXLIFT
 62
1
 10
5575.066
 20
-7246.793
 30
522.000
 70
    32
  0
VERTEX
  8
M48LXLIFT
 62
1
 10
5601.933
 20
-7228.861
 30
522.000
 70
    32
  0
VERTEX
  8
M48LXLIFT
 62
1
 10
5611.786
 20
-7246.959
 30
522.000
 70
    32
  0
VERTEX
  8
M48LXLIFT
 62
1
 10
5620.655
 20
-7254.724
 30
522.000
 70
    32
  0
VERTEX
  8
M48LXLIFT
 62
1
 10
5623.772
 20
-7265.462
 30
522.000
 70
    32
  0
VERTEX
  8
M48LXLIFT
 62
1
 10
5633.594
 20
-7285.314
 30
522.000
 70
    32
  0
VERTEX
  8
M48LXLIFT
 62
1
 10
5635.010
 20
-7298.041
 30
522.000
 70
    32
  0
VERTEX
  8
M48LXLIFT
 62
1
 10
5638.866
 20
-7315.932
 30
522.000
 70
    32
  0
VERTEX
  8
M48LXLIFT
 62
1
 10
5648.022
 20
-7336.808
 30
522.000
 70
    32
  0
VERTEX
  8
M48LXLIFT
 62
1
 10
5645.464
 20
-7338.660
 30
522.000
 70
    32
  0
VERTEX
  8
M48LXLIFT
 62
1
 10
5643.824
 20
-7345.369
 30
522.000
 70
    32
  0
VERTEX
  8
M48LXLIFT
 62
1
 10
5643.944
 20
-7357.952
 30
522.000
 70
    32
  0
VERTEX
  8
M48LXLIFT
 62
1
 10
5640.338
 20
-7387.525
 30
522.000
 70
    32
  0
SEQEND
  8
M48LXLIFT
  0
POLYLINE
  8
M48LXLIFT
 62
1
 66
     1
 70
     9
  0
VERTEX
  8
M48LXLIFT
 62
1
 10
5642.072
 20
-7281.839
 30
489.000
 70
    32
  0
VERTEX
  8
M48LXLIFT
 62
1
 10
5648.521
 20
-7285.841
 30
489.000
 70
    32
  0
VERTEX
  8
M48LXLIFT
 62
1
 10
5660.230
 20
-7289.190
 30
489.000
 70
    32
  0
VERTEX
  8
M48LXLIFT
 62
1
 10
5664.089
 20
-7295.599
 30
489.000
 70
    32
  0
VERTEX
  8
M48LXLIFT
 62
1
 10
5667.268
 20
-7300.012
 30
489.000
 70
    32
  0
VERTEX
  8
M48LXLIFT
 62
1
 10
5662.431
 20
-7304.252
 30
489.000
 70
    32
  0
VERTEX
  8
M48LXLIFT
 62
1
 10
5671.092
 20
-7318.228
 30
489.000
 70
    32
  0
VERTEX
  8
M48LXLIFT
 62
1
 10
5667.118
 20
-7324.117
 30
489.000
 70
    32
  0
VERTEX
  8
M48LXLIFT
 62
1
 10
5661.738
 20
-7332.856
 30
489.000
 70
    32
  0
VERTEX
  8
M48LXLIFT
 62
1
 10
5659.090
 20
-7333.682
 30
489.000
 70
    32
  0
VERTEX
  8
M48LXLIFT
 62
1
 10
5649.979
 20
-7322.084
 30
489.000
 70
    32
  0
VERTEX
  8
M48LXLIFT
 62
1
 10
5642.643
 20
-7313.099
 30
489.000
 70
    32
  0
VERTEX
  8
M48LXLIFT
 62
1
 10
5640.825
 20
-7301.870
 30
489.000
 70
    32
  0
VERTEX
  8
M48LXLIFT
 62
1
 10
5637.922
 20
-7292.286
 30
489.000
 70
    32
  0
SEQEND
  8
M48LXLIFT
  0
POLYLINE
  8
M48LXLIFT
 62
1
 66
     1
 70
     9
  0
VERTEX
  8
M48LXLIFT
 62
1
 10
5719.817
 20
-7277.755
 30
419.000
 70
    32
  0
VERTEX
  8
M48LXLIFT
 62
1
 10
5717.031
 20
-7265.718
 30
419.000
 70
    32
  0
VERTEX
  8
M48LXLIFT
 62
1
 10
5714.714
 20
-7251.804
 30
419.000
 70
    32
  0
VERTEX
  8
M48LXLIFT
 62
1
 10
5713.818
 20
-7240.992
 30
419.000
 70
    32
  0
VERTEX
  8
M48LXLIFT
 62
1
 10
5717.884
 20
-7231.863
 30
419.000
 70
    32
  0
VERTEX
  8
M48LXLIFT
 62
1
 10
5731.737
 20
-7225.329
 30
419.000
 70
    32
  0
VERTEX
  8
M48LXLIFT
 62
1
 10
5736.659
 20
-7227.698
 30
419.000
 70
    32
  0
VERTEX
  8
M48LXLIFT
 62
1
 10
5737.160
 20
-7234.431
 30
419.000
 70
    32
  0
VERTEX
  8
M48LXLIFT
 62
1
 10
5736.513
 20
-7242.123
 30
419.000
 70
    32
  0
VERTEX
  8
M48LXLIFT
 62
1
 10
5742.288
 20
-7248.451
 30
419.000
 70
    32
  0
VERTEX
  8
M48LXLIFT
 62
1
 10
5745.593
 20
-7253.656
 30
419.000
 70
    32
  0
VERTEX
  8
M48LXLIFT
 62
1
 10
5749.278
 20
-7265.137
 30
419.000
 70
    32
  0
VERTEX
  8
M48LXLIFT
 62
1
 10
5743.765
 20
-7278.069
 30
419.000
 70
    32
  0
VERTEX
  8
M48LXLIFT
 62
1
 10
5743.284
 20
-7281.703
 30
419.000
 70
    32
  0
VERTEX
  8
M48LXLIFT
 62
1
 10
5748.616
 20
-7285.955
 30
419.000
 70
    32
  0
VERTEX
  8
M48LXLIFT
 62
1
 10
5756.649
 20
-7293.563
 30
419.000
 70
    32
  0
VERTEX
  8
M48LXLIFT
 62
1
 10
5751.410
 20
-7296.674
 30
419.000
 70
    32
  0
VERTEX
  8
M48LXLIFT
 62
1
 10
5748.839
 20
-7294.971
 30
419.000
 70
    32
  0
VERTEX
  8
M48LXLIFT
 62
1
 10
5744.651
 20
-7293.151
 30
419.000
 70
    32
  0
VERTEX
  8
M48LXLIFT
 62
1
 10
5741.206
 20
-7296.028
 30
419.000
 70
    32
  0
VERTEX
  8
M48LXLIFT
 62
1
 10
5736.274
 20
-7292.464
 30
419.000
 70
    32
  0
VERTEX
  8
M48LXLIFT
 62
1
 10
5728.868
 20
-7288.217
 30
419.000
 70
    32
  0
VERTEX
  8
M48LXLIFT
 62
1
 10
5722.118
 20
-7285.888
 30
419.000
 70
    32
  0
SEQEND
  8
M48LXLIFT
  0
POLYLINE
  8
M48LXLIFT
 62
1
 66
     1
 70
     9
  0
VERTEX
  8
M48LXLIFT
 62
1
 10
5703.691
 20
-7195.006
 30
446.000
 70
    32
  0
VERTEX
  8
M48LXLIFT
 62
1
 10
5718.403
 20
-7189.240
 30
446.000
 70
    32
  0
VERTEX
  8
M48LXLIFT
 62
1
 10
5722.841
 20
-7194.262
 30
446.000
 70
    32
  0
VERTEX
  8
M48LXLIFT
 62
1
 10
5714.785
 20
-7204.512
 30
446.000
 70
    32
  0
VERTEX
  8
M48LXLIFT
 62
1
 10
5717.887
 20
-7209.640
 30
446.000
 70
    32
  0
VERTEX
  8
M48LXLIFT
 62
1
 10
5727.547
 20
-7223.134
 30
446.000
 70
    32
  0
VERTEX
  8
M48LXLIFT
 62
1
 10
5721.559
 20
-7227.736
 30
446.000
 70
    32
  0
VERTEX
  8
M48LXLIFT
 62
1
 10
5716.229
 20
-7222.388
 30
446.000
 70
    32
  0
VERTEX
  8
M48LXLIFT
 62
1
 10
5697.604
 20
-7221.769
 30
446.000
 70
    32
  0
VERTEX
  8
M48LXLIFT
 62
1
 10
5694.538
 20
-7213.568
 30
446.000
 70
    32
  0
VERTEX
  8
M48LXLIFT
 62
1
 10
5689.622
 20
-7204.327
 30
446.000
 70
    32
  0
SEQEND
  8
M48LXLIFT
  0
POLYLINE
  8
M48LXLIFT
 62
2
 66
     1
 70
     9
  0
VERTEX
  8
M48LXLIFT
 62
2
 10
5487.651
 20
-7466.259
 30
376.599
 70
    32
  0
VERTEX
  8
M48LXLIFT
 62
2
 10
5480.303
 20
-7453.301
 30
376.629
 70
    32
  0
VERTEX
  8
M48LXLIFT
 62
2
 10
5476.093
 20
-7449.041
 30
376.639
 70
    32
  0
VERTEX
  8
M48LXLIFT
 62
2
 10
5468.953
 20
-7444.155
 30
376.646
 70
    32
  0
VERTEX
  8
M48LXLIFT
 62
2
 10
5458.428
 20
-7442.425
 30
376.614
 70
    32
  0
VERTEX
  8
M48LXLIFT
 62
2
 10
5454.377
 20
-7439.457
 30
376.605
 70
    32
  0
VERTEX
  8
M48LXLIFT
 62
2
 10
5446.636
 20
-7424.724
 30
376.605
 70
    32
  0
VERTEX
  8
M48LXLIFT
 62
2
 10
5447.229
 20
-7422.358
 30
376.611
 70
    32
  0
VERTEX
  8
M48LXLIFT
 62
2
 10
5456.601
 20
-7419.715
 30
376.647
 70
    32
  0
VERTEX
  8
M48LXLIFT
 62
2
 10
5469.495
 20
-7433.174
 30
376.667
 70
    32
  0
VERTEX
  8
M48LXLIFT
 62
2
 10
5481.993
 20
-7433.721
 30
376.670
 70
    32
  0
VERTEX
  8
M48LXLIFT
 62
2
 10
5500.317
 20
-7457.280
 30
376.614
 70
    32
  0
SEQEND
  8
M48LXLIFT
  0
POLYLINE
  8
M48LXLIFT
 62
1
 66
     1
 70
     9
  0
VERTEX
  8
M48LXLIFT
 62
1
 10
5357.522
 20
-7479.850
 30
529.000
 70
    32
  0
VERTEX
  8
M48LXLIFT
 62
1
 10
5358.220
 20
-7467.650
 30
529.000
 70
    32
  0
VERTEX
  8
M48LXLIFT
 62
1
 10
5361.924
 20
-7440.605
 30
529.000
 70
    32
  0
VERTEX
  8
M48LXLIFT
 62
1
 10
5363.393
 20
-7418.102
 30
529.000
 70
    32
  0
VERTEX
  8
M48LXLIFT
 62
1
 10
5372.761
 20
-7412.944
 30
529.000
 70
    32
  0
VERTEX
  8
M48LXLIFT
 62
1
 10
5383.007
 20
-7410.942
 30
529.000
 70
    32
  0
VERTEX
  8
M48LXLIFT
 62
1
 10
5388.971
 20
-7417.237
 30
529.000
 70
    32
  0
VERTEX
  8
M48LXLIFT
 62
1
 10
5384.434
 20
-7430.266
 30
529.000
 70
    32
  0
VERTEX
  8
M48LXLIFT
 62
1
 10
5382.156
 20
-7460.178
 30
529.000
 70
    32
  0
VERTEX
  8
M48LXLIFT
 62
1
 10
5382.860
 20
-7479.700
 30
529.000
 70
    32
  0
VERTEX
  8
M48LXLIFT
 62
1
 10
5376.727
 20
-7488.579
 30
529.000
 70
    32
  0
VERTEX
  8
M48LXLIFT
 62
1
 10
5369.043
 20
-7498.906
 30
529.000
 70
    32
  0
VERTEX
  8
M48LXLIFT
 62
1
 10
5361.206
 20
-7499.598
 30
529.000
 70
    32
  0
VERTEX
  8
M48LXLIFT
 62
1
 10
5352.219
 20
-7492.568
 30
529.000
 70
    32
  0
SEQEND
  8
M48LXLIFT
  0
POLYLINE
  8
M48LXLIFT
 62
1
 66
     1
 70
     9
  0
VERTEX
  8
M48LXLIFT
 62
1
 10
5433.005
 20
-7360.001
 30
470.000
 70
    32
  0
VERTEX
  8
M48LXLIFT
 62
1
 10
5434.645
 20
-7365.975
 30
470.000
 70
    32
  0
VERTEX
  8
M48LXLIFT
 62
1
 10
5442.892
 20
-7371.476
 30
470.000
 70
    32
  0
VERTEX
  8
M48LXLIFT
 62
1
 10
5446.380
 20
-7379.687
 30
470.000
 70
    32
  0
VERTEX
  8
M48LXLIFT
 62
1
 10
5444.180
 20
-7385.311
 30
470.000
 70
    32
  0
VERTEX
  8
M48LXLIFT
 62
1
 10
5438.575
 20
-7393.416
 30
470.000
 70
    32
  0
VERTEX
  8
M48LXLIFT
 62
1
 10
5427.645
 20
-7394.216
 30
470.000
 70
    32
  0
VERTEX
  8
M48LXLIFT
 62
1
 10
5414.205
 20
-7390.980
 30
470.000
 70
    32
  0
VERTEX
  8
M48LXLIFT
 62
1
 10
5410.035
 20
-7383.918
 30
470.000
 70
    32
  0
VERTEX
  8
M48LXLIFT
 62
1
 10
5406.052
 20
-7377.264
 30
470.000
 70
    32
  0
VERTEX
  8
M48LXLIFT
 62
1
 10
5418.960
 20
-7367.852
 30
470.000
 70
    32
  0
SEQEND
  8
M48LXLIFT
  0
POLYLINE
  8
M48LXLIFT
 62
1
 66
     1
 70
     9
  0
VERTEX
  8
M48LXLIFT
 62
1
 10
5455.141
 20
-7343.098
 30
429.000
 70
    32
  0
VERTEX
  8
M48LXLIFT
 62
1
 10
5459.860
 20
-7330.994
 30
429.000
 70
    32
  0
VERTEX
  8
M48LXLIFT
 62
1
 10
5467.037
 20
-7327.995
 30
429.000
 70
    32
  0
VERTEX
  8
M48LXLIFT
 62
1
 10
5479.909
 20
-7326.799
 30
429.000
 70
    32
  0
VERTEX
  8
M48LXLIFT
 62
1
 10
5492.285
 20
-7343.435
 30
429.000
 70
    32
  0
VERTEX
  8
M48LXLIFT
 62
1
 10
5501.839
 20
-7350.471
 30
429.000
 70
    32
  0
VERTEX
  8
M48LXLIFT
 62
1
 10
5496.134
 20
-7364.939
 30
429.000
 70
    32
  0
VERTEX
  8
M48LXLIFT
 62
1
 10
5488.256
 20
-7374.241
 30
429.000
 70
    32
  0
VERTEX
  8
M48LXLIFT
 62
1
 10
5474.515
 20
-7380.772
 30
429.000
 70
    32
  0
VERTEX
  8
M48LXLIFT
 62
1
 10
5471.684
 20
-7376.637
 30
429.000
 70
    32
  0
VERTEX
  8
M48LXLIFT
 62
1
 10
5475.597
 20
-7368.621
 30
429.000
 70
    32
  0
VERTEX
  8
M48LXLIFT
 62
1
 10
5468.543
 20
-7358.758
 30
429.000
 70
    32
  0
VERTEX
  8
M48LXLIFT
 62
1
 10
5462.509
 20
-7348.798
 30
429.000
 70
    32
  0
VERTEX
  8
M48LXLIFT
 62
1
 10
5458.966
 20
-7350.210
 30
429.000
 70
    32
  0
SEQEND
  8
M48LXLIFT
  0
POLYLINE
  8
M48LXLIFT
 62
1
 66
     1
 70
     9
  0
VERTEX
  8
M48LXLIFT
 62
1
 10
5430.545
 20
-7223.959
 30
523.000
 70
    32
  0
VERTEX
  8
M48LXLIFT
 62
1
 10
5428.238
 20
-7231.692
 30
523.000
 70
    32
  0
VERTEX
  8
M48LXLIFT
 62
1
 10
5425.722
 20
-7249.756
 30
523.000
 70
    32
  0
VERTEX
  8
M48LXLIFT
 62
1
 10
5426.924
 20
-7265.778
 30
523.000
 70
    32
  0
VERTEX
  8
M48LXLIFT
 62
1
 10
5422.633
 20
-7278.847
 30
523.000
 70
    32
  0
VERTEX
  8
M48LXLIFT
 62
1
 10
5411.824
 20
-7311.035
 30
523.000
 70
    32
  0
VERTEX
  8
M48LXLIFT
 62
1
 10
5410.217
 20
-7334.396
 30
523.000
 70
    32
  0
VERTEX
  8
M48LXLIFT
 62
1
 10
5407.645
 20
-7363.004
 30
523.000
 70
    32
  0
VERTEX
  8
M48LXLIFT
 62
1
 10
5396.559
 20
-7369.080
 30
523.000
 70
    32
  0
VERTEX
  8
M48LXLIFT
 62
1
 10
5381.095
 20
-7371.503
 30
523.000
 70
    32
  0
VERTEX
  8
M48LXLIFT
 62
1
 10
5368.625
 20
-7365.045
 30
523.000
 70
    32
  0
VERTEX
  8
M48LXLIFT
 62
1
 10
5353.768
 20
-7369.952
 30
523.000
 70
    32
  0
VERTEX
  8
M48LXLIFT
 62
1
 10
5346.800
 20
-7374.238
 30
523.000
 70
    32
  0
VERTEX
  8
M48LXLIFT
 62
1
 10
5343.532
 20
-7365.235
 30
523.000
 70
    32
  0
VERTEX
  8
M48LXLIFT
 62
1
 10
5340.342
 20
-7349.460
 30
523.000
 70
    32
  0
VERTEX
  8
M48LXLIFT
 62
1
 10
5345.101
 20
-7340.926
 30
523.000
 70
    32
  0
VERTEX
  8
M48LXLIFT
 62
1
 10
5352.019
 20
-7330.288
 30
523.000
 70
    32
  0
VERTEX
  8
M48LXLIFT
 62
1
 10
5347.924
 20
-7324.481
 30
523.000
 70
    32
  0
VERTEX
  8
M48LXLIFT
 62
1
 10
5360.415
 20
-7313.165
 30
523.000
 70
    32
  0
VERTEX
  8
M48LXLIFT
 62
1
 10
5371.085
 20
-7305.766
 30
523.000
 70
    32
  0
VERTEX
  8
M48LXLIFT
 62
1
 10
5373.930
 20
-7296.234
 30
523.000
 70
    32
  0
VERTEX
  8
M48LXLIFT
 62
1
 10
5375.753
 20
-7268.386
 30
523.000
 70
    32
  0
VERTEX
  8
M48LXLIFT
 62
1
 10
5379.667
 20
-7242.379
 30
523.000
 70
    32
  0
VERTEX
  8
M48LXLIFT
 62
1
 10
5383.866
 20
-7227.537
 30
523.000
 70
    32
  0
VERTEX
  8
M48LXLIFT
 62
1
 10
5389.760
 20
-7216.232
 30
523.000
 70
    32
  0
VERTEX
  8
M48LXLIFT
 62
1
 10
5403.350
 20
-7209.427
 30
523.000
 70
    32
  0
VERTEX
  8
M48LXLIFT
 62
1
 10
5418.015
 20
-7206.499
 30
523.000
 70
    32
  0
VERTEX
  8
M48LXLIFT
 62
1
 10
5427.297
 20
-7208.551
 30
523.000
 70
    32
  0
SEQEND
  8
M48LXLIFT
  0
ENDSEC
  0
EOF
