999
********************************
999
*   DXF File - Entities Only   *
999
*        3D Data Format        *
999
*     Output from ENVISAGE     *
999
*     31-Dec-2007 15:10:15     *
999
********************************
  0
SECTION 
  2
HEADER
  9
$ACADVER
  1
AC1009
  9
$EXTMIN
 10
-290000.000
 20
-250000.000
 30
-4000.000
  9
$EXTMAX
 10
320000.000
 20
160000.000
 30
6000.000
  0
ENDSEC
  0
SECTION
  2
ENTITIES
  0
POLYLINE
  8
M50LXLIFT
 62
4
 66
     1
 70
     9
  0
VERTEX
  8
M50LXLIFT
 62
4
 10
5792.983
 20
-7314.163
 30
317.000
 70
    32
  0
VERTEX
  8
M50LXLIFT
 62
4
 10
5802.252
 20
-7321.249
 30
317.000
 70
    32
  0
VERTEX
  8
M50LXLIFT
 62
4
 10
5798.950
 20
-7327.829
 30
317.000
 70
    32
  0
VERTEX
  8
M50LXLIFT
 62
4
 10
5801.836
 20
-7336.150
 30
317.000
 70
    32
  0
VERTEX
  8
M50LXLIFT
 62
4
 10
5805.234
 20
-7346.489
 30
317.000
 70
    32
  0
VERTEX
  8
M50LXLIFT
 62
4
 10
5804.948
 20
-7355.086
 30
317.000
 70
    32
  0
VERTEX
  8
M50LXLIFT
 62
4
 10
5810.384
 20
-7361.848
 30
317.000
 70
    32
  0
VERTEX
  8
M50LXLIFT
 62
4
 10
5824.624
 20
-7361.664
 30
317.000
 70
    32
  0
VERTEX
  8
M50LXLIFT
 62
4
 10
5843.079
 20
-7357.165
 30
317.000
 70
    32
  0
VERTEX
  8
M50LXLIFT
 62
4
 10
5859.065
 20
-7360.373
 30
317.000
 70
    32
  0
VERTEX
  8
M50LXLIFT
 62
4
 10
5869.079
 20
-7345.344
 30
317.000
 70
    32
  0
VERTEX
  8
M50LXLIFT
 62
4
 10
5876.494
 20
-7341.822
 30
317.000
 70
    32
  0
VERTEX
  8
M50LXLIFT
 62
4
 10
5863.994
 20
-7330.808
 30
317.000
 70
    32
  0
VERTEX
  8
M50LXLIFT
 62
4
 10
5866.267
 20
-7336.533
 30
317.000
 70
    32
  0
VERTEX
  8
M50LXLIFT
 62
4
 10
5851.451
 20
-7346.836
 30
317.000
 70
    32
  0
VERTEX
  8
M50LXLIFT
 62
4
 10
5841.639
 20
-7339.607
 30
317.000
 70
    32
  0
VERTEX
  8
M50LXLIFT
 62
4
 10
5838.696
 20
-7324.140
 30
317.000
 70
    32
  0
VERTEX
  8
M50LXLIFT
 62
4
 10
5835.627
 20
-7306.588
 30
317.000
 70
    32
  0
VERTEX
  8
M50LXLIFT
 62
4
 10
5826.091
 20
-7297.521
 30
317.000
 70
    32
  0
VERTEX
  8
M50LXLIFT
 62
4
 10
5817.563
 20
-7292.174
 30
317.000
 70
    32
  0
VERTEX
  8
M50LXLIFT
 62
4
 10
5812.447
 20
-7279.512
 30
317.000
 70
    32
  0
VERTEX
  8
M50LXLIFT
 62
4
 10
5805.138
 20
-7277.729
 30
317.000
 70
    32
  0
VERTEX
  8
M50LXLIFT
 62
4
 10
5798.389
 20
-7270.958
 30
317.000
 70
    32
  0
VERTEX
  8
M50LXLIFT
 62
4
 10
5792.284
 20
-7272.423
 30
317.000
 70
    32
  0
VERTEX
  8
M50LXLIFT
 62
4
 10
5786.466
 20
-7283.260
 30
317.000
 70
    32
  0
VERTEX
  8
M50LXLIFT
 62
4
 10
5789.230
 20
-7291.563
 30
317.000
 70
    32
  0
VERTEX
  8
M50LXLIFT
 62
4
 10
5801.461
 20
-7303.537
 30
317.000
 70
    32
  0
SEQEND
  8
M50LXLIFT
  0
POLYLINE
  8
M50LXLIFT
 62
4
 66
     1
 70
     9
  0
VERTEX
  8
M50LXLIFT
 62
4
 10
5871.018
 20
-7375.967
 30
286.000
 70
    32
  0
VERTEX
  8
M50LXLIFT
 62
4
 10
5863.752
 20
-7352.605
 30
286.000
 70
    32
  0
VERTEX
  8
M50LXLIFT
 62
4
 10
5864.909
 20
-7344.984
 30
286.000
 70
    32
  0
VERTEX
  8
M50LXLIFT
 62
4
 10
5862.256
 20
-7338.859
 30
286.000
 70
    32
  0
VERTEX
  8
M50LXLIFT
 62
4
 10
5871.772
 20
-7332.508
 30
286.000
 70
    32
  0
VERTEX
  8
M50LXLIFT
 62
4
 10
5866.470
 20
-7325.603
 30
286.000
 70
    32
  0
VERTEX
  8
M50LXLIFT
 62
4
 10
5844.876
 20
-7315.846
 30
286.000
 70
    32
  0
VERTEX
  8
M50LXLIFT
 62
4
 10
5840.371
 20
-7320.255
 30
286.000
 70
    32
  0
VERTEX
  8
M50LXLIFT
 62
4
 10
5842.402
 20
-7327.166
 30
286.000
 70
    32
  0
VERTEX
  8
M50LXLIFT
 62
4
 10
5841.428
 20
-7341.857
 30
286.000
 70
    32
  0
VERTEX
  8
M50LXLIFT
 62
4
 10
5851.401
 20
-7357.331
 30
286.000
 70
    32
  0
VERTEX
  8
M50LXLIFT
 62
4
 10
5848.657
 20
-7373.325
 30
286.000
 70
    32
  0
VERTEX
  8
M50LXLIFT
 62
4
 10
5860.443
 20
-7382.660
 30
286.000
 70
    32
  0
SEQEND
  8
M50LXLIFT
  0
POLYLINE
  8
M50LXLIFT
 62
4
 66
     1
 70
     9
  0
VERTEX
  8
M50LXLIFT
 62
4
 10
5851.763
 20
-7314.149
 30
307.000
 70
    32
  0
VERTEX
  8
M50LXLIFT
 62
4
 10
5843.083
 20
-7324.918
 30
307.000
 70
    32
  0
VERTEX
  8
M50LXLIFT
 62
4
 10
5850.158
 20
-7340.759
 30
307.000
 70
    32
  0
VERTEX
  8
M50LXLIFT
 62
4
 10
5858.719
 20
-7340.940
 30
307.000
 70
    32
  0
VERTEX
  8
M50LXLIFT
 62
4
 10
5861.245
 20
-7345.094
 30
307.000
 70
    32
  0
VERTEX
  8
M50LXLIFT
 62
4
 10
5857.832
 20
-7356.803
 30
307.000
 70
    32
  0
VERTEX
  8
M50LXLIFT
 62
4
 10
5846.831
 20
-7359.937
 30
307.000
 70
    32
  0
VERTEX
  8
M50LXLIFT
 62
4
 10
5839.387
 20
-7365.103
 30
307.000
 70
    32
  0
VERTEX
  8
M50LXLIFT
 62
4
 10
5824.242
 20
-7363.997
 30
307.000
 70
    32
  0
VERTEX
  8
M50LXLIFT
 62
4
 10
5819.804
 20
-7355.771
 30
307.000
 70
    32
  0
VERTEX
  8
M50LXLIFT
 62
4
 10
5820.629
 20
-7336.077
 30
307.000
 70
    32
  0
VERTEX
  8
M50LXLIFT
 62
4
 10
5820.158
 20
-7324.360
 30
307.000
 70
    32
  0
VERTEX
  8
M50LXLIFT
 62
4
 10
5837.223
 20
-7313.686
 30
307.000
 70
    32
  0
VERTEX
  8
M50LXLIFT
 62
4
 10
5843.457
 20
-7307.233
 30
307.000
 70
    32
  0
SEQEND
  8
M50LXLIFT
  0
POLYLINE
  8
M50LXLIFT
 62
4
 66
     1
 70
     9
  0
VERTEX
  8
M50LXLIFT
 62
4
 10
5870.476
 20
-7357.917
 30
297.000
 70
    32
  0
VERTEX
  8
M50LXLIFT
 62
4
 10
5851.713
 20
-7334.661
 30
297.000
 70
    32
  0
VERTEX
  8
M50LXLIFT
 62
4
 10
5845.810
 20
-7320.205
 30
297.000
 70
    32
  0
VERTEX
  8
M50LXLIFT
 62
4
 10
5841.558
 20
-7302.094
 30
297.000
 70
    32
  0
VERTEX
  8
M50LXLIFT
 62
4
 10
5836.973
 20
-7305.643
 30
297.000
 70
    32
  0
VERTEX
  8
M50LXLIFT
 62
4
 10
5832.074
 20
-7327.215
 30
297.000
 70
    32
  0
VERTEX
  8
M50LXLIFT
 62
4
 10
5839.207
 20
-7344.482
 30
297.000
 70
    32
  0
VERTEX
  8
M50LXLIFT
 62
4
 10
5824.400
 20
-7357.675
 30
297.000
 70
    32
  0
VERTEX
  8
M50LXLIFT
 62
4
 10
5833.798
 20
-7367.423
 30
297.000
 70
    32
  0
VERTEX
  8
M50LXLIFT
 62
4
 10
5845.111
 20
-7373.869
 30
297.000
 70
    32
  0
VERTEX
  8
M50LXLIFT
 62
4
 10
5850.522
 20
-7379.472
 30
297.000
 70
    32
  0
VERTEX
  8
M50LXLIFT
 62
4
 10
5858.022
 20
-7375.273
 30
297.000
 70
    32
  0
SEQEND
  8
M50LXLIFT
  0
POLYLINE
  8
M50LXLIFT
 62
4
 66
     1
 70
     9
  0
VERTEX
  8
M50LXLIFT
 62
4
 10
5861.583
 20
-7369.225
 30
275.000
 70
    32
  0
VERTEX
  8
M50LXLIFT
 62
4
 10
5841.936
 20
-7345.509
 30
275.000
 70
    32
  0
VERTEX
  8
M50LXLIFT
 62
4
 10
5844.970
 20
-7330.073
 30
275.000
 70
    32
  0
VERTEX
  8
M50LXLIFT
 62
4
 10
5852.684
 20
-7323.956
 30
275.000
 70
    32
  0
VERTEX
  8
M50LXLIFT
 62
4
 10
5866.049
 20
-7318.696
 30
275.000
 70
    32
  0
VERTEX
  8
M50LXLIFT
 62
4
 10
5882.826
 20
-7329.034
 30
275.000
 70
    32
  0
VERTEX
  8
M50LXLIFT
 62
4
 10
5878.358
 20
-7373.782
 30
275.000
 70
    32
  0
VERTEX
  8
M50LXLIFT
 62
4
 10
5865.540
 20
-7380.821
 30
275.000
 70
    32
  0
SEQEND
  8
M50LXLIFT
  0
POLYLINE
  8
M50LXLIFT
 62
4
 66
     1
 70
     9
  0
VERTEX
  8
M50LXLIFT
 62
4
 10
5774.284
 20
-7376.871
 30
350.000
 70
    32
  0
VERTEX
  8
M50LXLIFT
 62
4
 10
5772.635
 20
-7360.727
 30
350.000
 70
    32
  0
VERTEX
  8
M50LXLIFT
 62
4
 10
5777.472
 20
-7346.565
 30
350.000
 70
    32
  0
VERTEX
  8
M50LXLIFT
 62
4
 10
5792.539
 20
-7332.062
 30
350.000
 70
    32
  0
VERTEX
  8
M50LXLIFT
 62
4
 10
5796.930
 20
-7323.362
 30
350.000
 70
    32
  0
VERTEX
  8
M50LXLIFT
 62
4
 10
5809.946
 20
-7303.711
 30
350.000
 70
    32
  0
VERTEX
  8
M50LXLIFT
 62
4
 10
5811.369
 20
-7294.690
 30
350.000
 70
    32
  0
VERTEX
  8
M50LXLIFT
 62
4
 10
5805.639
 20
-7283.522
 30
350.000
 70
    32
  0
VERTEX
  8
M50LXLIFT
 62
4
 10
5797.475
 20
-7278.081
 30
350.000
 70
    32
  0
VERTEX
  8
M50LXLIFT
 62
4
 10
5790.548
 20
-7264.848
 30
350.000
 70
    32
  0
VERTEX
  8
M50LXLIFT
 62
4
 10
5780.387
 20
-7267.651
 30
350.000
 70
    32
  0
VERTEX
  8
M50LXLIFT
 62
4
 10
5776.160
 20
-7275.684
 30
350.000
 70
    32
  0
VERTEX
  8
M50LXLIFT
 62
4
 10
5778.581
 20
-7298.793
 30
350.000
 70
    32
  0
VERTEX
  8
M50LXLIFT
 62
4
 10
5771.978
 20
-7311.746
 30
350.000
 70
    32
  0
VERTEX
  8
M50LXLIFT
 62
4
 10
5761.189
 20
-7320.800
 30
350.000
 70
    32
  0
VERTEX
  8
M50LXLIFT
 62
4
 10
5764.477
 20
-7327.328
 30
350.000
 70
    32
  0
VERTEX
  8
M50LXLIFT
 62
4
 10
5757.223
 20
-7351.680
 30
350.000
 70
    32
  0
VERTEX
  8
M50LXLIFT
 62
4
 10
5754.440
 20
-7379.722
 30
350.000
 70
    32
  0
SEQEND
  8
M50LXLIFT
  0
POLYLINE
  8
M50LXLIFT
 62
4
 66
     1
 70
     9
  0
VERTEX
  8
M50LXLIFT
 62
4
 10
5796.666
 20
-7334.436
 30
340.000
 70
    32
  0
VERTEX
  8
M50LXLIFT
 62
4
 10
5800.241
 20
-7317.294
 30
340.000
 70
    32
  0
VERTEX
  8
M50LXLIFT
 62
4
 10
5808.458
 20
-7311.544
 30
340.000
 70
    32
  0
VERTEX
  8
M50LXLIFT
 62
4
 10
5809.702
 20
-7298.295
 30
340.000
 70
    32
  0
VERTEX
  8
M50LXLIFT
 62
4
 10
5804.472
 20
-7286.135
 30
340.000
 70
    32
  0
VERTEX
  8
M50LXLIFT
 62
4
 10
5799.387
 20
-7277.630
 30
340.000
 70
    32
  0
VERTEX
  8
M50LXLIFT
 62
4
 10
5788.498
 20
-7278.452
 30
340.000
 70
    32
  0
VERTEX
  8
M50LXLIFT
 62
4
 10
5786.293
 20
-7276.156
 30
340.000
 70
    32
  0
VERTEX
  8
M50LXLIFT
 62
4
 10
5774.732
 20
-7283.032
 30
340.000
 70
    32
  0
VERTEX
  8
M50LXLIFT
 62
4
 10
5772.200
 20
-7289.405
 30
340.000
 70
    32
  0
VERTEX
  8
M50LXLIFT
 62
4
 10
5777.096
 20
-7298.386
 30
340.000
 70
    32
  0
VERTEX
  8
M50LXLIFT
 62
4
 10
5777.428
 20
-7303.006
 30
340.000
 70
    32
  0
VERTEX
  8
M50LXLIFT
 62
4
 10
5771.580
 20
-7308.378
 30
340.000
 70
    32
  0
VERTEX
  8
M50LXLIFT
 62
4
 10
5765.080
 20
-7308.712
 30
340.000
 70
    32
  0
VERTEX
  8
M50LXLIFT
 62
4
 10
5766.974
 20
-7327.641
 30
340.000
 70
    32
  0
VERTEX
  8
M50LXLIFT
 62
4
 10
5774.501
 20
-7340.918
 30
340.000
 70
    32
  0
VERTEX
  8
M50LXLIFT
 62
4
 10
5783.248
 20
-7343.512
 30
340.000
 70
    32
  0
SEQEND
  8
M50LXLIFT
  0
POLYLINE
  8
M50LXLIFT
 62
4
 66
     1
 70
     9
  0
VERTEX
  8
M50LXLIFT
 62
4
 10
5798.763
 20
-7274.883
 30
330.000
 70
    32
  0
VERTEX
  8
M50LXLIFT
 62
4
 10
5813.102
 20
-7305.691
 30
330.000
 70
    32
  0
VERTEX
  8
M50LXLIFT
 62
4
 10
5810.886
 20
-7312.772
 30
330.000
 70
    32
  0
VERTEX
  8
M50LXLIFT
 62
4
 10
5804.406
 20
-7317.314
 30
330.000
 70
    32
  0
VERTEX
  8
M50LXLIFT
 62
4
 10
5787.646
 20
-7315.880
 30
330.000
 70
    32
  0
VERTEX
  8
M50LXLIFT
 62
4
 10
5784.111
 20
-7315.968
 30
330.000
 70
    32
  0
VERTEX
  8
M50LXLIFT
 62
4
 10
5781.013
 20
-7312.790
 30
330.000
 70
    32
  0
VERTEX
  8
M50LXLIFT
 62
4
 10
5785.127
 20
-7297.007
 30
330.000
 70
    32
  0
VERTEX
  8
M50LXLIFT
 62
4
 10
5782.319
 20
-7284.126
 30
330.000
 70
    32
  0
VERTEX
  8
M50LXLIFT
 62
4
 10
5777.260
 20
-7274.862
 30
330.000
 70
    32
  0
VERTEX
  8
M50LXLIFT
 62
4
 10
5787.484
 20
-7270.515
 30
330.000
 70
    32
  0
SEQEND
  8
M50LXLIFT
  0
POLYLINE
  8
M50LXLIFT
 62
4
 66
     1
 70
     9
  0
VERTEX
  8
M50LXLIFT
 62
4
 10
5762.550
 20
-7242.794
 30
368.000
 70
    32
  0
VERTEX
  8
M50LXLIFT
 62
4
 10
5775.431
 20
-7252.001
 30
368.000
 70
    32
  0
VERTEX
  8
M50LXLIFT
 62
4
 10
5782.325
 20
-7262.752
 30
368.000
 70
    32
  0
VERTEX
  8
M50LXLIFT
 62
4
 10
5784.368
 20
-7271.881
 30
368.000
 70
    32
  0
VERTEX
  8
M50LXLIFT
 62
4
 10
5798.278
 20
-7285.372
 30
368.000
 70
    32
  0
VERTEX
  8
M50LXLIFT
 62
4
 10
5779.607
 20
-7307.147
 30
368.000
 70
    32
  0
VERTEX
  8
M50LXLIFT
 62
4
 10
5783.253
 20
-7311.547
 30
368.000
 70
    32
  0
VERTEX
  8
M50LXLIFT
 62
4
 10
5772.157
 20
-7320.901
 30
368.000
 70
    32
  0
VERTEX
  8
M50LXLIFT
 62
4
 10
5760.083
 20
-7325.164
 30
368.000
 70
    32
  0
VERTEX
  8
M50LXLIFT
 62
4
 10
5756.846
 20
-7330.354
 30
368.000
 70
    32
  0
VERTEX
  8
M50LXLIFT
 62
4
 10
5752.206
 20
-7329.013
 30
368.000
 70
    32
  0
VERTEX
  8
M50LXLIFT
 62
4
 10
5751.273
 20
-7321.356
 30
368.000
 70
    32
  0
VERTEX
  8
M50LXLIFT
 62
4
 10
5761.893
 20
-7311.371
 30
368.000
 70
    32
  0
VERTEX
  8
M50LXLIFT
 62
4
 10
5770.322
 20
-7295.998
 30
368.000
 70
    32
  0
VERTEX
  8
M50LXLIFT
 62
4
 10
5760.743
 20
-7286.501
 30
368.000
 70
    32
  0
VERTEX
  8
M50LXLIFT
 62
4
 10
5756.574
 20
-7276.885
 30
368.000
 70
    32
  0
VERTEX
  8
M50LXLIFT
 62
4
 10
5769.160
 20
-7259.148
 30
368.000
 70
    32
  0
VERTEX
  8
M50LXLIFT
 62
4
 10
5757.690
 20
-7251.957
 30
368.000
 70
    32
  0
SEQEND
  8
M50LXLIFT
  0
POLYLINE
  8
M50LXLIFT
 62
4
 66
     1
 70
     9
  0
VERTEX
  8
M50LXLIFT
 62
4
 10
5802.034
 20
-7298.829
 30
361.000
 70
    32
  0
VERTEX
  8
M50LXLIFT
 62
4
 10
5794.081
 20
-7280.532
 30
361.000
 70
    32
  0
VERTEX
  8
M50LXLIFT
 62
4
 10
5787.387
 20
-7253.952
 30
361.000
 70
    32
  0
VERTEX
  8
M50LXLIFT
 62
4
 10
5775.525
 20
-7255.830
 30
361.000
 70
    32
  0
VERTEX
  8
M50LXLIFT
 62
4
 10
5768.327
 20
-7262.349
 30
361.000
 70
    32
  0
VERTEX
  8
M50LXLIFT
 62
4
 10
5766.438
 20
-7278.134
 30
361.000
 70
    32
  0
VERTEX
  8
M50LXLIFT
 62
4
 10
5768.642
 20
-7288.351
 30
361.000
 70
    32
  0
VERTEX
  8
M50LXLIFT
 62
4
 10
5762.638
 20
-7299.207
 30
361.000
 70
    32
  0
VERTEX
  8
M50LXLIFT
 62
4
 10
5757.127
 20
-7312.089
 30
361.000
 70
    32
  0
VERTEX
  8
M50LXLIFT
 62
4
 10
5760.190
 20
-7321.249
 30
361.000
 70
    32
  0
VERTEX
  8
M50LXLIFT
 62
4
 10
5778.301
 20
-7312.890
 30
361.000
 70
    32
  0
SEQEND
  8
M50LXLIFT
  0
POLYLINE
  8
M50LXLIFT
 62
2
 66
     1
 70
     9
  0
VERTEX
  8
M50LXLIFT
 62
2
 10
5747.606
 20
-7402.127
 30
348.000
 70
    32
  0
VERTEX
  8
M50LXLIFT
 62
2
 10
5744.182
 20
-7419.831
 30
348.000
 70
    32
  0
VERTEX
  8
M50LXLIFT
 62
2
 10
5731.081
 20
-7430.045
 30
348.000
 70
    32
  0
VERTEX
  8
M50LXLIFT
 62
2
 10
5711.307
 20
-7453.263
 30
348.000
 70
    32
  0
VERTEX
  8
M50LXLIFT
 62
2
 10
5694.317
 20
-7448.439
 30
348.000
 70
    32
  0
VERTEX
  8
M50LXLIFT
 62
2
 10
5690.937
 20
-7465.019
 30
348.000
 70
    32
  0
VERTEX
  8
M50LXLIFT
 62
2
 10
5696.885
 20
-7479.739
 30
348.000
 70
    32
  0
VERTEX
  8
M50LXLIFT
 62
2
 10
5692.527
 20
-7486.558
 30
348.000
 70
    32
  0
VERTEX
  8
M50LXLIFT
 62
2
 10
5681.819
 20
-7485.069
 30
348.000
 70
    32
  0
VERTEX
  8
M50LXLIFT
 62
2
 10
5672.317
 20
-7473.081
 30
348.000
 70
    32
  0
VERTEX
  8
M50LXLIFT
 62
2
 10
5674.586
 20
-7459.287
 30
348.000
 70
    32
  0
VERTEX
  8
M50LXLIFT
 62
2
 10
5681.121
 20
-7445.947
 30
348.000
 70
    32
  0
VERTEX
  8
M50LXLIFT
 62
2
 10
5688.853
 20
-7439.259
 30
348.000
 70
    32
  0
VERTEX
  8
M50LXLIFT
 62
2
 10
5680.881
 20
-7422.538
 30
348.000
 70
    32
  0
VERTEX
  8
M50LXLIFT
 62
2
 10
5717.513
 20
-7389.610
 30
348.000
 70
    32
  0
VERTEX
  8
M50LXLIFT
 62
2
 10
5727.592
 20
-7401.936
 30
348.000
 70
    32
  0
SEQEND
  8
M50LXLIFT
  0
POLYLINE
  8
M50LXLIFT
 62
2
 66
     1
 70
     9
  0
VERTEX
  8
M50LXLIFT
 62
2
 10
5742.367
 20
-7377.865
 30
332.000
 70
    32
  0
VERTEX
  8
M50LXLIFT
 62
2
 10
5757.948
 20
-7391.388
 30
332.000
 70
    32
  0
VERTEX
  8
M50LXLIFT
 62
2
 10
5761.756
 20
-7413.389
 30
332.000
 70
    32
  0
VERTEX
  8
M50LXLIFT
 62
2
 10
5765.374
 20
-7421.137
 30
332.000
 70
    32
  0
VERTEX
  8
M50LXLIFT
 62
2
 10
5736.465
 20
-7445.973
 30
332.000
 70
    32
  0
VERTEX
  8
M50LXLIFT
 62
2
 10
5722.851
 20
-7461.291
 30
332.000
 70
    32
  0
VERTEX
  8
M50LXLIFT
 62
2
 10
5705.411
 20
-7456.172
 30
332.000
 70
    32
  0
VERTEX
  8
M50LXLIFT
 62
2
 10
5697.096
 20
-7451.253
 30
332.000
 70
    32
  0
VERTEX
  8
M50LXLIFT
 62
2
 10
5697.963
 20
-7443.721
 30
332.000
 70
    32
  0
VERTEX
  8
M50LXLIFT
 62
2
 10
5695.235
 20
-7427.315
 30
332.000
 70
    32
  0
VERTEX
  8
M50LXLIFT
 62
2
 10
5701.719
 20
-7419.018
 30
332.000
 70
    32
  0
VERTEX
  8
M50LXLIFT
 62
2
 10
5703.341
 20
-7403.374
 30
332.000
 70
    32
  0
SEQEND
  8
M50LXLIFT
  0
POLYLINE
  8
M50LXLIFT
 62
2
 66
     1
 70
     9
  0
VERTEX
  8
M50LXLIFT
 62
2
 10
5720.629
 20
-7378.218
 30
359.000
 70
    32
  0
VERTEX
  8
M50LXLIFT
 62
2
 10
5733.670
 20
-7377.218
 30
359.000
 70
    32
  0
VERTEX
  8
M50LXLIFT
 62
2
 10
5751.034
 20
-7380.239
 30
359.000
 70
    32
  0
VERTEX
  8
M50LXLIFT
 62
2
 10
5747.637
 20
-7399.177
 30
359.000
 70
    32
  0
VERTEX
  8
M50LXLIFT
 62
2
 10
5751.810
 20
-7412.410
 30
359.000
 70
    32
  0
VERTEX
  8
M50LXLIFT
 62
2
 10
5721.102
 20
-7426.867
 30
359.000
 70
    32
  0
VERTEX
  8
M50LXLIFT
 62
2
 10
5691.974
 20
-7441.261
 30
359.000
 70
    32
  0
VERTEX
  8
M50LXLIFT
 62
2
 10
5684.536
 20
-7457.167
 30
359.000
 70
    32
  0
VERTEX
  8
M50LXLIFT
 62
2
 10
5681.115
 20
-7466.801
 30
359.000
 70
    32
  0
VERTEX
  8
M50LXLIFT
 62
2
 10
5669.198
 20
-7475.331
 30
359.000
 70
    32
  0
VERTEX
  8
M50LXLIFT
 62
2
 10
5668.659
 20
-7452.310
 30
359.000
 70
    32
  0
VERTEX
  8
M50LXLIFT
 62
2
 10
5678.084
 20
-7415.670
 30
359.000
 70
    32
  0
VERTEX
  8
M50LXLIFT
 62
2
 10
5674.943
 20
-7402.665
 30
359.000
 70
    32
  0
VERTEX
  8
M50LXLIFT
 62
2
 10
5681.671
 20
-7399.088
 30
359.000
 70
    32
  0
SEQEND
  8
M50LXLIFT
  0
POLYLINE
  8
M50LXLIFT
 62
2
 66
     1
 70
     9
  0
VERTEX
  8
M50LXLIFT
 62
2
 10
5735.927
 20
-7416.406
 30
368.000
 70
    32
  0
VERTEX
  8
M50LXLIFT
 62
2
 10
5741.700
 20
-7392.696
 30
368.000
 70
    32
  0
VERTEX
  8
M50LXLIFT
 62
2
 10
5745.223
 20
-7375.192
 30
368.000
 70
    32
  0
VERTEX
  8
M50LXLIFT
 62
2
 10
5741.033
 20
-7364.382
 30
368.000
 70
    32
  0
VERTEX
  8
M50LXLIFT
 62
2
 10
5727.814
 20
-7360.269
 30
368.000
 70
    32
  0
VERTEX
  8
M50LXLIFT
 62
2
 10
5717.179
 20
-7364.107
 30
368.000
 70
    32
  0
VERTEX
  8
M50LXLIFT
 62
2
 10
5703.511
 20
-7370.780
 30
368.000
 70
    32
  0
VERTEX
  8
M50LXLIFT
 62
2
 10
5692.024
 20
-7370.861
 30
368.000
 70
    32
  0
VERTEX
  8
M50LXLIFT
 62
2
 10
5690.989
 20
-7371.531
 30
368.000
 70
    32
  0
VERTEX
  8
M50LXLIFT
 62
2
 10
5664.079
 20
-7400.176
 30
368.000
 70
    32
  0
VERTEX
  8
M50LXLIFT
 62
2
 10
5654.757
 20
-7409.403
 30
368.000
 70
    32
  0
VERTEX
  8
M50LXLIFT
 62
2
 10
5653.600
 20
-7417.644
 30
368.000
 70
    32
  0
VERTEX
  8
M50LXLIFT
 62
2
 10
5660.979
 20
-7425.390
 30
368.000
 70
    32
  0
VERTEX
  8
M50LXLIFT
 62
2
 10
5662.660
 20
-7458.989
 30
368.000
 70
    32
  0
VERTEX
  8
M50LXLIFT
 62
2
 10
5664.404
 20
-7468.013
 30
368.000
 70
    32
  0
VERTEX
  8
M50LXLIFT
 62
2
 10
5671.880
 20
-7486.684
 30
368.000
 70
    32
  0
VERTEX
  8
M50LXLIFT
 62
2
 10
5675.506
 20
-7489.890
 30
368.000
 70
    32
  0
VERTEX
  8
M50LXLIFT
 62
2
 10
5683.639
 20
-7482.440
 30
368.000
 70
    32
  0
VERTEX
  8
M50LXLIFT
 62
2
 10
5681.843
 20
-7466.635
 30
368.000
 70
    32
  0
VERTEX
  8
M50LXLIFT
 62
2
 10
5689.967
 20
-7455.672
 30
368.000
 70
    32
  0
VERTEX
  8
M50LXLIFT
 62
2
 10
5686.487
 20
-7447.846
 30
368.000
 70
    32
  0
VERTEX
  8
M50LXLIFT
 62
2
 10
5697.522
 20
-7428.199
 30
368.000
 70
    32
  0
VERTEX
  8
M50LXLIFT
 62
2
 10
5708.981
 20
-7416.261
 30
368.000
 70
    32
  0
VERTEX
  8
M50LXLIFT
 62
2
 10
5728.476
 20
-7422.572
 30
368.000
 70
    32
  0
SEQEND
  8
M50LXLIFT
  0
POLYLINE
  8
M50LXLIFT
 62
2
 66
     1
 70
     9
  0
VERTEX
  8
M50LXLIFT
 62
2
 10
5779.270
 20
-7409.906
 30
317.000
 70
    32
  0
VERTEX
  8
M50LXLIFT
 62
2
 10
5765.462
 20
-7408.464
 30
317.000
 70
    32
  0
VERTEX
  8
M50LXLIFT
 62
2
 10
5757.454
 20
-7401.317
 30
317.000
 70
    32
  0
VERTEX
  8
M50LXLIFT
 62
2
 10
5735.071
 20
-7406.542
 30
317.000
 70
    32
  0
VERTEX
  8
M50LXLIFT
 62
2
 10
5721.307
 20
-7411.493
 30
317.000
 70
    32
  0
VERTEX
  8
M50LXLIFT
 62
2
 10
5705.412
 20
-7420.633
 30
317.000
 70
    32
  0
VERTEX
  8
M50LXLIFT
 62
2
 10
5691.465
 20
-7429.313
 30
317.000
 70
    32
  0
VERTEX
  8
M50LXLIFT
 62
2
 10
5694.325
 20
-7444.079
 30
317.000
 70
    32
  0
VERTEX
  8
M50LXLIFT
 62
2
 10
5706.263
 20
-7458.013
 30
317.000
 70
    32
  0
VERTEX
  8
M50LXLIFT
 62
2
 10
5713.683
 20
-7479.535
 30
317.000
 70
    32
  0
VERTEX
  8
M50LXLIFT
 62
2
 10
5736.417
 20
-7466.536
 30
317.000
 70
    32
  0
VERTEX
  8
M50LXLIFT
 62
2
 10
5762.704
 20
-7440.670
 30
317.000
 70
    32
  0
VERTEX
  8
M50LXLIFT
 62
2
 10
5780.771
 20
-7423.717
 30
317.000
 70
    32
  0
SEQEND
  8
M50LXLIFT
  0
POLYLINE
  8
M50LXLIFT
 62
2
 66
     1
 70
     9
  0
VERTEX
  8
M50LXLIFT
 62
2
 10
5739.692
 20
-7408.131
 30
307.000
 70
    32
  0
VERTEX
  8
M50LXLIFT
 62
2
 10
5754.490
 20
-7417.150
 30
307.000
 70
    32
  0
VERTEX
  8
M50LXLIFT
 62
2
 10
5762.233
 20
-7436.024
 30
307.000
 70
    32
  0
VERTEX
  8
M50LXLIFT
 62
2
 10
5748.929
 20
-7448.130
 30
307.000
 70
    32
  0
VERTEX
  8
M50LXLIFT
 62
2
 10
5717.625
 20
-7467.530
 30
307.000
 70
    32
  0
VERTEX
  8
M50LXLIFT
 62
2
 10
5707.037
 20
-7450.289
 30
307.000
 70
    32
  0
VERTEX
  8
M50LXLIFT
 62
2
 10
5694.669
 20
-7435.635
 30
307.000
 70
    32
  0
VERTEX
  8
M50LXLIFT
 62
2
 10
5691.821
 20
-7420.536
 30
307.000
 70
    32
  0
VERTEX
  8
M50LXLIFT
 62
2
 10
5717.690
 20
-7405.312
 30
307.000
 70
    32
  0
VERTEX
  8
M50LXLIFT
 62
2
 10
5724.242
 20
-7406.484
 30
307.000
 70
    32
  0
SEQEND
  8
M50LXLIFT
  0
POLYLINE
  8
M50LXLIFT
 62
2
 66
     1
 70
     9
  0
VERTEX
  8
M50LXLIFT
 62
2
 10
5759.772
 20
-7390.346
 30
327.000
 70
    32
  0
VERTEX
  8
M50LXLIFT
 62
2
 10
5754.694
 20
-7386.550
 30
327.000
 70
    32
  0
VERTEX
  8
M50LXLIFT
 62
2
 10
5734.274
 20
-7401.221
 30
327.000
 70
    32
  0
VERTEX
  8
M50LXLIFT
 62
2
 10
5719.079
 20
-7406.819
 30
327.000
 70
    32
  0
VERTEX
  8
M50LXLIFT
 62
2
 10
5703.786
 20
-7425.797
 30
327.000
 70
    32
  0
VERTEX
  8
M50LXLIFT
 62
2
 10
5699.536
 20
-7435.899
 30
327.000
 70
    32
  0
VERTEX
  8
M50LXLIFT
 62
2
 10
5700.857
 20
-7451.508
 30
327.000
 70
    32
  0
VERTEX
  8
M50LXLIFT
 62
2
 10
5711.167
 20
-7466.732
 30
327.000
 70
    32
  0
VERTEX
  8
M50LXLIFT
 62
2
 10
5731.823
 20
-7452.978
 30
327.000
 70
    32
  0
VERTEX
  8
M50LXLIFT
 62
2
 10
5746.052
 20
-7438.491
 30
327.000
 70
    32
  0
VERTEX
  8
M50LXLIFT
 62
2
 10
5752.132
 20
-7429.989
 30
327.000
 70
    32
  0
VERTEX
  8
M50LXLIFT
 62
2
 10
5766.306
 20
-7424.487
 30
327.000
 70
    32
  0
VERTEX
  8
M50LXLIFT
 62
2
 10
5775.978
 20
-7415.528
 30
327.000
 70
    32
  0
VERTEX
  8
M50LXLIFT
 62
2
 10
5769.695
 20
-7400.292
 30
327.000
 70
    32
  0
SEQEND
  8
M50LXLIFT
  0
POLYLINE
  8
M50LXLIFT
 62
7
 66
     1
 70
     9
  0
VERTEX
  8
M50LXLIFT
 62
7
 10
5740.108
 20
-7483.252
 30
269.000
 70
    32
  0
VERTEX
  8
M50LXLIFT
 62
7
 10
5740.845
 20
-7510.624
 30
269.000
 70
    32
  0
VERTEX
  8
M50LXLIFT
 62
7
 10
5744.095
 20
-7515.637
 30
269.000
 70
    32
  0
VERTEX
  8
M50LXLIFT
 62
7
 10
5752.539
 20
-7518.363
 30
269.000
 70
    32
  0
VERTEX
  8
M50LXLIFT
 62
7
 10
5758.897
 20
-7527.619
 30
269.000
 70
    32
  0
VERTEX
  8
M50LXLIFT
 62
7
 10
5763.262
 20
-7524.529
 30
269.000
 70
    32
  0
VERTEX
  8
M50LXLIFT
 62
7
 10
5770.989
 20
-7513.834
 30
269.000
 70
    32
  0
VERTEX
  8
M50LXLIFT
 62
7
 10
5793.825
 20
-7520.604
 30
269.000
 70
    32
  0
VERTEX
  8
M50LXLIFT
 62
7
 10
5799.283
 20
-7525.483
 30
269.000
 70
    32
  0
VERTEX
  8
M50LXLIFT
 62
7
 10
5810.320
 20
-7521.185
 30
269.000
 70
    32
  0
VERTEX
  8
M50LXLIFT
 62
7
 10
5811.930
 20
-7507.208
 30
269.000
 70
    32
  0
VERTEX
  8
M50LXLIFT
 62
7
 10
5795.212
 20
-7497.340
 30
269.000
 70
    32
  0
VERTEX
  8
M50LXLIFT
 62
7
 10
5787.903
 20
-7490.455
 30
269.000
 70
    32
  0
VERTEX
  8
M50LXLIFT
 62
7
 10
5779.894
 20
-7476.843
 30
269.000
 70
    32
  0
VERTEX
  8
M50LXLIFT
 62
7
 10
5788.965
 20
-7461.829
 30
269.000
 70
    32
  0
VERTEX
  8
M50LXLIFT
 62
7
 10
5790.710
 20
-7450.060
 30
269.000
 70
    32
  0
VERTEX
  8
M50LXLIFT
 62
7
 10
5789.000
 20
-7444.759
 30
269.000
 70
    32
  0
VERTEX
  8
M50LXLIFT
 62
7
 10
5778.376
 20
-7444.235
 30
269.000
 70
    32
  0
VERTEX
  8
M50LXLIFT
 62
7
 10
5771.911
 20
-7448.036
 30
269.000
 70
    32
  0
VERTEX
  8
M50LXLIFT
 62
7
 10
5764.803
 20
-7452.875
 30
269.000
 70
    32
  0
VERTEX
  8
M50LXLIFT
 62
7
 10
5761.156
 20
-7466.196
 30
269.000
 70
    32
  0
SEQEND
  8
M50LXLIFT
  0
POLYLINE
  8
M50LXLIFT
 62
7
 66
     1
 70
     9
  0
VERTEX
  8
M50LXLIFT
 62
7
 10
5753.269
 20
-7506.914
 30
250.000
 70
    32
  0
VERTEX
  8
M50LXLIFT
 62
7
 10
5762.873
 20
-7523.626
 30
250.000
 70
    32
  0
VERTEX
  8
M50LXLIFT
 62
7
 10
5788.935
 20
-7521.690
 30
250.000
 70
    32
  0
VERTEX
  8
M50LXLIFT
 62
7
 10
5796.577
 20
-7521.150
 30
250.000
 70
    32
  0
VERTEX
  8
M50LXLIFT
 62
7
 10
5809.292
 20
-7527.466
 30
250.000
 70
    32
  0
VERTEX
  8
M50LXLIFT
 62
7
 10
5824.329
 20
-7511.802
 30
250.000
 70
    32
  0
VERTEX
  8
M50LXLIFT
 62
7
 10
5827.707
 20
-7488.731
 30
250.000
 70
    32
  0
VERTEX
  8
M50LXLIFT
 62
7
 10
5815.245
 20
-7475.718
 30
250.000
 70
    32
  0
VERTEX
  8
M50LXLIFT
 62
7
 10
5817.382
 20
-7471.023
 30
250.000
 70
    32
  0
VERTEX
  8
M50LXLIFT
 62
7
 10
5810.951
 20
-7461.241
 30
250.000
 70
    32
  0
VERTEX
  8
M50LXLIFT
 62
7
 10
5789.948
 20
-7458.321
 30
250.000
 70
    32
  0
VERTEX
  8
M50LXLIFT
 62
7
 10
5778.359
 20
-7457.158
 30
250.000
 70
    32
  0
VERTEX
  8
M50LXLIFT
 62
7
 10
5766.176
 20
-7474.664
 30
250.000
 70
    32
  0
SEQEND
  8
M50LXLIFT
  0
POLYLINE
  8
M50LXLIFT
 62
7
 66
     1
 70
     9
  0
VERTEX
  8
M50LXLIFT
 62
7
 10
5764.418
 20
-7501.874
 30
277.000
 70
    32
  0
VERTEX
  8
M50LXLIFT
 62
7
 10
5769.365
 20
-7498.667
 30
277.000
 70
    32
  0
VERTEX
  8
M50LXLIFT
 62
7
 10
5778.440
 20
-7499.731
 30
277.000
 70
    32
  0
VERTEX
  8
M50LXLIFT
 62
7
 10
5788.679
 20
-7490.227
 30
277.000
 70
    32
  0
VERTEX
  8
M50LXLIFT
 62
7
 10
5783.086
 20
-7482.781
 30
277.000
 70
    32
  0
VERTEX
  8
M50LXLIFT
 62
7
 10
5780.361
 20
-7473.005
 30
277.000
 70
    32
  0
VERTEX
  8
M50LXLIFT
 62
7
 10
5771.865
 20
-7466.061
 30
277.000
 70
    32
  0
VERTEX
  8
M50LXLIFT
 62
7
 10
5775.815
 20
-7448.314
 30
277.000
 70
    32
  0
VERTEX
  8
M50LXLIFT
 62
7
 10
5786.103
 20
-7437.247
 30
277.000
 70
    32
  0
VERTEX
  8
M50LXLIFT
 62
7
 10
5783.958
 20
-7425.298
 30
277.000
 70
    32
  0
VERTEX
  8
M50LXLIFT
 62
7
 10
5759.563
 20
-7436.171
 30
277.000
 70
    32
  0
VERTEX
  8
M50LXLIFT
 62
7
 10
5750.278
 20
-7443.118
 30
277.000
 70
    32
  0
VERTEX
  8
M50LXLIFT
 62
7
 10
5752.921
 20
-7470.411
 30
277.000
 70
    32
  0
VERTEX
  8
M50LXLIFT
 62
7
 10
5739.581
 20
-7480.889
 30
277.000
 70
    32
  0
VERTEX
  8
M50LXLIFT
 62
7
 10
5733.836
 20
-7486.865
 30
277.000
 70
    32
  0
VERTEX
  8
M50LXLIFT
 62
7
 10
5731.874
 20
-7502.275
 30
277.000
 70
    32
  0
VERTEX
  8
M50LXLIFT
 62
7
 10
5737.677
 20
-7513.711
 30
277.000
 70
    32
  0
VERTEX
  8
M50LXLIFT
 62
7
 10
5747.207
 20
-7525.022
 30
277.000
 70
    32
  0
VERTEX
  8
M50LXLIFT
 62
7
 10
5757.993
 20
-7517.298
 30
277.000
 70
    32
  0
VERTEX
  8
M50LXLIFT
 62
7
 10
5768.008
 20
-7507.195
 30
277.000
 70
    32
  0
SEQEND
  8
M50LXLIFT
  0
POLYLINE
  8
M50LXLIFT
 62
7
 66
     1
 70
     9
  0
VERTEX
  8
M50LXLIFT
 62
7
 10
5803.330
 20
-7463.644
 30
241.000
 70
    32
  0
VERTEX
  8
M50LXLIFT
 62
7
 10
5797.883
 20
-7468.509
 30
241.000
 70
    32
  0
VERTEX
  8
M50LXLIFT
 62
7
 10
5795.801
 20
-7464.931
 30
241.000
 70
    32
  0
VERTEX
  8
M50LXLIFT
 62
7
 10
5787.100
 20
-7464.472
 30
241.000
 70
    32
  0
VERTEX
  8
M50LXLIFT
 62
7
 10
5778.363
 20
-7498.906
 30
241.000
 70
    32
  0
VERTEX
  8
M50LXLIFT
 62
7
 10
5774.694
 20
-7514.633
 30
241.000
 70
    32
  0
VERTEX
  8
M50LXLIFT
 62
7
 10
5778.365
 20
-7528.669
 30
241.000
 70
    32
  0
VERTEX
  8
M50LXLIFT
 62
7
 10
5781.125
 20
-7532.727
 30
241.000
 70
    32
  0
VERTEX
  8
M50LXLIFT
 62
7
 10
5795.517
 20
-7525.101
 30
241.000
 70
    32
  0
VERTEX
  8
M50LXLIFT
 62
7
 10
5818.151
 20
-7526.636
 30
241.000
 70
    32
  0
VERTEX
  8
M50LXLIFT
 62
7
 10
5825.049
 20
-7528.635
 30
241.000
 70
    32
  0
VERTEX
  8
M50LXLIFT
 62
7
 10
5832.794
 20
-7523.497
 30
241.000
 70
    32
  0
VERTEX
  8
M50LXLIFT
 62
7
 10
5836.031
 20
-7513.844
 30
241.000
 70
    32
  0
VERTEX
  8
M50LXLIFT
 62
7
 10
5826.946
 20
-7503.238
 30
241.000
 70
    32
  0
VERTEX
  8
M50LXLIFT
 62
7
 10
5816.156
 20
-7486.605
 30
241.000
 70
    32
  0
VERTEX
  8
M50LXLIFT
 62
7
 10
5817.654
 20
-7470.732
 30
241.000
 70
    32
  0
SEQEND
  8
M50LXLIFT
  0
POLYLINE
  8
M50LXLIFT
 62
7
 66
     1
 70
     9
  0
VERTEX
  8
M50LXLIFT
 62
7
 10
5784.438
 20
-7447.684
 30
258.000
 70
    32
  0
VERTEX
  8
M50LXLIFT
 62
7
 10
5802.395
 20
-7459.199
 30
258.000
 70
    32
  0
VERTEX
  8
M50LXLIFT
 62
7
 10
5802.432
 20
-7479.744
 30
258.000
 70
    32
  0
VERTEX
  8
M50LXLIFT
 62
7
 10
5815.005
 20
-7489.017
 30
258.000
 70
    32
  0
VERTEX
  8
M50LXLIFT
 62
7
 10
5823.899
 20
-7502.770
 30
258.000
 70
    32
  0
VERTEX
  8
M50LXLIFT
 62
7
 10
5823.573
 20
-7511.767
 30
258.000
 70
    32
  0
VERTEX
  8
M50LXLIFT
 62
7
 10
5816.277
 20
-7519.042
 30
258.000
 70
    32
  0
VERTEX
  8
M50LXLIFT
 62
7
 10
5809.752
 20
-7527.059
 30
258.000
 70
    32
  0
VERTEX
  8
M50LXLIFT
 62
7
 10
5804.644
 20
-7529.318
 30
258.000
 70
    32
  0
VERTEX
  8
M50LXLIFT
 62
7
 10
5784.406
 20
-7531.097
 30
258.000
 70
    32
  0
VERTEX
  8
M50LXLIFT
 62
7
 10
5774.128
 20
-7537.302
 30
258.000
 70
    32
  0
VERTEX
  8
M50LXLIFT
 62
7
 10
5768.132
 20
-7537.922
 30
258.000
 70
    32
  0
VERTEX
  8
M50LXLIFT
 62
7
 10
5754.497
 20
-7523.090
 30
258.000
 70
    32
  0
VERTEX
  8
M50LXLIFT
 62
7
 10
5747.342
 20
-7509.469
 30
258.000
 70
    32
  0
VERTEX
  8
M50LXLIFT
 62
7
 10
5743.652
 20
-7495.355
 30
258.000
 70
    32
  0
VERTEX
  8
M50LXLIFT
 62
7
 10
5766.542
 20
-7473.114
 30
258.000
 70
    32
  0
VERTEX
  8
M50LXLIFT
 62
7
 10
5761.964
 20
-7464.145
 30
258.000
 70
    32
  0
SEQEND
  8
M50LXLIFT
  0
POLYLINE
  8
M50LXLIFT
 62
3
 66
     1
 70
     9
  0
VERTEX
  8
M50LXLIFT
 62
3
 10
5814.631
 20
-7538.125
 30
239.000
 70
    32
  0
VERTEX
  8
M50LXLIFT
 62
3
 10
5820.108
 20
-7542.037
 30
239.000
 70
    32
  0
VERTEX
  8
M50LXLIFT
 62
3
 10
5819.659
 20
-7556.379
 30
239.000
 70
    32
  0
VERTEX
  8
M50LXLIFT
 62
3
 10
5822.076
 20
-7561.449
 30
239.000
 70
    32
  0
VERTEX
  8
M50LXLIFT
 62
3
 10
5837.964
 20
-7569.780
 30
239.000
 70
    32
  0
VERTEX
  8
M50LXLIFT
 62
3
 10
5833.968
 20
-7603.126
 30
239.000
 70
    32
  0
VERTEX
  8
M50LXLIFT
 62
3
 10
5829.364
 20
-7606.178
 30
239.000
 70
    32
  0
VERTEX
  8
M50LXLIFT
 62
3
 10
5811.683
 20
-7601.770
 30
239.000
 70
    32
  0
VERTEX
  8
M50LXLIFT
 62
3
 10
5804.662
 20
-7596.493
 30
239.000
 70
    32
  0
VERTEX
  8
M50LXLIFT
 62
3
 10
5805.955
 20
-7591.742
 30
239.000
 70
    32
  0
VERTEX
  8
M50LXLIFT
 62
3
 10
5800.487
 20
-7582.067
 30
239.000
 70
    32
  0
VERTEX
  8
M50LXLIFT
 62
3
 10
5799.764
 20
-7567.608
 30
239.000
 70
    32
  0
VERTEX
  8
M50LXLIFT
 62
3
 10
5801.898
 20
-7552.898
 30
239.000
 70
    32
  0
VERTEX
  8
M50LXLIFT
 62
3
 10
5801.892
 20
-7545.190
 30
239.000
 70
    32
  0
SEQEND
  8
M50LXLIFT
  0
POLYLINE
  8
M50LXLIFT
 62
13
 66
     1
 70
     9
  0
VERTEX
  8
M50LXLIFT
 62
13
 10
5647.115
 20
-7587.867
 30
292.000
 70
    32
  0
VERTEX
  8
M50LXLIFT
 62
13
 10
5650.027
 20
-7600.570
 30
292.000
 70
    32
  0
VERTEX
  8
M50LXLIFT
 62
13
 10
5648.434
 20
-7615.607
 30
292.000
 70
    32
  0
VERTEX
  8
M50LXLIFT
 62
13
 10
5643.220
 20
-7612.677
 30
292.000
 70
    32
  0
VERTEX
  8
M50LXLIFT
 62
13
 10
5626.434
 20
-7606.040
 30
292.000
 70
    32
  0
VERTEX
  8
M50LXLIFT
 62
13
 10
5616.135
 20
-7613.404
 30
292.000
 70
    32
  0
VERTEX
  8
M50LXLIFT
 62
13
 10
5608.268
 20
-7632.078
 30
292.000
 70
    32
  0
VERTEX
  8
M50LXLIFT
 62
13
 10
5608.127
 20
-7659.912
 30
292.000
 70
    32
  0
VERTEX
  8
M50LXLIFT
 62
13
 10
5625.787
 20
-7679.005
 30
292.000
 70
    32
  0
VERTEX
  8
M50LXLIFT
 62
13
 10
5653.600
 20
-7675.559
 30
292.000
 70
    32
  0
VERTEX
  8
M50LXLIFT
 62
13
 10
5652.119
 20
-7662.130
 30
292.000
 70
    32
  0
VERTEX
  8
M50LXLIFT
 62
13
 10
5653.515
 20
-7653.351
 30
292.000
 70
    32
  0
VERTEX
  8
M50LXLIFT
 62
13
 10
5669.813
 20
-7631.745
 30
292.000
 70
    32
  0
VERTEX
  8
M50LXLIFT
 62
13
 10
5659.046
 20
-7598.733
 30
292.000
 70
    32
  0
VERTEX
  8
M50LXLIFT
 62
13
 10
5660.350
 20
-7586.419
 30
292.000
 70
    32
  0
SEQEND
  8
M50LXLIFT
  0
POLYLINE
  8
M50LXLIFT
 62
13
 66
     1
 70
     9
  0
VERTEX
  8
M50LXLIFT
 62
13
 10
5657.907
 20
-7578.129
 30
281.000
 70
    32
  0
VERTEX
  8
M50LXLIFT
 62
13
 10
5651.605
 20
-7589.424
 30
281.000
 70
    32
  0
VERTEX
  8
M50LXLIFT
 62
13
 10
5654.676
 20
-7591.964
 30
281.000
 70
    32
  0
VERTEX
  8
M50LXLIFT
 62
13
 10
5654.097
 20
-7611.919
 30
281.000
 70
    32
  0
VERTEX
  8
M50LXLIFT
 62
13
 10
5642.377
 20
-7620.004
 30
281.000
 70
    32
  0
VERTEX
  8
M50LXLIFT
 62
13
 10
5634.967
 20
-7615.424
 30
281.000
 70
    32
  0
VERTEX
  8
M50LXLIFT
 62
13
 10
5615.984
 20
-7626.239
 30
281.000
 70
    32
  0
VERTEX
  8
M50LXLIFT
 62
13
 10
5604.367
 20
-7640.686
 30
281.000
 70
    32
  0
VERTEX
  8
M50LXLIFT
 62
13
 10
5615.988
 20
-7665.948
 30
281.000
 70
    32
  0
VERTEX
  8
M50LXLIFT
 62
13
 10
5615.481
 20
-7669.704
 30
281.000
 70
    32
  0
VERTEX
  8
M50LXLIFT
 62
13
 10
5619.903
 20
-7670.375
 30
281.000
 70
    32
  0
VERTEX
  8
M50LXLIFT
 62
13
 10
5649.930
 20
-7672.482
 30
281.000
 70
    32
  0
VERTEX
  8
M50LXLIFT
 62
13
 10
5654.721
 20
-7669.063
 30
281.000
 70
    32
  0
VERTEX
  8
M50LXLIFT
 62
13
 10
5659.806
 20
-7656.264
 30
281.000
 70
    32
  0
VERTEX
  8
M50LXLIFT
 62
13
 10
5661.204
 20
-7647.051
 30
281.000
 70
    32
  0
VERTEX
  8
M50LXLIFT
 62
13
 10
5674.108
 20
-7636.130
 30
281.000
 70
    32
  0
VERTEX
  8
M50LXLIFT
 62
13
 10
5672.773
 20
-7632.095
 30
281.000
 70
    32
  0
VERTEX
  8
M50LXLIFT
 62
13
 10
5672.880
 20
-7623.943
 30
281.000
 70
    32
  0
VERTEX
  8
M50LXLIFT
 62
13
 10
5669.018
 20
-7617.514
 30
281.000
 70
    32
  0
VERTEX
  8
M50LXLIFT
 62
13
 10
5667.839
 20
-7599.617
 30
281.000
 70
    32
  0
VERTEX
  8
M50LXLIFT
 62
13
 10
5670.324
 20
-7578.695
 30
281.000
 70
    32
  0
SEQEND
  8
M50LXLIFT
  0
POLYLINE
  8
M50LXLIFT
 62
13
 66
     1
 70
     9
  0
VERTEX
  8
M50LXLIFT
 62
13
 10
5536.162
 20
-7615.276
 30
313.000
 70
    32
  0
VERTEX
  8
M50LXLIFT
 62
13
 10
5548.651
 20
-7634.270
 30
313.000
 70
    32
  0
VERTEX
  8
M50LXLIFT
 62
13
 10
5545.886
 20
-7645.814
 30
313.000
 70
    32
  0
VERTEX
  8
M50LXLIFT
 62
13
 10
5560.394
 20
-7667.579
 30
313.000
 70
    32
  0
VERTEX
  8
M50LXLIFT
 62
13
 10
5565.799
 20
-7689.467
 30
313.000
 70
    32
  0
VERTEX
  8
M50LXLIFT
 62
13
 10
5567.435
 20
-7695.635
 30
313.000
 70
    32
  0
VERTEX
  8
M50LXLIFT
 62
13
 10
5580.817
 20
-7708.291
 30
313.000
 70
    32
  0
VERTEX
  8
M50LXLIFT
 62
13
 10
5590.472
 20
-7705.858
 30
313.000
 70
    32
  0
VERTEX
  8
M50LXLIFT
 62
13
 10
5601.787
 20
-7696.499
 30
313.000
 70
    32
  0
VERTEX
  8
M50LXLIFT
 62
13
 10
5605.110
 20
-7683.086
 30
313.000
 70
    32
  0
VERTEX
  8
M50LXLIFT
 62
13
 10
5624.479
 20
-7671.084
 30
313.000
 70
    32
  0
VERTEX
  8
M50LXLIFT
 62
13
 10
5634.613
 20
-7665.957
 30
313.000
 70
    32
  0
VERTEX
  8
M50LXLIFT
 62
13
 10
5636.470
 20
-7659.432
 30
313.000
 70
    32
  0
VERTEX
  8
M50LXLIFT
 62
13
 10
5645.407
 20
-7657.219
 30
313.000
 70
    32
  0
VERTEX
  8
M50LXLIFT
 62
13
 10
5656.549
 20
-7631.482
 30
313.000
 70
    32
  0
VERTEX
  8
M50LXLIFT
 62
13
 10
5651.173
 20
-7624.198
 30
313.000
 70
    32
  0
VERTEX
  8
M50LXLIFT
 62
13
 10
5656.822
 20
-7600.687
 30
313.000
 70
    32
  0
VERTEX
  8
M50LXLIFT
 62
13
 10
5648.822
 20
-7592.871
 30
313.000
 70
    32
  0
VERTEX
  8
M50LXLIFT
 62
13
 10
5634.312
 20
-7585.958
 30
313.000
 70
    32
  0
VERTEX
  8
M50LXLIFT
 62
13
 10
5622.042
 20
-7588.737
 30
313.000
 70
    32
  0
VERTEX
  8
M50LXLIFT
 62
13
 10
5611.431
 20
-7614.732
 30
313.000
 70
    32
  0
VERTEX
  8
M50LXLIFT
 62
13
 10
5583.860
 20
-7636.249
 30
313.000
 70
    32
  0
VERTEX
  8
M50LXLIFT
 62
13
 10
5573.519
 20
-7628.127
 30
313.000
 70
    32
  0
VERTEX
  8
M50LXLIFT
 62
13
 10
5561.616
 20
-7624.751
 30
313.000
 70
    32
  0
VERTEX
  8
M50LXLIFT
 62
13
 10
5542.079
 20
-7610.286
 30
313.000
 70
    32
  0
SEQEND
  8
M50LXLIFT
  0
POLYLINE
  8
M50LXLIFT
 62
13
 66
     1
 70
     9
  0
VERTEX
  8
M50LXLIFT
 62
13
 10
5651.684
 20
-7686.309
 30
271.000
 70
    32
  0
VERTEX
  8
M50LXLIFT
 62
13
 10
5670.109
 20
-7673.770
 30
271.000
 70
    32
  0
VERTEX
  8
M50LXLIFT
 62
13
 10
5669.721
 20
-7646.134
 30
271.000
 70
    32
  0
VERTEX
  8
M50LXLIFT
 62
13
 10
5683.093
 20
-7635.777
 30
271.000
 70
    32
  0
VERTEX
  8
M50LXLIFT
 62
13
 10
5671.903
 20
-7617.099
 30
271.000
 70
    32
  0
VERTEX
  8
M50LXLIFT
 62
13
 10
5670.598
 20
-7602.034
 30
271.000
 70
    32
  0
VERTEX
  8
M50LXLIFT
 62
13
 10
5679.585
 20
-7587.634
 30
271.000
 70
    32
  0
VERTEX
  8
M50LXLIFT
 62
13
 10
5699.084
 20
-7575.931
 30
271.000
 70
    32
  0
VERTEX
  8
M50LXLIFT
 62
13
 10
5693.849
 20
-7566.704
 30
271.000
 70
    32
  0
VERTEX
  8
M50LXLIFT
 62
13
 10
5676.124
 20
-7572.334
 30
271.000
 70
    32
  0
VERTEX
  8
M50LXLIFT
 62
13
 10
5656.123
 20
-7574.961
 30
271.000
 70
    32
  0
VERTEX
  8
M50LXLIFT
 62
13
 10
5655.867
 20
-7603.634
 30
271.000
 70
    32
  0
VERTEX
  8
M50LXLIFT
 62
13
 10
5654.538
 20
-7624.655
 30
271.000
 70
    32
  0
VERTEX
  8
M50LXLIFT
 62
13
 10
5647.904
 20
-7629.684
 30
271.000
 70
    32
  0
VERTEX
  8
M50LXLIFT
 62
13
 10
5643.746
 20
-7625.359
 30
271.000
 70
    32
  0
VERTEX
  8
M50LXLIFT
 62
13
 10
5642.187
 20
-7635.778
 30
271.000
 70
    32
  0
VERTEX
  8
M50LXLIFT
 62
13
 10
5638.575
 20
-7638.846
 30
271.000
 70
    32
  0
VERTEX
  8
M50LXLIFT
 62
13
 10
5639.767
 20
-7652.457
 30
271.000
 70
    32
  0
VERTEX
  8
M50LXLIFT
 62
13
 10
5646.394
 20
-7673.384
 30
271.000
 70
    32
  0
SEQEND
  8
M50LXLIFT
  0
POLYLINE
  8
M50LXLIFT
 62
13
 66
     1
 70
     9
  0
VERTEX
  8
M50LXLIFT
 62
13
 10
5654.074
 20
-7578.580
 30
260.000
 70
    32
  0
VERTEX
  8
M50LXLIFT
 62
13
 10
5661.245
 20
-7603.134
 30
260.000
 70
    32
  0
VERTEX
  8
M50LXLIFT
 62
13
 10
5654.728
 20
-7626.793
 30
260.000
 70
    32
  0
VERTEX
  8
M50LXLIFT
 62
13
 10
5638.702
 20
-7657.838
 30
260.000
 70
    32
  0
VERTEX
  8
M50LXLIFT
 62
13
 10
5636.741
 20
-7670.236
 30
260.000
 70
    32
  0
VERTEX
  8
M50LXLIFT
 62
13
 10
5637.482
 20
-7690.698
 30
260.000
 70
    32
  0
VERTEX
  8
M50LXLIFT
 62
13
 10
5646.279
 20
-7692.376
 30
260.000
 70
    32
  0
VERTEX
  8
M50LXLIFT
 62
13
 10
5650.648
 20
-7679.832
 30
260.000
 70
    32
  0
VERTEX
  8
M50LXLIFT
 62
13
 10
5665.592
 20
-7668.413
 30
260.000
 70
    32
  0
VERTEX
  8
M50LXLIFT
 62
13
 10
5668.827
 20
-7657.585
 30
260.000
 70
    32
  0
VERTEX
  8
M50LXLIFT
 62
13
 10
5661.050
 20
-7638.407
 30
260.000
 70
    32
  0
VERTEX
  8
M50LXLIFT
 62
13
 10
5677.314
 20
-7629.947
 30
260.000
 70
    32
  0
VERTEX
  8
M50LXLIFT
 62
13
 10
5672.491
 20
-7620.942
 30
260.000
 70
    32
  0
VERTEX
  8
M50LXLIFT
 62
13
 10
5675.913
 20
-7608.006
 30
260.000
 70
    32
  0
VERTEX
  8
M50LXLIFT
 62
13
 10
5674.065
 20
-7594.604
 30
260.000
 70
    32
  0
VERTEX
  8
M50LXLIFT
 62
13
 10
5688.619
 20
-7583.693
 30
260.000
 70
    32
  0
VERTEX
  8
M50LXLIFT
 62
13
 10
5689.702
 20
-7578.074
 30
260.000
 70
    32
  0
VERTEX
  8
M50LXLIFT
 62
13
 10
5684.864
 20
-7572.144
 30
260.000
 70
    32
  0
VERTEX
  8
M50LXLIFT
 62
13
 10
5677.240
 20
-7564.232
 30
260.000
 70
    32
  0
VERTEX
  8
M50LXLIFT
 62
13
 10
5671.923
 20
-7566.209
 30
260.000
 70
    32
  0
SEQEND
  8
M50LXLIFT
  0
POLYLINE
  8
M50LXLIFT
 62
13
 66
     1
 70
     9
  0
VERTEX
  8
M50LXLIFT
 62
13
 10
5673.921
 20
-7646.651
 30
250.000
 70
    32
  0
VERTEX
  8
M50LXLIFT
 62
13
 10
5665.434
 20
-7649.322
 30
250.000
 70
    32
  0
VERTEX
  8
M50LXLIFT
 62
13
 10
5662.159
 20
-7639.101
 30
250.000
 70
    32
  0
VERTEX
  8
M50LXLIFT
 62
13
 10
5666.437
 20
-7636.764
 30
250.000
 70
    32
  0
VERTEX
  8
M50LXLIFT
 62
13
 10
5671.829
 20
-7639.264
 30
250.000
 70
    32
  0
VERTEX
  8
M50LXLIFT
 62
13
 10
5684.390
 20
-7642.219
 30
250.000
 70
    32
  0
SEQEND
  8
M50LXLIFT
  0
POLYLINE
  8
M50LXLIFT
 62
13
 66
     1
 70
     9
  0
VERTEX
  8
M50LXLIFT
 62
13
 10
5621.851
 20
-7681.765
 30
302.000
 70
    32
  0
VERTEX
  8
M50LXLIFT
 62
13
 10
5646.969
 20
-7656.995
 30
302.000
 70
    32
  0
VERTEX
  8
M50LXLIFT
 62
13
 10
5660.599
 20
-7637.988
 30
302.000
 70
    32
  0
VERTEX
  8
M50LXLIFT
 62
13
 10
5661.388
 20
-7628.941
 30
302.000
 70
    32
  0
VERTEX
  8
M50LXLIFT
 62
13
 10
5649.335
 20
-7592.527
 30
302.000
 70
    32
  0
VERTEX
  8
M50LXLIFT
 62
13
 10
5652.286
 20
-7584.166
 30
302.000
 70
    32
  0
VERTEX
  8
M50LXLIFT
 62
13
 10
5641.061
 20
-7579.301
 30
302.000
 70
    32
  0
VERTEX
  8
M50LXLIFT
 62
13
 10
5626.834
 20
-7600.732
 30
302.000
 70
    32
  0
VERTEX
  8
M50LXLIFT
 62
13
 10
5611.166
 20
-7620.390
 30
302.000
 70
    32
  0
VERTEX
  8
M50LXLIFT
 62
13
 10
5602.753
 20
-7635.374
 30
302.000
 70
    32
  0
VERTEX
  8
M50LXLIFT
 62
13
 10
5594.991
 20
-7658.544
 30
302.000
 70
    32
  0
VERTEX
  8
M50LXLIFT
 62
13
 10
5597.363
 20
-7671.807
 30
302.000
 70
    32
  0
VERTEX
  8
M50LXLIFT
 62
13
 10
5604.390
 20
-7680.150
 30
302.000
 70
    32
  0
VERTEX
  8
M50LXLIFT
 62
13
 10
5611.469
 20
-7682.416
 30
302.000
 70
    32
  0
SEQEND
  8
M50LXLIFT
  0
POLYLINE
  8
M50LXLIFT
 62
13
 66
     1
 70
     9
  0
VERTEX
  8
M50LXLIFT
 62
13
 10
5618.212
 20
-7591.520
 30
323.000
 70
    32
  0
VERTEX
  8
M50LXLIFT
 62
13
 10
5613.056
 20
-7605.461
 30
323.000
 70
    32
  0
VERTEX
  8
M50LXLIFT
 62
13
 10
5600.885
 20
-7626.115
 30
323.000
 70
    32
  0
VERTEX
  8
M50LXLIFT
 62
13
 10
5581.830
 20
-7644.236
 30
323.000
 70
    32
  0
VERTEX
  8
M50LXLIFT
 62
13
 10
5564.436
 20
-7657.534
 30
323.000
 70
    32
  0
VERTEX
  8
M50LXLIFT
 62
13
 10
5571.798
 20
-7690.317
 30
323.000
 70
    32
  0
VERTEX
  8
M50LXLIFT
 62
13
 10
5579.315
 20
-7702.837
 30
323.000
 70
    32
  0
VERTEX
  8
M50LXLIFT
 62
13
 10
5584.145
 20
-7711.137
 30
323.000
 70
    32
  0
VERTEX
  8
M50LXLIFT
 62
13
 10
5599.461
 20
-7704.602
 30
323.000
 70
    32
  0
VERTEX
  8
M50LXLIFT
 62
13
 10
5602.052
 20
-7696.914
 30
323.000
 70
    32
  0
VERTEX
  8
M50LXLIFT
 62
13
 10
5596.766
 20
-7688.734
 30
323.000
 70
    32
  0
VERTEX
  8
M50LXLIFT
 62
13
 10
5601.895
 20
-7676.229
 30
323.000
 70
    32
  0
VERTEX
  8
M50LXLIFT
 62
13
 10
5618.547
 20
-7674.152
 30
323.000
 70
    32
  0
VERTEX
  8
M50LXLIFT
 62
13
 10
5627.483
 20
-7670.920
 30
323.000
 70
    32
  0
VERTEX
  8
M50LXLIFT
 62
13
 10
5637.282
 20
-7664.436
 30
323.000
 70
    32
  0
VERTEX
  8
M50LXLIFT
 62
13
 10
5642.292
 20
-7653.980
 30
323.000
 70
    32
  0
VERTEX
  8
M50LXLIFT
 62
13
 10
5646.247
 20
-7651.817
 30
323.000
 70
    32
  0
VERTEX
  8
M50LXLIFT
 62
13
 10
5643.123
 20
-7647.593
 30
323.000
 70
    32
  0
VERTEX
  8
M50LXLIFT
 62
13
 10
5637.915
 20
-7648.503
 30
323.000
 70
    32
  0
VERTEX
  8
M50LXLIFT
 62
13
 10
5636.072
 20
-7636.144
 30
323.000
 70
    32
  0
VERTEX
  8
M50LXLIFT
 62
13
 10
5633.766
 20
-7632.730
 30
323.000
 70
    32
  0
VERTEX
  8
M50LXLIFT
 62
13
 10
5639.446
 20
-7611.104
 30
323.000
 70
    32
  0
VERTEX
  8
M50LXLIFT
 62
13
 10
5628.254
 20
-7590.520
 30
323.000
 70
    32
  0
SEQEND
  8
M50LXLIFT
  0
POLYLINE
  8
M50LXLIFT
 62
13
 66
     1
 70
     9
  0
VERTEX
  8
M50LXLIFT
 62
13
 10
5545.631
 20
-7666.035
 30
342.000
 70
    32
  0
VERTEX
  8
M50LXLIFT
 62
13
 10
5559.845
 20
-7679.942
 30
342.000
 70
    32
  0
VERTEX
  8
M50LXLIFT
 62
13
 10
5570.455
 20
-7700.269
 30
342.000
 70
    32
  0
VERTEX
  8
M50LXLIFT
 62
13
 10
5569.975
 20
-7719.135
 30
342.000
 70
    32
  0
VERTEX
  8
M50LXLIFT
 62
13
 10
5572.773
 20
-7722.638
 30
342.000
 70
    32
  0
VERTEX
  8
M50LXLIFT
 62
13
 10
5585.896
 20
-7713.900
 30
342.000
 70
    32
  0
VERTEX
  8
M50LXLIFT
 62
13
 10
5592.356
 20
-7690.556
 30
342.000
 70
    32
  0
VERTEX
  8
M50LXLIFT
 62
13
 10
5593.727
 20
-7674.440
 30
342.000
 70
    32
  0
VERTEX
  8
M50LXLIFT
 62
13
 10
5596.020
 20
-7667.032
 30
342.000
 70
    32
  0
VERTEX
  8
M50LXLIFT
 62
13
 10
5590.673
 20
-7653.855
 30
342.000
 70
    32
  0
VERTEX
  8
M50LXLIFT
 62
13
 10
5586.875
 20
-7648.904
 30
342.000
 70
    32
  0
VERTEX
  8
M50LXLIFT
 62
13
 10
5596.752
 20
-7631.025
 30
342.000
 70
    32
  0
VERTEX
  8
M50LXLIFT
 62
13
 10
5606.702
 20
-7627.823
 30
342.000
 70
    32
  0
VERTEX
  8
M50LXLIFT
 62
13
 10
5615.057
 20
-7626.730
 30
342.000
 70
    32
  0
VERTEX
  8
M50LXLIFT
 62
13
 10
5617.666
 20
-7614.538
 30
342.000
 70
    32
  0
VERTEX
  8
M50LXLIFT
 62
13
 10
5619.396
 20
-7602.355
 30
342.000
 70
    32
  0
VERTEX
  8
M50LXLIFT
 62
13
 10
5611.186
 20
-7599.017
 30
342.000
 70
    32
  0
VERTEX
  8
M50LXLIFT
 62
13
 10
5605.094
 20
-7602.915
 30
342.000
 70
    32
  0
VERTEX
  8
M50LXLIFT
 62
13
 10
5597.911
 20
-7588.931
 30
342.000
 70
    32
  0
VERTEX
  8
M50LXLIFT
 62
13
 10
5583.008
 20
-7565.030
 30
342.000
 70
    32
  0
VERTEX
  8
M50LXLIFT
 62
13
 10
5572.522
 20
-7539.955
 30
342.000
 70
    32
  0
VERTEX
  8
M50LXLIFT
 62
13
 10
5567.462
 20
-7520.798
 30
342.000
 70
    32
  0
VERTEX
  8
M50LXLIFT
 62
13
 10
5561.411
 20
-7522.006
 30
342.000
 70
    32
  0
VERTEX
  8
M50LXLIFT
 62
13
 10
5568.242
 20
-7563.398
 30
342.000
 70
    32
  0
VERTEX
  8
M50LXLIFT
 62
13
 10
5576.073
 20
-7586.743
 30
342.000
 70
    32
  0
VERTEX
  8
M50LXLIFT
 62
13
 10
5579.963
 20
-7595.279
 30
342.000
 70
    32
  0
VERTEX
  8
M50LXLIFT
 62
13
 10
5577.950
 20
-7618.644
 30
342.000
 70
    32
  0
VERTEX
  8
M50LXLIFT
 62
13
 10
5584.694
 20
-7632.633
 30
342.000
 70
    32
  0
VERTEX
  8
M50LXLIFT
 62
13
 10
5580.376
 20
-7644.475
 30
342.000
 70
    32
  0
VERTEX
  8
M50LXLIFT
 62
13
 10
5572.951
 20
-7647.069
 30
342.000
 70
    32
  0
VERTEX
  8
M50LXLIFT
 62
13
 10
5563.430
 20
-7650.829
 30
342.000
 70
    32
  0
VERTEX
  8
M50LXLIFT
 62
13
 10
5555.318
 20
-7650.074
 30
342.000
 70
    32
  0
VERTEX
  8
M50LXLIFT
 62
13
 10
5552.203
 20
-7651.356
 30
342.000
 70
    32
  0
SEQEND
  8
M50LXLIFT
  0
POLYLINE
  8
M50LXLIFT
 62
13
 66
     1
 70
     9
  0
VERTEX
  8
M50LXLIFT
 62
13
 10
5558.875
 20
-7522.092
 30
332.000
 70
    32
  0
VERTEX
  8
M50LXLIFT
 62
13
 10
5570.935
 20
-7576.824
 30
332.000
 70
    32
  0
VERTEX
  8
M50LXLIFT
 62
13
 10
5578.917
 20
-7594.522
 30
332.000
 70
    32
  0
VERTEX
  8
M50LXLIFT
 62
13
 10
5576.581
 20
-7617.180
 30
332.000
 70
    32
  0
VERTEX
  8
M50LXLIFT
 62
13
 10
5582.444
 20
-7633.925
 30
332.000
 70
    32
  0
VERTEX
  8
M50LXLIFT
 62
13
 10
5576.320
 20
-7646.822
 30
332.000
 70
    32
  0
VERTEX
  8
M50LXLIFT
 62
13
 10
5567.117
 20
-7651.073
 30
332.000
 70
    32
  0
VERTEX
  8
M50LXLIFT
 62
13
 10
5557.846
 20
-7647.956
 30
332.000
 70
    32
  0
VERTEX
  8
M50LXLIFT
 62
13
 10
5548.669
 20
-7654.915
 30
332.000
 70
    32
  0
VERTEX
  8
M50LXLIFT
 62
13
 10
5542.297
 20
-7659.159
 30
332.000
 70
    32
  0
VERTEX
  8
M50LXLIFT
 62
13
 10
5544.265
 20
-7668.076
 30
332.000
 70
    32
  0
VERTEX
  8
M50LXLIFT
 62
13
 10
5543.939
 20
-7674.314
 30
332.000
 70
    32
  0
VERTEX
  8
M50LXLIFT
 62
13
 10
5553.780
 20
-7681.921
 30
332.000
 70
    32
  0
VERTEX
  8
M50LXLIFT
 62
13
 10
5566.508
 20
-7689.151
 30
332.000
 70
    32
  0
VERTEX
  8
M50LXLIFT
 62
13
 10
5565.569
 20
-7696.931
 30
332.000
 70
    32
  0
VERTEX
  8
M50LXLIFT
 62
13
 10
5572.244
 20
-7706.316
 30
332.000
 70
    32
  0
VERTEX
  8
M50LXLIFT
 62
13
 10
5580.873
 20
-7711.976
 30
332.000
 70
    32
  0
VERTEX
  8
M50LXLIFT
 62
13
 10
5592.267
 20
-7710.261
 30
332.000
 70
    32
  0
VERTEX
  8
M50LXLIFT
 62
13
 10
5600.268
 20
-7704.820
 30
332.000
 70
    32
  0
VERTEX
  8
M50LXLIFT
 62
13
 10
5603.229
 20
-7695.338
 30
332.000
 70
    32
  0
VERTEX
  8
M50LXLIFT
 62
13
 10
5600.784
 20
-7686.663
 30
332.000
 70
    32
  0
VERTEX
  8
M50LXLIFT
 62
13
 10
5588.037
 20
-7667.229
 30
332.000
 70
    32
  0
VERTEX
  8
M50LXLIFT
 62
13
 10
5583.176
 20
-7664.473
 30
332.000
 70
    32
  0
VERTEX
  8
M50LXLIFT
 62
13
 10
5579.686
 20
-7654.821
 30
332.000
 70
    32
  0
VERTEX
  8
M50LXLIFT
 62
13
 10
5593.440
 20
-7631.520
 30
332.000
 70
    32
  0
VERTEX
  8
M50LXLIFT
 62
13
 10
5598.428
 20
-7628.511
 30
332.000
 70
    32
  0
VERTEX
  8
M50LXLIFT
 62
13
 10
5613.380
 20
-7626.146
 30
332.000
 70
    32
  0
VERTEX
  8
M50LXLIFT
 62
13
 10
5613.549
 20
-7619.694
 30
332.000
 70
    32
  0
VERTEX
  8
M50LXLIFT
 62
13
 10
5617.866
 20
-7609.979
 30
332.000
 70
    32
  0
VERTEX
  8
M50LXLIFT
 62
13
 10
5617.100
 20
-7602.253
 30
332.000
 70
    32
  0
VERTEX
  8
M50LXLIFT
 62
13
 10
5611.029
 20
-7599.185
 30
332.000
 70
    32
  0
VERTEX
  8
M50LXLIFT
 62
13
 10
5602.832
 20
-7603.024
 30
332.000
 70
    32
  0
VERTEX
  8
M50LXLIFT
 62
13
 10
5593.759
 20
-7585.474
 30
332.000
 70
    32
  0
VERTEX
  8
M50LXLIFT
 62
13
 10
5582.264
 20
-7571.012
 30
332.000
 70
    32
  0
VERTEX
  8
M50LXLIFT
 62
13
 10
5574.863
 20
-7553.215
 30
332.000
 70
    32
  0
VERTEX
  8
M50LXLIFT
 62
13
 10
5564.804
 20
-7519.918
 30
332.000
 70
    32
  0
SEQEND
  8
M50LXLIFT
  0
POLYLINE
  8
M50LXLIFT
 62
11
 66
     1
 70
     9
  0
VERTEX
  8
M50LXLIFT
 62
11
 10
5519.230
 20
-7611.420
 30
326.000
 70
    32
  0
VERTEX
  8
M50LXLIFT
 62
11
 10
5520.866
 20
-7606.074
 30
326.000
 70
    32
  0
VERTEX
  8
M50LXLIFT
 62
11
 10
5511.670
 20
-7606.176
 30
326.000
 70
    32
  0
VERTEX
  8
M50LXLIFT
 62
11
 10
5501.259
 20
-7601.061
 30
326.000
 70
    32
  0
VERTEX
  8
M50LXLIFT
 62
11
 10
5496.038
 20
-7590.388
 30
326.000
 70
    32
  0
VERTEX
  8
M50LXLIFT
 62
11
 10
5518.039
 20
-7579.355
 30
326.000
 70
    32
  0
VERTEX
  8
M50LXLIFT
 62
11
 10
5529.833
 20
-7570.910
 30
326.000
 70
    32
  0
VERTEX
  8
M50LXLIFT
 62
11
 10
5543.336
 20
-7565.682
 30
326.000
 70
    32
  0
VERTEX
  8
M50LXLIFT
 62
11
 10
5548.482
 20
-7571.501
 30
326.000
 70
    32
  0
VERTEX
  8
M50LXLIFT
 62
11
 10
5546.576
 20
-7575.737
 30
326.000
 70
    32
  0
VERTEX
  8
M50LXLIFT
 62
11
 10
5550.888
 20
-7584.132
 30
326.000
 70
    32
  0
VERTEX
  8
M50LXLIFT
 62
11
 10
5559.631
 20
-7608.360
 30
326.000
 70
    32
  0
VERTEX
  8
M50LXLIFT
 62
11
 10
5554.261
 20
-7612.632
 30
326.000
 70
    32
  0
VERTEX
  8
M50LXLIFT
 62
11
 10
5548.891
 20
-7604.578
 30
326.000
 70
    32
  0
VERTEX
  8
M50LXLIFT
 62
11
 10
5535.893
 20
-7578.566
 30
326.000
 70
    32
  0
VERTEX
  8
M50LXLIFT
 62
11
 10
5527.248
 20
-7583.280
 30
326.000
 70
    32
  0
VERTEX
  8
M50LXLIFT
 62
11
 10
5525.601
 20
-7593.216
 30
326.000
 70
    32
  0
VERTEX
  8
M50LXLIFT
 62
11
 10
5527.892
 20
-7603.313
 30
326.000
 70
    32
  0
VERTEX
  8
M50LXLIFT
 62
11
 10
5533.186
 20
-7617.204
 30
326.000
 70
    32
  0
VERTEX
  8
M50LXLIFT
 62
11
 10
5525.480
 20
-7619.483
 30
326.000
 70
    32
  0
SEQEND
  8
M50LXLIFT
  0
POLYLINE
  8
M50LXLIFT
 62
11
 66
     1
 70
     9
  0
VERTEX
  8
M50LXLIFT
 62
11
 10
5499.761
 20
-7568.415
 30
337.000
 70
    32
  0
VERTEX
  8
M50LXLIFT
 62
11
 10
5502.088
 20
-7588.341
 30
337.000
 70
    32
  0
VERTEX
  8
M50LXLIFT
 62
11
 10
5514.096
 20
-7604.715
 30
337.000
 70
    32
  0
VERTEX
  8
M50LXLIFT
 62
11
 10
5526.915
 20
-7611.607
 30
337.000
 70
    32
  0
VERTEX
  8
M50LXLIFT
 62
11
 10
5523.001
 20
-7592.789
 30
337.000
 70
    32
  0
VERTEX
  8
M50LXLIFT
 62
11
 10
5528.308
 20
-7582.957
 30
337.000
 70
    32
  0
VERTEX
  8
M50LXLIFT
 62
11
 10
5537.777
 20
-7582.450
 30
337.000
 70
    32
  0
VERTEX
  8
M50LXLIFT
 62
11
 10
5545.388
 20
-7588.906
 30
337.000
 70
    32
  0
VERTEX
  8
M50LXLIFT
 62
11
 10
5552.432
 20
-7602.997
 30
337.000
 70
    32
  0
VERTEX
  8
M50LXLIFT
 62
11
 10
5557.102
 20
-7608.940
 30
337.000
 70
    32
  0
VERTEX
  8
M50LXLIFT
 62
11
 10
5560.062
 20
-7603.125
 30
337.000
 70
    32
  0
VERTEX
  8
M50LXLIFT
 62
11
 10
5552.172
 20
-7588.797
 30
337.000
 70
    32
  0
VERTEX
  8
M50LXLIFT
 62
11
 10
5546.762
 20
-7566.585
 30
337.000
 70
    32
  0
VERTEX
  8
M50LXLIFT
 62
11
 10
5539.386
 20
-7555.960
 30
337.000
 70
    32
  0
VERTEX
  8
M50LXLIFT
 62
11
 10
5533.865
 20
-7562.190
 30
337.000
 70
    32
  0
VERTEX
  8
M50LXLIFT
 62
11
 10
5523.448
 20
-7578.932
 30
337.000
 70
    32
  0
VERTEX
  8
M50LXLIFT
 62
11
 10
5517.459
 20
-7577.767
 30
337.000
 70
    32
  0
VERTEX
  8
M50LXLIFT
 62
11
 10
5507.218
 20
-7565.574
 30
337.000
 70
    32
  0
SEQEND
  8
M50LXLIFT
  0
POLYLINE
  8
M50LXLIFT
 62
11
 66
     1
 70
     9
  0
VERTEX
  8
M50LXLIFT
 62
11
 10
5554.869
 20
-7607.796
 30
354.000
 70
    32
  0
VERTEX
  8
M50LXLIFT
 62
11
 10
5544.067
 20
-7589.015
 30
354.000
 70
    32
  0
VERTEX
  8
M50LXLIFT
 62
11
 10
5555.955
 20
-7581.006
 30
354.000
 70
    32
  0
VERTEX
  8
M50LXLIFT
 62
11
 10
5553.689
 20
-7576.455
 30
354.000
 70
    32
  0
VERTEX
  8
M50LXLIFT
 62
11
 10
5553.025
 20
-7564.605
 30
354.000
 70
    32
  0
VERTEX
  8
M50LXLIFT
 62
11
 10
5547.155
 20
-7555.615
 30
354.000
 70
    32
  0
VERTEX
  8
M50LXLIFT
 62
11
 10
5532.249
 20
-7560.719
 30
354.000
 70
    32
  0
VERTEX
  8
M50LXLIFT
 62
11
 10
5522.329
 20
-7557.338
 30
354.000
 70
    32
  0
VERTEX
  8
M50LXLIFT
 62
11
 10
5512.581
 20
-7565.732
 30
354.000
 70
    32
  0
VERTEX
  8
M50LXLIFT
 62
11
 10
5508.887
 20
-7575.228
 30
354.000
 70
    32
  0
VERTEX
  8
M50LXLIFT
 62
11
 10
5502.604
 20
-7565.233
 30
354.000
 70
    32
  0
VERTEX
  8
M50LXLIFT
 62
11
 10
5483.272
 20
-7576.769
 30
354.000
 70
    32
  0
VERTEX
  8
M50LXLIFT
 62
11
 10
5488.801
 20
-7593.436
 30
354.000
 70
    32
  0
VERTEX
  8
M50LXLIFT
 62
11
 10
5495.312
 20
-7603.591
 30
354.000
 70
    32
  0
VERTEX
  8
M50LXLIFT
 62
11
 10
5511.648
 20
-7609.007
 30
354.000
 70
    32
  0
VERTEX
  8
M50LXLIFT
 62
11
 10
5519.276
 20
-7604.251
 30
354.000
 70
    32
  0
VERTEX
  8
M50LXLIFT
 62
11
 10
5517.102
 20
-7594.499
 30
354.000
 70
    32
  0
VERTEX
  8
M50LXLIFT
 62
11
 10
5521.821
 20
-7591.127
 30
354.000
 70
    32
  0
VERTEX
  8
M50LXLIFT
 62
11
 10
5533.410
 20
-7596.770
 30
354.000
 70
    32
  0
VERTEX
  8
M50LXLIFT
 62
11
 10
5546.528
 20
-7616.026
 30
354.000
 70
    32
  0
SEQEND
  8
M50LXLIFT
  0
POLYLINE
  8
M50LXLIFT
 62
11
 66
     1
 70
     9
  0
VERTEX
  8
M50LXLIFT
 62
11
 10
5511.776
 20
-7602.869
 30
368.000
 70
    32
  0
VERTEX
  8
M50LXLIFT
 62
11
 10
5509.760
 20
-7583.271
 30
368.000
 70
    32
  0
VERTEX
  8
M50LXLIFT
 62
11
 10
5505.197
 20
-7584.951
 30
368.000
 70
    32
  0
VERTEX
  8
M50LXLIFT
 62
11
 10
5503.931
 20
-7562.699
 30
368.000
 70
    32
  0
VERTEX
  8
M50LXLIFT
 62
11
 10
5501.410
 20
-7559.210
 30
368.000
 70
    32
  0
VERTEX
  8
M50LXLIFT
 62
11
 10
5503.962
 20
-7553.986
 30
368.000
 70
    32
  0
VERTEX
  8
M50LXLIFT
 62
11
 10
5498.745
 20
-7546.920
 30
368.000
 70
    32
  0
VERTEX
  8
M50LXLIFT
 62
11
 10
5471.013
 20
-7541.210
 30
368.000
 70
    32
  0
VERTEX
  8
M50LXLIFT
 62
11
 10
5461.587
 20
-7551.175
 30
368.000
 70
    32
  0
VERTEX
  8
M50LXLIFT
 62
11
 10
5454.230
 20
-7559.361
 30
368.000
 70
    32
  0
VERTEX
  8
M50LXLIFT
 62
11
 10
5465.663
 20
-7572.630
 30
368.000
 70
    32
  0
VERTEX
  8
M50LXLIFT
 62
11
 10
5466.670
 20
-7582.429
 30
368.000
 70
    32
  0
VERTEX
  8
M50LXLIFT
 62
11
 10
5475.916
 20
-7599.216
 30
368.000
 70
    32
  0
VERTEX
  8
M50LXLIFT
 62
11
 10
5489.799
 20
-7594.580
 30
368.000
 70
    32
  0
VERTEX
  8
M50LXLIFT
 62
11
 10
5499.315
 20
-7607.204
 30
368.000
 70
    32
  0
VERTEX
  8
M50LXLIFT
 62
11
 10
5503.236
 20
-7608.757
 30
368.000
 70
    32
  0
SEQEND
  8
M50LXLIFT
  0
POLYLINE
  8
M50LXLIFT
 62
11
 66
     1
 70
     9
  0
VERTEX
  8
M50LXLIFT
 62
11
 10
5490.753
 20
-7563.499
 30
360.000
 70
    32
  0
VERTEX
  8
M50LXLIFT
 62
11
 10
5499.516
 20
-7566.468
 30
360.000
 70
    32
  0
VERTEX
  8
M50LXLIFT
 62
11
 10
5502.177
 20
-7577.763
 30
360.000
 70
    32
  0
VERTEX
  8
M50LXLIFT
 62
11
 10
5506.535
 20
-7583.925
 30
360.000
 70
    32
  0
VERTEX
  8
M50LXLIFT
 62
11
 10
5509.929
 20
-7583.524
 30
360.000
 70
    32
  0
VERTEX
  8
M50LXLIFT
 62
11
 10
5514.675
 20
-7585.286
 30
360.000
 70
    32
  0
VERTEX
  8
M50LXLIFT
 62
11
 10
5521.842
 20
-7594.724
 30
360.000
 70
    32
  0
VERTEX
  8
M50LXLIFT
 62
11
 10
5511.299
 20
-7602.908
 30
360.000
 70
    32
  0
VERTEX
  8
M50LXLIFT
 62
11
 10
5496.786
 20
-7604.866
 30
360.000
 70
    32
  0
VERTEX
  8
M50LXLIFT
 62
11
 10
5484.541
 20
-7595.750
 30
360.000
 70
    32
  0
VERTEX
  8
M50LXLIFT
 62
11
 10
5480.781
 20
-7594.899
 30
360.000
 70
    32
  0
VERTEX
  8
M50LXLIFT
 62
11
 10
5482.522
 20
-7582.798
 30
360.000
 70
    32
  0
VERTEX
  8
M50LXLIFT
 62
11
 10
5482.420
 20
-7569.648
 30
360.000
 70
    32
  0
SEQEND
  8
M50LXLIFT
  0
POLYLINE
  8
M50LXLIFT
 62
1
 66
     1
 70
     9
  0
VERTEX
  8
M50LXLIFT
 62
1
 10
5571.870
 20
-7698.439
 30
375.000
 70
    32
  0
VERTEX
  8
M50LXLIFT
 62
1
 10
5566.745
 20
-7683.294
 30
375.000
 70
    32
  0
VERTEX
  8
M50LXLIFT
 62
1
 10
5548.612
 20
-7668.149
 30
375.000
 70
    32
  0
VERTEX
  8
M50LXLIFT
 62
1
 10
5545.176
 20
-7658.175
 30
375.000
 70
    32
  0
VERTEX
  8
M50LXLIFT
 62
1
 10
5556.399
 20
-7648.089
 30
375.000
 70
    32
  0
VERTEX
  8
M50LXLIFT
 62
1
 10
5567.594
 20
-7647.235
 30
375.000
 70
    32
  0
VERTEX
  8
M50LXLIFT
 62
1
 10
5576.765
 20
-7666.167
 30
375.000
 70
    32
  0
VERTEX
  8
M50LXLIFT
 62
1
 10
5579.016
 20
-7671.364
 30
375.000
 70
    32
  0
VERTEX
  8
M50LXLIFT
 62
1
 10
5582.464
 20
-7685.990
 30
375.000
 70
    32
  0
VERTEX
  8
M50LXLIFT
 62
1
 10
5584.769
 20
-7701.878
 30
375.000
 70
    32
  0
VERTEX
  8
M50LXLIFT
 62
1
 10
5577.761
 20
-7706.416
 30
375.000
 70
    32
  0
SEQEND
  8
M50LXLIFT
  0
POLYLINE
  8
M50LXLIFT
 62
13
 66
     1
 70
     9
  0
VERTEX
  8
M50LXLIFT
 62
13
 10
5576.761
 20
-7707.416
 30
365.000
 70
    32
  0
VERTEX
  8
M50LXLIFT
 62
13
 10
5583.769
 20
-7702.878
 30
365.000
 70
    32
  0
VERTEX
  8
M50LXLIFT
 62
13
 10
5581.464
 20
-7686.990
 30
365.000
 70
    32
  0
VERTEX
  8
M50LXLIFT
 62
13
 10
5578.016
 20
-7672.364
 30
365.000
 70
    32
  0
VERTEX
  8
M50LXLIFT
 62
13
 10
5575.765
 20
-7667.167
 30
365.000
 70
    32
  0
VERTEX
  8
M50LXLIFT
 62
13
 10
5566.594
 20
-7648.235
 30
365.000
 70
    32
  0
VERTEX
  8
M50LXLIFT
 62
13
 10
5555.399
 20
-7649.089
 30
365.000
 70
    32
  0
VERTEX
  8
M50LXLIFT
 62
13
 10
5544.176
 20
-7659.175
 30
365.000
 70
    32
  0
VERTEX
  8
M50LXLIFT
 62
13
 10
5547.612
 20
-7669.149
 30
365.000
 70
    32
  0
VERTEX
  8
M50LXLIFT
 62
13
 10
5565.745
 20
-7684.294
 30
365.000
 70
    32
  0
VERTEX
  8
M50LXLIFT
 62
13
 10
5570.870
 20
-7699.439
 30
365.000
 70
    32
  0
SEQEND
  8
M50LXLIFT
  0
POLYLINE
  8
M50LXLIFT
 62
13
 66
     1
 70
     9
  0
VERTEX
  8
M50LXLIFT
 62
13
 10
5560.887
 20
-7647.470
 30
354.000
 70
    32
  0
VERTEX
  8
M50LXLIFT
 62
13
 10
5572.695
 20
-7647.491
 30
354.000
 70
    32
  0
VERTEX
  8
M50LXLIFT
 62
13
 10
5578.823
 20
-7657.274
 30
354.000
 70
    32
  0
VERTEX
  8
M50LXLIFT
 62
13
 10
5578.777
 20
-7672.158
 30
354.000
 70
    32
  0
VERTEX
  8
M50LXLIFT
 62
13
 10
5587.267
 20
-7690.025
 30
354.000
 70
    32
  0
VERTEX
  8
M50LXLIFT
 62
13
 10
5576.664
 20
-7699.924
 30
354.000
 70
    32
  0
VERTEX
  8
M50LXLIFT
 62
13
 10
5559.227
 20
-7680.142
 30
354.000
 70
    32
  0
VERTEX
  8
M50LXLIFT
 62
13
 10
5550.331
 20
-7671.638
 30
354.000
 70
    32
  0
VERTEX
  8
M50LXLIFT
 62
13
 10
5543.626
 20
-7661.517
 30
354.000
 70
    32
  0
SEQEND
  8
M50LXLIFT
  0
POLYLINE
  8
M50LXLIFT
 62
8
 66
     1
 70
     9
  0
VERTEX
  8
M50LXLIFT
 62
8
 10
5619.277
 20
-7677.576
 30
293.000
 70
    32
  0
VERTEX
  8
M50LXLIFT
 62
8
 10
5625.474
 20
-7708.384
 30
293.000
 70
    32
  0
VERTEX
  8
M50LXLIFT
 62
8
 10
5638.232
 20
-7729.123
 30
293.000
 70
    32
  0
VERTEX
  8
M50LXLIFT
 62
8
 10
5642.629
 20
-7752.741
 30
293.000
 70
    32
  0
VERTEX
  8
M50LXLIFT
 62
8
 10
5652.301
 20
-7768.546
 30
293.000
 70
    32
  0
VERTEX
  8
M50LXLIFT
 62
8
 10
5658.945
 20
-7770.750
 30
293.000
 70
    32
  0
VERTEX
  8
M50LXLIFT
 62
8
 10
5673.207
 20
-7764.617
 30
293.000
 70
    32
  0
VERTEX
  8
M50LXLIFT
 62
8
 10
5676.070
 20
-7759.016
 30
293.000
 70
    32
  0
VERTEX
  8
M50LXLIFT
 62
8
 10
5664.640
 20
-7743.195
 30
293.000
 70
    32
  0
VERTEX
  8
M50LXLIFT
 62
8
 10
5660.816
 20
-7730.290
 30
293.000
 70
    32
  0
VERTEX
  8
M50LXLIFT
 62
8
 10
5653.042
 20
-7720.621
 30
293.000
 70
    32
  0
VERTEX
  8
M50LXLIFT
 62
8
 10
5644.011
 20
-7715.916
 30
293.000
 70
    32
  0
VERTEX
  8
M50LXLIFT
 62
8
 10
5630.427
 20
-7693.166
 30
293.000
 70
    32
  0
VERTEX
  8
M50LXLIFT
 62
8
 10
5626.382
 20
-7673.437
 30
293.000
 70
    32
  0
SEQEND
  8
M50LXLIFT
  0
POLYLINE
  8
M50LXLIFT
 62
8
 66
     1
 70
     9
  0
VERTEX
  8
M50LXLIFT
 62
8
 10
5619.235
 20
-7698.330
 30
303.000
 70
    32
  0
VERTEX
  8
M50LXLIFT
 62
8
 10
5623.715
 20
-7705.619
 30
303.000
 70
    32
  0
VERTEX
  8
M50LXLIFT
 62
8
 10
5626.455
 20
-7712.786
 30
303.000
 70
    32
  0
VERTEX
  8
M50LXLIFT
 62
8
 10
5642.020
 20
-7728.559
 30
303.000
 70
    32
  0
VERTEX
  8
M50LXLIFT
 62
8
 10
5645.551
 20
-7736.341
 30
303.000
 70
    32
  0
VERTEX
  8
M50LXLIFT
 62
8
 10
5641.320
 20
-7761.584
 30
303.000
 70
    32
  0
VERTEX
  8
M50LXLIFT
 62
8
 10
5640.004
 20
-7782.663
 30
303.000
 70
    32
  0
VERTEX
  8
M50LXLIFT
 62
8
 10
5664.088
 20
-7794.571
 30
303.000
 70
    32
  0
VERTEX
  8
M50LXLIFT
 62
8
 10
5666.406
 20
-7791.954
 30
303.000
 70
    32
  0
VERTEX
  8
M50LXLIFT
 62
8
 10
5658.026
 20
-7771.560
 30
303.000
 70
    32
  0
VERTEX
  8
M50LXLIFT
 62
8
 10
5658.710
 20
-7761.934
 30
303.000
 70
    32
  0
VERTEX
  8
M50LXLIFT
 62
8
 10
5672.481
 20
-7745.895
 30
303.000
 70
    32
  0
VERTEX
  8
M50LXLIFT
 62
8
 10
5671.620
 20
-7738.746
 30
303.000
 70
    32
  0
VERTEX
  8
M50LXLIFT
 62
8
 10
5662.554
 20
-7724.465
 30
303.000
 70
    32
  0
VERTEX
  8
M50LXLIFT
 62
8
 10
5649.397
 20
-7712.047
 30
303.000
 70
    32
  0
VERTEX
  8
M50LXLIFT
 62
8
 10
5635.782
 20
-7700.630
 30
303.000
 70
    32
  0
VERTEX
  8
M50LXLIFT
 62
8
 10
5629.036
 20
-7692.076
 30
303.000
 70
    32
  0
SEQEND
  8
M50LXLIFT
  0
POLYLINE
  8
M50LXLIFT
 62
8
 66
     1
 70
     9
  0
VERTEX
  8
M50LXLIFT
 62
8
 10
5672.126
 20
-7764.253
 30
283.000
 70
    32
  0
VERTEX
  8
M50LXLIFT
 62
8
 10
5665.556
 20
-7740.072
 30
283.000
 70
    32
  0
VERTEX
  8
M50LXLIFT
 62
8
 10
5658.430
 20
-7731.136
 30
283.000
 70
    32
  0
VERTEX
  8
M50LXLIFT
 62
8
 10
5657.514
 20
-7719.374
 30
283.000
 70
    32
  0
VERTEX
  8
M50LXLIFT
 62
8
 10
5653.357
 20
-7716.544
 30
283.000
 70
    32
  0
VERTEX
  8
M50LXLIFT
 62
8
 10
5646.873
 20
-7714.554
 30
283.000
 70
    32
  0
VERTEX
  8
M50LXLIFT
 62
8
 10
5641.530
 20
-7706.706
 30
283.000
 70
    32
  0
VERTEX
  8
M50LXLIFT
 62
8
 10
5640.690
 20
-7702.306
 30
283.000
 70
    32
  0
VERTEX
  8
M50LXLIFT
 62
8
 10
5634.605
 20
-7698.932
 30
283.000
 70
    32
  0
VERTEX
  8
M50LXLIFT
 62
8
 10
5631.669
 20
-7683.093
 30
283.000
 70
    32
  0
VERTEX
  8
M50LXLIFT
 62
8
 10
5632.616
 20
-7677.268
 30
283.000
 70
    32
  0
VERTEX
  8
M50LXLIFT
 62
8
 10
5628.574
 20
-7675.335
 30
283.000
 70
    32
  0
VERTEX
  8
M50LXLIFT
 62
8
 10
5621.959
 20
-7680.425
 30
283.000
 70
    32
  0
VERTEX
  8
M50LXLIFT
 62
8
 10
5617.056
 20
-7680.435
 30
283.000
 70
    32
  0
VERTEX
  8
M50LXLIFT
 62
8
 10
5633.772
 20
-7709.801
 30
283.000
 70
    32
  0
VERTEX
  8
M50LXLIFT
 62
8
 10
5646.035
 20
-7730.009
 30
283.000
 70
    32
  0
VERTEX
  8
M50LXLIFT
 62
8
 10
5640.015
 20
-7735.315
 30
283.000
 70
    32
  0
VERTEX
  8
M50LXLIFT
 62
8
 10
5647.333
 20
-7762.438
 30
283.000
 70
    32
  0
VERTEX
  8
M50LXLIFT
 62
8
 10
5656.930
 20
-7772.062
 30
283.000
 70
    32
  0
VERTEX
  8
M50LXLIFT
 62
8
 10
5666.715
 20
-7774.239
 30
283.000
 70
    32
  0
SEQEND
  8
M50LXLIFT
  0
POLYLINE
  8
M50LXLIFT
 62
8
 66
     1
 70
     9
  0
VERTEX
  8
M50LXLIFT
 62
8
 10
5640.953
 20
-7717.265
 30
323.000
 70
    32
  0
VERTEX
  8
M50LXLIFT
 62
8
 10
5651.486
 20
-7721.347
 30
323.000
 70
    32
  0
VERTEX
  8
M50LXLIFT
 62
8
 10
5652.183
 20
-7729.653
 30
323.000
 70
    32
  0
VERTEX
  8
M50LXLIFT
 62
8
 10
5634.818
 20
-7746.524
 30
323.000
 70
    32
  0
VERTEX
  8
M50LXLIFT
 62
8
 10
5627.174
 20
-7752.830
 30
323.000
 70
    32
  0
VERTEX
  8
M50LXLIFT
 62
8
 10
5618.773
 20
-7752.073
 30
323.000
 70
    32
  0
VERTEX
  8
M50LXLIFT
 62
8
 10
5613.640
 20
-7734.086
 30
323.000
 70
    32
  0
VERTEX
  8
M50LXLIFT
 62
8
 10
5610.598
 20
-7725.554
 30
323.000
 70
    32
  0
VERTEX
  8
M50LXLIFT
 62
8
 10
5622.561
 20
-7717.579
 30
323.000
 70
    32
  0
VERTEX
  8
M50LXLIFT
 62
8
 10
5629.834
 20
-7722.111
 30
323.000
 70
    32
  0
VERTEX
  8
M50LXLIFT
 62
8
 10
5633.465
 20
-7721.278
 30
323.000
 70
    32
  0
SEQEND
  8
M50LXLIFT
  0
POLYLINE
  8
M50LXLIFT
 62
8
 66
     1
 70
     9
  0
VERTEX
  8
M50LXLIFT
 62
8
 10
5635.834
 20
-7769.075
 30
313.000
 70
    32
  0
VERTEX
  8
M50LXLIFT
 62
8
 10
5660.202
 20
-7735.169
 30
313.000
 70
    32
  0
VERTEX
  8
M50LXLIFT
 62
8
 10
5660.830
 20
-7722.718
 30
313.000
 70
    32
  0
VERTEX
  8
M50LXLIFT
 62
8
 10
5656.915
 20
-7718.633
 30
313.000
 70
    32
  0
VERTEX
  8
M50LXLIFT
 62
8
 10
5643.468
 20
-7718.439
 30
313.000
 70
    32
  0
VERTEX
  8
M50LXLIFT
 62
8
 10
5639.789
 20
-7725.477
 30
313.000
 70
    32
  0
VERTEX
  8
M50LXLIFT
 62
8
 10
5634.215
 20
-7740.288
 30
313.000
 70
    32
  0
VERTEX
  8
M50LXLIFT
 62
8
 10
5624.666
 20
-7753.387
 30
313.000
 70
    32
  0
VERTEX
  8
M50LXLIFT
 62
8
 10
5624.826
 20
-7765.565
 30
313.000
 70
    32
  0
SEQEND
  8
M50LXLIFT
  0
POLYLINE
  8
M50LXLIFT
 62
8
 66
     1
 70
     9
  0
VERTEX
  8
M50LXLIFT
 62
8
 10
5689.651
 20
-7775.846
 30
272.000
 70
    32
  0
VERTEX
  8
M50LXLIFT
 62
8
 10
5667.935
 20
-7751.842
 30
272.000
 70
    32
  0
VERTEX
  8
M50LXLIFT
 62
8
 10
5661.125
 20
-7736.332
 30
272.000
 70
    32
  0
VERTEX
  8
M50LXLIFT
 62
8
 10
5662.698
 20
-7718.535
 30
272.000
 70
    32
  0
VERTEX
  8
M50LXLIFT
 62
8
 10
5657.522
 20
-7713.882
 30
272.000
 70
    32
  0
VERTEX
  8
M50LXLIFT
 62
8
 10
5654.426
 20
-7715.020
 30
272.000
 70
    32
  0
VERTEX
  8
M50LXLIFT
 62
8
 10
5647.294
 20
-7705.032
 30
272.000
 70
    32
  0
VERTEX
  8
M50LXLIFT
 62
8
 10
5643.073
 20
-7692.067
 30
272.000
 70
    32
  0
VERTEX
  8
M50LXLIFT
 62
8
 10
5642.407
 20
-7675.087
 30
272.000
 70
    32
  0
VERTEX
  8
M50LXLIFT
 62
8
 10
5631.020
 20
-7662.387
 30
272.000
 70
    32
  0
VERTEX
  8
M50LXLIFT
 62
8
 10
5622.347
 20
-7666.323
 30
272.000
 70
    32
  0
VERTEX
  8
M50LXLIFT
 62
8
 10
5622.152
 20
-7675.928
 30
272.000
 70
    32
  0
VERTEX
  8
M50LXLIFT
 62
8
 10
5632.904
 20
-7701.425
 30
272.000
 70
    32
  0
VERTEX
  8
M50LXLIFT
 62
8
 10
5644.981
 20
-7722.289
 30
272.000
 70
    32
  0
VERTEX
  8
M50LXLIFT
 62
8
 10
5651.781
 20
-7732.419
 30
272.000
 70
    32
  0
VERTEX
  8
M50LXLIFT
 62
8
 10
5653.517
 20
-7759.803
 30
272.000
 70
    32
  0
VERTEX
  8
M50LXLIFT
 62
8
 10
5653.102
 20
-7771.005
 30
272.000
 70
    32
  0
VERTEX
  8
M50LXLIFT
 62
8
 10
5671.113
 20
-7786.931
 30
272.000
 70
    32
  0
SEQEND
  8
M50LXLIFT
  0
POLYLINE
  8
M50LXLIFT
 62
8
 66
     1
 70
     9
  0
VERTEX
  8
M50LXLIFT
 62
8
 10
5698.509
 20
-7709.132
 30
240.000
 70
    32
  0
VERTEX
  8
M50LXLIFT
 62
8
 10
5672.809
 20
-7725.923
 30
240.000
 70
    32
  0
VERTEX
  8
M50LXLIFT
 62
8
 10
5662.744
 20
-7733.524
 30
240.000
 70
    32
  0
VERTEX
  8
M50LXLIFT
 62
8
 10
5652.450
 20
-7724.675
 30
240.000
 70
    32
  0
VERTEX
  8
M50LXLIFT
 62
8
 10
5652.463
 20
-7718.474
 30
240.000
 70
    32
  0
VERTEX
  8
M50LXLIFT
 62
8
 10
5660.574
 20
-7711.762
 30
240.000
 70
    32
  0
VERTEX
  8
M50LXLIFT
 62
8
 10
5671.386
 20
-7696.444
 30
240.000
 70
    32
  0
VERTEX
  8
M50LXLIFT
 62
8
 10
5673.403
 20
-7681.277
 30
240.000
 70
    32
  0
VERTEX
  8
M50LXLIFT
 62
8
 10
5669.046
 20
-7672.525
 30
240.000
 70
    32
  0
VERTEX
  8
M50LXLIFT
 62
8
 10
5681.351
 20
-7660.130
 30
240.000
 70
    32
  0
VERTEX
  8
M50LXLIFT
 62
8
 10
5685.885
 20
-7660.388
 30
240.000
 70
    32
  0
SEQEND
  8
M50LXLIFT
  0
POLYLINE
  8
M50LXLIFT
 62
8
 66
     1
 70
     9
  0
VERTEX
  8
M50LXLIFT
 62
8
 10
5686.263
 20
-7698.179
 30
250.000
 70
    32
  0
VERTEX
  8
M50LXLIFT
 62
8
 10
5676.423
 20
-7698.682
 30
250.000
 70
    32
  0
VERTEX
  8
M50LXLIFT
 62
8
 10
5671.040
 20
-7703.991
 30
250.000
 70
    32
  0
VERTEX
  8
M50LXLIFT
 62
8
 10
5668.539
 20
-7721.976
 30
250.000
 70
    32
  0
VERTEX
  8
M50LXLIFT
 62
8
 10
5663.011
 20
-7728.584
 30
250.000
 70
    32
  0
VERTEX
  8
M50LXLIFT
 62
8
 10
5658.993
 20
-7730.082
 30
250.000
 70
    32
  0
VERTEX
  8
M50LXLIFT
 62
8
 10
5643.340
 20
-7703.965
 30
250.000
 70
    32
  0
VERTEX
  8
M50LXLIFT
 62
8
 10
5642.238
 20
-7693.147
 30
250.000
 70
    32
  0
VERTEX
  8
M50LXLIFT
 62
8
 10
5656.589
 20
-7683.733
 30
250.000
 70
    32
  0
VERTEX
  8
M50LXLIFT
 62
8
 10
5667.405
 20
-7674.382
 30
250.000
 70
    32
  0
VERTEX
  8
M50LXLIFT
 62
8
 10
5671.624
 20
-7669.265
 30
250.000
 70
    32
  0
VERTEX
  8
M50LXLIFT
 62
8
 10
5680.732
 20
-7663.104
 30
250.000
 70
    32
  0
VERTEX
  8
M50LXLIFT
 62
8
 10
5683.968
 20
-7679.867
 30
250.000
 70
    32
  0
SEQEND
  8
M50LXLIFT
  0
POLYLINE
  8
M50LXLIFT
 62
13
 66
     1
 70
     9
  0
VERTEX
  8
M50LXLIFT
 62
13
 10
5694.595
 20
-7661.860
 30
250.000
 70
    32
  0
VERTEX
  8
M50LXLIFT
 62
13
 10
5685.769
 20
-7653.269
 30
250.000
 70
    32
  0
VERTEX
  8
M50LXLIFT
 62
13
 10
5647.626
 20
-7682.299
 30
250.000
 70
    32
  0
VERTEX
  8
M50LXLIFT
 62
13
 10
5651.603
 20
-7663.353
 30
250.000
 70
    32
  0
VERTEX
  8
M50LXLIFT
 62
13
 10
5650.597
 20
-7640.525
 30
250.000
 70
    32
  0
VERTEX
  8
M50LXLIFT
 62
13
 10
5662.702
 20
-7623.510
 30
250.000
 70
    32
  0
VERTEX
  8
M50LXLIFT
 62
13
 10
5665.903
 20
-7610.989
 30
250.000
 70
    32
  0
VERTEX
  8
M50LXLIFT
 62
13
 10
5654.719
 20
-7580.550
 30
250.000
 70
    32
  0
VERTEX
  8
M50LXLIFT
 62
13
 10
5663.110
 20
-7574.148
 30
250.000
 70
    32
  0
VERTEX
  8
M50LXLIFT
 62
13
 10
5668.063
 20
-7582.938
 30
250.000
 70
    32
  0
VERTEX
  8
M50LXLIFT
 62
13
 10
5669.179
 20
-7599.172
 30
250.000
 70
    32
  0
VERTEX
  8
M50LXLIFT
 62
13
 10
5682.262
 20
-7624.437
 30
250.000
 70
    32
  0
VERTEX
  8
M50LXLIFT
 62
13
 10
5691.937
 20
-7634.801
 30
250.000
 70
    32
  0
VERTEX
  8
M50LXLIFT
 62
13
 10
5705.511
 20
-7653.848
 30
250.000
 70
    32
  0
SEQEND
  8
M50LXLIFT
  0
POLYLINE
  8
M50LXLIFT
 62
6
 66
     1
 70
     9
  0
VERTEX
  8
M50LXLIFT
 62
6
 10
5696.581
 20
-7776.077
 30
261.000
 70
    32
  0
VERTEX
  8
M50LXLIFT
 62
6
 10
5678.497
 20
-7786.215
 30
261.000
 70
    32
  0
VERTEX
  8
M50LXLIFT
 62
6
 10
5675.509
 20
-7793.247
 30
261.000
 70
    32
  0
VERTEX
  8
M50LXLIFT
 62
6
 10
5681.449
 20
-7821.451
 30
261.000
 70
    32
  0
VERTEX
  8
M50LXLIFT
 62
6
 10
5692.742
 20
-7833.423
 30
261.000
 70
    32
  0
VERTEX
  8
M50LXLIFT
 62
6
 10
5710.340
 20
-7821.895
 30
261.000
 70
    32
  0
VERTEX
  8
M50LXLIFT
 62
6
 10
5731.556
 20
-7810.964
 30
261.000
 70
    32
  0
VERTEX
  8
M50LXLIFT
 62
6
 10
5733.879
 20
-7803.330
 30
261.000
 70
    32
  0
VERTEX
  8
M50LXLIFT
 62
6
 10
5731.313
 20
-7789.257
 30
261.000
 70
    32
  0
VERTEX
  8
M50LXLIFT
 62
6
 10
5724.531
 20
-7785.427
 30
261.000
 70
    32
  0
SEQEND
  8
M50LXLIFT
  0
POLYLINE
  8
M50LXLIFT
 62
6
 66
     1
 70
     9
  0
VERTEX
  8
M50LXLIFT
 62
6
 10
5704.480
 20
-7777.911
 30
251.000
 70
    32
  0
VERTEX
  8
M50LXLIFT
 62
6
 10
5729.442
 20
-7782.851
 30
251.000
 70
    32
  0
VERTEX
  8
M50LXLIFT
 62
6
 10
5741.815
 20
-7801.139
 30
251.000
 70
    32
  0
VERTEX
  8
M50LXLIFT
 62
6
 10
5742.693
 20
-7813.747
 30
251.000
 70
    32
  0
VERTEX
  8
M50LXLIFT
 62
6
 10
5749.171
 20
-7825.991
 30
251.000
 70
    32
  0
VERTEX
  8
M50LXLIFT
 62
6
 10
5737.871
 20
-7841.120
 30
251.000
 70
    32
  0
VERTEX
  8
M50LXLIFT
 62
6
 10
5717.744
 20
-7848.854
 30
251.000
 70
    32
  0
VERTEX
  8
M50LXLIFT
 62
6
 10
5703.440
 20
-7851.287
 30
251.000
 70
    32
  0
VERTEX
  8
M50LXLIFT
 62
6
 10
5695.049
 20
-7838.800
 30
251.000
 70
    32
  0
VERTEX
  8
M50LXLIFT
 62
6
 10
5688.025
 20
-7819.353
 30
251.000
 70
    32
  0
VERTEX
  8
M50LXLIFT
 62
6
 10
5687.345
 20
-7798.025
 30
251.000
 70
    32
  0
SEQEND
  8
M50LXLIFT
  0
POLYLINE
  8
M50LXLIFT
 62
6
 66
     1
 70
     9
  0
VERTEX
  8
M50LXLIFT
 62
6
 10
5749.106
 20
-7798.234
 30
240.000
 70
    32
  0
VERTEX
  8
M50LXLIFT
 62
6
 10
5758.674
 20
-7822.824
 30
240.000
 70
    32
  0
VERTEX
  8
M50LXLIFT
 62
6
 10
5755.403
 20
-7827.396
 30
240.000
 70
    32
  0
VERTEX
  8
M50LXLIFT
 62
6
 10
5737.173
 20
-7836.751
 30
240.000
 70
    32
  0
VERTEX
  8
M50LXLIFT
 62
6
 10
5722.978
 20
-7840.648
 30
240.000
 70
    32
  0
VERTEX
  8
M50LXLIFT
 62
6
 10
5707.511
 20
-7840.590
 30
240.000
 70
    32
  0
VERTEX
  8
M50LXLIFT
 62
6
 10
5695.219
 20
-7828.426
 30
240.000
 70
    32
  0
VERTEX
  8
M50LXLIFT
 62
6
 10
5689.275
 20
-7797.375
 30
240.000
 70
    32
  0
VERTEX
  8
M50LXLIFT
 62
6
 10
5694.835
 20
-7793.405
 30
240.000
 70
    32
  0
VERTEX
  8
M50LXLIFT
 62
6
 10
5713.695
 20
-7784.021
 30
240.000
 70
    32
  0
VERTEX
  8
M50LXLIFT
 62
6
 10
5723.155
 20
-7787.292
 30
240.000
 70
    32
  0
VERTEX
  8
M50LXLIFT
 62
6
 10
5738.145
 20
-7777.815
 30
240.000
 70
    32
  0
SEQEND
  8
M50LXLIFT
  0
POLYLINE
  8
M50LXLIFT
 62
1
 66
     1
 70
     9
  0
VERTEX
  8
M50LXLIFT
 62
1
 10
5725.531
 20
-7784.427
 30
271.000
 70
    32
  0
VERTEX
  8
M50LXLIFT
 62
1
 10
5732.313
 20
-7788.257
 30
271.000
 70
    32
  0
VERTEX
  8
M50LXLIFT
 62
1
 10
5734.879
 20
-7802.330
 30
271.000
 70
    32
  0
VERTEX
  8
M50LXLIFT
 62
1
 10
5732.556
 20
-7809.964
 30
271.000
 70
    32
  0
VERTEX
  8
M50LXLIFT
 62
1
 10
5711.340
 20
-7820.895
 30
271.000
 70
    32
  0
VERTEX
  8
M50LXLIFT
 62
1
 10
5693.742
 20
-7832.423
 30
271.000
 70
    32
  0
VERTEX
  8
M50LXLIFT
 62
1
 10
5682.449
 20
-7820.451
 30
271.000
 70
    32
  0
VERTEX
  8
M50LXLIFT
 62
1
 10
5676.509
 20
-7792.247
 30
271.000
 70
    32
  0
VERTEX
  8
M50LXLIFT
 62
1
 10
5679.497
 20
-7785.215
 30
271.000
 70
    32
  0
VERTEX
  8
M50LXLIFT
 62
1
 10
5697.581
 20
-7775.077
 30
271.000
 70
    32
  0
SEQEND
  8
M50LXLIFT
  0
POLYLINE
  8
M50LXLIFT
 62
1
 66
     1
 70
     9
  0
VERTEX
  8
M50LXLIFT
 62
1
 10
5641.953
 20
-7716.265
 30
333.000
 70
    32
  0
VERTEX
  8
M50LXLIFT
 62
1
 10
5652.486
 20
-7720.347
 30
333.000
 70
    32
  0
VERTEX
  8
M50LXLIFT
 62
1
 10
5653.183
 20
-7728.653
 30
333.000
 70
    32
  0
VERTEX
  8
M50LXLIFT
 62
1
 10
5635.818
 20
-7745.524
 30
333.000
 70
    32
  0
VERTEX
  8
M50LXLIFT
 62
1
 10
5628.174
 20
-7751.830
 30
333.000
 70
    32
  0
VERTEX
  8
M50LXLIFT
 62
1
 10
5619.773
 20
-7751.073
 30
333.000
 70
    32
  0
VERTEX
  8
M50LXLIFT
 62
1
 10
5614.640
 20
-7733.086
 30
333.000
 70
    32
  0
VERTEX
  8
M50LXLIFT
 62
1
 10
5611.598
 20
-7724.554
 30
333.000
 70
    32
  0
VERTEX
  8
M50LXLIFT
 62
1
 10
5623.561
 20
-7716.579
 30
333.000
 70
    32
  0
VERTEX
  8
M50LXLIFT
 62
1
 10
5630.834
 20
-7721.111
 30
333.000
 70
    32
  0
VERTEX
  8
M50LXLIFT
 62
1
 10
5634.465
 20
-7720.278
 30
333.000
 70
    32
  0
SEQEND
  8
M50LXLIFT
  0
POLYLINE
  8
M50LXLIFT
 62
7
 66
     1
 70
     9
  0
VERTEX
  8
M50LXLIFT
 62
7
 10
5777.724
 20
-7510.029
 30
228.066
 70
    32
  0
VERTEX
  8
M50LXLIFT
 62
7
 10
5778.380
 20
-7498.527
 30
228.053
 70
    32
  0
VERTEX
  8
M50LXLIFT
 62
7
 10
5776.806
 20
-7493.476
 30
228.046
 70
    32
  0
VERTEX
  8
M50LXLIFT
 62
7
 10
5782.202
 20
-7488.491
 30
228.044
 70
    32
  0
VERTEX
  8
M50LXLIFT
 62
7
 10
5785.829
 20
-7483.190
 30
228.040
 70
    32
  0
VERTEX
  8
M50LXLIFT
 62
7
 10
5793.198
 20
-7475.761
 30
228.037
 70
    32
  0
VERTEX
  8
M50LXLIFT
 62
7
 10
5791.151
 20
-7472.373
 30
228.031
 70
    32
  0
VERTEX
  8
M50LXLIFT
 62
7
 10
5791.024
 20
-7469.905
 30
228.028
 70
    32
  0
VERTEX
  8
M50LXLIFT
 62
7
 10
5793.203
 20
-7461.476
 30
228.020
 70
    32
  0
VERTEX
  8
M50LXLIFT
 62
7
 10
5795.856
 20
-7460.912
 30
228.021
 70
    32
  0
VERTEX
  8
M50LXLIFT
 62
7
 10
5813.706
 20
-7462.409
 30
228.037
 70
    32
  0
VERTEX
  8
M50LXLIFT
 62
7
 10
5830.886
 20
-7471.721
 30
228.062
 70
    32
  0
VERTEX
  8
M50LXLIFT
 62
7
 10
5823.938
 20
-7485.216
 30
228.073
 70
    32
  0
VERTEX
  8
M50LXLIFT
 62
7
 10
5827.589
 20
-7487.008
 30
228.078
 70
    32
  0
VERTEX
  8
M50LXLIFT
 62
7
 10
5832.150
 20
-7492.471
 30
228.088
 70
    32
  0
VERTEX
  8
M50LXLIFT
 62
7
 10
5834.741
 20
-7503.971
 30
228.104
 70
    32
  0
VERTEX
  8
M50LXLIFT
 62
7
 10
5838.739
 20
-7515.588
 30
228.121
 70
    32
  0
VERTEX
  8
M50LXLIFT
 62
7
 10
5835.250
 20
-7522.829
 30
228.127
 70
    32
  0
VERTEX
  8
M50LXLIFT
 62
7
 10
5816.678
 20
-7526.691
 30
228.117
 70
    32
  0
VERTEX
  8
M50LXLIFT
 62
7
 10
5813.736
 20
-7528.482
 30
228.117
 70
    32
  0
VERTEX
  8
M50LXLIFT
 62
7
 10
5795.288
 20
-7534.988
 30
228.110
 70
    32
  0
VERTEX
  8
M50LXLIFT
 62
7
 10
5777.903
 20
-7518.319
 30
228.077
 70
    32
  0
SEQEND
  8
M50LXLIFT
  0
POLYLINE
  8
M50LXLIFT
 62
3
 66
     1
 70
     9
  0
VERTEX
  8
M50LXLIFT
 62
3
 10
5818.439
 20
-7606.679
 30
228.215
 70
    32
  0
VERTEX
  8
M50LXLIFT
 62
3
 10
5819.638
 20
-7601.552
 30
228.210
 70
    32
  0
VERTEX
  8
M50LXLIFT
 62
3
 10
5818.461
 20
-7598.710
 30
228.206
 70
    32
  0
VERTEX
  8
M50LXLIFT
 62
3
 10
5810.207
 20
-7588.507
 30
228.187
 70
    32
  0
VERTEX
  8
M50LXLIFT
 62
3
 10
5809.541
 20
-7582.064
 30
228.178
 70
    32
  0
VERTEX
  8
M50LXLIFT
 62
3
 10
5811.723
 20
-7569.689
 30
228.165
 70
    32
  0
VERTEX
  8
M50LXLIFT
 62
3
 10
5810.583
 20
-7560.507
 30
228.153
 70
    32
  0
VERTEX
  8
M50LXLIFT
 62
3
 10
5817.313
 20
-7554.210
 30
228.151
 70
    32
  0
VERTEX
  8
M50LXLIFT
 62
3
 10
5819.494
 20
-7550.818
 30
228.149
 70
    32
  0
VERTEX
  8
M50LXLIFT
 62
3
 10
5819.165
 20
-7545.175
 30
228.141
 70
    32
  0
VERTEX
  8
M50LXLIFT
 62
3
 10
5820.571
 20
-7536.395
 30
228.132
 70
    32
  0
VERTEX
  8
M50LXLIFT
 62
3
 10
5823.056
 20
-7530.984
 30
228.127
 70
    32
  0
VERTEX
  8
M50LXLIFT
 62
3
 10
5827.268
 20
-7527.279
 30
228.126
 70
    32
  0
VERTEX
  8
M50LXLIFT
 62
3
 10
5832.425
 20
-7524.827
 30
228.127
 70
    32
  0
VERTEX
  8
M50LXLIFT
 62
3
 10
5841.428
 20
-7523.860
 30
228.133
 70
    32
  0
VERTEX
  8
M50LXLIFT
 62
3
 10
5838.617
 20
-7527.944
 30
228.136
 70
    32
  0
VERTEX
  8
M50LXLIFT
 62
3
 10
5836.012
 20
-7539.430
 30
228.148
 70
    32
  0
VERTEX
  8
M50LXLIFT
 62
3
 10
5840.201
 20
-7545.854
 30
228.159
 70
    32
  0
VERTEX
  8
M50LXLIFT
 62
3
 10
5840.623
 20
-7564.622
 30
228.182
 70
    32
  0
VERTEX
  8
M50LXLIFT
 62
3
 10
5844.584
 20
-7573.684
 30
228.196
 70
    32
  0
VERTEX
  8
M50LXLIFT
 62
3
 10
5849.830
 20
-7580.129
 30
228.208
 70
    32
  0
SEQEND
  8
M50LXLIFT
  0
POLYLINE
  8
M50LXLIFT
 62
1
 66
     1
 70
     9
  0
VERTEX
  8
M50LXLIFT
 62
1
 10
5815.631
 20
-7537.125
 30
249.000
 70
    32
  0
VERTEX
  8
M50LXLIFT
 62
1
 10
5821.108
 20
-7541.037
 30
249.000
 70
    32
  0
VERTEX
  8
M50LXLIFT
 62
1
 10
5820.659
 20
-7555.379
 30
249.000
 70
    32
  0
VERTEX
  8
M50LXLIFT
 62
1
 10
5823.076
 20
-7560.449
 30
249.000
 70
    32
  0
VERTEX
  8
M50LXLIFT
 62
1
 10
5838.964
 20
-7568.780
 30
249.000
 70
    32
  0
VERTEX
  8
M50LXLIFT
 62
1
 10
5834.968
 20
-7602.126
 30
249.000
 70
    32
  0
VERTEX
  8
M50LXLIFT
 62
1
 10
5830.364
 20
-7605.178
 30
249.000
 70
    32
  0
VERTEX
  8
M50LXLIFT
 62
1
 10
5812.683
 20
-7600.770
 30
249.000
 70
    32
  0
VERTEX
  8
M50LXLIFT
 62
1
 10
5805.662
 20
-7595.493
 30
249.000
 70
    32
  0
VERTEX
  8
M50LXLIFT
 62
1
 10
5806.955
 20
-7590.742
 30
249.000
 70
    32
  0
VERTEX
  8
M50LXLIFT
 62
1
 10
5801.487
 20
-7581.067
 30
249.000
 70
    32
  0
VERTEX
  8
M50LXLIFT
 62
1
 10
5800.764
 20
-7566.608
 30
249.000
 70
    32
  0
VERTEX
  8
M50LXLIFT
 62
1
 10
5802.898
 20
-7551.898
 30
249.000
 70
    32
  0
VERTEX
  8
M50LXLIFT
 62
1
 10
5802.892
 20
-7544.190
 30
249.000
 70
    32
  0
SEQEND
  8
M50LXLIFT
  0
POLYLINE
  8
M50LXLIFT
 62
1
 66
     1
 70
     9
  0
VERTEX
  8
M50LXLIFT
 62
1
 10
5769.008
 20
-7506.195
 30
287.000
 70
    32
  0
VERTEX
  8
M50LXLIFT
 62
1
 10
5758.993
 20
-7516.298
 30
287.000
 70
    32
  0
VERTEX
  8
M50LXLIFT
 62
1
 10
5748.207
 20
-7524.022
 30
287.000
 70
    32
  0
VERTEX
  8
M50LXLIFT
 62
1
 10
5738.677
 20
-7512.711
 30
287.000
 70
    32
  0
VERTEX
  8
M50LXLIFT
 62
1
 10
5732.874
 20
-7501.275
 30
287.000
 70
    32
  0
VERTEX
  8
M50LXLIFT
 62
1
 10
5734.836
 20
-7485.865
 30
287.000
 70
    32
  0
VERTEX
  8
M50LXLIFT
 62
1
 10
5740.581
 20
-7479.889
 30
287.000
 70
    32
  0
VERTEX
  8
M50LXLIFT
 62
1
 10
5753.921
 20
-7469.411
 30
287.000
 70
    32
  0
VERTEX
  8
M50LXLIFT
 62
1
 10
5751.278
 20
-7442.118
 30
287.000
 70
    32
  0
VERTEX
  8
M50LXLIFT
 62
1
 10
5760.563
 20
-7435.171
 30
287.000
 70
    32
  0
VERTEX
  8
M50LXLIFT
 62
1
 10
5784.958
 20
-7424.298
 30
287.000
 70
    32
  0
VERTEX
  8
M50LXLIFT
 62
1
 10
5787.103
 20
-7436.247
 30
287.000
 70
    32
  0
VERTEX
  8
M50LXLIFT
 62
1
 10
5776.815
 20
-7447.314
 30
287.000
 70
    32
  0
VERTEX
  8
M50LXLIFT
 62
1
 10
5772.865
 20
-7465.061
 30
287.000
 70
    32
  0
VERTEX
  8
M50LXLIFT
 62
1
 10
5781.361
 20
-7472.005
 30
287.000
 70
    32
  0
VERTEX
  8
M50LXLIFT
 62
1
 10
5784.086
 20
-7481.781
 30
287.000
 70
    32
  0
VERTEX
  8
M50LXLIFT
 62
1
 10
5789.679
 20
-7489.227
 30
287.000
 70
    32
  0
VERTEX
  8
M50LXLIFT
 62
1
 10
5779.440
 20
-7498.731
 30
287.000
 70
    32
  0
VERTEX
  8
M50LXLIFT
 62
1
 10
5770.365
 20
-7497.667
 30
287.000
 70
    32
  0
VERTEX
  8
M50LXLIFT
 62
1
 10
5765.418
 20
-7500.874
 30
287.000
 70
    32
  0
SEQEND
  8
M50LXLIFT
  0
POLYLINE
  8
M50LXLIFT
 62
1
 66
     1
 70
     9
  0
VERTEX
  8
M50LXLIFT
 62
1
 10
5504.236
 20
-7607.757
 30
378.000
 70
    32
  0
VERTEX
  8
M50LXLIFT
 62
1
 10
5500.315
 20
-7606.204
 30
378.000
 70
    32
  0
VERTEX
  8
M50LXLIFT
 62
1
 10
5490.799
 20
-7593.580
 30
378.000
 70
    32
  0
VERTEX
  8
M50LXLIFT
 62
1
 10
5476.916
 20
-7598.216
 30
378.000
 70
    32
  0
VERTEX
  8
M50LXLIFT
 62
1
 10
5467.670
 20
-7581.429
 30
378.000
 70
    32
  0
VERTEX
  8
M50LXLIFT
 62
1
 10
5466.663
 20
-7571.630
 30
378.000
 70
    32
  0
VERTEX
  8
M50LXLIFT
 62
1
 10
5455.230
 20
-7558.361
 30
378.000
 70
    32
  0
VERTEX
  8
M50LXLIFT
 62
1
 10
5462.587
 20
-7550.175
 30
378.000
 70
    32
  0
VERTEX
  8
M50LXLIFT
 62
1
 10
5472.013
 20
-7540.210
 30
378.000
 70
    32
  0
VERTEX
  8
M50LXLIFT
 62
1
 10
5499.745
 20
-7545.920
 30
378.000
 70
    32
  0
VERTEX
  8
M50LXLIFT
 62
1
 10
5504.962
 20
-7552.986
 30
378.000
 70
    32
  0
VERTEX
  8
M50LXLIFT
 62
1
 10
5502.410
 20
-7558.210
 30
378.000
 70
    32
  0
VERTEX
  8
M50LXLIFT
 62
1
 10
5504.931
 20
-7561.699
 30
378.000
 70
    32
  0
VERTEX
  8
M50LXLIFT
 62
1
 10
5506.197
 20
-7583.951
 30
378.000
 70
    32
  0
VERTEX
  8
M50LXLIFT
 62
1
 10
5510.760
 20
-7582.271
 30
378.000
 70
    32
  0
VERTEX
  8
M50LXLIFT
 62
1
 10
5512.776
 20
-7601.869
 30
378.000
 70
    32
  0
SEQEND
  8
M50LXLIFT
  0
POLYLINE
  8
M50LXLIFT
 62
1
 66
     1
 70
     9
  0
VERTEX
  8
M50LXLIFT
 62
1
 10
5729.476
 20
-7421.572
 30
378.000
 70
    32
  0
VERTEX
  8
M50LXLIFT
 62
1
 10
5709.981
 20
-7415.261
 30
378.000
 70
    32
  0
VERTEX
  8
M50LXLIFT
 62
1
 10
5698.522
 20
-7427.199
 30
378.000
 70
    32
  0
VERTEX
  8
M50LXLIFT
 62
1
 10
5687.487
 20
-7446.846
 30
378.000
 70
    32
  0
VERTEX
  8
M50LXLIFT
 62
1
 10
5690.967
 20
-7454.672
 30
378.000
 70
    32
  0
VERTEX
  8
M50LXLIFT
 62
1
 10
5682.843
 20
-7465.635
 30
378.000
 70
    32
  0
VERTEX
  8
M50LXLIFT
 62
1
 10
5684.639
 20
-7481.440
 30
378.000
 70
    32
  0
VERTEX
  8
M50LXLIFT
 62
1
 10
5676.506
 20
-7488.890
 30
378.000
 70
    32
  0
VERTEX
  8
M50LXLIFT
 62
1
 10
5672.880
 20
-7485.684
 30
378.000
 70
    32
  0
VERTEX
  8
M50LXLIFT
 62
1
 10
5665.404
 20
-7467.013
 30
378.000
 70
    32
  0
VERTEX
  8
M50LXLIFT
 62
1
 10
5663.660
 20
-7457.989
 30
378.000
 70
    32
  0
VERTEX
  8
M50LXLIFT
 62
1
 10
5661.979
 20
-7424.390
 30
378.000
 70
    32
  0
VERTEX
  8
M50LXLIFT
 62
1
 10
5654.600
 20
-7416.644
 30
378.000
 70
    32
  0
VERTEX
  8
M50LXLIFT
 62
1
 10
5655.757
 20
-7408.403
 30
378.000
 70
    32
  0
VERTEX
  8
M50LXLIFT
 62
1
 10
5665.079
 20
-7399.176
 30
378.000
 70
    32
  0
VERTEX
  8
M50LXLIFT
 62
1
 10
5691.989
 20
-7370.531
 30
378.000
 70
    32
  0
VERTEX
  8
M50LXLIFT
 62
1
 10
5693.024
 20
-7369.861
 30
378.000
 70
    32
  0
VERTEX
  8
M50LXLIFT
 62
1
 10
5704.511
 20
-7369.780
 30
378.000
 70
    32
  0
VERTEX
  8
M50LXLIFT
 62
1
 10
5718.179
 20
-7363.107
 30
378.000
 70
    32
  0
VERTEX
  8
M50LXLIFT
 62
1
 10
5728.814
 20
-7359.269
 30
378.000
 70
    32
  0
VERTEX
  8
M50LXLIFT
 62
1
 10
5742.033
 20
-7363.382
 30
378.000
 70
    32
  0
VERTEX
  8
M50LXLIFT
 62
1
 10
5746.223
 20
-7374.192
 30
378.000
 70
    32
  0
VERTEX
  8
M50LXLIFT
 62
1
 10
5742.700
 20
-7391.696
 30
378.000
 70
    32
  0
VERTEX
  8
M50LXLIFT
 62
1
 10
5736.927
 20
-7415.406
 30
378.000
 70
    32
  0
SEQEND
  8
M50LXLIFT
  0
POLYLINE
  8
M50LXLIFT
 62
1
 66
     1
 70
     9
  0
VERTEX
  8
M50LXLIFT
 62
1
 10
5763.550
 20
-7241.794
 30
378.000
 70
    32
  0
VERTEX
  8
M50LXLIFT
 62
1
 10
5776.431
 20
-7251.001
 30
378.000
 70
    32
  0
VERTEX
  8
M50LXLIFT
 62
1
 10
5783.325
 20
-7261.752
 30
378.000
 70
    32
  0
VERTEX
  8
M50LXLIFT
 62
1
 10
5785.368
 20
-7270.881
 30
378.000
 70
    32
  0
VERTEX
  8
M50LXLIFT
 62
1
 10
5799.278
 20
-7284.372
 30
378.000
 70
    32
  0
VERTEX
  8
M50LXLIFT
 62
1
 10
5780.607
 20
-7306.147
 30
378.000
 70
    32
  0
VERTEX
  8
M50LXLIFT
 62
1
 10
5784.253
 20
-7310.547
 30
378.000
 70
    32
  0
VERTEX
  8
M50LXLIFT
 62
1
 10
5773.157
 20
-7319.901
 30
378.000
 70
    32
  0
VERTEX
  8
M50LXLIFT
 62
1
 10
5761.083
 20
-7324.164
 30
378.000
 70
    32
  0
VERTEX
  8
M50LXLIFT
 62
1
 10
5757.846
 20
-7329.354
 30
378.000
 70
    32
  0
VERTEX
  8
M50LXLIFT
 62
1
 10
5753.206
 20
-7328.013
 30
378.000
 70
    32
  0
VERTEX
  8
M50LXLIFT
 62
1
 10
5752.273
 20
-7320.356
 30
378.000
 70
    32
  0
VERTEX
  8
M50LXLIFT
 62
1
 10
5762.893
 20
-7310.371
 30
378.000
 70
    32
  0
VERTEX
  8
M50LXLIFT
 62
1
 10
5771.322
 20
-7294.998
 30
378.000
 70
    32
  0
VERTEX
  8
M50LXLIFT
 62
1
 10
5761.743
 20
-7285.501
 30
378.000
 70
    32
  0
VERTEX
  8
M50LXLIFT
 62
1
 10
5757.574
 20
-7275.885
 30
378.000
 70
    32
  0
VERTEX
  8
M50LXLIFT
 62
1
 10
5770.160
 20
-7258.148
 30
378.000
 70
    32
  0
VERTEX
  8
M50LXLIFT
 62
1
 10
5758.690
 20
-7250.957
 30
378.000
 70
    32
  0
SEQEND
  8
M50LXLIFT
  0
ENDSEC
  0
EOF
