999
********************************
999
*   DXF File - Entities Only   *
999
*        3D Data Format        *
999
*     Output from ENVISAGE     *
999
*     31-Dec-2007 15:10:34     *
999
********************************
  0
SECTION 
  2
HEADER
  9
$ACADVER
  1
AC1009
  9
$EXTMIN
 10
-290000.000
 20
-250000.000
 30
-4000.000
  9
$EXTMAX
 10
320000.000
 20
160000.000
 30
6000.000
  0
ENDSEC
  0
SECTION
  2
ENTITIES
  0
POLYLINE
  8
M51LXLIFT
 62
13
 66
     1
 70
     9
  0
VERTEX
  8
M51LXLIFT
 62
13
 10
6009.511
 20
-7407.563
 30
168.000
 70
    32
  0
VERTEX
  8
M51LXLIFT
 62
13
 10
5991.170
 20
-7423.179
 30
168.000
 70
    32
  0
VERTEX
  8
M51LXLIFT
 62
13
 10
5971.301
 20
-7415.085
 30
168.000
 70
    32
  0
VERTEX
  8
M51LXLIFT
 62
13
 10
5962.297
 20
-7407.326
 30
168.000
 70
    32
  0
VERTEX
  8
M51LXLIFT
 62
13
 10
5950.587
 20
-7411.940
 30
168.000
 70
    32
  0
VERTEX
  8
M51LXLIFT
 62
13
 10
5954.035
 20
-7419.513
 30
168.000
 70
    32
  0
VERTEX
  8
M51LXLIFT
 62
13
 10
5971.533
 20
-7429.115
 30
168.000
 70
    32
  0
VERTEX
  8
M51LXLIFT
 62
13
 10
5993.142
 20
-7435.727
 30
168.000
 70
    32
  0
VERTEX
  8
M51LXLIFT
 62
13
 10
6012.244
 20
-7447.089
 30
168.000
 70
    32
  0
VERTEX
  8
M51LXLIFT
 62
13
 10
6027.293
 20
-7452.728
 30
168.000
 70
    32
  0
VERTEX
  8
M51LXLIFT
 62
13
 10
6034.098
 20
-7452.547
 30
168.000
 70
    32
  0
VERTEX
  8
M51LXLIFT
 62
13
 10
6043.314
 20
-7457.767
 30
168.000
 70
    32
  0
VERTEX
  8
M51LXLIFT
 62
13
 10
6044.764
 20
-7450.968
 30
168.000
 70
    32
  0
VERTEX
  8
M51LXLIFT
 62
13
 10
6042.399
 20
-7447.269
 30
168.000
 70
    32
  0
VERTEX
  8
M51LXLIFT
 62
13
 10
6030.915
 20
-7440.122
 30
168.000
 70
    32
  0
VERTEX
  8
M51LXLIFT
 62
13
 10
6019.030
 20
-7426.762
 30
168.000
 70
    32
  0
VERTEX
  8
M51LXLIFT
 62
13
 10
6020.268
 20
-7414.156
 30
168.000
 70
    32
  0
SEQEND
  8
M51LXLIFT
  0
POLYLINE
  8
M51LXLIFT
 62
13
 66
     1
 70
     9
  0
VERTEX
  8
M51LXLIFT
 62
13
 10
5961.107
 20
-7424.434
 30
205.000
 70
    32
  0
VERTEX
  8
M51LXLIFT
 62
13
 10
5971.543
 20
-7425.654
 30
205.000
 70
    32
  0
VERTEX
  8
M51LXLIFT
 62
13
 10
5983.007
 20
-7433.558
 30
205.000
 70
    32
  0
VERTEX
  8
M51LXLIFT
 62
13
 10
5986.239
 20
-7429.950
 30
205.000
 70
    32
  0
VERTEX
  8
M51LXLIFT
 62
13
 10
5981.366
 20
-7417.801
 30
205.000
 70
    32
  0
VERTEX
  8
M51LXLIFT
 62
13
 10
5960.238
 20
-7382.912
 30
205.000
 70
    32
  0
VERTEX
  8
M51LXLIFT
 62
13
 10
5954.709
 20
-7380.780
 30
205.000
 70
    32
  0
VERTEX
  8
M51LXLIFT
 62
13
 10
5941.628
 20
-7386.018
 30
205.000
 70
    32
  0
VERTEX
  8
M51LXLIFT
 62
13
 10
5941.265
 20
-7393.188
 30
205.000
 70
    32
  0
VERTEX
  8
M51LXLIFT
 62
13
 10
5951.580
 20
-7411.476
 30
205.000
 70
    32
  0
SEQEND
  8
M51LXLIFT
  0
POLYLINE
  8
M51LXLIFT
 62
13
 66
     1
 70
     9
  0
VERTEX
  8
M51LXLIFT
 62
13
 10
5952.283
 20
-7410.477
 30
184.000
 70
    32
  0
VERTEX
  8
M51LXLIFT
 62
13
 10
5959.785
 20
-7420.112
 30
184.000
 70
    32
  0
VERTEX
  8
M51LXLIFT
 62
13
 10
5988.737
 20
-7434.580
 30
184.000
 70
    32
  0
VERTEX
  8
M51LXLIFT
 62
13
 10
5999.927
 20
-7444.755
 30
184.000
 70
    32
  0
VERTEX
  8
M51LXLIFT
 62
13
 10
5994.176
 20
-7451.884
 30
184.000
 70
    32
  0
VERTEX
  8
M51LXLIFT
 62
13
 10
6007.153
 20
-7468.283
 30
184.000
 70
    32
  0
VERTEX
  8
M51LXLIFT
 62
13
 10
6013.060
 20
-7472.097
 30
184.000
 70
    32
  0
VERTEX
  8
M51LXLIFT
 62
13
 10
6027.764
 20
-7471.551
 30
184.000
 70
    32
  0
VERTEX
  8
M51LXLIFT
 62
13
 10
6044.053
 20
-7475.190
 30
184.000
 70
    32
  0
VERTEX
  8
M51LXLIFT
 62
13
 10
6057.199
 20
-7478.433
 30
184.000
 70
    32
  0
VERTEX
  8
M51LXLIFT
 62
13
 10
6055.324
 20
-7471.944
 30
184.000
 70
    32
  0
VERTEX
  8
M51LXLIFT
 62
13
 10
6036.800
 20
-7459.567
 30
184.000
 70
    32
  0
VERTEX
  8
M51LXLIFT
 62
13
 10
6024.618
 20
-7451.884
 30
184.000
 70
    32
  0
VERTEX
  8
M51LXLIFT
 62
13
 10
6014.913
 20
-7443.998
 30
184.000
 70
    32
  0
VERTEX
  8
M51LXLIFT
 62
13
 10
6007.911
 20
-7421.507
 30
184.000
 70
    32
  0
VERTEX
  8
M51LXLIFT
 62
13
 10
5978.615
 20
-7415.399
 30
184.000
 70
    32
  0
VERTEX
  8
M51LXLIFT
 62
13
 10
5969.387
 20
-7411.977
 30
184.000
 70
    32
  0
VERTEX
  8
M51LXLIFT
 62
13
 10
5960.604
 20
-7401.653
 30
184.000
 70
    32
  0
SEQEND
  8
M51LXLIFT
  0
POLYLINE
  8
M51LXLIFT
 62
13
 66
     1
 70
     9
  0
VERTEX
  8
M51LXLIFT
 62
13
 10
5968.346
 20
-7410.903
 30
212.000
 70
    32
  0
VERTEX
  8
M51LXLIFT
 62
13
 10
5960.853
 20
-7404.163
 30
212.000
 70
    32
  0
VERTEX
  8
M51LXLIFT
 62
13
 10
5943.409
 20
-7385.945
 30
212.000
 70
    32
  0
VERTEX
  8
M51LXLIFT
 62
13
 10
5917.101
 20
-7372.738
 30
212.000
 70
    32
  0
VERTEX
  8
M51LXLIFT
 62
13
 10
5912.662
 20
-7377.259
 30
212.000
 70
    32
  0
VERTEX
  8
M51LXLIFT
 62
13
 10
5935.389
 20
-7409.363
 30
212.000
 70
    32
  0
VERTEX
  8
M51LXLIFT
 62
13
 10
5941.815
 20
-7420.027
 30
212.000
 70
    32
  0
VERTEX
  8
M51LXLIFT
 62
13
 10
5957.099
 20
-7421.773
 30
212.000
 70
    32
  0
SEQEND
  8
M51LXLIFT
  0
POLYLINE
  8
M51LXLIFT
 62
1
 66
     1
 70
     9
  0
VERTEX
  8
M51LXLIFT
 62
1
 10
5958.099
 20
-7420.773
 30
222.000
 70
    32
  0
VERTEX
  8
M51LXLIFT
 62
1
 10
5942.815
 20
-7419.027
 30
222.000
 70
    32
  0
VERTEX
  8
M51LXLIFT
 62
1
 10
5936.389
 20
-7408.363
 30
222.000
 70
    32
  0
VERTEX
  8
M51LXLIFT
 62
1
 10
5913.662
 20
-7376.259
 30
222.000
 70
    32
  0
VERTEX
  8
M51LXLIFT
 62
1
 10
5918.101
 20
-7371.738
 30
222.000
 70
    32
  0
VERTEX
  8
M51LXLIFT
 62
1
 10
5944.409
 20
-7384.945
 30
222.000
 70
    32
  0
VERTEX
  8
M51LXLIFT
 62
1
 10
5961.853
 20
-7403.163
 30
222.000
 70
    32
  0
VERTEX
  8
M51LXLIFT
 62
1
 10
5969.346
 20
-7409.903
 30
222.000
 70
    32
  0
SEQEND
  8
M51LXLIFT
  0
POLYLINE
  8
M51LXLIFT
 62
13
 66
     1
 70
     9
  0
VERTEX
  8
M51LXLIFT
 62
13
 10
6038.132
 20
-7481.554
 30
195.000
 70
    32
  0
VERTEX
  8
M51LXLIFT
 62
13
 10
6049.596
 20
-7482.513
 30
195.000
 70
    32
  0
VERTEX
  8
M51LXLIFT
 62
13
 10
6054.207
 20
-7478.269
 30
195.000
 70
    32
  0
VERTEX
  8
M51LXLIFT
 62
13
 10
6041.839
 20
-7472.211
 30
195.000
 70
    32
  0
VERTEX
  8
M51LXLIFT
 62
13
 10
6025.498
 20
-7463.842
 30
195.000
 70
    32
  0
VERTEX
  8
M51LXLIFT
 62
13
 10
6009.551
 20
-7448.881
 30
195.000
 70
    32
  0
VERTEX
  8
M51LXLIFT
 62
13
 10
6002.642
 20
-7430.675
 30
195.000
 70
    32
  0
VERTEX
  8
M51LXLIFT
 62
13
 10
5992.405
 20
-7420.993
 30
195.000
 70
    32
  0
VERTEX
  8
M51LXLIFT
 62
13
 10
5977.262
 20
-7416.638
 30
195.000
 70
    32
  0
VERTEX
  8
M51LXLIFT
 62
13
 10
5967.142
 20
-7398.500
 30
195.000
 70
    32
  0
VERTEX
  8
M51LXLIFT
 62
13
 10
5961.539
 20
-7390.100
 30
195.000
 70
    32
  0
VERTEX
  8
M51LXLIFT
 62
13
 10
5947.855
 20
-7397.396
 30
195.000
 70
    32
  0
VERTEX
  8
M51LXLIFT
 62
13
 10
5955.615
 20
-7417.804
 30
195.000
 70
    32
  0
VERTEX
  8
M51LXLIFT
 62
13
 10
5961.037
 20
-7423.728
 30
195.000
 70
    32
  0
VERTEX
  8
M51LXLIFT
 62
13
 10
5979.778
 20
-7432.406
 30
195.000
 70
    32
  0
VERTEX
  8
M51LXLIFT
 62
13
 10
5990.283
 20
-7443.197
 30
195.000
 70
    32
  0
VERTEX
  8
M51LXLIFT
 62
13
 10
5992.709
 20
-7459.139
 30
195.000
 70
    32
  0
VERTEX
  8
M51LXLIFT
 62
13
 10
6006.875
 20
-7477.904
 30
195.000
 70
    32
  0
SEQEND
  8
M51LXLIFT
  0
POLYLINE
  8
M51LXLIFT
 62
13
 66
     1
 70
     9
  0
VERTEX
  8
M51LXLIFT
 62
13
 10
5963.543
 20
-7407.637
 30
157.000
 70
    32
  0
VERTEX
  8
M51LXLIFT
 62
13
 10
5970.902
 20
-7415.089
 30
157.000
 70
    32
  0
VERTEX
  8
M51LXLIFT
 62
13
 10
5986.509
 20
-7425.987
 30
157.000
 70
    32
  0
VERTEX
  8
M51LXLIFT
 62
13
 10
6008.856
 20
-7437.957
 30
157.000
 70
    32
  0
VERTEX
  8
M51LXLIFT
 62
13
 10
6029.552
 20
-7448.848
 30
157.000
 70
    32
  0
VERTEX
  8
M51LXLIFT
 62
13
 10
6029.780
 20
-7465.595
 30
157.000
 70
    32
  0
VERTEX
  8
M51LXLIFT
 62
13
 10
6023.274
 20
-7469.775
 30
157.000
 70
    32
  0
VERTEX
  8
M51LXLIFT
 62
13
 10
6010.630
 20
-7463.557
 30
157.000
 70
    32
  0
VERTEX
  8
M51LXLIFT
 62
13
 10
6000.526
 20
-7452.025
 30
157.000
 70
    32
  0
VERTEX
  8
M51LXLIFT
 62
13
 10
5994.474
 20
-7440.697
 30
157.000
 70
    32
  0
VERTEX
  8
M51LXLIFT
 62
13
 10
5985.140
 20
-7433.811
 30
157.000
 70
    32
  0
VERTEX
  8
M51LXLIFT
 62
13
 10
5976.445
 20
-7426.461
 30
157.000
 70
    32
  0
VERTEX
  8
M51LXLIFT
 62
13
 10
5966.731
 20
-7425.922
 30
157.000
 70
    32
  0
VERTEX
  8
M51LXLIFT
 62
13
 10
5960.230
 20
-7424.135
 30
157.000
 70
    32
  0
VERTEX
  8
M51LXLIFT
 62
13
 10
5955.410
 20
-7412.564
 30
157.000
 70
    32
  0
SEQEND
  8
M51LXLIFT
  0
POLYLINE
  8
M51LXLIFT
 62
7
 66
     1
 70
     9
  0
VERTEX
  8
M51LXLIFT
 62
7
 10
5820.396
 20
-7542.921
 30
213.000
 70
    32
  0
VERTEX
  8
M51LXLIFT
 62
7
 10
5831.041
 20
-7524.773
 30
213.000
 70
    32
  0
VERTEX
  8
M51LXLIFT
 62
7
 10
5848.828
 20
-7505.685
 30
213.000
 70
    32
  0
VERTEX
  8
M51LXLIFT
 62
7
 10
5855.700
 20
-7500.922
 30
213.000
 70
    32
  0
VERTEX
  8
M51LXLIFT
 62
7
 10
5855.743
 20
-7493.935
 30
213.000
 70
    32
  0
VERTEX
  8
M51LXLIFT
 62
7
 10
5848.101
 20
-7483.392
 30
213.000
 70
    32
  0
VERTEX
  8
M51LXLIFT
 62
7
 10
5838.124
 20
-7479.973
 30
213.000
 70
    32
  0
VERTEX
  8
M51LXLIFT
 62
7
 10
5833.110
 20
-7472.306
 30
213.000
 70
    32
  0
VERTEX
  8
M51LXLIFT
 62
7
 10
5809.340
 20
-7478.342
 30
213.000
 70
    32
  0
VERTEX
  8
M51LXLIFT
 62
7
 10
5801.722
 20
-7484.624
 30
213.000
 70
    32
  0
VERTEX
  8
M51LXLIFT
 62
7
 10
5806.278
 20
-7499.905
 30
213.000
 70
    32
  0
VERTEX
  8
M51LXLIFT
 62
7
 10
5792.479
 20
-7516.101
 30
213.000
 70
    32
  0
VERTEX
  8
M51LXLIFT
 62
7
 10
5780.660
 20
-7528.581
 30
213.000
 70
    32
  0
VERTEX
  8
M51LXLIFT
 62
7
 10
5788.870
 20
-7544.255
 30
213.000
 70
    32
  0
VERTEX
  8
M51LXLIFT
 62
7
 10
5785.662
 20
-7547.776
 30
213.000
 70
    32
  0
VERTEX
  8
M51LXLIFT
 62
7
 10
5791.775
 20
-7560.407
 30
213.000
 70
    32
  0
VERTEX
  8
M51LXLIFT
 62
7
 10
5801.766
 20
-7558.598
 30
213.000
 70
    32
  0
SEQEND
  8
M51LXLIFT
  0
POLYLINE
  8
M51LXLIFT
 62
7
 66
     1
 70
     9
  0
VERTEX
  8
M51LXLIFT
 62
7
 10
5863.673
 20
-7510.516
 30
188.000
 70
    32
  0
VERTEX
  8
M51LXLIFT
 62
7
 10
5844.136
 20
-7483.074
 30
188.000
 70
    32
  0
VERTEX
  8
M51LXLIFT
 62
7
 10
5823.280
 20
-7485.617
 30
188.000
 70
    32
  0
VERTEX
  8
M51LXLIFT
 62
7
 10
5814.017
 20
-7491.526
 30
188.000
 70
    32
  0
VERTEX
  8
M51LXLIFT
 62
7
 10
5797.091
 20
-7514.890
 30
188.000
 70
    32
  0
VERTEX
  8
M51LXLIFT
 62
7
 10
5806.220
 20
-7529.296
 30
188.000
 70
    32
  0
VERTEX
  8
M51LXLIFT
 62
7
 10
5812.267
 20
-7541.719
 30
188.000
 70
    32
  0
VERTEX
  8
M51LXLIFT
 62
7
 10
5839.387
 20
-7528.723
 30
188.000
 70
    32
  0
VERTEX
  8
M51LXLIFT
 62
7
 10
5853.556
 20
-7521.942
 30
188.000
 70
    32
  0
VERTEX
  8
M51LXLIFT
 62
7
 10
5860.072
 20
-7518.369
 30
188.000
 70
    32
  0
SEQEND
  8
M51LXLIFT
  0
POLYLINE
  8
M51LXLIFT
 62
1
 66
     1
 70
     9
  0
VERTEX
  8
M51LXLIFT
 62
1
 10
5828.752
 20
-7483.397
 30
229.000
 70
    32
  0
VERTEX
  8
M51LXLIFT
 62
1
 10
5823.621
 20
-7486.951
 30
229.000
 70
    32
  0
VERTEX
  8
M51LXLIFT
 62
1
 10
5826.122
 20
-7491.984
 30
229.000
 70
    32
  0
VERTEX
  8
M51LXLIFT
 62
1
 10
5820.166
 20
-7513.706
 30
229.000
 70
    32
  0
VERTEX
  8
M51LXLIFT
 62
1
 10
5817.945
 20
-7529.082
 30
229.000
 70
    32
  0
VERTEX
  8
M51LXLIFT
 62
1
 10
5801.646
 20
-7549.790
 30
229.000
 70
    32
  0
VERTEX
  8
M51LXLIFT
 62
1
 10
5794.160
 20
-7555.185
 30
229.000
 70
    32
  0
VERTEX
  8
M51LXLIFT
 62
1
 10
5781.187
 20
-7540.507
 30
229.000
 70
    32
  0
VERTEX
  8
M51LXLIFT
 62
1
 10
5780.477
 20
-7522.923
 30
229.000
 70
    32
  0
VERTEX
  8
M51LXLIFT
 62
1
 10
5783.758
 20
-7508.840
 30
229.000
 70
    32
  0
VERTEX
  8
M51LXLIFT
 62
1
 10
5786.395
 20
-7494.030
 30
229.000
 70
    32
  0
VERTEX
  8
M51LXLIFT
 62
1
 10
5794.830
 20
-7486.957
 30
229.000
 70
    32
  0
VERTEX
  8
M51LXLIFT
 62
1
 10
5820.680
 20
-7472.861
 30
229.000
 70
    32
  0
SEQEND
  8
M51LXLIFT
  0
POLYLINE
  8
M51LXLIFT
 62
1
 66
     1
 70
     9
  0
VERTEX
  8
M51LXLIFT
 62
1
 10
5823.669
 20
-7621.669
 30
223.000
 70
    32
  0
VERTEX
  8
M51LXLIFT
 62
1
 10
5820.790
 20
-7617.996
 30
223.000
 70
    32
  0
VERTEX
  8
M51LXLIFT
 62
1
 10
5825.350
 20
-7610.344
 30
223.000
 70
    32
  0
VERTEX
  8
M51LXLIFT
 62
1
 10
5819.294
 20
-7598.541
 30
223.000
 70
    32
  0
VERTEX
  8
M51LXLIFT
 62
1
 10
5809.190
 20
-7589.999
 30
223.000
 70
    32
  0
VERTEX
  8
M51LXLIFT
 62
1
 10
5808.802
 20
-7585.716
 30
223.000
 70
    32
  0
VERTEX
  8
M51LXLIFT
 62
1
 10
5812.836
 20
-7583.335
 30
223.000
 70
    32
  0
VERTEX
  8
M51LXLIFT
 62
1
 10
5810.590
 20
-7567.793
 30
223.000
 70
    32
  0
VERTEX
  8
M51LXLIFT
 62
1
 10
5826.034
 20
-7554.317
 30
223.000
 70
    32
  0
VERTEX
  8
M51LXLIFT
 62
1
 10
5831.381
 20
-7543.703
 30
223.000
 70
    32
  0
VERTEX
  8
M51LXLIFT
 62
1
 10
5832.821
 20
-7537.443
 30
223.000
 70
    32
  0
VERTEX
  8
M51LXLIFT
 62
1
 10
5835.717
 20
-7530.345
 30
223.000
 70
    32
  0
VERTEX
  8
M51LXLIFT
 62
1
 10
5851.751
 20
-7528.177
 30
223.000
 70
    32
  0
VERTEX
  8
M51LXLIFT
 62
1
 10
5848.021
 20
-7555.115
 30
223.000
 70
    32
  0
VERTEX
  8
M51LXLIFT
 62
1
 10
5854.788
 20
-7558.904
 30
223.000
 70
    32
  0
VERTEX
  8
M51LXLIFT
 62
1
 10
5852.507
 20
-7569.251
 30
223.000
 70
    32
  0
VERTEX
  8
M51LXLIFT
 62
1
 10
5859.649
 20
-7581.353
 30
223.000
 70
    32
  0
VERTEX
  8
M51LXLIFT
 62
1
 10
5855.628
 20
-7600.242
 30
223.000
 70
    32
  0
VERTEX
  8
M51LXLIFT
 62
1
 10
5834.742
 20
-7615.056
 30
223.000
 70
    32
  0
SEQEND
  8
M51LXLIFT
  0
POLYLINE
  8
M51LXLIFT
 62
7
 66
     1
 70
     9
  0
VERTEX
  8
M51LXLIFT
 62
7
 10
5881.488
 20
-7512.163
 30
167.000
 70
    32
  0
VERTEX
  8
M51LXLIFT
 62
7
 10
5876.526
 20
-7505.041
 30
167.000
 70
    32
  0
VERTEX
  8
M51LXLIFT
 62
7
 10
5864.146
 20
-7509.927
 30
167.000
 70
    32
  0
VERTEX
  8
M51LXLIFT
 62
7
 10
5853.396
 20
-7495.742
 30
167.000
 70
    32
  0
VERTEX
  8
M51LXLIFT
 62
7
 10
5833.366
 20
-7502.180
 30
167.000
 70
    32
  0
VERTEX
  8
M51LXLIFT
 62
7
 10
5827.340
 20
-7511.332
 30
167.000
 70
    32
  0
VERTEX
  8
M51LXLIFT
 62
7
 10
5815.411
 20
-7521.309
 30
167.000
 70
    32
  0
VERTEX
  8
M51LXLIFT
 62
7
 10
5815.385
 20
-7530.215
 30
167.000
 70
    32
  0
VERTEX
  8
M51LXLIFT
 62
7
 10
5823.184
 20
-7554.351
 30
167.000
 70
    32
  0
VERTEX
  8
M51LXLIFT
 62
7
 10
5852.997
 20
-7532.451
 30
167.000
 70
    32
  0
SEQEND
  8
M51LXLIFT
  0
POLYLINE
  8
M51LXLIFT
 62
3
 66
     1
 70
     9
  0
VERTEX
  8
M51LXLIFT
 62
3
 10
5850.965
 20
-7619.928
 30
204.000
 70
    32
  0
VERTEX
  8
M51LXLIFT
 62
3
 10
5857.936
 20
-7613.101
 30
204.000
 70
    32
  0
VERTEX
  8
M51LXLIFT
 62
3
 10
5858.958
 20
-7595.035
 30
204.000
 70
    32
  0
VERTEX
  8
M51LXLIFT
 62
3
 10
5853.943
 20
-7583.431
 30
204.000
 70
    32
  0
VERTEX
  8
M51LXLIFT
 62
3
 10
5859.501
 20
-7578.093
 30
204.000
 70
    32
  0
VERTEX
  8
M51LXLIFT
 62
3
 10
5859.421
 20
-7571.799
 30
204.000
 70
    32
  0
VERTEX
  8
M51LXLIFT
 62
3
 10
5866.205
 20
-7550.435
 30
204.000
 70
    32
  0
VERTEX
  8
M51LXLIFT
 62
3
 10
5860.589
 20
-7539.496
 30
204.000
 70
    32
  0
VERTEX
  8
M51LXLIFT
 62
3
 10
5855.873
 20
-7536.542
 30
204.000
 70
    32
  0
VERTEX
  8
M51LXLIFT
 62
3
 10
5846.417
 20
-7544.888
 30
204.000
 70
    32
  0
VERTEX
  8
M51LXLIFT
 62
3
 10
5845.357
 20
-7563.639
 30
204.000
 70
    32
  0
VERTEX
  8
M51LXLIFT
 62
3
 10
5841.802
 20
-7573.293
 30
204.000
 70
    32
  0
VERTEX
  8
M51LXLIFT
 62
3
 10
5832.260
 20
-7577.104
 30
204.000
 70
    32
  0
VERTEX
  8
M51LXLIFT
 62
3
 10
5817.119
 20
-7587.378
 30
204.000
 70
    32
  0
VERTEX
  8
M51LXLIFT
 62
3
 10
5802.756
 20
-7596.636
 30
204.000
 70
    32
  0
VERTEX
  8
M51LXLIFT
 62
3
 10
5814.812
 20
-7614.614
 30
204.000
 70
    32
  0
VERTEX
  8
M51LXLIFT
 62
3
 10
5829.687
 20
-7626.662
 30
204.000
 70
    32
  0
VERTEX
  8
M51LXLIFT
 62
3
 10
5835.048
 20
-7626.508
 30
204.000
 70
    32
  0
SEQEND
  8
M51LXLIFT
  0
POLYLINE
  8
M51LXLIFT
 62
3
 66
     1
 70
     9
  0
VERTEX
  8
M51LXLIFT
 62
3
 10
5819.776
 20
-7621.499
 30
183.000
 70
    32
  0
VERTEX
  8
M51LXLIFT
 62
3
 10
5828.572
 20
-7617.577
 30
183.000
 70
    32
  0
VERTEX
  8
M51LXLIFT
 62
3
 10
5842.847
 20
-7619.540
 30
183.000
 70
    32
  0
VERTEX
  8
M51LXLIFT
 62
3
 10
5851.262
 20
-7613.931
 30
183.000
 70
    32
  0
VERTEX
  8
M51LXLIFT
 62
3
 10
5851.161
 20
-7607.765
 30
183.000
 70
    32
  0
VERTEX
  8
M51LXLIFT
 62
3
 10
5857.851
 20
-7603.221
 30
183.000
 70
    32
  0
VERTEX
  8
M51LXLIFT
 62
3
 10
5862.369
 20
-7592.082
 30
183.000
 70
    32
  0
VERTEX
  8
M51LXLIFT
 62
3
 10
5867.910
 20
-7584.670
 30
183.000
 70
    32
  0
VERTEX
  8
M51LXLIFT
 62
3
 10
5881.223
 20
-7575.195
 30
183.000
 70
    32
  0
VERTEX
  8
M51LXLIFT
 62
3
 10
5880.001
 20
-7537.231
 30
183.000
 70
    32
  0
VERTEX
  8
M51LXLIFT
 62
3
 10
5857.442
 20
-7548.554
 30
183.000
 70
    32
  0
VERTEX
  8
M51LXLIFT
 62
3
 10
5859.100
 20
-7562.103
 30
183.000
 70
    32
  0
VERTEX
  8
M51LXLIFT
 62
3
 10
5851.797
 20
-7575.972
 30
183.000
 70
    32
  0
VERTEX
  8
M51LXLIFT
 62
3
 10
5837.192
 20
-7593.418
 30
183.000
 70
    32
  0
VERTEX
  8
M51LXLIFT
 62
3
 10
5820.481
 20
-7600.387
 30
183.000
 70
    32
  0
VERTEX
  8
M51LXLIFT
 62
3
 10
5819.848
 20
-7605.567
 30
183.000
 70
    32
  0
VERTEX
  8
M51LXLIFT
 62
3
 10
5811.763
 20
-7611.915
 30
183.000
 70
    32
  0
SEQEND
  8
M51LXLIFT
  0
POLYLINE
  8
M51LXLIFT
 62
3
 66
     1
 70
     9
  0
VERTEX
  8
M51LXLIFT
 62
3
 10
5842.180
 20
-7633.773
 30
144.000
 70
    32
  0
VERTEX
  8
M51LXLIFT
 62
3
 10
5838.037
 20
-7627.438
 30
144.000
 70
    32
  0
VERTEX
  8
M51LXLIFT
 62
3
 10
5837.779
 20
-7618.379
 30
144.000
 70
    32
  0
VERTEX
  8
M51LXLIFT
 62
3
 10
5840.469
 20
-7605.652
 30
144.000
 70
    32
  0
VERTEX
  8
M51LXLIFT
 62
3
 10
5848.209
 20
-7594.935
 30
144.000
 70
    32
  0
VERTEX
  8
M51LXLIFT
 62
3
 10
5827.660
 20
-7567.545
 30
144.000
 70
    32
  0
VERTEX
  8
M51LXLIFT
 62
3
 10
5833.225
 20
-7557.156
 30
144.000
 70
    32
  0
VERTEX
  8
M51LXLIFT
 62
3
 10
5856.053
 20
-7537.422
 30
144.000
 70
    32
  0
VERTEX
  8
M51LXLIFT
 62
3
 10
5867.806
 20
-7528.510
 30
144.000
 70
    32
  0
VERTEX
  8
M51LXLIFT
 62
3
 10
5877.197
 20
-7524.475
 30
144.000
 70
    32
  0
VERTEX
  8
M51LXLIFT
 62
3
 10
5889.916
 20
-7529.043
 30
144.000
 70
    32
  0
VERTEX
  8
M51LXLIFT
 62
3
 10
5900.417
 20
-7542.456
 30
144.000
 70
    32
  0
VERTEX
  8
M51LXLIFT
 62
3
 10
5894.536
 20
-7586.139
 30
144.000
 70
    32
  0
VERTEX
  8
M51LXLIFT
 62
3
 10
5890.940
 20
-7606.826
 30
144.000
 70
    32
  0
VERTEX
  8
M51LXLIFT
 62
3
 10
5886.202
 20
-7610.749
 30
144.000
 70
    32
  0
VERTEX
  8
M51LXLIFT
 62
3
 10
5866.246
 20
-7622.355
 30
144.000
 70
    32
  0
SEQEND
  8
M51LXLIFT
  0
POLYLINE
  8
M51LXLIFT
 62
7
 66
     1
 70
     9
  0
VERTEX
  8
M51LXLIFT
 62
7
 10
5819.680
 20
-7473.861
 30
219.000
 70
    32
  0
VERTEX
  8
M51LXLIFT
 62
7
 10
5793.830
 20
-7487.957
 30
219.000
 70
    32
  0
VERTEX
  8
M51LXLIFT
 62
7
 10
5785.395
 20
-7495.030
 30
219.000
 70
    32
  0
VERTEX
  8
M51LXLIFT
 62
7
 10
5782.758
 20
-7509.840
 30
219.000
 70
    32
  0
VERTEX
  8
M51LXLIFT
 62
7
 10
5779.477
 20
-7523.923
 30
219.000
 70
    32
  0
VERTEX
  8
M51LXLIFT
 62
7
 10
5780.187
 20
-7541.507
 30
219.000
 70
    32
  0
VERTEX
  8
M51LXLIFT
 62
7
 10
5793.160
 20
-7556.185
 30
219.000
 70
    32
  0
VERTEX
  8
M51LXLIFT
 62
7
 10
5800.646
 20
-7550.790
 30
219.000
 70
    32
  0
VERTEX
  8
M51LXLIFT
 62
7
 10
5816.945
 20
-7530.082
 30
219.000
 70
    32
  0
VERTEX
  8
M51LXLIFT
 62
7
 10
5819.166
 20
-7514.706
 30
219.000
 70
    32
  0
VERTEX
  8
M51LXLIFT
 62
7
 10
5825.122
 20
-7492.984
 30
219.000
 70
    32
  0
VERTEX
  8
M51LXLIFT
 62
7
 10
5822.621
 20
-7487.951
 30
219.000
 70
    32
  0
VERTEX
  8
M51LXLIFT
 62
7
 10
5827.752
 20
-7484.397
 30
219.000
 70
    32
  0
SEQEND
  8
M51LXLIFT
  0
POLYLINE
  8
M51LXLIFT
 62
7
 66
     1
 70
     9
  0
VERTEX
  8
M51LXLIFT
 62
7
 10
5872.626
 20
-7516.003
 30
177.000
 70
    32
  0
VERTEX
  8
M51LXLIFT
 62
7
 10
5870.042
 20
-7511.357
 30
177.000
 70
    32
  0
VERTEX
  8
M51LXLIFT
 62
7
 10
5853.952
 20
-7501.219
 30
177.000
 70
    32
  0
VERTEX
  8
M51LXLIFT
 62
7
 10
5838.228
 20
-7501.867
 30
177.000
 70
    32
  0
VERTEX
  8
M51LXLIFT
 62
7
 10
5825.479
 20
-7495.482
 30
177.000
 70
    32
  0
VERTEX
  8
M51LXLIFT
 62
7
 10
5812.882
 20
-7506.505
 30
177.000
 70
    32
  0
VERTEX
  8
M51LXLIFT
 62
7
 10
5811.646
 20
-7523.522
 30
177.000
 70
    32
  0
VERTEX
  8
M51LXLIFT
 62
7
 10
5817.869
 20
-7537.614
 30
177.000
 70
    32
  0
VERTEX
  8
M51LXLIFT
 62
7
 10
5824.869
 20
-7545.104
 30
177.000
 70
    32
  0
SEQEND
  8
M51LXLIFT
  0
POLYLINE
  8
M51LXLIFT
 62
7
 66
     1
 70
     9
  0
VERTEX
  8
M51LXLIFT
 62
7
 10
5821.931
 20
-7479.857
 30
199.000
 70
    32
  0
VERTEX
  8
M51LXLIFT
 62
7
 10
5827.217
 20
-7485.345
 30
199.000
 70
    32
  0
VERTEX
  8
M51LXLIFT
 62
7
 10
5839.901
 20
-7487.083
 30
199.000
 70
    32
  0
VERTEX
  8
M51LXLIFT
 62
7
 10
5848.644
 20
-7498.544
 30
199.000
 70
    32
  0
VERTEX
  8
M51LXLIFT
 62
7
 10
5843.634
 20
-7515.961
 30
199.000
 70
    32
  0
VERTEX
  8
M51LXLIFT
 62
7
 10
5838.258
 20
-7528.174
 30
199.000
 70
    32
  0
VERTEX
  8
M51LXLIFT
 62
7
 10
5822.264
 20
-7540.835
 30
199.000
 70
    32
  0
VERTEX
  8
M51LXLIFT
 62
7
 10
5805.682
 20
-7551.086
 30
199.000
 70
    32
  0
VERTEX
  8
M51LXLIFT
 62
7
 10
5802.204
 20
-7546.115
 30
199.000
 70
    32
  0
VERTEX
  8
M51LXLIFT
 62
7
 10
5804.941
 20
-7530.060
 30
199.000
 70
    32
  0
VERTEX
  8
M51LXLIFT
 62
7
 10
5802.434
 20
-7519.767
 30
199.000
 70
    32
  0
VERTEX
  8
M51LXLIFT
 62
7
 10
5793.899
 20
-7504.756
 30
199.000
 70
    32
  0
VERTEX
  8
M51LXLIFT
 62
7
 10
5799.030
 20
-7496.340
 30
199.000
 70
    32
  0
VERTEX
  8
M51LXLIFT
 62
7
 10
5810.170
 20
-7488.932
 30
199.000
 70
    32
  0
SEQEND
  8
M51LXLIFT
  0
POLYLINE
  8
M51LXLIFT
 62
3
 66
     1
 70
     9
  0
VERTEX
  8
M51LXLIFT
 62
3
 10
5893.168
 20
-7519.295
 30
155.000
 70
    32
  0
VERTEX
  8
M51LXLIFT
 62
3
 10
5873.609
 20
-7524.056
 30
155.000
 70
    32
  0
VERTEX
  8
M51LXLIFT
 62
3
 10
5866.484
 20
-7525.757
 30
155.000
 70
    32
  0
VERTEX
  8
M51LXLIFT
 62
3
 10
5853.398
 20
-7538.086
 30
155.000
 70
    32
  0
VERTEX
  8
M51LXLIFT
 62
3
 10
5840.372
 20
-7557.971
 30
155.000
 70
    32
  0
VERTEX
  8
M51LXLIFT
 62
3
 10
5829.338
 20
-7562.511
 30
155.000
 70
    32
  0
VERTEX
  8
M51LXLIFT
 62
3
 10
5824.887
 20
-7574.322
 30
155.000
 70
    32
  0
VERTEX
  8
M51LXLIFT
 62
3
 10
5829.856
 20
-7581.462
 30
155.000
 70
    32
  0
VERTEX
  8
M51LXLIFT
 62
3
 10
5846.901
 20
-7591.773
 30
155.000
 70
    32
  0
VERTEX
  8
M51LXLIFT
 62
3
 10
5848.534
 20
-7594.170
 30
155.000
 70
    32
  0
VERTEX
  8
M51LXLIFT
 62
3
 10
5817.772
 20
-7614.452
 30
155.000
 70
    32
  0
VERTEX
  8
M51LXLIFT
 62
3
 10
5820.295
 20
-7618.374
 30
155.000
 70
    32
  0
VERTEX
  8
M51LXLIFT
 62
3
 10
5823.333
 20
-7626.591
 30
155.000
 70
    32
  0
VERTEX
  8
M51LXLIFT
 62
3
 10
5831.263
 20
-7628.540
 30
155.000
 70
    32
  0
VERTEX
  8
M51LXLIFT
 62
3
 10
5847.074
 20
-7628.781
 30
155.000
 70
    32
  0
VERTEX
  8
M51LXLIFT
 62
3
 10
5866.681
 20
-7619.751
 30
155.000
 70
    32
  0
VERTEX
  8
M51LXLIFT
 62
3
 10
5877.122
 20
-7612.601
 30
155.000
 70
    32
  0
VERTEX
  8
M51LXLIFT
 62
3
 10
5890.754
 20
-7594.447
 30
155.000
 70
    32
  0
VERTEX
  8
M51LXLIFT
 62
3
 10
5897.314
 20
-7532.027
 30
155.000
 70
    32
  0
SEQEND
  8
M51LXLIFT
  0
POLYLINE
  8
M51LXLIFT
 62
3
 66
     1
 70
     9
  0
VERTEX
  8
M51LXLIFT
 62
3
 10
5820.645
 20
-7624.482
 30
165.000
 70
    32
  0
VERTEX
  8
M51LXLIFT
 62
3
 10
5834.566
 20
-7625.738
 30
165.000
 70
    32
  0
VERTEX
  8
M51LXLIFT
 62
3
 10
5850.110
 20
-7620.286
 30
165.000
 70
    32
  0
VERTEX
  8
M51LXLIFT
 62
3
 10
5868.735
 20
-7605.656
 30
165.000
 70
    32
  0
VERTEX
  8
M51LXLIFT
 62
3
 10
5882.617
 20
-7589.274
 30
165.000
 70
    32
  0
VERTEX
  8
M51LXLIFT
 62
3
 10
5887.186
 20
-7564.706
 30
165.000
 70
    32
  0
VERTEX
  8
M51LXLIFT
 62
3
 10
5890.473
 20
-7543.890
 30
165.000
 70
    32
  0
VERTEX
  8
M51LXLIFT
 62
3
 10
5883.596
 20
-7526.238
 30
165.000
 70
    32
  0
VERTEX
  8
M51LXLIFT
 62
3
 10
5862.490
 20
-7537.903
 30
165.000
 70
    32
  0
VERTEX
  8
M51LXLIFT
 62
3
 10
5859.306
 20
-7542.170
 30
165.000
 70
    32
  0
VERTEX
  8
M51LXLIFT
 62
3
 10
5861.362
 20
-7558.558
 30
165.000
 70
    32
  0
VERTEX
  8
M51LXLIFT
 62
3
 10
5853.738
 20
-7573.858
 30
165.000
 70
    32
  0
VERTEX
  8
M51LXLIFT
 62
3
 10
5837.040
 20
-7598.142
 30
165.000
 70
    32
  0
VERTEX
  8
M51LXLIFT
 62
3
 10
5830.525
 20
-7603.640
 30
165.000
 70
    32
  0
VERTEX
  8
M51LXLIFT
 62
3
 10
5820.052
 20
-7607.571
 30
165.000
 70
    32
  0
VERTEX
  8
M51LXLIFT
 62
3
 10
5813.782
 20
-7613.107
 30
165.000
 70
    32
  0
SEQEND
  8
M51LXLIFT
  0
POLYLINE
  8
M51LXLIFT
 62
3
 66
     1
 70
     9
  0
VERTEX
  8
M51LXLIFT
 62
3
 10
5833.742
 20
-7616.056
 30
213.000
 70
    32
  0
VERTEX
  8
M51LXLIFT
 62
3
 10
5854.628
 20
-7601.242
 30
213.000
 70
    32
  0
VERTEX
  8
M51LXLIFT
 62
3
 10
5858.649
 20
-7582.353
 30
213.000
 70
    32
  0
VERTEX
  8
M51LXLIFT
 62
3
 10
5851.507
 20
-7570.251
 30
213.000
 70
    32
  0
VERTEX
  8
M51LXLIFT
 62
3
 10
5853.788
 20
-7559.904
 30
213.000
 70
    32
  0
VERTEX
  8
M51LXLIFT
 62
3
 10
5847.021
 20
-7556.115
 30
213.000
 70
    32
  0
VERTEX
  8
M51LXLIFT
 62
3
 10
5850.751
 20
-7529.177
 30
213.000
 70
    32
  0
VERTEX
  8
M51LXLIFT
 62
3
 10
5834.717
 20
-7531.345
 30
213.000
 70
    32
  0
VERTEX
  8
M51LXLIFT
 62
3
 10
5831.821
 20
-7538.443
 30
213.000
 70
    32
  0
VERTEX
  8
M51LXLIFT
 62
3
 10
5830.381
 20
-7544.703
 30
213.000
 70
    32
  0
VERTEX
  8
M51LXLIFT
 62
3
 10
5825.034
 20
-7555.317
 30
213.000
 70
    32
  0
VERTEX
  8
M51LXLIFT
 62
3
 10
5809.590
 20
-7568.793
 30
213.000
 70
    32
  0
VERTEX
  8
M51LXLIFT
 62
3
 10
5811.836
 20
-7584.335
 30
213.000
 70
    32
  0
VERTEX
  8
M51LXLIFT
 62
3
 10
5807.802
 20
-7586.716
 30
213.000
 70
    32
  0
VERTEX
  8
M51LXLIFT
 62
3
 10
5808.190
 20
-7590.999
 30
213.000
 70
    32
  0
VERTEX
  8
M51LXLIFT
 62
3
 10
5818.294
 20
-7599.541
 30
213.000
 70
    32
  0
VERTEX
  8
M51LXLIFT
 62
3
 10
5824.350
 20
-7611.344
 30
213.000
 70
    32
  0
VERTEX
  8
M51LXLIFT
 62
3
 10
5819.790
 20
-7618.996
 30
213.000
 70
    32
  0
VERTEX
  8
M51LXLIFT
 62
3
 10
5822.669
 20
-7622.669
 30
213.000
 70
    32
  0
SEQEND
  8
M51LXLIFT
  0
POLYLINE
  8
M51LXLIFT
 62
3
 66
     1
 70
     9
  0
VERTEX
  8
M51LXLIFT
 62
3
 10
5850.333
 20
-7601.980
 30
123.000
 70
    32
  0
VERTEX
  8
M51LXLIFT
 62
3
 10
5854.576
 20
-7595.338
 30
123.000
 70
    32
  0
VERTEX
  8
M51LXLIFT
 62
3
 10
5854.672
 20
-7590.464
 30
123.000
 70
    32
  0
VERTEX
  8
M51LXLIFT
 62
3
 10
5839.931
 20
-7579.130
 30
123.000
 70
    32
  0
VERTEX
  8
M51LXLIFT
 62
3
 10
5842.402
 20
-7565.833
 30
123.000
 70
    32
  0
VERTEX
  8
M51LXLIFT
 62
3
 10
5853.266
 20
-7553.843
 30
123.000
 70
    32
  0
VERTEX
  8
M51LXLIFT
 62
3
 10
5872.518
 20
-7540.651
 30
123.000
 70
    32
  0
VERTEX
  8
M51LXLIFT
 62
3
 10
5881.074
 20
-7547.622
 30
123.000
 70
    32
  0
VERTEX
  8
M51LXLIFT
 62
3
 10
5894.873
 20
-7541.206
 30
123.000
 70
    32
  0
VERTEX
  8
M51LXLIFT
 62
3
 10
5899.588
 20
-7544.913
 30
123.000
 70
    32
  0
VERTEX
  8
M51LXLIFT
 62
3
 10
5908.224
 20
-7543.309
 30
123.000
 70
    32
  0
VERTEX
  8
M51LXLIFT
 62
3
 10
5913.148
 20
-7560.835
 30
123.000
 70
    32
  0
VERTEX
  8
M51LXLIFT
 62
3
 10
5919.478
 20
-7581.138
 30
123.000
 70
    32
  0
VERTEX
  8
M51LXLIFT
 62
3
 10
5918.808
 20
-7588.623
 30
123.000
 70
    32
  0
VERTEX
  8
M51LXLIFT
 62
3
 10
5915.864
 20
-7605.108
 30
123.000
 70
    32
  0
VERTEX
  8
M51LXLIFT
 62
3
 10
5917.179
 20
-7632.189
 30
123.000
 70
    32
  0
VERTEX
  8
M51LXLIFT
 62
3
 10
5904.943
 20
-7638.210
 30
123.000
 70
    32
  0
VERTEX
  8
M51LXLIFT
 62
3
 10
5870.655
 20
-7656.444
 30
123.000
 70
    32
  0
VERTEX
  8
M51LXLIFT
 62
3
 10
5866.709
 20
-7646.271
 30
123.000
 70
    32
  0
VERTEX
  8
M51LXLIFT
 62
3
 10
5877.121
 20
-7636.909
 30
123.000
 70
    32
  0
VERTEX
  8
M51LXLIFT
 62
3
 10
5872.665
 20
-7630.608
 30
123.000
 70
    32
  0
SEQEND
  8
M51LXLIFT
  0
POLYLINE
  8
M51LXLIFT
 62
3
 66
     1
 70
     9
  0
VERTEX
  8
M51LXLIFT
 62
3
 10
5885.305
 20
-7521.170
 30
134.000
 70
    32
  0
VERTEX
  8
M51LXLIFT
 62
3
 10
5842.261
 20
-7549.129
 30
134.000
 70
    32
  0
VERTEX
  8
M51LXLIFT
 62
3
 10
5834.527
 20
-7564.767
 30
134.000
 70
    32
  0
VERTEX
  8
M51LXLIFT
 62
3
 10
5832.014
 20
-7571.615
 30
134.000
 70
    32
  0
VERTEX
  8
M51LXLIFT
 62
3
 10
5834.752
 20
-7576.250
 30
134.000
 70
    32
  0
VERTEX
  8
M51LXLIFT
 62
3
 10
5846.498
 20
-7575.936
 30
134.000
 70
    32
  0
VERTEX
  8
M51LXLIFT
 62
3
 10
5853.800
 20
-7586.020
 30
134.000
 70
    32
  0
VERTEX
  8
M51LXLIFT
 62
3
 10
5850.171
 20
-7598.221
 30
134.000
 70
    32
  0
VERTEX
  8
M51LXLIFT
 62
3
 10
5853.940
 20
-7602.185
 30
134.000
 70
    32
  0
VERTEX
  8
M51LXLIFT
 62
3
 10
5868.509
 20
-7605.891
 30
134.000
 70
    32
  0
VERTEX
  8
M51LXLIFT
 62
3
 10
5870.553
 20
-7608.302
 30
134.000
 70
    32
  0
VERTEX
  8
M51LXLIFT
 62
3
 10
5865.670
 20
-7618.264
 30
134.000
 70
    32
  0
VERTEX
  8
M51LXLIFT
 62
3
 10
5832.053
 20
-7636.890
 30
134.000
 70
    32
  0
VERTEX
  8
M51LXLIFT
 62
3
 10
5835.533
 20
-7642.941
 30
134.000
 70
    32
  0
VERTEX
  8
M51LXLIFT
 62
3
 10
5846.864
 20
-7636.124
 30
134.000
 70
    32
  0
VERTEX
  8
M51LXLIFT
 62
3
 10
5869.524
 20
-7633.817
 30
134.000
 70
    32
  0
VERTEX
  8
M51LXLIFT
 62
3
 10
5881.978
 20
-7622.962
 30
134.000
 70
    32
  0
VERTEX
  8
M51LXLIFT
 62
3
 10
5898.771
 20
-7614.210
 30
134.000
 70
    32
  0
VERTEX
  8
M51LXLIFT
 62
3
 10
5901.471
 20
-7610.078
 30
134.000
 70
    32
  0
VERTEX
  8
M51LXLIFT
 62
3
 10
5899.423
 20
-7598.656
 30
134.000
 70
    32
  0
VERTEX
  8
M51LXLIFT
 62
3
 10
5902.651
 20
-7578.953
 30
134.000
 70
    32
  0
VERTEX
  8
M51LXLIFT
 62
3
 10
5904.437
 20
-7554.294
 30
134.000
 70
    32
  0
VERTEX
  8
M51LXLIFT
 62
3
 10
5902.753
 20
-7546.113
 30
134.000
 70
    32
  0
SEQEND
  8
M51LXLIFT
  0
POLYLINE
  8
M51LXLIFT
 62
3
 66
     1
 70
     9
  0
VERTEX
  8
M51LXLIFT
 62
3
 10
5907.120
 20
-7611.336
 30
112.000
 70
    32
  0
VERTEX
  8
M51LXLIFT
 62
3
 10
5909.809
 20
-7567.045
 30
112.000
 70
    32
  0
VERTEX
  8
M51LXLIFT
 62
3
 10
5913.388
 20
-7558.512
 30
112.000
 70
    32
  0
VERTEX
  8
M51LXLIFT
 62
3
 10
5899.986
 20
-7541.767
 30
112.000
 70
    32
  0
VERTEX
  8
M51LXLIFT
 62
3
 10
5865.344
 20
-7545.888
 30
112.000
 70
    32
  0
VERTEX
  8
M51LXLIFT
 62
3
 10
5852.758
 20
-7563.636
 30
112.000
 70
    32
  0
VERTEX
  8
M51LXLIFT
 62
3
 10
5850.028
 20
-7586.717
 30
112.000
 70
    32
  0
VERTEX
  8
M51LXLIFT
 62
3
 10
5850.082
 20
-7593.500
 30
112.000
 70
    32
  0
VERTEX
  8
M51LXLIFT
 62
3
 10
5855.884
 20
-7600.899
 30
112.000
 70
    32
  0
VERTEX
  8
M51LXLIFT
 62
3
 10
5866.938
 20
-7613.802
 30
112.000
 70
    32
  0
VERTEX
  8
M51LXLIFT
 62
3
 10
5866.825
 20
-7629.846
 30
112.000
 70
    32
  0
VERTEX
  8
M51LXLIFT
 62
3
 10
5872.497
 20
-7635.032
 30
112.000
 70
    32
  0
SEQEND
  8
M51LXLIFT
  0
POLYLINE
  8
M51LXLIFT
 62
3
 66
     1
 70
     9
  0
VERTEX
  8
M51LXLIFT
 62
3
 10
5858.617
 20
-7543.564
 30
193.000
 70
    32
  0
VERTEX
  8
M51LXLIFT
 62
3
 10
5850.274
 20
-7557.713
 30
193.000
 70
    32
  0
VERTEX
  8
M51LXLIFT
 62
3
 10
5840.783
 20
-7574.005
 30
193.000
 70
    32
  0
VERTEX
  8
M51LXLIFT
 62
3
 10
5835.400
 20
-7585.662
 30
193.000
 70
    32
  0
VERTEX
  8
M51LXLIFT
 62
3
 10
5811.301
 20
-7595.361
 30
193.000
 70
    32
  0
VERTEX
  8
M51LXLIFT
 62
3
 10
5807.534
 20
-7603.879
 30
193.000
 70
    32
  0
VERTEX
  8
M51LXLIFT
 62
3
 10
5805.557
 20
-7613.803
 30
193.000
 70
    32
  0
VERTEX
  8
M51LXLIFT
 62
3
 10
5848.646
 20
-7636.295
 30
193.000
 70
    32
  0
VERTEX
  8
M51LXLIFT
 62
3
 10
5866.330
 20
-7623.029
 30
193.000
 70
    32
  0
VERTEX
  8
M51LXLIFT
 62
3
 10
5872.267
 20
-7613.467
 30
193.000
 70
    32
  0
VERTEX
  8
M51LXLIFT
 62
3
 10
5869.468
 20
-7602.363
 30
193.000
 70
    32
  0
VERTEX
  8
M51LXLIFT
 62
3
 10
5861.631
 20
-7588.533
 30
193.000
 70
    32
  0
VERTEX
  8
M51LXLIFT
 62
3
 10
5867.124
 20
-7561.578
 30
193.000
 70
    32
  0
VERTEX
  8
M51LXLIFT
 62
3
 10
5868.909
 20
-7545.598
 30
193.000
 70
    32
  0
SEQEND
  8
M51LXLIFT
  0
POLYLINE
  8
M51LXLIFT
 62
3
 66
     1
 70
     9
  0
VERTEX
  8
M51LXLIFT
 62
3
 10
5872.276
 20
-7597.895
 30
91.000
 70
    32
  0
VERTEX
  8
M51LXLIFT
 62
3
 10
5893.235
 20
-7586.333
 30
91.000
 70
    32
  0
VERTEX
  8
M51LXLIFT
 62
3
 10
5898.455
 20
-7585.401
 30
91.000
 70
    32
  0
VERTEX
  8
M51LXLIFT
 62
3
 10
5910.360
 20
-7592.413
 30
91.000
 70
    32
  0
VERTEX
  8
M51LXLIFT
 62
3
 10
5923.728
 20
-7570.515
 30
91.000
 70
    32
  0
VERTEX
  8
M51LXLIFT
 62
3
 10
5915.182
 20
-7556.838
 30
91.000
 70
    32
  0
VERTEX
  8
M51LXLIFT
 62
3
 10
5901.700
 20
-7548.591
 30
91.000
 70
    32
  0
VERTEX
  8
M51LXLIFT
 62
3
 10
5885.793
 20
-7556.937
 30
91.000
 70
    32
  0
VERTEX
  8
M51LXLIFT
 62
3
 10
5869.217
 20
-7571.148
 30
91.000
 70
    32
  0
VERTEX
  8
M51LXLIFT
 62
3
 10
5856.046
 20
-7580.961
 30
91.000
 70
    32
  0
VERTEX
  8
M51LXLIFT
 62
3
 10
5855.670
 20
-7588.689
 30
91.000
 70
    32
  0
VERTEX
  8
M51LXLIFT
 62
3
 10
5860.006
 20
-7595.098
 30
91.000
 70
    32
  0
VERTEX
  8
M51LXLIFT
 62
3
 10
5864.333
 20
-7593.407
 30
91.000
 70
    32
  0
SEQEND
  8
M51LXLIFT
  0
POLYLINE
  8
M51LXLIFT
 62
3
 66
     1
 70
     9
  0
VERTEX
  8
M51LXLIFT
 62
3
 10
5897.336
 20
-7580.857
 30
112.000
 70
    32
  0
VERTEX
  8
M51LXLIFT
 62
3
 10
5886.335
 20
-7581.010
 30
112.000
 70
    32
  0
VERTEX
  8
M51LXLIFT
 62
3
 10
5872.175
 20
-7594.774
 30
112.000
 70
    32
  0
VERTEX
  8
M51LXLIFT
 62
3
 10
5875.441
 20
-7600.124
 30
112.000
 70
    32
  0
VERTEX
  8
M51LXLIFT
 62
3
 10
5896.902
 20
-7595.601
 30
112.000
 70
    32
  0
SEQEND
  8
M51LXLIFT
  0
POLYLINE
  8
M51LXLIFT
 62
3
 66
     1
 70
     9
  0
VERTEX
  8
M51LXLIFT
 62
3
 10
5921.947
 20
-7547.111
 30
101.000
 70
    32
  0
VERTEX
  8
M51LXLIFT
 62
3
 10
5919.151
 20
-7546.946
 30
101.000
 70
    32
  0
VERTEX
  8
M51LXLIFT
 62
3
 10
5909.439
 20
-7552.481
 30
101.000
 70
    32
  0
VERTEX
  8
M51LXLIFT
 62
3
 10
5903.061
 20
-7552.427
 30
101.000
 70
    32
  0
VERTEX
  8
M51LXLIFT
 62
3
 10
5895.835
 20
-7546.695
 30
101.000
 70
    32
  0
VERTEX
  8
M51LXLIFT
 62
3
 10
5873.730
 20
-7558.177
 30
101.000
 70
    32
  0
VERTEX
  8
M51LXLIFT
 62
3
 10
5854.771
 20
-7580.447
 30
101.000
 70
    32
  0
VERTEX
  8
M51LXLIFT
 62
3
 10
5853.831
 20
-7593.848
 30
101.000
 70
    32
  0
VERTEX
  8
M51LXLIFT
 62
3
 10
5860.031
 20
-7601.266
 30
101.000
 70
    32
  0
VERTEX
  8
M51LXLIFT
 62
3
 10
5873.089
 20
-7593.024
 30
101.000
 70
    32
  0
VERTEX
  8
M51LXLIFT
 62
3
 10
5883.967
 20
-7584.694
 30
101.000
 70
    32
  0
VERTEX
  8
M51LXLIFT
 62
3
 10
5897.967
 20
-7581.391
 30
101.000
 70
    32
  0
VERTEX
  8
M51LXLIFT
 62
3
 10
5897.849
 20
-7596.711
 30
101.000
 70
    32
  0
VERTEX
  8
M51LXLIFT
 62
3
 10
5906.146
 20
-7621.732
 30
101.000
 70
    32
  0
VERTEX
  8
M51LXLIFT
 62
3
 10
5913.112
 20
-7619.106
 30
101.000
 70
    32
  0
VERTEX
  8
M51LXLIFT
 62
3
 10
5910.916
 20
-7613.696
 30
101.000
 70
    32
  0
VERTEX
  8
M51LXLIFT
 62
3
 10
5916.551
 20
-7589.870
 30
101.000
 70
    32
  0
VERTEX
  8
M51LXLIFT
 62
3
 10
5916.616
 20
-7567.032
 30
101.000
 70
    32
  0
VERTEX
  8
M51LXLIFT
 62
3
 10
5920.052
 20
-7560.142
 30
101.000
 70
    32
  0
VERTEX
  8
M51LXLIFT
 62
3
 10
5926.815
 20
-7553.672
 30
101.000
 70
    32
  0
SEQEND
  8
M51LXLIFT
  0
POLYLINE
  8
M51LXLIFT
 62
7
 66
     1
 70
     9
  0
VERTEX
  8
M51LXLIFT
 62
7
 10
5871.766
 20
-7515.113
 30
157.000
 70
    32
  0
VERTEX
  8
M51LXLIFT
 62
7
 10
5866.888
 20
-7521.688
 30
157.000
 70
    32
  0
VERTEX
  8
M51LXLIFT
 62
7
 10
5851.832
 20
-7533.807
 30
157.000
 70
    32
  0
VERTEX
  8
M51LXLIFT
 62
7
 10
5832.372
 20
-7544.786
 30
157.000
 70
    32
  0
VERTEX
  8
M51LXLIFT
 62
7
 10
5825.876
 20
-7538.225
 30
157.000
 70
    32
  0
VERTEX
  8
M51LXLIFT
 62
7
 10
5821.552
 20
-7527.486
 30
157.000
 70
    32
  0
VERTEX
  8
M51LXLIFT
 62
7
 10
5818.537
 20
-7522.735
 30
157.000
 70
    32
  0
VERTEX
  8
M51LXLIFT
 62
7
 10
5836.475
 20
-7505.923
 30
157.000
 70
    32
  0
VERTEX
  8
M51LXLIFT
 62
7
 10
5840.873
 20
-7507.502
 30
157.000
 70
    32
  0
VERTEX
  8
M51LXLIFT
 62
7
 10
5858.318
 20
-7506.442
 30
157.000
 70
    32
  0
VERTEX
  8
M51LXLIFT
 62
7
 10
5864.436
 20
-7503.520
 30
157.000
 70
    32
  0
SEQEND
  8
M51LXLIFT
  0
POLYLINE
  8
M51LXLIFT
 62
6
 66
     1
 70
     9
  0
VERTEX
  8
M51LXLIFT
 62
6
 10
5701.412
 20
-7728.162
 30
192.000
 70
    32
  0
VERTEX
  8
M51LXLIFT
 62
6
 10
5692.508
 20
-7764.569
 30
192.000
 70
    32
  0
VERTEX
  8
M51LXLIFT
 62
6
 10
5730.738
 20
-7779.529
 30
192.000
 70
    32
  0
VERTEX
  8
M51LXLIFT
 62
6
 10
5745.163
 20
-7789.735
 30
192.000
 70
    32
  0
VERTEX
  8
M51LXLIFT
 62
6
 10
5752.304
 20
-7792.662
 30
192.000
 70
    32
  0
VERTEX
  8
M51LXLIFT
 62
6
 10
5757.878
 20
-7802.061
 30
192.000
 70
    32
  0
VERTEX
  8
M51LXLIFT
 62
6
 10
5770.434
 20
-7799.613
 30
192.000
 70
    32
  0
VERTEX
  8
M51LXLIFT
 62
6
 10
5775.910
 20
-7826.258
 30
192.000
 70
    32
  0
VERTEX
  8
M51LXLIFT
 62
6
 10
5788.126
 20
-7824.385
 30
192.000
 70
    32
  0
VERTEX
  8
M51LXLIFT
 62
6
 10
5794.766
 20
-7819.199
 30
192.000
 70
    32
  0
VERTEX
  8
M51LXLIFT
 62
6
 10
5793.283
 20
-7812.567
 30
192.000
 70
    32
  0
VERTEX
  8
M51LXLIFT
 62
6
 10
5768.098
 20
-7783.496
 30
192.000
 70
    32
  0
VERTEX
  8
M51LXLIFT
 62
6
 10
5742.224
 20
-7772.647
 30
192.000
 70
    32
  0
VERTEX
  8
M51LXLIFT
 62
6
 10
5718.908
 20
-7750.142
 30
192.000
 70
    32
  0
VERTEX
  8
M51LXLIFT
 62
6
 10
5708.944
 20
-7732.216
 30
192.000
 70
    32
  0
SEQEND
  8
M51LXLIFT
  0
POLYLINE
  8
M51LXLIFT
 62
6
 66
     1
 70
     9
  0
VERTEX
  8
M51LXLIFT
 62
6
 10
5703.553
 20
-7725.125
 30
182.000
 70
    32
  0
VERTEX
  8
M51LXLIFT
 62
6
 10
5700.531
 20
-7740.625
 30
182.000
 70
    32
  0
VERTEX
  8
M51LXLIFT
 62
6
 10
5705.739
 20
-7758.648
 30
182.000
 70
    32
  0
VERTEX
  8
M51LXLIFT
 62
6
 10
5720.861
 20
-7769.398
 30
182.000
 70
    32
  0
VERTEX
  8
M51LXLIFT
 62
6
 10
5743.211
 20
-7777.942
 30
182.000
 70
    32
  0
VERTEX
  8
M51LXLIFT
 62
6
 10
5759.486
 20
-7790.680
 30
182.000
 70
    32
  0
VERTEX
  8
M51LXLIFT
 62
6
 10
5753.602
 20
-7800.866
 30
182.000
 70
    32
  0
VERTEX
  8
M51LXLIFT
 62
6
 10
5758.332
 20
-7804.571
 30
182.000
 70
    32
  0
VERTEX
  8
M51LXLIFT
 62
6
 10
5772.595
 20
-7784.314
 30
182.000
 70
    32
  0
VERTEX
  8
M51LXLIFT
 62
6
 10
5771.829
 20
-7777.109
 30
182.000
 70
    32
  0
VERTEX
  8
M51LXLIFT
 62
6
 10
5765.792
 20
-7775.472
 30
182.000
 70
    32
  0
VERTEX
  8
M51LXLIFT
 62
6
 10
5754.767
 20
-7773.608
 30
182.000
 70
    32
  0
VERTEX
  8
M51LXLIFT
 62
6
 10
5743.892
 20
-7763.856
 30
182.000
 70
    32
  0
VERTEX
  8
M51LXLIFT
 62
6
 10
5735.651
 20
-7749.406
 30
182.000
 70
    32
  0
VERTEX
  8
M51LXLIFT
 62
6
 10
5723.588
 20
-7722.471
 30
182.000
 70
    32
  0
VERTEX
  8
M51LXLIFT
 62
6
 10
5716.600
 20
-7721.323
 30
182.000
 70
    32
  0
SEQEND
  8
M51LXLIFT
  0
POLYLINE
  8
M51LXLIFT
 62
6
 66
     1
 70
     9
  0
VERTEX
  8
M51LXLIFT
 62
6
 10
5753.414
 20
-7840.766
 30
213.000
 70
    32
  0
VERTEX
  8
M51LXLIFT
 62
6
 10
5783.747
 20
-7816.497
 30
213.000
 70
    32
  0
VERTEX
  8
M51LXLIFT
 62
6
 10
5774.559
 20
-7801.423
 30
213.000
 70
    32
  0
VERTEX
  8
M51LXLIFT
 62
6
 10
5764.689
 20
-7783.908
 30
213.000
 70
    32
  0
VERTEX
  8
M51LXLIFT
 62
6
 10
5743.862
 20
-7777.814
 30
213.000
 70
    32
  0
VERTEX
  8
M51LXLIFT
 62
6
 10
5736.396
 20
-7794.201
 30
213.000
 70
    32
  0
VERTEX
  8
M51LXLIFT
 62
6
 10
5748.281
 20
-7801.452
 30
213.000
 70
    32
  0
VERTEX
  8
M51LXLIFT
 62
6
 10
5745.962
 20
-7812.045
 30
213.000
 70
    32
  0
VERTEX
  8
M51LXLIFT
 62
6
 10
5740.495
 20
-7820.245
 30
213.000
 70
    32
  0
SEQEND
  8
M51LXLIFT
  0
POLYLINE
  8
M51LXLIFT
 62
6
 66
     1
 70
     9
  0
VERTEX
  8
M51LXLIFT
 62
6
 10
5720.941
 20
-7734.933
 30
172.000
 70
    32
  0
VERTEX
  8
M51LXLIFT
 62
6
 10
5721.050
 20
-7747.751
 30
172.000
 70
    32
  0
VERTEX
  8
M51LXLIFT
 62
6
 10
5719.207
 20
-7751.476
 30
172.000
 70
    32
  0
VERTEX
  8
M51LXLIFT
 62
6
 10
5720.889
 20
-7753.938
 30
172.000
 70
    32
  0
VERTEX
  8
M51LXLIFT
 62
6
 10
5717.248
 20
-7767.859
 30
172.000
 70
    32
  0
VERTEX
  8
M51LXLIFT
 62
6
 10
5740.372
 20
-7782.365
 30
172.000
 70
    32
  0
VERTEX
  8
M51LXLIFT
 62
6
 10
5758.901
 20
-7789.809
 30
172.000
 70
    32
  0
VERTEX
  8
M51LXLIFT
 62
6
 10
5764.392
 20
-7796.763
 30
172.000
 70
    32
  0
VERTEX
  8
M51LXLIFT
 62
6
 10
5767.363
 20
-7795.035
 30
172.000
 70
    32
  0
VERTEX
  8
M51LXLIFT
 62
6
 10
5780.516
 20
-7795.983
 30
172.000
 70
    32
  0
VERTEX
  8
M51LXLIFT
 62
6
 10
5785.917
 20
-7791.188
 30
172.000
 70
    32
  0
VERTEX
  8
M51LXLIFT
 62
6
 10
5780.787
 20
-7783.538
 30
172.000
 70
    32
  0
VERTEX
  8
M51LXLIFT
 62
6
 10
5773.214
 20
-7771.486
 30
172.000
 70
    32
  0
VERTEX
  8
M51LXLIFT
 62
6
 10
5763.663
 20
-7759.248
 30
172.000
 70
    32
  0
VERTEX
  8
M51LXLIFT
 62
6
 10
5759.287
 20
-7752.784
 30
172.000
 70
    32
  0
VERTEX
  8
M51LXLIFT
 62
6
 10
5754.402
 20
-7740.404
 30
172.000
 70
    32
  0
VERTEX
  8
M51LXLIFT
 62
6
 10
5729.267
 20
-7729.094
 30
172.000
 70
    32
  0
SEQEND
  8
M51LXLIFT
  0
POLYLINE
  8
M51LXLIFT
 62
6
 66
     1
 70
     9
  0
VERTEX
  8
M51LXLIFT
 62
6
 10
5754.465
 20
-7791.274
 30
151.000
 70
    32
  0
VERTEX
  8
M51LXLIFT
 62
6
 10
5765.361
 20
-7789.982
 30
151.000
 70
    32
  0
VERTEX
  8
M51LXLIFT
 62
6
 10
5769.095
 20
-7799.756
 30
151.000
 70
    32
  0
VERTEX
  8
M51LXLIFT
 62
6
 10
5786.867
 20
-7803.893
 30
151.000
 70
    32
  0
VERTEX
  8
M51LXLIFT
 62
6
 10
5792.839
 20
-7808.676
 30
151.000
 70
    32
  0
VERTEX
  8
M51LXLIFT
 62
6
 10
5797.282
 20
-7810.009
 30
151.000
 70
    32
  0
VERTEX
  8
M51LXLIFT
 62
6
 10
5804.155
 20
-7807.514
 30
151.000
 70
    32
  0
VERTEX
  8
M51LXLIFT
 62
6
 10
5820.166
 20
-7796.970
 30
151.000
 70
    32
  0
VERTEX
  8
M51LXLIFT
 62
6
 10
5821.803
 20
-7791.003
 30
151.000
 70
    32
  0
VERTEX
  8
M51LXLIFT
 62
6
 10
5815.867
 20
-7781.634
 30
151.000
 70
    32
  0
VERTEX
  8
M51LXLIFT
 62
6
 10
5784.489
 20
-7750.246
 30
151.000
 70
    32
  0
VERTEX
  8
M51LXLIFT
 62
6
 10
5778.689
 20
-7750.333
 30
151.000
 70
    32
  0
VERTEX
  8
M51LXLIFT
 62
6
 10
5769.249
 20
-7757.516
 30
151.000
 70
    32
  0
VERTEX
  8
M51LXLIFT
 62
6
 10
5757.380
 20
-7753.434
 30
151.000
 70
    32
  0
VERTEX
  8
M51LXLIFT
 62
6
 10
5753.639
 20
-7755.608
 30
151.000
 70
    32
  0
VERTEX
  8
M51LXLIFT
 62
6
 10
5741.074
 20
-7772.988
 30
151.000
 70
    32
  0
VERTEX
  8
M51LXLIFT
 62
6
 10
5738.052
 20
-7782.132
 30
151.000
 70
    32
  0
SEQEND
  8
M51LXLIFT
  0
POLYLINE
  8
M51LXLIFT
 62
6
 66
     1
 70
     9
  0
VERTEX
  8
M51LXLIFT
 62
6
 10
5692.091
 20
-7817.224
 30
226.000
 70
    32
  0
VERTEX
  8
M51LXLIFT
 62
6
 10
5702.312
 20
-7814.509
 30
226.000
 70
    32
  0
VERTEX
  8
M51LXLIFT
 62
6
 10
5723.172
 20
-7800.155
 30
226.000
 70
    32
  0
VERTEX
  8
M51LXLIFT
 62
6
 10
5742.425
 20
-7788.509
 30
226.000
 70
    32
  0
VERTEX
  8
M51LXLIFT
 62
6
 10
5749.561
 20
-7794.062
 30
226.000
 70
    32
  0
VERTEX
  8
M51LXLIFT
 62
6
 10
5746.668
 20
-7800.661
 30
226.000
 70
    32
  0
VERTEX
  8
M51LXLIFT
 62
6
 10
5760.196
 20
-7814.166
 30
226.000
 70
    32
  0
VERTEX
  8
M51LXLIFT
 62
6
 10
5765.178
 20
-7828.065
 30
226.000
 70
    32
  0
VERTEX
  8
M51LXLIFT
 62
6
 10
5753.050
 20
-7835.454
 30
226.000
 70
    32
  0
VERTEX
  8
M51LXLIFT
 62
6
 10
5740.669
 20
-7845.320
 30
226.000
 70
    32
  0
VERTEX
  8
M51LXLIFT
 62
6
 10
5723.457
 20
-7856.774
 30
226.000
 70
    32
  0
VERTEX
  8
M51LXLIFT
 62
6
 10
5707.504
 20
-7854.213
 30
226.000
 70
    32
  0
VERTEX
  8
M51LXLIFT
 62
6
 10
5701.215
 20
-7850.110
 30
226.000
 70
    32
  0
VERTEX
  8
M51LXLIFT
 62
6
 10
5685.840
 20
-7840.471
 30
226.000
 70
    32
  0
VERTEX
  8
M51LXLIFT
 62
6
 10
5682.229
 20
-7835.709
 30
226.000
 70
    32
  0
VERTEX
  8
M51LXLIFT
 62
6
 10
5695.526
 20
-7825.606
 30
226.000
 70
    32
  0
SEQEND
  8
M51LXLIFT
  0
POLYLINE
  8
M51LXLIFT
 62
6
 66
     1
 70
     9
  0
VERTEX
  8
M51LXLIFT
 62
6
 10
5753.926
 20
-7830.979
 30
203.000
 70
    32
  0
VERTEX
  8
M51LXLIFT
 62
6
 10
5742.484
 20
-7813.531
 30
203.000
 70
    32
  0
VERTEX
  8
M51LXLIFT
 62
6
 10
5748.367
 20
-7805.979
 30
203.000
 70
    32
  0
VERTEX
  8
M51LXLIFT
 62
6
 10
5751.534
 20
-7801.105
 30
203.000
 70
    32
  0
VERTEX
  8
M51LXLIFT
 62
6
 10
5745.681
 20
-7792.204
 30
203.000
 70
    32
  0
VERTEX
  8
M51LXLIFT
 62
6
 10
5744.573
 20
-7779.227
 30
203.000
 70
    32
  0
VERTEX
  8
M51LXLIFT
 62
6
 10
5749.770
 20
-7772.077
 30
203.000
 70
    32
  0
VERTEX
  8
M51LXLIFT
 62
6
 10
5760.915
 20
-7776.165
 30
203.000
 70
    32
  0
VERTEX
  8
M51LXLIFT
 62
6
 10
5782.075
 20
-7794.601
 30
203.000
 70
    32
  0
VERTEX
  8
M51LXLIFT
 62
6
 10
5791.201
 20
-7802.601
 30
203.000
 70
    32
  0
VERTEX
  8
M51LXLIFT
 62
6
 10
5787.516
 20
-7809.723
 30
203.000
 70
    32
  0
VERTEX
  8
M51LXLIFT
 62
6
 10
5781.521
 20
-7814.181
 30
203.000
 70
    32
  0
SEQEND
  8
M51LXLIFT
  0
POLYLINE
  8
M51LXLIFT
 62
6
 66
     1
 70
     9
  0
VERTEX
  8
M51LXLIFT
 62
6
 10
5784.570
 20
-7797.553
 30
140.000
 70
    32
  0
VERTEX
  8
M51LXLIFT
 62
6
 10
5783.087
 20
-7786.007
 30
140.000
 70
    32
  0
VERTEX
  8
M51LXLIFT
 62
6
 10
5772.240
 20
-7786.959
 30
140.000
 70
    32
  0
VERTEX
  8
M51LXLIFT
 62
6
 10
5768.792
 20
-7782.412
 30
140.000
 70
    32
  0
VERTEX
  8
M51LXLIFT
 62
6
 10
5769.891
 20
-7777.613
 30
140.000
 70
    32
  0
VERTEX
  8
M51LXLIFT
 62
6
 10
5774.819
 20
-7773.214
 30
140.000
 70
    32
  0
VERTEX
  8
M51LXLIFT
 62
6
 10
5772.107
 20
-7768.330
 30
140.000
 70
    32
  0
VERTEX
  8
M51LXLIFT
 62
6
 10
5777.504
 20
-7752.779
 30
140.000
 70
    32
  0
VERTEX
  8
M51LXLIFT
 62
6
 10
5775.698
 20
-7749.961
 30
140.000
 70
    32
  0
VERTEX
  8
M51LXLIFT
 62
6
 10
5783.193
 20
-7742.845
 30
140.000
 70
    32
  0
VERTEX
  8
M51LXLIFT
 62
6
 10
5786.361
 20
-7747.605
 30
140.000
 70
    32
  0
VERTEX
  8
M51LXLIFT
 62
6
 10
5789.073
 20
-7755.685
 30
140.000
 70
    32
  0
VERTEX
  8
M51LXLIFT
 62
6
 10
5794.480
 20
-7758.747
 30
140.000
 70
    32
  0
VERTEX
  8
M51LXLIFT
 62
6
 10
5795.880
 20
-7764.517
 30
140.000
 70
    32
  0
VERTEX
  8
M51LXLIFT
 62
6
 10
5798.318
 20
-7767.296
 30
140.000
 70
    32
  0
VERTEX
  8
M51LXLIFT
 62
6
 10
5810.505
 20
-7767.530
 30
140.000
 70
    32
  0
VERTEX
  8
M51LXLIFT
 62
6
 10
5814.825
 20
-7777.587
 30
140.000
 70
    32
  0
VERTEX
  8
M51LXLIFT
 62
6
 10
5812.312
 20
-7787.205
 30
140.000
 70
    32
  0
VERTEX
  8
M51LXLIFT
 62
6
 10
5816.990
 20
-7791.921
 30
140.000
 70
    32
  0
VERTEX
  8
M51LXLIFT
 62
6
 10
5819.417
 20
-7799.336
 30
140.000
 70
    32
  0
VERTEX
  8
M51LXLIFT
 62
6
 10
5807.251
 20
-7809.883
 30
140.000
 70
    32
  0
VERTEX
  8
M51LXLIFT
 62
6
 10
5794.790
 20
-7814.373
 30
140.000
 70
    32
  0
SEQEND
  8
M51LXLIFT
  0
POLYLINE
  8
M51LXLIFT
 62
6
 66
     1
 70
     9
  0
VERTEX
  8
M51LXLIFT
 62
6
 10
5815.011
 20
-7799.471
 30
161.000
 70
    32
  0
VERTEX
  8
M51LXLIFT
 62
6
 10
5813.512
 20
-7788.741
 30
161.000
 70
    32
  0
VERTEX
  8
M51LXLIFT
 62
6
 10
5804.956
 20
-7784.869
 30
161.000
 70
    32
  0
VERTEX
  8
M51LXLIFT
 62
6
 10
5800.074
 20
-7770.523
 30
161.000
 70
    32
  0
VERTEX
  8
M51LXLIFT
 62
6
 10
5791.907
 20
-7757.477
 30
161.000
 70
    32
  0
VERTEX
  8
M51LXLIFT
 62
6
 10
5760.498
 20
-7744.821
 30
161.000
 70
    32
  0
VERTEX
  8
M51LXLIFT
 62
6
 10
5754.024
 20
-7748.001
 30
161.000
 70
    32
  0
VERTEX
  8
M51LXLIFT
 62
6
 10
5733.498
 20
-7747.503
 30
161.000
 70
    32
  0
VERTEX
  8
M51LXLIFT
 62
6
 10
5724.917
 20
-7755.248
 30
161.000
 70
    32
  0
VERTEX
  8
M51LXLIFT
 62
6
 10
5729.718
 20
-7784.721
 30
161.000
 70
    32
  0
VERTEX
  8
M51LXLIFT
 62
6
 10
5749.262
 20
-7787.450
 30
161.000
 70
    32
  0
VERTEX
  8
M51LXLIFT
 62
6
 10
5761.880
 20
-7787.508
 30
161.000
 70
    32
  0
VERTEX
  8
M51LXLIFT
 62
6
 10
5766.634
 20
-7794.358
 30
161.000
 70
    32
  0
VERTEX
  8
M51LXLIFT
 62
6
 10
5782.651
 20
-7801.489
 30
161.000
 70
    32
  0
VERTEX
  8
M51LXLIFT
 62
6
 10
5788.907
 20
-7808.766
 30
161.000
 70
    32
  0
VERTEX
  8
M51LXLIFT
 62
6
 10
5801.209
 20
-7808.836
 30
161.000
 70
    32
  0
SEQEND
  8
M51LXLIFT
  0
POLYLINE
  8
M51LXLIFT
 62
1
 66
     1
 70
     9
  0
VERTEX
  8
M51LXLIFT
 62
1
 10
5819.920
 20
-7888.653
 30
206.000
 70
    32
  0
VERTEX
  8
M51LXLIFT
 62
1
 10
5809.683
 20
-7890.352
 30
206.000
 70
    32
  0
VERTEX
  8
M51LXLIFT
 62
1
 10
5796.390
 20
-7865.408
 30
206.000
 70
    32
  0
VERTEX
  8
M51LXLIFT
 62
1
 10
5784.030
 20
-7852.913
 30
206.000
 70
    32
  0
VERTEX
  8
M51LXLIFT
 62
1
 10
5776.244
 20
-7839.645
 30
206.000
 70
    32
  0
VERTEX
  8
M51LXLIFT
 62
1
 10
5785.411
 20
-7811.470
 30
206.000
 70
    32
  0
VERTEX
  8
M51LXLIFT
 62
1
 10
5795.098
 20
-7802.404
 30
206.000
 70
    32
  0
VERTEX
  8
M51LXLIFT
 62
1
 10
5818.531
 20
-7828.021
 30
206.000
 70
    32
  0
VERTEX
  8
M51LXLIFT
 62
1
 10
5821.503
 20
-7836.436
 30
206.000
 70
    32
  0
VERTEX
  8
M51LXLIFT
 62
1
 10
5832.222
 20
-7850.260
 30
206.000
 70
    32
  0
VERTEX
  8
M51LXLIFT
 62
1
 10
5830.069
 20
-7887.129
 30
206.000
 70
    32
  0
SEQEND
  8
M51LXLIFT
  0
POLYLINE
  8
M51LXLIFT
 62
2
 66
     1
 70
     9
  0
VERTEX
  8
M51LXLIFT
 62
2
 10
5885.884
 20
-7939.461
 30
153.000
 70
    32
  0
VERTEX
  8
M51LXLIFT
 62
2
 10
5888.407
 20
-7931.873
 30
153.000
 70
    32
  0
VERTEX
  8
M51LXLIFT
 62
2
 10
5877.747
 20
-7915.404
 30
153.000
 70
    32
  0
VERTEX
  8
M51LXLIFT
 62
2
 10
5865.741
 20
-7881.237
 30
153.000
 70
    32
  0
VERTEX
  8
M51LXLIFT
 62
2
 10
5862.239
 20
-7872.380
 30
153.000
 70
    32
  0
VERTEX
  8
M51LXLIFT
 62
2
 10
5843.462
 20
-7842.046
 30
153.000
 70
    32
  0
VERTEX
  8
M51LXLIFT
 62
2
 10
5836.554
 20
-7836.422
 30
153.000
 70
    32
  0
VERTEX
  8
M51LXLIFT
 62
2
 10
5828.003
 20
-7837.205
 30
153.000
 70
    32
  0
VERTEX
  8
M51LXLIFT
 62
2
 10
5822.423
 20
-7847.013
 30
153.000
 70
    32
  0
VERTEX
  8
M51LXLIFT
 62
2
 10
5817.895
 20
-7847.805
 30
153.000
 70
    32
  0
VERTEX
  8
M51LXLIFT
 62
2
 10
5815.651
 20
-7852.040
 30
153.000
 70
    32
  0
VERTEX
  8
M51LXLIFT
 62
2
 10
5820.674
 20
-7856.861
 30
153.000
 70
    32
  0
VERTEX
  8
M51LXLIFT
 62
2
 10
5825.162
 20
-7857.510
 30
153.000
 70
    32
  0
VERTEX
  8
M51LXLIFT
 62
2
 10
5840.640
 20
-7896.756
 30
153.000
 70
    32
  0
VERTEX
  8
M51LXLIFT
 62
2
 10
5840.231
 20
-7910.842
 30
153.000
 70
    32
  0
VERTEX
  8
M51LXLIFT
 62
2
 10
5843.554
 20
-7917.658
 30
153.000
 70
    32
  0
VERTEX
  8
M51LXLIFT
 62
2
 10
5862.419
 20
-7939.893
 30
153.000
 70
    32
  0
VERTEX
  8
M51LXLIFT
 62
2
 10
5867.659
 20
-7947.705
 30
153.000
 70
    32
  0
VERTEX
  8
M51LXLIFT
 62
2
 10
5874.616
 20
-7946.669
 30
153.000
 70
    32
  0
VERTEX
  8
M51LXLIFT
 62
2
 10
5879.882
 20
-7943.604
 30
153.000
 70
    32
  0
SEQEND
  8
M51LXLIFT
  0
POLYLINE
  8
M51LXLIFT
 62
2
 66
     1
 70
     9
  0
VERTEX
  8
M51LXLIFT
 62
2
 10
5829.069
 20
-7888.129
 30
196.000
 70
    32
  0
VERTEX
  8
M51LXLIFT
 62
2
 10
5831.222
 20
-7851.260
 30
196.000
 70
    32
  0
VERTEX
  8
M51LXLIFT
 62
2
 10
5820.503
 20
-7837.436
 30
196.000
 70
    32
  0
VERTEX
  8
M51LXLIFT
 62
2
 10
5817.531
 20
-7829.021
 30
196.000
 70
    32
  0
VERTEX
  8
M51LXLIFT
 62
2
 10
5794.098
 20
-7803.404
 30
196.000
 70
    32
  0
VERTEX
  8
M51LXLIFT
 62
2
 10
5784.411
 20
-7812.470
 30
196.000
 70
    32
  0
VERTEX
  8
M51LXLIFT
 62
2
 10
5775.244
 20
-7840.645
 30
196.000
 70
    32
  0
VERTEX
  8
M51LXLIFT
 62
2
 10
5783.030
 20
-7853.913
 30
196.000
 70
    32
  0
VERTEX
  8
M51LXLIFT
 62
2
 10
5795.390
 20
-7866.408
 30
196.000
 70
    32
  0
VERTEX
  8
M51LXLIFT
 62
2
 10
5808.683
 20
-7891.352
 30
196.000
 70
    32
  0
VERTEX
  8
M51LXLIFT
 62
2
 10
5818.920
 20
-7889.653
 30
196.000
 70
    32
  0
SEQEND
  8
M51LXLIFT
  0
POLYLINE
  8
M51LXLIFT
 62
2
 66
     1
 70
     9
  0
VERTEX
  8
M51LXLIFT
 62
2
 10
5822.258
 20
-7813.803
 30
184.000
 70
    32
  0
VERTEX
  8
M51LXLIFT
 62
2
 10
5802.970
 20
-7824.223
 30
184.000
 70
    32
  0
VERTEX
  8
M51LXLIFT
 62
2
 10
5794.488
 20
-7833.715
 30
184.000
 70
    32
  0
VERTEX
  8
M51LXLIFT
 62
2
 10
5790.646
 20
-7852.673
 30
184.000
 70
    32
  0
VERTEX
  8
M51LXLIFT
 62
2
 10
5789.286
 20
-7859.818
 30
184.000
 70
    32
  0
VERTEX
  8
M51LXLIFT
 62
2
 10
5802.196
 20
-7875.391
 30
184.000
 70
    32
  0
VERTEX
  8
M51LXLIFT
 62
2
 10
5810.788
 20
-7900.311
 30
184.000
 70
    32
  0
VERTEX
  8
M51LXLIFT
 62
2
 10
5815.377
 20
-7898.974
 30
184.000
 70
    32
  0
VERTEX
  8
M51LXLIFT
 62
2
 10
5821.882
 20
-7907.710
 30
184.000
 70
    32
  0
VERTEX
  8
M51LXLIFT
 62
2
 10
5830.792
 20
-7901.293
 30
184.000
 70
    32
  0
VERTEX
  8
M51LXLIFT
 62
2
 10
5836.236
 20
-7901.839
 30
184.000
 70
    32
  0
VERTEX
  8
M51LXLIFT
 62
2
 10
5841.426
 20
-7894.251
 30
184.000
 70
    32
  0
VERTEX
  8
M51LXLIFT
 62
2
 10
5846.189
 20
-7878.440
 30
184.000
 70
    32
  0
VERTEX
  8
M51LXLIFT
 62
2
 10
5848.137
 20
-7873.704
 30
184.000
 70
    32
  0
VERTEX
  8
M51LXLIFT
 62
2
 10
5839.950
 20
-7848.592
 30
184.000
 70
    32
  0
VERTEX
  8
M51LXLIFT
 62
2
 10
5832.242
 20
-7827.064
 30
184.000
 70
    32
  0
SEQEND
  8
M51LXLIFT
  0
POLYLINE
  8
M51LXLIFT
 62
2
 66
     1
 70
     9
  0
VERTEX
  8
M51LXLIFT
 62
2
 10
5918.629
 20
-7965.080
 30
111.000
 70
    32
  0
VERTEX
  8
M51LXLIFT
 62
2
 10
5913.424
 20
-7944.904
 30
111.000
 70
    32
  0
VERTEX
  8
M51LXLIFT
 62
2
 10
5901.814
 20
-7921.634
 30
111.000
 70
    32
  0
VERTEX
  8
M51LXLIFT
 62
2
 10
5902.432
 20
-7903.778
 30
111.000
 70
    32
  0
VERTEX
  8
M51LXLIFT
 62
2
 10
5899.572
 20
-7892.838
 30
111.000
 70
    32
  0
VERTEX
  8
M51LXLIFT
 62
2
 10
5884.183
 20
-7875.502
 30
111.000
 70
    32
  0
VERTEX
  8
M51LXLIFT
 62
2
 10
5863.269
 20
-7849.236
 30
111.000
 70
    32
  0
VERTEX
  8
M51LXLIFT
 62
2
 10
5865.483
 20
-7842.833
 30
111.000
 70
    32
  0
VERTEX
  8
M51LXLIFT
 62
2
 10
5860.272
 20
-7833.007
 30
111.000
 70
    32
  0
VERTEX
  8
M51LXLIFT
 62
2
 10
5857.746
 20
-7815.652
 30
111.000
 70
    32
  0
VERTEX
  8
M51LXLIFT
 62
2
 10
5846.160
 20
-7788.622
 30
111.000
 70
    32
  0
VERTEX
  8
M51LXLIFT
 62
2
 10
5839.331
 20
-7790.802
 30
111.000
 70
    32
  0
VERTEX
  8
M51LXLIFT
 62
2
 10
5832.676
 20
-7786.357
 30
111.000
 70
    32
  0
VERTEX
  8
M51LXLIFT
 62
2
 10
5824.582
 20
-7789.051
 30
111.000
 70
    32
  0
VERTEX
  8
M51LXLIFT
 62
2
 10
5814.837
 20
-7791.889
 30
111.000
 70
    32
  0
VERTEX
  8
M51LXLIFT
 62
2
 10
5813.795
 20
-7802.471
 30
111.000
 70
    32
  0
VERTEX
  8
M51LXLIFT
 62
2
 10
5826.747
 20
-7821.976
 30
111.000
 70
    32
  0
VERTEX
  8
M51LXLIFT
 62
2
 10
5828.451
 20
-7828.175
 30
111.000
 70
    32
  0
VERTEX
  8
M51LXLIFT
 62
2
 10
5829.583
 20
-7837.116
 30
111.000
 70
    32
  0
VERTEX
  8
M51LXLIFT
 62
2
 10
5841.572
 20
-7857.678
 30
111.000
 70
    32
  0
VERTEX
  8
M51LXLIFT
 62
2
 10
5841.675
 20
-7875.760
 30
111.000
 70
    32
  0
VERTEX
  8
M51LXLIFT
 62
2
 10
5861.212
 20
-7906.037
 30
111.000
 70
    32
  0
VERTEX
  8
M51LXLIFT
 62
2
 10
5865.155
 20
-7927.166
 30
111.000
 70
    32
  0
VERTEX
  8
M51LXLIFT
 62
2
 10
5869.588
 20
-7935.378
 30
111.000
 70
    32
  0
VERTEX
  8
M51LXLIFT
 62
2
 10
5876.688
 20
-7948.292
 30
111.000
 70
    32
  0
VERTEX
  8
M51LXLIFT
 62
2
 10
5888.238
 20
-7962.581
 30
111.000
 70
    32
  0
VERTEX
  8
M51LXLIFT
 62
2
 10
5900.578
 20
-7970.332
 30
111.000
 70
    32
  0
SEQEND
  8
M51LXLIFT
  0
POLYLINE
  8
M51LXLIFT
 62
2
 66
     1
 70
     9
  0
VERTEX
  8
M51LXLIFT
 62
2
 10
5850.141
 20
-7896.400
 30
100.000
 70
    32
  0
VERTEX
  8
M51LXLIFT
 62
2
 10
5878.789
 20
-7875.728
 30
100.000
 70
    32
  0
VERTEX
  8
M51LXLIFT
 62
2
 10
5865.740
 20
-7850.171
 30
100.000
 70
    32
  0
VERTEX
  8
M51LXLIFT
 62
2
 10
5855.330
 20
-7819.563
 30
100.000
 70
    32
  0
VERTEX
  8
M51LXLIFT
 62
2
 10
5851.426
 20
-7798.916
 30
100.000
 70
    32
  0
VERTEX
  8
M51LXLIFT
 62
2
 10
5844.046
 20
-7793.415
 30
100.000
 70
    32
  0
VERTEX
  8
M51LXLIFT
 62
2
 10
5826.087
 20
-7796.344
 30
100.000
 70
    32
  0
VERTEX
  8
M51LXLIFT
 62
2
 10
5816.362
 20
-7793.552
 30
100.000
 70
    32
  0
VERTEX
  8
M51LXLIFT
 62
2
 10
5810.078
 20
-7799.206
 30
100.000
 70
    32
  0
VERTEX
  8
M51LXLIFT
 62
2
 10
5807.579
 20
-7808.593
 30
100.000
 70
    32
  0
VERTEX
  8
M51LXLIFT
 62
2
 10
5816.312
 20
-7822.714
 30
100.000
 70
    32
  0
VERTEX
  8
M51LXLIFT
 62
2
 10
5835.280
 20
-7846.014
 30
100.000
 70
    32
  0
VERTEX
  8
M51LXLIFT
 62
2
 10
5844.531
 20
-7853.065
 30
100.000
 70
    32
  0
VERTEX
  8
M51LXLIFT
 62
2
 10
5852.556
 20
-7866.847
 30
100.000
 70
    32
  0
VERTEX
  8
M51LXLIFT
 62
2
 10
5844.604
 20
-7882.243
 30
100.000
 70
    32
  0
VERTEX
  8
M51LXLIFT
 62
2
 10
5840.911
 20
-7885.220
 30
100.000
 70
    32
  0
SEQEND
  8
M51LXLIFT
  0
POLYLINE
  8
M51LXLIFT
 62
2
 66
     1
 70
     9
  0
VERTEX
  8
M51LXLIFT
 62
2
 10
5829.010
 20
-7811.947
 30
90.000
 70
    32
  0
VERTEX
  8
M51LXLIFT
 62
2
 10
5829.860
 20
-7826.319
 30
90.000
 70
    32
  0
VERTEX
  8
M51LXLIFT
 62
2
 10
5834.172
 20
-7834.607
 30
90.000
 70
    32
  0
VERTEX
  8
M51LXLIFT
 62
2
 10
5836.223
 20
-7847.209
 30
90.000
 70
    32
  0
VERTEX
  8
M51LXLIFT
 62
2
 10
5842.803
 20
-7849.425
 30
90.000
 70
    32
  0
VERTEX
  8
M51LXLIFT
 62
2
 10
5850.875
 20
-7868.493
 30
90.000
 70
    32
  0
VERTEX
  8
M51LXLIFT
 62
2
 10
5856.621
 20
-7878.999
 30
90.000
 70
    32
  0
VERTEX
  8
M51LXLIFT
 62
2
 10
5851.688
 20
-7889.137
 30
90.000
 70
    32
  0
VERTEX
  8
M51LXLIFT
 62
2
 10
5858.178
 20
-7891.968
 30
90.000
 70
    32
  0
VERTEX
  8
M51LXLIFT
 62
2
 10
5872.496
 20
-7880.754
 30
90.000
 70
    32
  0
VERTEX
  8
M51LXLIFT
 62
2
 10
5879.278
 20
-7874.715
 30
90.000
 70
    32
  0
VERTEX
  8
M51LXLIFT
 62
2
 10
5876.342
 20
-7864.745
 30
90.000
 70
    32
  0
VERTEX
  8
M51LXLIFT
 62
2
 10
5867.752
 20
-7847.924
 30
90.000
 70
    32
  0
VERTEX
  8
M51LXLIFT
 62
2
 10
5862.597
 20
-7844.974
 30
90.000
 70
    32
  0
VERTEX
  8
M51LXLIFT
 62
2
 10
5859.714
 20
-7840.222
 30
90.000
 70
    32
  0
VERTEX
  8
M51LXLIFT
 62
2
 10
5863.909
 20
-7830.415
 30
90.000
 70
    32
  0
VERTEX
  8
M51LXLIFT
 62
2
 10
5859.996
 20
-7818.106
 30
90.000
 70
    32
  0
VERTEX
  8
M51LXLIFT
 62
2
 10
5851.049
 20
-7803.304
 30
90.000
 70
    32
  0
SEQEND
  8
M51LXLIFT
  0
POLYLINE
  8
M51LXLIFT
 62
2
 66
     1
 70
     9
  0
VERTEX
  8
M51LXLIFT
 62
2
 10
5898.856
 20
-7960.342
 30
132.000
 70
    32
  0
VERTEX
  8
M51LXLIFT
 62
2
 10
5892.854
 20
-7950.813
 30
132.000
 70
    32
  0
VERTEX
  8
M51LXLIFT
 62
2
 10
5895.351
 20
-7936.390
 30
132.000
 70
    32
  0
VERTEX
  8
M51LXLIFT
 62
2
 10
5887.634
 20
-7923.870
 30
132.000
 70
    32
  0
VERTEX
  8
M51LXLIFT
 62
2
 10
5874.066
 20
-7888.075
 30
132.000
 70
    32
  0
VERTEX
  8
M51LXLIFT
 62
2
 10
5869.097
 20
-7870.178
 30
132.000
 70
    32
  0
VERTEX
  8
M51LXLIFT
 62
2
 10
5852.672
 20
-7846.878
 30
132.000
 70
    32
  0
VERTEX
  8
M51LXLIFT
 62
2
 10
5839.508
 20
-7835.294
 30
132.000
 70
    32
  0
VERTEX
  8
M51LXLIFT
 62
2
 10
5822.155
 20
-7852.604
 30
132.000
 70
    32
  0
VERTEX
  8
M51LXLIFT
 62
2
 10
5837.215
 20
-7864.513
 30
132.000
 70
    32
  0
VERTEX
  8
M51LXLIFT
 62
2
 10
5844.427
 20
-7886.100
 30
132.000
 70
    32
  0
VERTEX
  8
M51LXLIFT
 62
2
 10
5857.328
 20
-7913.605
 30
132.000
 70
    32
  0
VERTEX
  8
M51LXLIFT
 62
2
 10
5865.814
 20
-7937.746
 30
132.000
 70
    32
  0
VERTEX
  8
M51LXLIFT
 62
2
 10
5866.292
 20
-7942.881
 30
132.000
 70
    32
  0
VERTEX
  8
M51LXLIFT
 62
2
 10
5880.256
 20
-7952.761
 30
132.000
 70
    32
  0
VERTEX
  8
M51LXLIFT
 62
2
 10
5885.786
 20
-7958.471
 30
132.000
 70
    32
  0
VERTEX
  8
M51LXLIFT
 62
2
 10
5890.289
 20
-7965.727
 30
132.000
 70
    32
  0
SEQEND
  8
M51LXLIFT
  0
POLYLINE
  8
M51LXLIFT
 62
2
 66
     1
 70
     9
  0
VERTEX
  8
M51LXLIFT
 62
2
 10
5910.621
 20
-7963.256
 30
121.000
 70
    32
  0
VERTEX
  8
M51LXLIFT
 62
2
 10
5900.341
 20
-7933.655
 30
121.000
 70
    32
  0
VERTEX
  8
M51LXLIFT
 62
2
 10
5891.360
 20
-7907.131
 30
121.000
 70
    32
  0
VERTEX
  8
M51LXLIFT
 62
2
 10
5888.471
 20
-7896.174
 30
121.000
 70
    32
  0
VERTEX
  8
M51LXLIFT
 62
2
 10
5886.886
 20
-7884.031
 30
121.000
 70
    32
  0
VERTEX
  8
M51LXLIFT
 62
2
 10
5889.421
 20
-7868.613
 30
121.000
 70
    32
  0
VERTEX
  8
M51LXLIFT
 62
2
 10
5886.688
 20
-7864.636
 30
121.000
 70
    32
  0
VERTEX
  8
M51LXLIFT
 62
2
 10
5864.663
 20
-7854.667
 30
121.000
 70
    32
  0
VERTEX
  8
M51LXLIFT
 62
2
 10
5852.189
 20
-7835.646
 30
121.000
 70
    32
  0
VERTEX
  8
M51LXLIFT
 62
2
 10
5841.773
 20
-7828.964
 30
121.000
 70
    32
  0
VERTEX
  8
M51LXLIFT
 62
2
 10
5837.614
 20
-7822.770
 30
121.000
 70
    32
  0
VERTEX
  8
M51LXLIFT
 62
2
 10
5835.443
 20
-7812.045
 30
121.000
 70
    32
  0
VERTEX
  8
M51LXLIFT
 62
2
 10
5845.223
 20
-7795.946
 30
121.000
 70
    32
  0
VERTEX
  8
M51LXLIFT
 62
2
 10
5845.691
 20
-7786.865
 30
121.000
 70
    32
  0
VERTEX
  8
M51LXLIFT
 62
2
 10
5843.218
 20
-7783.678
 30
121.000
 70
    32
  0
VERTEX
  8
M51LXLIFT
 62
2
 10
5832.938
 20
-7791.305
 30
121.000
 70
    32
  0
VERTEX
  8
M51LXLIFT
 62
2
 10
5815.489
 20
-7798.246
 30
121.000
 70
    32
  0
VERTEX
  8
M51LXLIFT
 62
2
 10
5812.748
 20
-7802.791
 30
121.000
 70
    32
  0
VERTEX
  8
M51LXLIFT
 62
2
 10
5811.880
 20
-7811.186
 30
121.000
 70
    32
  0
VERTEX
  8
M51LXLIFT
 62
2
 10
5829.578
 20
-7823.710
 30
121.000
 70
    32
  0
VERTEX
  8
M51LXLIFT
 62
2
 10
5833.576
 20
-7840.723
 30
121.000
 70
    32
  0
VERTEX
  8
M51LXLIFT
 62
2
 10
5825.546
 20
-7847.117
 30
121.000
 70
    32
  0
VERTEX
  8
M51LXLIFT
 62
2
 10
5829.019
 20
-7853.710
 30
121.000
 70
    32
  0
VERTEX
  8
M51LXLIFT
 62
2
 10
5836.578
 20
-7850.067
 30
121.000
 70
    32
  0
VERTEX
  8
M51LXLIFT
 62
2
 10
5840.662
 20
-7853.806
 30
121.000
 70
    32
  0
VERTEX
  8
M51LXLIFT
 62
2
 10
5839.508
 20
-7863.286
 30
121.000
 70
    32
  0
VERTEX
  8
M51LXLIFT
 62
2
 10
5841.084
 20
-7887.335
 30
121.000
 70
    32
  0
VERTEX
  8
M51LXLIFT
 62
2
 10
5850.303
 20
-7901.674
 30
121.000
 70
    32
  0
VERTEX
  8
M51LXLIFT
 62
2
 10
5858.155
 20
-7909.168
 30
121.000
 70
    32
  0
VERTEX
  8
M51LXLIFT
 62
2
 10
5863.279
 20
-7918.576
 30
121.000
 70
    32
  0
VERTEX
  8
M51LXLIFT
 62
2
 10
5874.829
 20
-7943.413
 30
121.000
 70
    32
  0
VERTEX
  8
M51LXLIFT
 62
2
 10
5887.655
 20
-7965.556
 30
121.000
 70
    32
  0
VERTEX
  8
M51LXLIFT
 62
2
 10
5894.698
 20
-7973.431
 30
121.000
 70
    32
  0
VERTEX
  8
M51LXLIFT
 62
2
 10
5900.272
 20
-7970.497
 30
121.000
 70
    32
  0
SEQEND
  8
M51LXLIFT
  0
POLYLINE
  8
M51LXLIFT
 62
2
 66
     1
 70
     9
  0
VERTEX
  8
M51LXLIFT
 62
2
 10
5840.487
 20
-7835.695
 30
142.000
 70
    32
  0
VERTEX
  8
M51LXLIFT
 62
2
 10
5845.424
 20
-7843.079
 30
142.000
 70
    32
  0
VERTEX
  8
M51LXLIFT
 62
2
 10
5854.270
 20
-7848.933
 30
142.000
 70
    32
  0
VERTEX
  8
M51LXLIFT
 62
2
 10
5864.912
 20
-7859.043
 30
142.000
 70
    32
  0
VERTEX
  8
M51LXLIFT
 62
2
 10
5864.985
 20
-7866.260
 30
142.000
 70
    32
  0
VERTEX
  8
M51LXLIFT
 62
2
 10
5870.192
 20
-7878.067
 30
142.000
 70
    32
  0
VERTEX
  8
M51LXLIFT
 62
2
 10
5875.846
 20
-7884.798
 30
142.000
 70
    32
  0
VERTEX
  8
M51LXLIFT
 62
2
 10
5880.098
 20
-7908.568
 30
142.000
 70
    32
  0
VERTEX
  8
M51LXLIFT
 62
2
 10
5884.570
 20
-7927.544
 30
142.000
 70
    32
  0
VERTEX
  8
M51LXLIFT
 62
2
 10
5889.307
 20
-7936.843
 30
142.000
 70
    32
  0
VERTEX
  8
M51LXLIFT
 62
2
 10
5875.899
 20
-7948.222
 30
142.000
 70
    32
  0
VERTEX
  8
M51LXLIFT
 62
2
 10
5871.781
 20
-7943.081
 30
142.000
 70
    32
  0
VERTEX
  8
M51LXLIFT
 62
2
 10
5865.265
 20
-7939.428
 30
142.000
 70
    32
  0
VERTEX
  8
M51LXLIFT
 62
2
 10
5849.133
 20
-7923.674
 30
142.000
 70
    32
  0
VERTEX
  8
M51LXLIFT
 62
2
 10
5844.094
 20
-7903.806
 30
142.000
 70
    32
  0
VERTEX
  8
M51LXLIFT
 62
2
 10
5837.391
 20
-7884.649
 30
142.000
 70
    32
  0
VERTEX
  8
M51LXLIFT
 62
2
 10
5825.810
 20
-7856.300
 30
142.000
 70
    32
  0
VERTEX
  8
M51LXLIFT
 62
2
 10
5820.699
 20
-7856.098
 30
142.000
 70
    32
  0
VERTEX
  8
M51LXLIFT
 62
2
 10
5819.615
 20
-7850.309
 30
142.000
 70
    32
  0
SEQEND
  8
M51LXLIFT
  0
POLYLINE
  8
M51LXLIFT
 62
2
 66
     1
 70
     9
  0
VERTEX
  8
M51LXLIFT
 62
2
 10
5824.771
 20
-7825.020
 30
164.000
 70
    32
  0
VERTEX
  8
M51LXLIFT
 62
2
 10
5846.484
 20
-7844.930
 30
164.000
 70
    32
  0
VERTEX
  8
M51LXLIFT
 62
2
 10
5863.943
 20
-7891.995
 30
164.000
 70
    32
  0
VERTEX
  8
M51LXLIFT
 62
2
 10
5868.210
 20
-7915.352
 30
164.000
 70
    32
  0
VERTEX
  8
M51LXLIFT
 62
2
 10
5875.036
 20
-7933.273
 30
164.000
 70
    32
  0
VERTEX
  8
M51LXLIFT
 62
2
 10
5878.745
 20
-7932.858
 30
164.000
 70
    32
  0
VERTEX
  8
M51LXLIFT
 62
2
 10
5883.906
 20
-7939.520
 30
164.000
 70
    32
  0
VERTEX
  8
M51LXLIFT
 62
2
 10
5877.694
 20
-7945.004
 30
164.000
 70
    32
  0
VERTEX
  8
M51LXLIFT
 62
2
 10
5871.578
 20
-7945.539
 30
164.000
 70
    32
  0
VERTEX
  8
M51LXLIFT
 62
2
 10
5851.324
 20
-7931.075
 30
164.000
 70
    32
  0
VERTEX
  8
M51LXLIFT
 62
2
 10
5842.853
 20
-7919.551
 30
164.000
 70
    32
  0
VERTEX
  8
M51LXLIFT
 62
2
 10
5836.526
 20
-7912.326
 30
164.000
 70
    32
  0
VERTEX
  8
M51LXLIFT
 62
2
 10
5828.583
 20
-7881.663
 30
164.000
 70
    32
  0
VERTEX
  8
M51LXLIFT
 62
2
 10
5824.696
 20
-7873.318
 30
164.000
 70
    32
  0
VERTEX
  8
M51LXLIFT
 62
2
 10
5811.294
 20
-7857.242
 30
164.000
 70
    32
  0
VERTEX
  8
M51LXLIFT
 62
2
 10
5816.673
 20
-7845.532
 30
164.000
 70
    32
  0
VERTEX
  8
M51LXLIFT
 62
2
 10
5815.628
 20
-7832.739
 30
164.000
 70
    32
  0
SEQEND
  8
M51LXLIFT
  0
POLYLINE
  8
M51LXLIFT
 62
2
 66
     1
 70
     9
  0
VERTEX
  8
M51LXLIFT
 62
2
 10
5826.364
 20
-7823.552
 30
174.000
 70
    32
  0
VERTEX
  8
M51LXLIFT
 62
2
 10
5834.788
 20
-7833.793
 30
174.000
 70
    32
  0
VERTEX
  8
M51LXLIFT
 62
2
 10
5841.477
 20
-7840.309
 30
174.000
 70
    32
  0
VERTEX
  8
M51LXLIFT
 62
2
 10
5846.195
 20
-7858.122
 30
174.000
 70
    32
  0
VERTEX
  8
M51LXLIFT
 62
2
 10
5853.053
 20
-7881.857
 30
174.000
 70
    32
  0
VERTEX
  8
M51LXLIFT
 62
2
 10
5854.007
 20
-7895.688
 30
174.000
 70
    32
  0
VERTEX
  8
M51LXLIFT
 62
2
 10
5851.996
 20
-7904.846
 30
174.000
 70
    32
  0
VERTEX
  8
M51LXLIFT
 62
2
 10
5831.863
 20
-7923.065
 30
174.000
 70
    32
  0
VERTEX
  8
M51LXLIFT
 62
2
 10
5819.463
 20
-7920.919
 30
174.000
 70
    32
  0
VERTEX
  8
M51LXLIFT
 62
2
 10
5807.959
 20
-7888.857
 30
174.000
 70
    32
  0
VERTEX
  8
M51LXLIFT
 62
2
 10
5804.028
 20
-7868.846
 30
174.000
 70
    32
  0
VERTEX
  8
M51LXLIFT
 62
2
 10
5802.893
 20
-7855.364
 30
174.000
 70
    32
  0
VERTEX
  8
M51LXLIFT
 62
2
 10
5808.062
 20
-7840.116
 30
174.000
 70
    32
  0
VERTEX
  8
M51LXLIFT
 62
2
 10
5809.441
 20
-7834.560
 30
174.000
 70
    32
  0
VERTEX
  8
M51LXLIFT
 62
2
 10
5808.351
 20
-7827.548
 30
174.000
 70
    32
  0
SEQEND
  8
M51LXLIFT
  0
POLYLINE
  8
M51LXLIFT
 62
2
 66
     1
 70
     9
  0
VERTEX
  8
M51LXLIFT
 62
2
 10
5907.072
 20
-7967.152
 30
90.000
 70
    32
  0
VERTEX
  8
M51LXLIFT
 62
2
 10
5914.622
 20
-7968.318
 30
90.000
 70
    32
  0
VERTEX
  8
M51LXLIFT
 62
2
 10
5925.980
 20
-7959.746
 30
90.000
 70
    32
  0
VERTEX
  8
M51LXLIFT
 62
2
 10
5932.672
 20
-7943.589
 30
90.000
 70
    32
  0
VERTEX
  8
M51LXLIFT
 62
2
 10
5921.151
 20
-7926.214
 30
90.000
 70
    32
  0
VERTEX
  8
M51LXLIFT
 62
2
 10
5912.968
 20
-7914.348
 30
90.000
 70
    32
  0
VERTEX
  8
M51LXLIFT
 62
2
 10
5904.251
 20
-7909.998
 30
90.000
 70
    32
  0
VERTEX
  8
M51LXLIFT
 62
2
 10
5888.402
 20
-7883.580
 30
90.000
 70
    32
  0
VERTEX
  8
M51LXLIFT
 62
2
 10
5880.818
 20
-7882.221
 30
90.000
 70
    32
  0
VERTEX
  8
M51LXLIFT
 62
2
 10
5873.966
 20
-7887.873
 30
90.000
 70
    32
  0
VERTEX
  8
M51LXLIFT
 62
2
 10
5872.165
 20
-7896.334
 30
90.000
 70
    32
  0
VERTEX
  8
M51LXLIFT
 62
2
 10
5884.974
 20
-7917.350
 30
90.000
 70
    32
  0
VERTEX
  8
M51LXLIFT
 62
2
 10
5882.479
 20
-7939.581
 30
90.000
 70
    32
  0
VERTEX
  8
M51LXLIFT
 62
2
 10
5898.759
 20
-7957.464
 30
90.000
 70
    32
  0
SEQEND
  8
M51LXLIFT
  0
POLYLINE
  8
M51LXLIFT
 62
2
 66
     1
 70
     9
  0
VERTEX
  8
M51LXLIFT
 62
2
 10
5917.569
 20
-7964.248
 30
100.000
 70
    32
  0
VERTEX
  8
M51LXLIFT
 62
2
 10
5920.272
 20
-7938.362
 30
100.000
 70
    32
  0
VERTEX
  8
M51LXLIFT
 62
2
 10
5910.038
 20
-7922.736
 30
100.000
 70
    32
  0
VERTEX
  8
M51LXLIFT
 62
2
 10
5889.640
 20
-7890.430
 30
100.000
 70
    32
  0
VERTEX
  8
M51LXLIFT
 62
2
 10
5876.674
 20
-7886.040
 30
100.000
 70
    32
  0
VERTEX
  8
M51LXLIFT
 62
2
 10
5874.236
 20
-7902.382
 30
100.000
 70
    32
  0
VERTEX
  8
M51LXLIFT
 62
2
 10
5862.354
 20
-7919.160
 30
100.000
 70
    32
  0
VERTEX
  8
M51LXLIFT
 62
2
 10
5861.750
 20
-7928.411
 30
100.000
 70
    32
  0
VERTEX
  8
M51LXLIFT
 62
2
 10
5877.018
 20
-7947.801
 30
100.000
 70
    32
  0
VERTEX
  8
M51LXLIFT
 62
2
 10
5902.288
 20
-7976.215
 30
100.000
 70
    32
  0
SEQEND
  8
M51LXLIFT
  0
POLYLINE
  8
M51LXLIFT
 62
2
 66
     1
 70
     9
  0
VERTEX
  8
M51LXLIFT
 62
2
 10
5922.733
 20
-7918.833
 30
79.296
 70
    32
  0
VERTEX
  8
M51LXLIFT
 62
2
 10
5925.869
 20
-7926.982
 30
79.291
 70
    32
  0
VERTEX
  8
M51LXLIFT
 62
2
 10
5941.186
 20
-7949.248
 30
79.276
 70
    32
  0
VERTEX
  8
M51LXLIFT
 62
2
 10
5936.060
 20
-7965.812
 30
79.269
 70
    32
  0
VERTEX
  8
M51LXLIFT
 62
2
 10
5915.038
 20
-7973.198
 30
79.271
 70
    32
  0
VERTEX
  8
M51LXLIFT
 62
2
 10
5895.148
 20
-7957.243
 30
79.284
 70
    32
  0
VERTEX
  8
M51LXLIFT
 62
2
 10
5883.290
 20
-7951.883
 30
79.290
 70
    32
  0
VERTEX
  8
M51LXLIFT
 62
2
 10
5881.167
 20
-7949.073
 30
79.292
 70
    32
  0
VERTEX
  8
M51LXLIFT
 62
2
 10
5882.027
 20
-7938.492
 30
79.297
 70
    32
  0
VERTEX
  8
M51LXLIFT
 62
2
 10
5875.675
 20
-7928.426
 30
79.304
 70
    32
  0
VERTEX
  8
M51LXLIFT
 62
2
 10
5893.977
 20
-7910.752
 30
79.308
 70
    32
  0
VERTEX
  8
M51LXLIFT
 62
2
 10
5889.339
 20
-7903.681
 30
79.313
 70
    32
  0
VERTEX
  8
M51LXLIFT
 62
2
 10
5876.995
 20
-7895.529
 30
79.320
 70
    32
  0
VERTEX
  8
M51LXLIFT
 62
2
 10
5872.144
 20
-7895.108
 30
79.322
 70
    32
  0
VERTEX
  8
M51LXLIFT
 62
2
 10
5869.857
 20
-7891.766
 30
79.324
 70
    32
  0
VERTEX
  8
M51LXLIFT
 62
2
 10
5882.312
 20
-7877.419
 30
79.328
 70
    32
  0
VERTEX
  8
M51LXLIFT
 62
2
 10
5888.859
 20
-7876.731
 30
79.326
 70
    32
  0
VERTEX
  8
M51LXLIFT
 62
2
 10
5896.249
 20
-7883.563
 30
79.321
 70
    32
  0
VERTEX
  8
M51LXLIFT
 62
2
 10
5897.914
 20
-7887.243
 30
79.319
 70
    32
  0
VERTEX
  8
M51LXLIFT
 62
2
 10
5911.021
 20
-7898.422
 30
79.310
 70
    32
  0
VERTEX
  8
M51LXLIFT
 62
2
 10
5911.969
 20
-7907.598
 30
79.305
 70
    32
  0
VERTEX
  8
M51LXLIFT
 62
2
 10
5915.144
 20
-7914.744
 30
79.300
 70
    32
  0
SEQEND
  8
M51LXLIFT
  0
POLYLINE
  8
M51LXLIFT
 62
2
 66
     1
 70
     9
  0
VERTEX
  8
M51LXLIFT
 62
2
 10
5857.934
 20
-7840.856
 30
79.353
 70
    32
  0
VERTEX
  8
M51LXLIFT
 62
2
 10
5865.890
 20
-7860.711
 30
79.341
 70
    32
  0
VERTEX
  8
M51LXLIFT
 62
2
 10
5874.386
 20
-7862.741
 30
79.337
 70
    32
  0
VERTEX
  8
M51LXLIFT
 62
2
 10
5881.548
 20
-7873.635
 30
79.330
 70
    32
  0
VERTEX
  8
M51LXLIFT
 62
2
 10
5860.663
 20
-7894.352
 30
79.325
 70
    32
  0
VERTEX
  8
M51LXLIFT
 62
2
 10
5855.546
 20
-7888.273
 30
79.329
 70
    32
  0
VERTEX
  8
M51LXLIFT
 62
2
 10
5861.597
 20
-7879.494
 30
79.332
 70
    32
  0
VERTEX
  8
M51LXLIFT
 62
2
 10
5856.121
 20
-7872.915
 30
79.337
 70
    32
  0
VERTEX
  8
M51LXLIFT
 62
2
 10
5847.410
 20
-7848.835
 30
79.352
 70
    32
  0
VERTEX
  8
M51LXLIFT
 62
2
 10
5837.758
 20
-7844.815
 30
79.356
 70
    32
  0
VERTEX
  8
M51LXLIFT
 62
2
 10
5833.900
 20
-7839.340
 30
79.360
 70
    32
  0
VERTEX
  8
M51LXLIFT
 62
2
 10
5836.152
 20
-7837.931
 30
79.360
 70
    32
  0
VERTEX
  8
M51LXLIFT
 62
2
 10
5824.000
 20
-7815.585
 30
79.375
 70
    32
  0
VERTEX
  8
M51LXLIFT
 62
2
 10
5845.841
 20
-7802.847
 30
79.375
 70
    32
  0
VERTEX
  8
M51LXLIFT
 62
2
 10
5853.596
 20
-7808.225
 30
79.370
 70
    32
  0
VERTEX
  8
M51LXLIFT
 62
2
 10
5866.028
 20
-7824.654
 30
79.359
 70
    32
  0
SEQEND
  8
M51LXLIFT
  0
POLYLINE
  8
M51LXLIFT
 62
1
 66
     1
 70
     9
  0
VERTEX
  8
M51LXLIFT
 62
1
 10
5693.091
 20
-7816.224
 30
236.000
 70
    32
  0
VERTEX
  8
M51LXLIFT
 62
1
 10
5703.312
 20
-7813.509
 30
236.000
 70
    32
  0
VERTEX
  8
M51LXLIFT
 62
1
 10
5724.172
 20
-7799.155
 30
236.000
 70
    32
  0
VERTEX
  8
M51LXLIFT
 62
1
 10
5743.425
 20
-7787.509
 30
236.000
 70
    32
  0
VERTEX
  8
M51LXLIFT
 62
1
 10
5750.561
 20
-7793.062
 30
236.000
 70
    32
  0
VERTEX
  8
M51LXLIFT
 62
1
 10
5747.668
 20
-7799.661
 30
236.000
 70
    32
  0
VERTEX
  8
M51LXLIFT
 62
1
 10
5761.196
 20
-7813.166
 30
236.000
 70
    32
  0
VERTEX
  8
M51LXLIFT
 62
1
 10
5766.178
 20
-7827.065
 30
236.000
 70
    32
  0
VERTEX
  8
M51LXLIFT
 62
1
 10
5754.050
 20
-7834.454
 30
236.000
 70
    32
  0
VERTEX
  8
M51LXLIFT
 62
1
 10
5741.669
 20
-7844.320
 30
236.000
 70
    32
  0
VERTEX
  8
M51LXLIFT
 62
1
 10
5724.457
 20
-7855.774
 30
236.000
 70
    32
  0
VERTEX
  8
M51LXLIFT
 62
1
 10
5708.504
 20
-7853.213
 30
236.000
 70
    32
  0
VERTEX
  8
M51LXLIFT
 62
1
 10
5702.215
 20
-7849.110
 30
236.000
 70
    32
  0
VERTEX
  8
M51LXLIFT
 62
1
 10
5686.840
 20
-7839.471
 30
236.000
 70
    32
  0
VERTEX
  8
M51LXLIFT
 62
1
 10
5683.229
 20
-7834.709
 30
236.000
 70
    32
  0
VERTEX
  8
M51LXLIFT
 62
1
 10
5696.526
 20
-7824.606
 30
236.000
 70
    32
  0
SEQEND
  8
M51LXLIFT
  0
POLYLINE
  8
M51LXLIFT
 62
3
 66
     1
 70
     9
  0
VERTEX
  8
M51LXLIFT
 62
3
 10
5853.146
 20
-7583.598
 30
79.484
 70
    32
  0
VERTEX
  8
M51LXLIFT
 62
3
 10
5885.590
 20
-7560.437
 30
79.487
 70
    32
  0
VERTEX
  8
M51LXLIFT
 62
3
 10
5900.797
 20
-7545.849
 30
79.491
 70
    32
  0
VERTEX
  8
M51LXLIFT
 62
3
 10
5907.302
 20
-7549.632
 30
79.487
 70
    32
  0
VERTEX
  8
M51LXLIFT
 62
3
 10
5909.518
 20
-7553.025
 30
79.485
 70
    32
  0
VERTEX
  8
M51LXLIFT
 62
3
 10
5919.441
 20
-7557.498
 30
79.480
 70
    32
  0
VERTEX
  8
M51LXLIFT
 62
3
 10
5932.633
 20
-7570.458
 30
79.470
 70
    32
  0
VERTEX
  8
M51LXLIFT
 62
3
 10
5923.180
 20
-7587.634
 30
79.464
 70
    32
  0
VERTEX
  8
M51LXLIFT
 62
3
 10
5918.010
 20
-7591.450
 30
79.463
 70
    32
  0
VERTEX
  8
M51LXLIFT
 62
3
 10
5899.887
 20
-7584.301
 30
79.471
 70
    32
  0
VERTEX
  8
M51LXLIFT
 62
3
 10
5888.487
 20
-7588.793
 30
79.472
 70
    32
  0
VERTEX
  8
M51LXLIFT
 62
3
 10
5874.819
 20
-7600.544
 30
79.470
 70
    32
  0
VERTEX
  8
M51LXLIFT
 62
3
 10
5860.059
 20
-7597.482
 30
79.475
 70
    32
  0
VERTEX
  8
M51LXLIFT
 62
3
 10
5856.077
 20
-7591.023
 30
79.480
 70
    32
  0
SEQEND
  8
M51LXLIFT
  0
ENDSEC
  0
EOF
