999
********************************
999
*   DXF File - Entities Only   *
999
*        3D Data Format        *
999
*     Output from ENVISAGE     *
999
*     31-Dec-2007 15:11:06     *
999
********************************
  0
SECTION 
  2
HEADER
  9
$ACADVER
  1
AC1009
  9
$EXTMIN
 10
-290000.000
 20
-250000.000
 30
-4000.000
  9
$EXTMAX
 10
320000.000
 20
160000.000
 30
6000.000
  0
ENDSEC
  0
SECTION
  2
ENTITIES
  0
POLYLINE
  8
M53LXLIFT
 62
6
 66
     1
 70
     9
  0
VERTEX
  8
M53LXLIFT
 62
6
 10
6268.151
 20
-7674.388
 30
31.000
 70
    32
  0
VERTEX
  8
M53LXLIFT
 62
6
 10
6285.878
 20
-7676.851
 30
31.000
 70
    32
  0
VERTEX
  8
M53LXLIFT
 62
6
 10
6289.827
 20
-7681.133
 30
31.000
 70
    32
  0
VERTEX
  8
M53LXLIFT
 62
6
 10
6294.045
 20
-7684.322
 30
31.000
 70
    32
  0
VERTEX
  8
M53LXLIFT
 62
6
 10
6296.115
 20
-7690.487
 30
31.000
 70
    32
  0
VERTEX
  8
M53LXLIFT
 62
6
 10
6297.833
 20
-7703.124
 30
31.000
 70
    32
  0
VERTEX
  8
M53LXLIFT
 62
6
 10
6295.538
 20
-7711.973
 30
31.000
 70
    32
  0
VERTEX
  8
M53LXLIFT
 62
6
 10
6303.594
 20
-7714.101
 30
31.000
 70
    32
  0
VERTEX
  8
M53LXLIFT
 62
6
 10
6314.934
 20
-7704.627
 30
31.000
 70
    32
  0
VERTEX
  8
M53LXLIFT
 62
6
 10
6312.774
 20
-7686.792
 30
31.000
 70
    32
  0
VERTEX
  8
M53LXLIFT
 62
6
 10
6311.516
 20
-7677.788
 30
31.000
 70
    32
  0
VERTEX
  8
M53LXLIFT
 62
6
 10
6294.517
 20
-7672.663
 30
31.000
 70
    32
  0
VERTEX
  8
M53LXLIFT
 62
6
 10
6299.274
 20
-7665.581
 30
31.000
 70
    32
  0
VERTEX
  8
M53LXLIFT
 62
6
 10
6293.358
 20
-7654.834
 30
31.000
 70
    32
  0
VERTEX
  8
M53LXLIFT
 62
6
 10
6293.519
 20
-7646.958
 30
31.000
 70
    32
  0
VERTEX
  8
M53LXLIFT
 62
6
 10
6312.132
 20
-7637.002
 30
31.000
 70
    32
  0
VERTEX
  8
M53LXLIFT
 62
6
 10
6316.918
 20
-7635.878
 30
31.000
 70
    32
  0
VERTEX
  8
M53LXLIFT
 62
6
 10
6316.742
 20
-7624.384
 30
31.000
 70
    32
  0
VERTEX
  8
M53LXLIFT
 62
6
 10
6314.258
 20
-7622.302
 30
31.000
 70
    32
  0
VERTEX
  8
M53LXLIFT
 62
6
 10
6310.669
 20
-7621.954
 30
31.000
 70
    32
  0
VERTEX
  8
M53LXLIFT
 62
6
 10
6308.671
 20
-7617.616
 30
31.000
 70
    32
  0
VERTEX
  8
M53LXLIFT
 62
6
 10
6300.708
 20
-7614.309
 30
31.000
 70
    32
  0
VERTEX
  8
M53LXLIFT
 62
6
 10
6293.590
 20
-7619.325
 30
31.000
 70
    32
  0
VERTEX
  8
M53LXLIFT
 62
6
 10
6286.859
 20
-7616.181
 30
31.000
 70
    32
  0
VERTEX
  8
M53LXLIFT
 62
6
 10
6284.436
 20
-7621.252
 30
31.000
 70
    32
  0
VERTEX
  8
M53LXLIFT
 62
6
 10
6281.785
 20
-7631.370
 30
31.000
 70
    32
  0
VERTEX
  8
M53LXLIFT
 62
6
 10
6268.842
 20
-7652.040
 30
31.000
 70
    32
  0
VERTEX
  8
M53LXLIFT
 62
6
 10
6263.010
 20
-7657.288
 30
31.000
 70
    32
  0
SEQEND
  8
M53LXLIFT
  0
POLYLINE
  8
M53LXLIFT
 62
6
 66
     1
 70
     9
  0
VERTEX
  8
M53LXLIFT
 62
6
 10
6257.516
 20
-7582.775
 30
63.000
 70
    32
  0
VERTEX
  8
M53LXLIFT
 62
6
 10
6258.167
 20
-7601.509
 30
63.000
 70
    32
  0
VERTEX
  8
M53LXLIFT
 62
6
 10
6262.505
 20
-7621.589
 30
63.000
 70
    32
  0
VERTEX
  8
M53LXLIFT
 62
6
 10
6260.360
 20
-7639.310
 30
63.000
 70
    32
  0
VERTEX
  8
M53LXLIFT
 62
6
 10
6262.754
 20
-7655.806
 30
63.000
 70
    32
  0
VERTEX
  8
M53LXLIFT
 62
6
 10
6259.446
 20
-7661.130
 30
63.000
 70
    32
  0
VERTEX
  8
M53LXLIFT
 62
6
 10
6251.986
 20
-7668.810
 30
63.000
 70
    32
  0
VERTEX
  8
M53LXLIFT
 62
6
 10
6255.331
 20
-7690.368
 30
63.000
 70
    32
  0
VERTEX
  8
M53LXLIFT
 62
6
 10
6268.063
 20
-7695.365
 30
63.000
 70
    32
  0
VERTEX
  8
M53LXLIFT
 62
6
 10
6283.772
 20
-7692.782
 30
63.000
 70
    32
  0
VERTEX
  8
M53LXLIFT
 62
6
 10
6287.442
 20
-7689.908
 30
63.000
 70
    32
  0
VERTEX
  8
M53LXLIFT
 62
6
 10
6291.111
 20
-7672.494
 30
63.000
 70
    32
  0
VERTEX
  8
M53LXLIFT
 62
6
 10
6288.365
 20
-7663.306
 30
63.000
 70
    32
  0
VERTEX
  8
M53LXLIFT
 62
6
 10
6284.797
 20
-7654.930
 30
63.000
 70
    32
  0
VERTEX
  8
M53LXLIFT
 62
6
 10
6281.708
 20
-7643.169
 30
63.000
 70
    32
  0
VERTEX
  8
M53LXLIFT
 62
6
 10
6281.885
 20
-7621.231
 30
63.000
 70
    32
  0
VERTEX
  8
M53LXLIFT
 62
6
 10
6282.870
 20
-7613.899
 30
63.000
 70
    32
  0
VERTEX
  8
M53LXLIFT
 62
6
 10
6275.764
 20
-7592.242
 30
63.000
 70
    32
  0
VERTEX
  8
M53LXLIFT
 62
6
 10
6269.417
 20
-7580.778
 30
63.000
 70
    32
  0
SEQEND
  8
M53LXLIFT
  0
POLYLINE
  8
M53LXLIFT
 62
6
 66
     1
 70
     9
  0
VERTEX
  8
M53LXLIFT
 62
6
 10
6313.289
 20
-7704.361
 30
24.000
 70
    32
  0
VERTEX
  8
M53LXLIFT
 62
6
 10
6312.156
 20
-7684.686
 30
24.000
 70
    32
  0
VERTEX
  8
M53LXLIFT
 62
6
 10
6311.915
 20
-7674.775
 30
24.000
 70
    32
  0
VERTEX
  8
M53LXLIFT
 62
6
 10
6314.259
 20
-7671.124
 30
24.000
 70
    32
  0
VERTEX
  8
M53LXLIFT
 62
6
 10
6314.374
 20
-7650.328
 30
24.000
 70
    32
  0
VERTEX
  8
M53LXLIFT
 62
6
 10
6320.749
 20
-7645.057
 30
24.000
 70
    32
  0
VERTEX
  8
M53LXLIFT
 62
6
 10
6320.953
 20
-7635.909
 30
24.000
 70
    32
  0
VERTEX
  8
M53LXLIFT
 62
6
 10
6318.363
 20
-7618.264
 30
24.000
 70
    32
  0
VERTEX
  8
M53LXLIFT
 62
6
 10
6304.182
 20
-7619.647
 30
24.000
 70
    32
  0
VERTEX
  8
M53LXLIFT
 62
6
 10
6299.394
 20
-7621.272
 30
24.000
 70
    32
  0
VERTEX
  8
M53LXLIFT
 62
6
 10
6292.456
 20
-7630.854
 30
24.000
 70
    32
  0
VERTEX
  8
M53LXLIFT
 62
6
 10
6281.908
 20
-7644.136
 30
24.000
 70
    32
  0
VERTEX
  8
M53LXLIFT
 62
6
 10
6278.704
 20
-7651.988
 30
24.000
 70
    32
  0
VERTEX
  8
M53LXLIFT
 62
6
 10
6276.450
 20
-7659.803
 30
24.000
 70
    32
  0
VERTEX
  8
M53LXLIFT
 62
6
 10
6267.929
 20
-7661.963
 30
24.000
 70
    32
  0
VERTEX
  8
M53LXLIFT
 62
6
 10
6269.036
 20
-7671.573
 30
24.000
 70
    32
  0
VERTEX
  8
M53LXLIFT
 62
6
 10
6272.353
 20
-7676.002
 30
24.000
 70
    32
  0
VERTEX
  8
M53LXLIFT
 62
6
 10
6281.904
 20
-7675.263
 30
24.000
 70
    32
  0
VERTEX
  8
M53LXLIFT
 62
6
 10
6289.051
 20
-7675.399
 30
24.000
 70
    32
  0
VERTEX
  8
M53LXLIFT
 62
6
 10
6292.763
 20
-7679.324
 30
24.000
 70
    32
  0
VERTEX
  8
M53LXLIFT
 62
6
 10
6298.188
 20
-7696.541
 30
24.000
 70
    32
  0
VERTEX
  8
M53LXLIFT
 62
6
 10
6301.685
 20
-7704.960
 30
24.000
 70
    32
  0
SEQEND
  8
M53LXLIFT
  0
POLYLINE
  8
M53LXLIFT
 62
6
 66
     1
 70
     9
  0
VERTEX
  8
M53LXLIFT
 62
6
 10
6263.507
 20
-7671.688
 30
13.000
 70
    32
  0
VERTEX
  8
M53LXLIFT
 62
6
 10
6264.585
 20
-7676.123
 30
13.000
 70
    32
  0
VERTEX
  8
M53LXLIFT
 62
6
 10
6273.899
 20
-7680.502
 30
13.000
 70
    32
  0
VERTEX
  8
M53LXLIFT
 62
6
 10
6288.184
 20
-7686.459
 30
13.000
 70
    32
  0
VERTEX
  8
M53LXLIFT
 62
6
 10
6293.610
 20
-7691.623
 30
13.000
 70
    32
  0
VERTEX
  8
M53LXLIFT
 62
6
 10
6304.648
 20
-7683.518
 30
13.000
 70
    32
  0
VERTEX
  8
M53LXLIFT
 62
6
 10
6311.090
 20
-7683.689
 30
13.000
 70
    32
  0
VERTEX
  8
M53LXLIFT
 62
6
 10
6313.179
 20
-7680.304
 30
13.000
 70
    32
  0
VERTEX
  8
M53LXLIFT
 62
6
 10
6308.392
 20
-7670.967
 30
13.000
 70
    32
  0
VERTEX
  8
M53LXLIFT
 62
6
 10
6307.239
 20
-7660.052
 30
13.000
 70
    32
  0
VERTEX
  8
M53LXLIFT
 62
6
 10
6309.939
 20
-7644.891
 30
13.000
 70
    32
  0
VERTEX
  8
M53LXLIFT
 62
6
 10
6317.383
 20
-7639.752
 30
13.000
 70
    32
  0
VERTEX
  8
M53LXLIFT
 62
6
 10
6314.265
 20
-7635.507
 30
13.000
 70
    32
  0
VERTEX
  8
M53LXLIFT
 62
6
 10
6303.837
 20
-7637.174
 30
13.000
 70
    32
  0
VERTEX
  8
M53LXLIFT
 62
6
 10
6291.141
 20
-7635.606
 30
13.000
 70
    32
  0
VERTEX
  8
M53LXLIFT
 62
6
 10
6285.558
 20
-7637.199
 30
13.000
 70
    32
  0
VERTEX
  8
M53LXLIFT
 62
6
 10
6277.059
 20
-7645.945
 30
13.000
 70
    32
  0
VERTEX
  8
M53LXLIFT
 62
6
 10
6268.475
 20
-7661.397
 30
13.000
 70
    32
  0
SEQEND
  8
M53LXLIFT
  0
POLYLINE
  8
M53LXLIFT
 62
1
 66
     1
 70
     9
  0
VERTEX
  8
M53LXLIFT
 62
1
 10
6221.446
 20
-7655.706
 30
82.000
 70
    32
  0
VERTEX
  8
M53LXLIFT
 62
1
 10
6232.159
 20
-7653.871
 30
82.000
 70
    32
  0
VERTEX
  8
M53LXLIFT
 62
1
 10
6242.277
 20
-7646.827
 30
82.000
 70
    32
  0
VERTEX
  8
M53LXLIFT
 62
1
 10
6241.894
 20
-7611.555
 30
82.000
 70
    32
  0
VERTEX
  8
M53LXLIFT
 62
1
 10
6239.766
 20
-7598.017
 30
82.000
 70
    32
  0
VERTEX
  8
M53LXLIFT
 62
1
 10
6231.989
 20
-7570.868
 30
82.000
 70
    32
  0
VERTEX
  8
M53LXLIFT
 62
1
 10
6241.188
 20
-7564.808
 30
82.000
 70
    32
  0
VERTEX
  8
M53LXLIFT
 62
1
 10
6260.269
 20
-7612.242
 30
82.000
 70
    32
  0
VERTEX
  8
M53LXLIFT
 62
1
 10
6264.578
 20
-7616.736
 30
82.000
 70
    32
  0
VERTEX
  8
M53LXLIFT
 62
1
 10
6266.473
 20
-7627.081
 30
82.000
 70
    32
  0
VERTEX
  8
M53LXLIFT
 62
1
 10
6280.154
 20
-7667.442
 30
82.000
 70
    32
  0
VERTEX
  8
M53LXLIFT
 62
1
 10
6271.769
 20
-7680.829
 30
82.000
 70
    32
  0
VERTEX
  8
M53LXLIFT
 62
1
 10
6261.967
 20
-7687.104
 30
82.000
 70
    32
  0
VERTEX
  8
M53LXLIFT
 62
1
 10
6255.923
 20
-7689.707
 30
82.000
 70
    32
  0
VERTEX
  8
M53LXLIFT
 62
1
 10
6244.878
 20
-7689.721
 30
82.000
 70
    32
  0
SEQEND
  8
M53LXLIFT
  0
POLYLINE
  8
M53LXLIFT
 62
6
 66
     1
 70
     9
  0
VERTEX
  8
M53LXLIFT
 62
6
 10
6243.878
 20
-7690.721
 30
72.000
 70
    32
  0
VERTEX
  8
M53LXLIFT
 62
6
 10
6254.923
 20
-7690.707
 30
72.000
 70
    32
  0
VERTEX
  8
M53LXLIFT
 62
6
 10
6260.967
 20
-7688.104
 30
72.000
 70
    32
  0
VERTEX
  8
M53LXLIFT
 62
6
 10
6270.769
 20
-7681.829
 30
72.000
 70
    32
  0
VERTEX
  8
M53LXLIFT
 62
6
 10
6279.154
 20
-7668.442
 30
72.000
 70
    32
  0
VERTEX
  8
M53LXLIFT
 62
6
 10
6265.473
 20
-7628.081
 30
72.000
 70
    32
  0
VERTEX
  8
M53LXLIFT
 62
6
 10
6263.578
 20
-7617.736
 30
72.000
 70
    32
  0
VERTEX
  8
M53LXLIFT
 62
6
 10
6259.269
 20
-7613.242
 30
72.000
 70
    32
  0
VERTEX
  8
M53LXLIFT
 62
6
 10
6240.188
 20
-7565.808
 30
72.000
 70
    32
  0
VERTEX
  8
M53LXLIFT
 62
6
 10
6230.989
 20
-7571.868
 30
72.000
 70
    32
  0
VERTEX
  8
M53LXLIFT
 62
6
 10
6238.766
 20
-7599.017
 30
72.000
 70
    32
  0
VERTEX
  8
M53LXLIFT
 62
6
 10
6240.894
 20
-7612.555
 30
72.000
 70
    32
  0
VERTEX
  8
M53LXLIFT
 62
6
 10
6241.277
 20
-7647.827
 30
72.000
 70
    32
  0
VERTEX
  8
M53LXLIFT
 62
6
 10
6231.159
 20
-7654.871
 30
72.000
 70
    32
  0
VERTEX
  8
M53LXLIFT
 62
6
 10
6220.446
 20
-7656.706
 30
72.000
 70
    32
  0
SEQEND
  8
M53LXLIFT
  0
POLYLINE
  8
M53LXLIFT
 62
6
 66
     1
 70
     9
  0
VERTEX
  8
M53LXLIFT
 62
6
 10
6308.849
 20
-7678.003
 30
53.000
 70
    32
  0
VERTEX
  8
M53LXLIFT
 62
6
 10
6294.980
 20
-7678.981
 30
53.000
 70
    32
  0
VERTEX
  8
M53LXLIFT
 62
6
 10
6287.848
 20
-7661.005
 30
53.000
 70
    32
  0
VERTEX
  8
M53LXLIFT
 62
6
 10
6283.250
 20
-7642.921
 30
53.000
 70
    32
  0
VERTEX
  8
M53LXLIFT
 62
6
 10
6283.856
 20
-7628.986
 30
53.000
 70
    32
  0
VERTEX
  8
M53LXLIFT
 62
6
 10
6275.073
 20
-7625.600
 30
53.000
 70
    32
  0
VERTEX
  8
M53LXLIFT
 62
6
 10
6265.505
 20
-7632.472
 30
53.000
 70
    32
  0
VERTEX
  8
M53LXLIFT
 62
6
 10
6264.908
 20
-7635.084
 30
53.000
 70
    32
  0
VERTEX
  8
M53LXLIFT
 62
6
 10
6262.056
 20
-7638.036
 30
53.000
 70
    32
  0
VERTEX
  8
M53LXLIFT
 62
6
 10
6264.207
 20
-7649.634
 30
53.000
 70
    32
  0
VERTEX
  8
M53LXLIFT
 62
6
 10
6262.055
 20
-7662.196
 30
53.000
 70
    32
  0
VERTEX
  8
M53LXLIFT
 62
6
 10
6256.959
 20
-7664.608
 30
53.000
 70
    32
  0
VERTEX
  8
M53LXLIFT
 62
6
 10
6258.533
 20
-7670.643
 30
53.000
 70
    32
  0
VERTEX
  8
M53LXLIFT
 62
6
 10
6269.350
 20
-7669.062
 30
53.000
 70
    32
  0
VERTEX
  8
M53LXLIFT
 62
6
 10
6279.060
 20
-7670.139
 30
53.000
 70
    32
  0
VERTEX
  8
M53LXLIFT
 62
6
 10
6284.616
 20
-7676.858
 30
53.000
 70
    32
  0
VERTEX
  8
M53LXLIFT
 62
6
 10
6289.652
 20
-7689.725
 30
53.000
 70
    32
  0
VERTEX
  8
M53LXLIFT
 62
6
 10
6300.482
 20
-7692.488
 30
53.000
 70
    32
  0
VERTEX
  8
M53LXLIFT
 62
6
 10
6312.829
 20
-7685.546
 30
53.000
 70
    32
  0
SEQEND
  8
M53LXLIFT
  0
POLYLINE
  8
M53LXLIFT
 62
6
 66
     1
 70
     9
  0
VERTEX
  8
M53LXLIFT
 62
6
 10
6272.614
 20
-7640.121
 30
3.000
 70
    32
  0
VERTEX
  8
M53LXLIFT
 62
6
 10
6269.416
 20
-7648.192
 30
3.000
 70
    32
  0
VERTEX
  8
M53LXLIFT
 62
6
 10
6266.199
 20
-7652.554
 30
3.000
 70
    32
  0
VERTEX
  8
M53LXLIFT
 62
6
 10
6266.165
 20
-7660.463
 30
3.000
 70
    32
  0
VERTEX
  8
M53LXLIFT
 62
6
 10
6265.516
 20
-7672.552
 30
3.000
 70
    32
  0
VERTEX
  8
M53LXLIFT
 62
6
 10
6269.402
 20
-7676.013
 30
3.000
 70
    32
  0
VERTEX
  8
M53LXLIFT
 62
6
 10
6274.732
 20
-7679.059
 30
3.000
 70
    32
  0
VERTEX
  8
M53LXLIFT
 62
6
 10
6300.662
 20
-7669.310
 30
3.000
 70
    32
  0
VERTEX
  8
M53LXLIFT
 62
6
 10
6310.478
 20
-7667.049
 30
3.000
 70
    32
  0
VERTEX
  8
M53LXLIFT
 62
6
 10
6315.402
 20
-7654.083
 30
3.000
 70
    32
  0
VERTEX
  8
M53LXLIFT
 62
6
 10
6315.858
 20
-7642.028
 30
3.000
 70
    32
  0
VERTEX
  8
M53LXLIFT
 62
6
 10
6315.648
 20
-7629.373
 30
3.000
 70
    32
  0
VERTEX
  8
M53LXLIFT
 62
6
 10
6301.611
 20
-7632.143
 30
3.000
 70
    32
  0
SEQEND
  8
M53LXLIFT
  0
POLYLINE
  8
M53LXLIFT
 62
6
 66
     1
 70
     9
  0
VERTEX
  8
M53LXLIFT
 62
6
 10
6276.512
 20
-7632.986
 30
41.000
 70
    32
  0
VERTEX
  8
M53LXLIFT
 62
6
 10
6272.453
 20
-7648.786
 30
41.000
 70
    32
  0
VERTEX
  8
M53LXLIFT
 62
6
 10
6261.636
 20
-7662.696
 30
41.000
 70
    32
  0
VERTEX
  8
M53LXLIFT
 62
6
 10
6262.368
 20
-7669.155
 30
41.000
 70
    32
  0
VERTEX
  8
M53LXLIFT
 62
6
 10
6273.659
 20
-7674.363
 30
41.000
 70
    32
  0
VERTEX
  8
M53LXLIFT
 62
6
 10
6283.098
 20
-7683.128
 30
41.000
 70
    32
  0
VERTEX
  8
M53LXLIFT
 62
6
 10
6284.556
 20
-7691.456
 30
41.000
 70
    32
  0
VERTEX
  8
M53LXLIFT
 62
6
 10
6288.984
 20
-7700.101
 30
41.000
 70
    32
  0
VERTEX
  8
M53LXLIFT
 62
6
 10
6289.440
 20
-7708.404
 30
41.000
 70
    32
  0
VERTEX
  8
M53LXLIFT
 62
6
 10
6289.375
 20
-7713.046
 30
41.000
 70
    32
  0
VERTEX
  8
M53LXLIFT
 62
6
 10
6298.365
 20
-7715.144
 30
41.000
 70
    32
  0
VERTEX
  8
M53LXLIFT
 62
6
 10
6299.748
 20
-7707.996
 30
41.000
 70
    32
  0
VERTEX
  8
M53LXLIFT
 62
6
 10
6296.898
 20
-7702.667
 30
41.000
 70
    32
  0
VERTEX
  8
M53LXLIFT
 62
6
 10
6299.047
 20
-7696.702
 30
41.000
 70
    32
  0
VERTEX
  8
M53LXLIFT
 62
6
 10
6298.659
 20
-7683.317
 30
41.000
 70
    32
  0
VERTEX
  8
M53LXLIFT
 62
6
 10
6294.840
 20
-7675.643
 30
41.000
 70
    32
  0
VERTEX
  8
M53LXLIFT
 62
6
 10
6289.960
 20
-7666.239
 30
41.000
 70
    32
  0
VERTEX
  8
M53LXLIFT
 62
6
 10
6289.588
 20
-7642.233
 30
41.000
 70
    32
  0
VERTEX
  8
M53LXLIFT
 62
6
 10
6290.267
 20
-7635.168
 30
41.000
 70
    32
  0
VERTEX
  8
M53LXLIFT
 62
6
 10
6288.141
 20
-7632.147
 30
41.000
 70
    32
  0
SEQEND
  8
M53LXLIFT
  0
POLYLINE
  8
M53LXLIFT
 62
6
 66
     1
 70
     9
  0
VERTEX
  8
M53LXLIFT
 62
6
 10
6286.398
 20
-7661.854
 30
-8.000
 70
    32
  0
VERTEX
  8
M53LXLIFT
 62
6
 10
6315.495
 20
-7668.962
 30
-8.000
 70
    32
  0
VERTEX
  8
M53LXLIFT
 62
6
 10
6325.122
 20
-7652.698
 30
-8.000
 70
    32
  0
VERTEX
  8
M53LXLIFT
 62
6
 10
6324.984
 20
-7645.217
 30
-8.000
 70
    32
  0
VERTEX
  8
M53LXLIFT
 62
6
 10
6329.231
 20
-7643.557
 30
-8.000
 70
    32
  0
VERTEX
  8
M53LXLIFT
 62
6
 10
6328.268
 20
-7636.148
 30
-8.000
 70
    32
  0
VERTEX
  8
M53LXLIFT
 62
6
 10
6331.070
 20
-7632.279
 30
-8.000
 70
    32
  0
VERTEX
  8
M53LXLIFT
 62
6
 10
6328.958
 20
-7629.912
 30
-8.000
 70
    32
  0
VERTEX
  8
M53LXLIFT
 62
6
 10
6310.485
 20
-7631.073
 30
-8.000
 70
    32
  0
VERTEX
  8
M53LXLIFT
 62
6
 10
6294.300
 20
-7652.495
 30
-8.000
 70
    32
  0
VERTEX
  8
M53LXLIFT
 62
6
 10
6286.965
 20
-7655.601
 30
-8.000
 70
    32
  0
SEQEND
  8
M53LXLIFT
  0
POLYLINE
  8
M53LXLIFT
 62
6
 66
     1
 70
     9
  0
VERTEX
  8
M53LXLIFT
 62
6
 10
6320.682
 20
-7754.359
 30
-18.000
 70
    32
  0
VERTEX
  8
M53LXLIFT
 62
6
 10
6330.818
 20
-7739.615
 30
-18.000
 70
    32
  0
VERTEX
  8
M53LXLIFT
 62
6
 10
6336.003
 20
-7732.103
 30
-18.000
 70
    32
  0
VERTEX
  8
M53LXLIFT
 62
6
 10
6333.609
 20
-7725.566
 30
-18.000
 70
    32
  0
VERTEX
  8
M53LXLIFT
 62
6
 10
6333.179
 20
-7711.588
 30
-18.000
 70
    32
  0
VERTEX
  8
M53LXLIFT
 62
6
 10
6330.582
 20
-7692.871
 30
-18.000
 70
    32
  0
VERTEX
  8
M53LXLIFT
 62
6
 10
6332.507
 20
-7667.673
 30
-18.000
 70
    32
  0
VERTEX
  8
M53LXLIFT
 62
6
 10
6333.865
 20
-7664.168
 30
-18.000
 70
    32
  0
VERTEX
  8
M53LXLIFT
 62
6
 10
6322.734
 20
-7645.270
 30
-18.000
 70
    32
  0
VERTEX
  8
M53LXLIFT
 62
6
 10
6301.032
 20
-7648.856
 30
-18.000
 70
    32
  0
VERTEX
  8
M53LXLIFT
 62
6
 10
6291.931
 20
-7654.002
 30
-18.000
 70
    32
  0
VERTEX
  8
M53LXLIFT
 62
6
 10
6290.493
 20
-7658.439
 30
-18.000
 70
    32
  0
VERTEX
  8
M53LXLIFT
 62
6
 10
6299.462
 20
-7665.610
 30
-18.000
 70
    32
  0
VERTEX
  8
M53LXLIFT
 62
6
 10
6295.171
 20
-7683.268
 30
-18.000
 70
    32
  0
VERTEX
  8
M53LXLIFT
 62
6
 10
6293.568
 20
-7703.102
 30
-18.000
 70
    32
  0
VERTEX
  8
M53LXLIFT
 62
6
 10
6293.601
 20
-7721.299
 30
-18.000
 70
    32
  0
VERTEX
  8
M53LXLIFT
 62
6
 10
6297.811
 20
-7743.853
 30
-18.000
 70
    32
  0
VERTEX
  8
M53LXLIFT
 62
6
 10
6297.295
 20
-7752.524
 30
-18.000
 70
    32
  0
VERTEX
  8
M53LXLIFT
 62
6
 10
6304.064
 20
-7753.124
 30
-18.000
 70
    32
  0
SEQEND
  8
M53LXLIFT
  0
POLYLINE
  8
M53LXLIFT
 62
6
 66
     1
 70
     9
  0
VERTEX
  8
M53LXLIFT
 62
6
 10
6312.114
 20
-7689.154
 30
-39.000
 70
    32
  0
VERTEX
  8
M53LXLIFT
 62
6
 10
6300.858
 20
-7753.149
 30
-39.000
 70
    32
  0
VERTEX
  8
M53LXLIFT
 62
6
 10
6302.480
 20
-7761.648
 30
-39.000
 70
    32
  0
VERTEX
  8
M53LXLIFT
 62
6
 10
6307.744
 20
-7766.189
 30
-39.000
 70
    32
  0
VERTEX
  8
M53LXLIFT
 62
6
 10
6323.654
 20
-7767.872
 30
-39.000
 70
    32
  0
VERTEX
  8
M53LXLIFT
 62
6
 10
6334.279
 20
-7766.333
 30
-39.000
 70
    32
  0
VERTEX
  8
M53LXLIFT
 62
6
 10
6340.687
 20
-7759.600
 30
-39.000
 70
    32
  0
VERTEX
  8
M53LXLIFT
 62
6
 10
6349.355
 20
-7749.697
 30
-39.000
 70
    32
  0
VERTEX
  8
M53LXLIFT
 62
6
 10
6354.853
 20
-7745.149
 30
-39.000
 70
    32
  0
VERTEX
  8
M53LXLIFT
 62
6
 10
6348.858
 20
-7740.053
 30
-39.000
 70
    32
  0
VERTEX
  8
M53LXLIFT
 62
6
 10
6341.002
 20
-7737.182
 30
-39.000
 70
    32
  0
VERTEX
  8
M53LXLIFT
 62
6
 10
6340.256
 20
-7713.906
 30
-39.000
 70
    32
  0
VERTEX
  8
M53LXLIFT
 62
6
 10
6339.708
 20
-7697.772
 30
-39.000
 70
    32
  0
VERTEX
  8
M53LXLIFT
 62
6
 10
6339.732
 20
-7674.805
 30
-39.000
 70
    32
  0
VERTEX
  8
M53LXLIFT
 62
6
 10
6341.965
 20
-7659.800
 30
-39.000
 70
    32
  0
VERTEX
  8
M53LXLIFT
 62
6
 10
6345.398
 20
-7641.964
 30
-39.000
 70
    32
  0
VERTEX
  8
M53LXLIFT
 62
6
 10
6340.612
 20
-7638.379
 30
-39.000
 70
    32
  0
VERTEX
  8
M53LXLIFT
 62
6
 10
6332.011
 20
-7642.251
 30
-39.000
 70
    32
  0
VERTEX
  8
M53LXLIFT
 62
6
 10
6313.221
 20
-7644.080
 30
-39.000
 70
    32
  0
VERTEX
  8
M53LXLIFT
 62
6
 10
6305.210
 20
-7649.806
 30
-39.000
 70
    32
  0
VERTEX
  8
M53LXLIFT
 62
6
 10
6295.984
 20
-7656.851
 30
-39.000
 70
    32
  0
VERTEX
  8
M53LXLIFT
 62
6
 10
6294.689
 20
-7663.885
 30
-39.000
 70
    32
  0
VERTEX
  8
M53LXLIFT
 62
6
 10
6298.687
 20
-7668.478
 30
-39.000
 70
    32
  0
SEQEND
  8
M53LXLIFT
  0
POLYLINE
  8
M53LXLIFT
 62
6
 66
     1
 70
     9
  0
VERTEX
  8
M53LXLIFT
 62
6
 10
6339.857
 20
-7636.727
 30
-28.000
 70
    32
  0
VERTEX
  8
M53LXLIFT
 62
6
 10
6336.498
 20
-7635.603
 30
-28.000
 70
    32
  0
VERTEX
  8
M53LXLIFT
 62
6
 10
6333.379
 20
-7631.997
 30
-28.000
 70
    32
  0
VERTEX
  8
M53LXLIFT
 62
6
 10
6310.394
 20
-7645.356
 30
-28.000
 70
    32
  0
VERTEX
  8
M53LXLIFT
 62
6
 10
6302.544
 20
-7644.389
 30
-28.000
 70
    32
  0
VERTEX
  8
M53LXLIFT
 62
6
 10
6293.440
 20
-7656.643
 30
-28.000
 70
    32
  0
VERTEX
  8
M53LXLIFT
 62
6
 10
6291.128
 20
-7657.814
 30
-28.000
 70
    32
  0
VERTEX
  8
M53LXLIFT
 62
6
 10
6290.889
 20
-7664.575
 30
-28.000
 70
    32
  0
VERTEX
  8
M53LXLIFT
 62
6
 10
6297.980
 20
-7665.996
 30
-28.000
 70
    32
  0
VERTEX
  8
M53LXLIFT
 62
6
 10
6299.066
 20
-7684.280
 30
-28.000
 70
    32
  0
VERTEX
  8
M53LXLIFT
 62
6
 10
6296.086
 20
-7701.967
 30
-28.000
 70
    32
  0
VERTEX
  8
M53LXLIFT
 62
6
 10
6290.824
 20
-7730.456
 30
-28.000
 70
    32
  0
VERTEX
  8
M53LXLIFT
 62
6
 10
6291.504
 20
-7740.374
 30
-28.000
 70
    32
  0
VERTEX
  8
M53LXLIFT
 62
6
 10
6298.336
 20
-7753.399
 30
-28.000
 70
    32
  0
VERTEX
  8
M53LXLIFT
 62
6
 10
6295.181
 20
-7762.438
 30
-28.000
 70
    32
  0
VERTEX
  8
M53LXLIFT
 62
6
 10
6301.728
 20
-7767.554
 30
-28.000
 70
    32
  0
VERTEX
  8
M53LXLIFT
 62
6
 10
6322.739
 20
-7762.905
 30
-28.000
 70
    32
  0
VERTEX
  8
M53LXLIFT
 62
6
 10
6332.933
 20
-7759.496
 30
-28.000
 70
    32
  0
VERTEX
  8
M53LXLIFT
 62
6
 10
6343.583
 20
-7747.848
 30
-28.000
 70
    32
  0
VERTEX
  8
M53LXLIFT
 62
6
 10
6346.066
 20
-7735.249
 30
-28.000
 70
    32
  0
VERTEX
  8
M53LXLIFT
 62
6
 10
6344.121
 20
-7728.795
 30
-28.000
 70
    32
  0
VERTEX
  8
M53LXLIFT
 62
6
 10
6340.870
 20
-7726.932
 30
-28.000
 70
    32
  0
VERTEX
  8
M53LXLIFT
 62
6
 10
6337.699
 20
-7718.977
 30
-28.000
 70
    32
  0
VERTEX
  8
M53LXLIFT
 62
6
 10
6338.903
 20
-7700.526
 30
-28.000
 70
    32
  0
VERTEX
  8
M53LXLIFT
 62
6
 10
6338.503
 20
-7678.440
 30
-28.000
 70
    32
  0
VERTEX
  8
M53LXLIFT
 62
6
 10
6345.779
 20
-7673.470
 30
-28.000
 70
    32
  0
VERTEX
  8
M53LXLIFT
 62
6
 10
6346.738
 20
-7667.380
 30
-28.000
 70
    32
  0
VERTEX
  8
M53LXLIFT
 62
6
 10
6344.059
 20
-7659.497
 30
-28.000
 70
    32
  0
SEQEND
  8
M53LXLIFT
  0
POLYLINE
  8
M53LXLIFT
 62
6
 66
     1
 70
     9
  0
VERTEX
  8
M53LXLIFT
 62
6
 10
6322.588
 20
-7666.882
 30
-49.000
 70
    32
  0
VERTEX
  8
M53LXLIFT
 62
6
 10
6327.661
 20
-7697.946
 30
-49.000
 70
    32
  0
VERTEX
  8
M53LXLIFT
 62
6
 10
6335.259
 20
-7728.152
 30
-49.000
 70
    32
  0
VERTEX
  8
M53LXLIFT
 62
6
 10
6346.698
 20
-7747.644
 30
-49.000
 70
    32
  0
VERTEX
  8
M53LXLIFT
 62
6
 10
6356.829
 20
-7736.922
 30
-49.000
 70
    32
  0
VERTEX
  8
M53LXLIFT
 62
6
 10
6374.617
 20
-7732.259
 30
-49.000
 70
    32
  0
VERTEX
  8
M53LXLIFT
 62
6
 10
6378.886
 20
-7733.503
 30
-49.000
 70
    32
  0
VERTEX
  8
M53LXLIFT
 62
6
 10
6356.111
 20
-7753.730
 30
-49.000
 70
    32
  0
VERTEX
  8
M53LXLIFT
 62
6
 10
6347.883
 20
-7768.717
 30
-49.000
 70
    32
  0
VERTEX
  8
M53LXLIFT
 62
6
 10
6331.432
 20
-7773.278
 30
-49.000
 70
    32
  0
VERTEX
  8
M53LXLIFT
 62
6
 10
6310.217
 20
-7773.371
 30
-49.000
 70
    32
  0
VERTEX
  8
M53LXLIFT
 62
6
 10
6305.531
 20
-7752.560
 30
-49.000
 70
    32
  0
VERTEX
  8
M53LXLIFT
 62
6
 10
6304.400
 20
-7712.120
 30
-49.000
 70
    32
  0
VERTEX
  8
M53LXLIFT
 62
6
 10
6311.765
 20
-7710.898
 30
-49.000
 70
    32
  0
VERTEX
  8
M53LXLIFT
 62
6
 10
6315.516
 20
-7705.895
 30
-49.000
 70
    32
  0
VERTEX
  8
M53LXLIFT
 62
6
 10
6314.047
 20
-7700.881
 30
-49.000
 70
    32
  0
VERTEX
  8
M53LXLIFT
 62
6
 10
6316.052
 20
-7697.361
 30
-49.000
 70
    32
  0
VERTEX
  8
M53LXLIFT
 62
6
 10
6306.666
 20
-7681.592
 30
-49.000
 70
    32
  0
VERTEX
  8
M53LXLIFT
 62
6
 10
6311.036
 20
-7669.515
 30
-49.000
 70
    32
  0
SEQEND
  8
M53LXLIFT
  0
POLYLINE
  8
M53LXLIFT
 62
6
 66
     1
 70
     9
  0
VERTEX
  8
M53LXLIFT
 62
6
 10
6362.834
 20
-7733.664
 30
-60.000
 70
    32
  0
VERTEX
  8
M53LXLIFT
 62
6
 10
6359.109
 20
-7748.509
 30
-60.000
 70
    32
  0
VERTEX
  8
M53LXLIFT
 62
6
 10
6351.341
 20
-7755.294
 30
-60.000
 70
    32
  0
VERTEX
  8
M53LXLIFT
 62
6
 10
6343.961
 20
-7754.222
 30
-60.000
 70
    32
  0
VERTEX
  8
M53LXLIFT
 62
6
 10
6344.303
 20
-7735.433
 30
-60.000
 70
    32
  0
VERTEX
  8
M53LXLIFT
 62
6
 10
6331.316
 20
-7703.341
 30
-60.000
 70
    32
  0
VERTEX
  8
M53LXLIFT
 62
6
 10
6329.950
 20
-7685.936
 30
-60.000
 70
    32
  0
VERTEX
  8
M53LXLIFT
 62
6
 10
6328.561
 20
-7655.277
 30
-60.000
 70
    32
  0
VERTEX
  8
M53LXLIFT
 62
6
 10
6308.187
 20
-7678.820
 30
-60.000
 70
    32
  0
VERTEX
  8
M53LXLIFT
 62
6
 10
6321.417
 20
-7704.479
 30
-60.000
 70
    32
  0
VERTEX
  8
M53LXLIFT
 62
6
 10
6315.642
 20
-7708.789
 30
-60.000
 70
    32
  0
VERTEX
  8
M53LXLIFT
 62
6
 10
6300.242
 20
-7709.317
 30
-60.000
 70
    32
  0
VERTEX
  8
M53LXLIFT
 62
6
 10
6295.521
 20
-7713.718
 30
-60.000
 70
    32
  0
VERTEX
  8
M53LXLIFT
 62
6
 10
6304.191
 20
-7735.323
 30
-60.000
 70
    32
  0
VERTEX
  8
M53LXLIFT
 62
6
 10
6304.967
 20
-7749.440
 30
-60.000
 70
    32
  0
VERTEX
  8
M53LXLIFT
 62
6
 10
6303.438
 20
-7764.729
 30
-60.000
 70
    32
  0
VERTEX
  8
M53LXLIFT
 62
6
 10
6307.312
 20
-7776.972
 30
-60.000
 70
    32
  0
VERTEX
  8
M53LXLIFT
 62
6
 10
6299.089
 20
-7790.787
 30
-60.000
 70
    32
  0
VERTEX
  8
M53LXLIFT
 62
6
 10
6303.877
 20
-7795.878
 30
-60.000
 70
    32
  0
VERTEX
  8
M53LXLIFT
 62
6
 10
6325.776
 20
-7789.073
 30
-60.000
 70
    32
  0
VERTEX
  8
M53LXLIFT
 62
6
 10
6344.120
 20
-7776.916
 30
-60.000
 70
    32
  0
VERTEX
  8
M53LXLIFT
 62
6
 10
6361.512
 20
-7766.128
 30
-60.000
 70
    32
  0
VERTEX
  8
M53LXLIFT
 62
6
 10
6381.380
 20
-7756.013
 30
-60.000
 70
    32
  0
VERTEX
  8
M53LXLIFT
 62
6
 10
6384.471
 20
-7734.294
 30
-60.000
 70
    32
  0
VERTEX
  8
M53LXLIFT
 62
6
 10
6380.340
 20
-7726.410
 30
-60.000
 70
    32
  0
SEQEND
  8
M53LXLIFT
  0
POLYLINE
  8
M53LXLIFT
 62
2
 66
     1
 70
     9
  0
VERTEX
  8
M53LXLIFT
 62
2
 10
6015.028
 20
-7738.675
 30
-37.000
 70
    32
  0
VERTEX
  8
M53LXLIFT
 62
2
 10
6008.878
 20
-7725.751
 30
-37.000
 70
    32
  0
VERTEX
  8
M53LXLIFT
 62
2
 10
6004.432
 20
-7707.997
 30
-37.000
 70
    32
  0
VERTEX
  8
M53LXLIFT
 62
2
 10
5995.582
 20
-7697.040
 30
-37.000
 70
    32
  0
VERTEX
  8
M53LXLIFT
 62
2
 10
5988.797
 20
-7691.757
 30
-37.000
 70
    32
  0
VERTEX
  8
M53LXLIFT
 62
2
 10
5973.532
 20
-7695.587
 30
-37.000
 70
    32
  0
VERTEX
  8
M53LXLIFT
 62
2
 10
5950.912
 20
-7710.974
 30
-37.000
 70
    32
  0
VERTEX
  8
M53LXLIFT
 62
2
 10
5957.608
 20
-7720.019
 30
-37.000
 70
    32
  0
VERTEX
  8
M53LXLIFT
 62
2
 10
5969.403
 20
-7716.650
 30
-37.000
 70
    32
  0
VERTEX
  8
M53LXLIFT
 62
2
 10
5982.399
 20
-7712.840
 30
-37.000
 70
    32
  0
VERTEX
  8
M53LXLIFT
 62
2
 10
5989.850
 20
-7718.291
 30
-37.000
 70
    32
  0
VERTEX
  8
M53LXLIFT
 62
2
 10
5994.688
 20
-7733.149
 30
-37.000
 70
    32
  0
VERTEX
  8
M53LXLIFT
 62
2
 10
5999.117
 20
-7744.606
 30
-37.000
 70
    32
  0
VERTEX
  8
M53LXLIFT
 62
2
 10
6002.668
 20
-7747.241
 30
-37.000
 70
    32
  0
SEQEND
  8
M53LXLIFT
  0
POLYLINE
  8
M53LXLIFT
 62
2
 66
     1
 70
     9
  0
VERTEX
  8
M53LXLIFT
 62
2
 10
5992.512
 20
-7698.017
 30
-15.000
 70
    32
  0
VERTEX
  8
M53LXLIFT
 62
2
 10
5993.061
 20
-7686.267
 30
-15.000
 70
    32
  0
VERTEX
  8
M53LXLIFT
 62
2
 10
5991.457
 20
-7670.095
 30
-15.000
 70
    32
  0
VERTEX
  8
M53LXLIFT
 62
2
 10
5986.959
 20
-7664.555
 30
-15.000
 70
    32
  0
VERTEX
  8
M53LXLIFT
 62
2
 10
6006.305
 20
-7649.277
 30
-15.000
 70
    32
  0
VERTEX
  8
M53LXLIFT
 62
2
 10
5994.177
 20
-7629.911
 30
-15.000
 70
    32
  0
VERTEX
  8
M53LXLIFT
 62
2
 10
5987.351
 20
-7624.769
 30
-15.000
 70
    32
  0
VERTEX
  8
M53LXLIFT
 62
2
 10
5963.312
 20
-7632.905
 30
-15.000
 70
    32
  0
VERTEX
  8
M53LXLIFT
 62
2
 10
5939.127
 20
-7653.042
 30
-15.000
 70
    32
  0
VERTEX
  8
M53LXLIFT
 62
2
 10
5950.583
 20
-7666.135
 30
-15.000
 70
    32
  0
VERTEX
  8
M53LXLIFT
 62
2
 10
5948.015
 20
-7670.965
 30
-15.000
 70
    32
  0
VERTEX
  8
M53LXLIFT
 62
2
 10
5937.665
 20
-7677.682
 30
-15.000
 70
    32
  0
VERTEX
  8
M53LXLIFT
 62
2
 10
5944.926
 20
-7689.815
 30
-15.000
 70
    32
  0
VERTEX
  8
M53LXLIFT
 62
2
 10
5957.877
 20
-7693.192
 30
-15.000
 70
    32
  0
VERTEX
  8
M53LXLIFT
 62
2
 10
5967.844
 20
-7691.012
 30
-15.000
 70
    32
  0
VERTEX
  8
M53LXLIFT
 62
2
 10
5974.542
 20
-7694.938
 30
-15.000
 70
    32
  0
VERTEX
  8
M53LXLIFT
 62
2
 10
5984.513
 20
-7703.774
 30
-15.000
 70
    32
  0
SEQEND
  8
M53LXLIFT
  0
POLYLINE
  8
M53LXLIFT
 62
2
 66
     1
 70
     9
  0
VERTEX
  8
M53LXLIFT
 62
2
 10
5985.996
 20
-7686.703
 30
-5.000
 70
    32
  0
VERTEX
  8
M53LXLIFT
 62
2
 10
5980.589
 20
-7678.794
 30
-5.000
 70
    32
  0
VERTEX
  8
M53LXLIFT
 62
2
 10
5980.699
 20
-7663.760
 30
-5.000
 70
    32
  0
VERTEX
  8
M53LXLIFT
 62
2
 10
5985.839
 20
-7633.947
 30
-5.000
 70
    32
  0
VERTEX
  8
M53LXLIFT
 62
2
 10
5980.949
 20
-7621.471
 30
-5.000
 70
    32
  0
VERTEX
  8
M53LXLIFT
 62
2
 10
5963.636
 20
-7631.761
 30
-5.000
 70
    32
  0
VERTEX
  8
M53LXLIFT
 62
2
 10
5953.057
 20
-7637.420
 30
-5.000
 70
    32
  0
VERTEX
  8
M53LXLIFT
 62
2
 10
5937.868
 20
-7647.320
 30
-5.000
 70
    32
  0
VERTEX
  8
M53LXLIFT
 62
2
 10
5940.049
 20
-7666.563
 30
-5.000
 70
    32
  0
VERTEX
  8
M53LXLIFT
 62
2
 10
5918.188
 20
-7685.995
 30
-5.000
 70
    32
  0
VERTEX
  8
M53LXLIFT
 62
2
 10
5921.974
 20
-7691.168
 30
-5.000
 70
    32
  0
VERTEX
  8
M53LXLIFT
 62
2
 10
5942.923
 20
-7681.327
 30
-5.000
 70
    32
  0
VERTEX
  8
M53LXLIFT
 62
2
 10
5947.459
 20
-7683.847
 30
-5.000
 70
    32
  0
VERTEX
  8
M53LXLIFT
 62
2
 10
5964.204
 20
-7687.836
 30
-5.000
 70
    32
  0
VERTEX
  8
M53LXLIFT
 62
2
 10
5974.578
 20
-7694.313
 30
-5.000
 70
    32
  0
SEQEND
  8
M53LXLIFT
  0
POLYLINE
  8
M53LXLIFT
 62
2
 66
     1
 70
     9
  0
VERTEX
  8
M53LXLIFT
 62
2
 10
5975.048
 20
-7686.127
 30
5.000
 70
    32
  0
VERTEX
  8
M53LXLIFT
 62
2
 10
5964.964
 20
-7656.505
 30
5.000
 70
    32
  0
VERTEX
  8
M53LXLIFT
 62
2
 10
5978.671
 20
-7632.082
 30
5.000
 70
    32
  0
VERTEX
  8
M53LXLIFT
 62
2
 10
5972.401
 20
-7614.515
 30
5.000
 70
    32
  0
VERTEX
  8
M53LXLIFT
 62
2
 10
5954.271
 20
-7616.933
 30
5.000
 70
    32
  0
VERTEX
  8
M53LXLIFT
 62
2
 10
5944.294
 20
-7619.861
 30
5.000
 70
    32
  0
VERTEX
  8
M53LXLIFT
 62
2
 10
5937.274
 20
-7633.838
 30
5.000
 70
    32
  0
VERTEX
  8
M53LXLIFT
 62
2
 10
5924.065
 20
-7632.270
 30
5.000
 70
    32
  0
VERTEX
  8
M53LXLIFT
 62
2
 10
5923.289
 20
-7645.220
 30
5.000
 70
    32
  0
VERTEX
  8
M53LXLIFT
 62
2
 10
5930.317
 20
-7653.791
 30
5.000
 70
    32
  0
VERTEX
  8
M53LXLIFT
 62
2
 10
5926.138
 20
-7657.007
 30
5.000
 70
    32
  0
VERTEX
  8
M53LXLIFT
 62
2
 10
5920.023
 20
-7656.735
 30
5.000
 70
    32
  0
VERTEX
  8
M53LXLIFT
 62
2
 10
5916.161
 20
-7659.935
 30
5.000
 70
    32
  0
VERTEX
  8
M53LXLIFT
 62
2
 10
5924.778
 20
-7675.209
 30
5.000
 70
    32
  0
VERTEX
  8
M53LXLIFT
 62
2
 10
5926.592
 20
-7682.510
 30
5.000
 70
    32
  0
VERTEX
  8
M53LXLIFT
 62
2
 10
5937.425
 20
-7676.757
 30
5.000
 70
    32
  0
VERTEX
  8
M53LXLIFT
 62
2
 10
5944.771
 20
-7676.771
 30
5.000
 70
    32
  0
VERTEX
  8
M53LXLIFT
 62
2
 10
5970.180
 20
-7690.184
 30
5.000
 70
    32
  0
SEQEND
  8
M53LXLIFT
  0
POLYLINE
  8
M53LXLIFT
 62
1
 66
     1
 70
     9
  0
VERTEX
  8
M53LXLIFT
 62
1
 10
5914.864
 20
-7666.472
 30
25.000
 70
    32
  0
VERTEX
  8
M53LXLIFT
 62
1
 10
5906.904
 20
-7653.258
 30
25.000
 70
    32
  0
VERTEX
  8
M53LXLIFT
 62
1
 10
5910.381
 20
-7644.497
 30
25.000
 70
    32
  0
VERTEX
  8
M53LXLIFT
 62
1
 10
5916.446
 20
-7636.885
 30
25.000
 70
    32
  0
VERTEX
  8
M53LXLIFT
 62
1
 10
5924.573
 20
-7630.155
 30
25.000
 70
    32
  0
VERTEX
  8
M53LXLIFT
 62
1
 10
5930.304
 20
-7608.740
 30
25.000
 70
    32
  0
VERTEX
  8
M53LXLIFT
 62
1
 10
5947.375
 20
-7594.463
 30
25.000
 70
    32
  0
VERTEX
  8
M53LXLIFT
 62
1
 10
5952.962
 20
-7594.063
 30
25.000
 70
    32
  0
VERTEX
  8
M53LXLIFT
 62
1
 10
5963.870
 20
-7597.054
 30
25.000
 70
    32
  0
VERTEX
  8
M53LXLIFT
 62
1
 10
5966.908
 20
-7602.229
 30
25.000
 70
    32
  0
VERTEX
  8
M53LXLIFT
 62
1
 10
5971.487
 20
-7619.886
 30
25.000
 70
    32
  0
VERTEX
  8
M53LXLIFT
 62
1
 10
5968.706
 20
-7632.710
 30
25.000
 70
    32
  0
VERTEX
  8
M53LXLIFT
 62
1
 10
5961.378
 20
-7643.645
 30
25.000
 70
    32
  0
VERTEX
  8
M53LXLIFT
 62
1
 10
5960.692
 20
-7647.307
 30
25.000
 70
    32
  0
VERTEX
  8
M53LXLIFT
 62
1
 10
5963.885
 20
-7659.666
 30
25.000
 70
    32
  0
VERTEX
  8
M53LXLIFT
 62
1
 10
5959.676
 20
-7676.479
 30
25.000
 70
    32
  0
VERTEX
  8
M53LXLIFT
 62
1
 10
5951.911
 20
-7682.071
 30
25.000
 70
    32
  0
VERTEX
  8
M53LXLIFT
 62
1
 10
5946.058
 20
-7680.923
 30
25.000
 70
    32
  0
VERTEX
  8
M53LXLIFT
 62
1
 10
5939.570
 20
-7674.905
 30
25.000
 70
    32
  0
VERTEX
  8
M53LXLIFT
 62
1
 10
5934.159
 20
-7678.660
 30
25.000
 70
    32
  0
VERTEX
  8
M53LXLIFT
 62
1
 10
5921.840
 20
-7676.270
 30
25.000
 70
    32
  0
SEQEND
  8
M53LXLIFT
  0
POLYLINE
  8
M53LXLIFT
 62
2
 66
     1
 70
     9
  0
VERTEX
  8
M53LXLIFT
 62
2
 10
5920.840
 20
-7677.270
 30
15.000
 70
    32
  0
VERTEX
  8
M53LXLIFT
 62
2
 10
5933.159
 20
-7679.660
 30
15.000
 70
    32
  0
VERTEX
  8
M53LXLIFT
 62
2
 10
5938.570
 20
-7675.905
 30
15.000
 70
    32
  0
VERTEX
  8
M53LXLIFT
 62
2
 10
5945.058
 20
-7681.923
 30
15.000
 70
    32
  0
VERTEX
  8
M53LXLIFT
 62
2
 10
5950.911
 20
-7683.071
 30
15.000
 70
    32
  0
VERTEX
  8
M53LXLIFT
 62
2
 10
5958.676
 20
-7677.479
 30
15.000
 70
    32
  0
VERTEX
  8
M53LXLIFT
 62
2
 10
5962.885
 20
-7660.666
 30
15.000
 70
    32
  0
VERTEX
  8
M53LXLIFT
 62
2
 10
5959.692
 20
-7648.307
 30
15.000
 70
    32
  0
VERTEX
  8
M53LXLIFT
 62
2
 10
5960.378
 20
-7644.645
 30
15.000
 70
    32
  0
VERTEX
  8
M53LXLIFT
 62
2
 10
5967.706
 20
-7633.710
 30
15.000
 70
    32
  0
VERTEX
  8
M53LXLIFT
 62
2
 10
5970.487
 20
-7620.886
 30
15.000
 70
    32
  0
VERTEX
  8
M53LXLIFT
 62
2
 10
5965.908
 20
-7603.229
 30
15.000
 70
    32
  0
VERTEX
  8
M53LXLIFT
 62
2
 10
5962.870
 20
-7598.054
 30
15.000
 70
    32
  0
VERTEX
  8
M53LXLIFT
 62
2
 10
5951.962
 20
-7595.063
 30
15.000
 70
    32
  0
VERTEX
  8
M53LXLIFT
 62
2
 10
5946.375
 20
-7595.463
 30
15.000
 70
    32
  0
VERTEX
  8
M53LXLIFT
 62
2
 10
5929.304
 20
-7609.740
 30
15.000
 70
    32
  0
VERTEX
  8
M53LXLIFT
 62
2
 10
5923.573
 20
-7631.155
 30
15.000
 70
    32
  0
VERTEX
  8
M53LXLIFT
 62
2
 10
5915.446
 20
-7637.885
 30
15.000
 70
    32
  0
VERTEX
  8
M53LXLIFT
 62
2
 10
5909.381
 20
-7645.497
 30
15.000
 70
    32
  0
VERTEX
  8
M53LXLIFT
 62
2
 10
5905.904
 20
-7654.258
 30
15.000
 70
    32
  0
VERTEX
  8
M53LXLIFT
 62
2
 10
5913.864
 20
-7667.472
 30
15.000
 70
    32
  0
SEQEND
  8
M53LXLIFT
  0
POLYLINE
  8
M53LXLIFT
 62
2
 66
     1
 70
     9
  0
VERTEX
  8
M53LXLIFT
 62
2
 10
5932.904
 20
-7655.326
 30
-26.000
 70
    32
  0
VERTEX
  8
M53LXLIFT
 62
2
 10
5949.424
 20
-7646.555
 30
-26.000
 70
    32
  0
VERTEX
  8
M53LXLIFT
 62
2
 10
5960.995
 20
-7638.062
 30
-26.000
 70
    32
  0
VERTEX
  8
M53LXLIFT
 62
2
 10
5965.450
 20
-7633.872
 30
-26.000
 70
    32
  0
VERTEX
  8
M53LXLIFT
 62
2
 10
5980.488
 20
-7634.322
 30
-26.000
 70
    32
  0
VERTEX
  8
M53LXLIFT
 62
2
 10
5985.878
 20
-7638.325
 30
-26.000
 70
    32
  0
VERTEX
  8
M53LXLIFT
 62
2
 10
5989.854
 20
-7643.378
 30
-26.000
 70
    32
  0
VERTEX
  8
M53LXLIFT
 62
2
 10
6008.743
 20
-7649.304
 30
-26.000
 70
    32
  0
VERTEX
  8
M53LXLIFT
 62
2
 10
6007.957
 20
-7652.083
 30
-26.000
 70
    32
  0
VERTEX
  8
M53LXLIFT
 62
2
 10
6001.111
 20
-7654.978
 30
-26.000
 70
    32
  0
VERTEX
  8
M53LXLIFT
 62
2
 10
5996.337
 20
-7655.345
 30
-26.000
 70
    32
  0
VERTEX
  8
M53LXLIFT
 62
2
 10
5990.654
 20
-7658.474
 30
-26.000
 70
    32
  0
VERTEX
  8
M53LXLIFT
 62
2
 10
5976.785
 20
-7677.453
 30
-26.000
 70
    32
  0
VERTEX
  8
M53LXLIFT
 62
2
 10
5976.839
 20
-7681.362
 30
-26.000
 70
    32
  0
VERTEX
  8
M53LXLIFT
 62
2
 10
5982.921
 20
-7688.362
 30
-26.000
 70
    32
  0
VERTEX
  8
M53LXLIFT
 62
2
 10
5988.287
 20
-7689.529
 30
-26.000
 70
    32
  0
VERTEX
  8
M53LXLIFT
 62
2
 10
5999.391
 20
-7700.036
 30
-26.000
 70
    32
  0
VERTEX
  8
M53LXLIFT
 62
2
 10
5999.154
 20
-7714.476
 30
-26.000
 70
    32
  0
VERTEX
  8
M53LXLIFT
 62
2
 10
6010.608
 20
-7737.999
 30
-26.000
 70
    32
  0
VERTEX
  8
M53LXLIFT
 62
2
 10
5996.011
 20
-7749.948
 30
-26.000
 70
    32
  0
VERTEX
  8
M53LXLIFT
 62
2
 10
5990.308
 20
-7745.081
 30
-26.000
 70
    32
  0
VERTEX
  8
M53LXLIFT
 62
2
 10
5992.963
 20
-7742.011
 30
-26.000
 70
    32
  0
VERTEX
  8
M53LXLIFT
 62
2
 10
5985.177
 20
-7708.958
 30
-26.000
 70
    32
  0
VERTEX
  8
M53LXLIFT
 62
2
 10
5969.337
 20
-7706.690
 30
-26.000
 70
    32
  0
VERTEX
  8
M53LXLIFT
 62
2
 10
5963.175
 20
-7706.224
 30
-26.000
 70
    32
  0
VERTEX
  8
M53LXLIFT
 62
2
 10
5948.586
 20
-7695.456
 30
-26.000
 70
    32
  0
VERTEX
  8
M53LXLIFT
 62
2
 10
5943.257
 20
-7693.602
 30
-26.000
 70
    32
  0
VERTEX
  8
M53LXLIFT
 62
2
 10
5938.303
 20
-7682.363
 30
-26.000
 70
    32
  0
VERTEX
  8
M53LXLIFT
 62
2
 10
5951.941
 20
-7672.224
 30
-26.000
 70
    32
  0
VERTEX
  8
M53LXLIFT
 62
2
 10
5946.762
 20
-7659.945
 30
-26.000
 70
    32
  0
VERTEX
  8
M53LXLIFT
 62
2
 10
5942.146
 20
-7660.525
 30
-26.000
 70
    32
  0
VERTEX
  8
M53LXLIFT
 62
2
 10
5938.578
 20
-7662.958
 30
-26.000
 70
    32
  0
SEQEND
  8
M53LXLIFT
  0
POLYLINE
  8
M53LXLIFT
 62
2
 66
     1
 70
     9
  0
VERTEX
  8
M53LXLIFT
 62
2
 10
6010.417
 20
-7741.959
 30
-48.000
 70
    32
  0
VERTEX
  8
M53LXLIFT
 62
2
 10
6014.725
 20
-7733.836
 30
-48.000
 70
    32
  0
VERTEX
  8
M53LXLIFT
 62
2
 10
6011.247
 20
-7729.195
 30
-48.000
 70
    32
  0
VERTEX
  8
M53LXLIFT
 62
2
 10
6013.148
 20
-7718.802
 30
-48.000
 70
    32
  0
VERTEX
  8
M53LXLIFT
 62
2
 10
6012.116
 20
-7708.259
 30
-48.000
 70
    32
  0
VERTEX
  8
M53LXLIFT
 62
2
 10
6014.869
 20
-7698.442
 30
-48.000
 70
    32
  0
VERTEX
  8
M53LXLIFT
 62
2
 10
6012.534
 20
-7694.926
 30
-48.000
 70
    32
  0
VERTEX
  8
M53LXLIFT
 62
2
 10
5991.266
 20
-7688.217
 30
-48.000
 70
    32
  0
VERTEX
  8
M53LXLIFT
 62
2
 10
5980.368
 20
-7688.311
 30
-48.000
 70
    32
  0
VERTEX
  8
M53LXLIFT
 62
2
 10
5976.558
 20
-7686.952
 30
-48.000
 70
    32
  0
VERTEX
  8
M53LXLIFT
 62
2
 10
5965.161
 20
-7697.724
 30
-48.000
 70
    32
  0
VERTEX
  8
M53LXLIFT
 62
2
 10
5965.880
 20
-7703.500
 30
-48.000
 70
    32
  0
VERTEX
  8
M53LXLIFT
 62
2
 10
5970.208
 20
-7711.107
 30
-48.000
 70
    32
  0
VERTEX
  8
M53LXLIFT
 62
2
 10
5969.779
 20
-7715.002
 30
-48.000
 70
    32
  0
VERTEX
  8
M53LXLIFT
 62
2
 10
5979.999
 20
-7714.422
 30
-48.000
 70
    32
  0
VERTEX
  8
M53LXLIFT
 62
2
 10
5995.839
 20
-7714.105
 30
-48.000
 70
    32
  0
VERTEX
  8
M53LXLIFT
 62
2
 10
6000.612
 20
-7731.596
 30
-48.000
 70
    32
  0
VERTEX
  8
M53LXLIFT
 62
2
 10
5996.996
 20
-7738.131
 30
-48.000
 70
    32
  0
VERTEX
  8
M53LXLIFT
 62
2
 10
6001.455
 20
-7744.123
 30
-48.000
 70
    32
  0
SEQEND
  8
M53LXLIFT
  0
POLYLINE
  8
M53LXLIFT
 62
2
 66
     1
 70
     9
  0
VERTEX
  8
M53LXLIFT
 62
2
 10
6043.212
 20
-7697.620
 30
-60.000
 70
    32
  0
VERTEX
  8
M53LXLIFT
 62
2
 10
6048.679
 20
-7704.945
 30
-60.000
 70
    32
  0
VERTEX
  8
M53LXLIFT
 62
2
 10
6039.849
 20
-7715.155
 30
-60.000
 70
    32
  0
VERTEX
  8
M53LXLIFT
 62
2
 10
6030.680
 20
-7719.915
 30
-60.000
 70
    32
  0
VERTEX
  8
M53LXLIFT
 62
2
 10
6016.921
 20
-7733.366
 30
-60.000
 70
    32
  0
VERTEX
  8
M53LXLIFT
 62
2
 10
6004.965
 20
-7742.620
 30
-60.000
 70
    32
  0
VERTEX
  8
M53LXLIFT
 62
2
 10
5996.169
 20
-7730.541
 30
-60.000
 70
    32
  0
VERTEX
  8
M53LXLIFT
 62
2
 10
5988.073
 20
-7711.908
 30
-60.000
 70
    32
  0
VERTEX
  8
M53LXLIFT
 62
2
 10
6003.773
 20
-7702.821
 30
-60.000
 70
    32
  0
VERTEX
  8
M53LXLIFT
 62
2
 10
6019.489
 20
-7717.411
 30
-60.000
 70
    32
  0
VERTEX
  8
M53LXLIFT
 62
2
 10
6025.586
 20
-7710.886
 30
-60.000
 70
    32
  0
VERTEX
  8
M53LXLIFT
 62
2
 10
6033.940
 20
-7693.574
 30
-60.000
 70
    32
  0
SEQEND
  8
M53LXLIFT
  0
POLYLINE
  8
M53LXLIFT
 62
7
 66
     1
 70
     9
  0
VERTEX
  8
M53LXLIFT
 62
7
 10
5884.802
 20
-7866.733
 30
47.000
 70
    32
  0
VERTEX
  8
M53LXLIFT
 62
7
 10
5873.142
 20
-7866.861
 30
47.000
 70
    32
  0
VERTEX
  8
M53LXLIFT
 62
7
 10
5867.072
 20
-7857.796
 30
47.000
 70
    32
  0
VERTEX
  8
M53LXLIFT
 62
7
 10
5852.839
 20
-7845.001
 30
47.000
 70
    32
  0
VERTEX
  8
M53LXLIFT
 62
7
 10
5846.905
 20
-7828.219
 30
47.000
 70
    32
  0
VERTEX
  8
M53LXLIFT
 62
7
 10
5868.144
 20
-7812.286
 30
47.000
 70
    32
  0
VERTEX
  8
M53LXLIFT
 62
7
 10
5869.666
 20
-7822.276
 30
47.000
 70
    32
  0
VERTEX
  8
M53LXLIFT
 62
7
 10
5873.326
 20
-7819.387
 30
47.000
 70
    32
  0
VERTEX
  8
M53LXLIFT
 62
7
 10
5874.813
 20
-7819.934
 30
47.000
 70
    32
  0
VERTEX
  8
M53LXLIFT
 62
7
 10
5875.821
 20
-7823.552
 30
47.000
 70
    32
  0
VERTEX
  8
M53LXLIFT
 62
7
 10
5875.585
 20
-7829.492
 30
47.000
 70
    32
  0
VERTEX
  8
M53LXLIFT
 62
7
 10
5885.576
 20
-7845.273
 30
47.000
 70
    32
  0
SEQEND
  8
M53LXLIFT
  0
POLYLINE
  8
M53LXLIFT
 62
1
 66
     1
 70
     9
  0
VERTEX
  8
M53LXLIFT
 62
1
 10
5832.591
 20
-7821.698
 30
80.000
 70
    32
  0
VERTEX
  8
M53LXLIFT
 62
1
 10
5832.889
 20
-7817.583
 30
80.000
 70
    32
  0
VERTEX
  8
M53LXLIFT
 62
1
 10
5841.209
 20
-7812.263
 30
80.000
 70
    32
  0
VERTEX
  8
M53LXLIFT
 62
1
 10
5846.837
 20
-7811.043
 30
80.000
 70
    32
  0
VERTEX
  8
M53LXLIFT
 62
1
 10
5855.627
 20
-7805.168
 30
80.000
 70
    32
  0
VERTEX
  8
M53LXLIFT
 62
1
 10
5864.785
 20
-7817.780
 30
80.000
 70
    32
  0
VERTEX
  8
M53LXLIFT
 62
1
 10
5866.663
 20
-7824.777
 30
80.000
 70
    32
  0
VERTEX
  8
M53LXLIFT
 62
1
 10
5869.443
 20
-7827.443
 30
80.000
 70
    32
  0
VERTEX
  8
M53LXLIFT
 62
1
 10
5868.141
 20
-7831.520
 30
80.000
 70
    32
  0
VERTEX
  8
M53LXLIFT
 62
1
 10
5860.996
 20
-7845.425
 30
80.000
 70
    32
  0
VERTEX
  8
M53LXLIFT
 62
1
 10
5855.556
 20
-7847.812
 30
80.000
 70
    32
  0
VERTEX
  8
M53LXLIFT
 62
1
 10
5846.557
 20
-7842.673
 30
80.000
 70
    32
  0
SEQEND
  8
M53LXLIFT
  0
POLYLINE
  8
M53LXLIFT
 62
7
 66
     1
 70
     9
  0
VERTEX
  8
M53LXLIFT
 62
7
 10
5845.557
 20
-7843.673
 30
70.000
 70
    32
  0
VERTEX
  8
M53LXLIFT
 62
7
 10
5854.556
 20
-7848.812
 30
70.000
 70
    32
  0
VERTEX
  8
M53LXLIFT
 62
7
 10
5859.996
 20
-7846.425
 30
70.000
 70
    32
  0
VERTEX
  8
M53LXLIFT
 62
7
 10
5867.141
 20
-7832.520
 30
70.000
 70
    32
  0
VERTEX
  8
M53LXLIFT
 62
7
 10
5868.443
 20
-7828.443
 30
70.000
 70
    32
  0
VERTEX
  8
M53LXLIFT
 62
7
 10
5865.663
 20
-7825.777
 30
70.000
 70
    32
  0
VERTEX
  8
M53LXLIFT
 62
7
 10
5863.785
 20
-7818.780
 30
70.000
 70
    32
  0
VERTEX
  8
M53LXLIFT
 62
7
 10
5854.627
 20
-7806.168
 30
70.000
 70
    32
  0
VERTEX
  8
M53LXLIFT
 62
7
 10
5845.837
 20
-7812.043
 30
70.000
 70
    32
  0
VERTEX
  8
M53LXLIFT
 62
7
 10
5840.209
 20
-7813.263
 30
70.000
 70
    32
  0
VERTEX
  8
M53LXLIFT
 62
7
 10
5831.889
 20
-7818.583
 30
70.000
 70
    32
  0
VERTEX
  8
M53LXLIFT
 62
7
 10
5831.591
 20
-7822.698
 30
70.000
 70
    32
  0
SEQEND
  8
M53LXLIFT
  0
POLYLINE
  8
M53LXLIFT
 62
7
 66
     1
 70
     9
  0
VERTEX
  8
M53LXLIFT
 62
7
 10
5877.685
 20
-7819.584
 30
36.000
 70
    32
  0
VERTEX
  8
M53LXLIFT
 62
7
 10
5883.699
 20
-7826.269
 30
36.000
 70
    32
  0
VERTEX
  8
M53LXLIFT
 62
7
 10
5891.501
 20
-7837.453
 30
36.000
 70
    32
  0
VERTEX
  8
M53LXLIFT
 62
7
 10
5896.319
 20
-7847.490
 30
36.000
 70
    32
  0
VERTEX
  8
M53LXLIFT
 62
7
 10
5895.620
 20
-7860.874
 30
36.000
 70
    32
  0
VERTEX
  8
M53LXLIFT
 62
7
 10
5884.270
 20
-7869.469
 30
36.000
 70
    32
  0
VERTEX
  8
M53LXLIFT
 62
7
 10
5872.745
 20
-7853.720
 30
36.000
 70
    32
  0
VERTEX
  8
M53LXLIFT
 62
7
 10
5864.778
 20
-7853.297
 30
36.000
 70
    32
  0
VERTEX
  8
M53LXLIFT
 62
7
 10
5854.862
 20
-7836.757
 30
36.000
 70
    32
  0
SEQEND
  8
M53LXLIFT
  0
POLYLINE
  8
M53LXLIFT
 62
7
 66
     1
 70
     9
  0
VERTEX
  8
M53LXLIFT
 62
7
 10
5869.072
 20
-7849.126
 30
58.000
 70
    32
  0
VERTEX
  8
M53LXLIFT
 62
7
 10
5870.262
 20
-7836.981
 30
58.000
 70
    32
  0
VERTEX
  8
M53LXLIFT
 62
7
 10
5872.936
 20
-7831.681
 30
58.000
 70
    32
  0
VERTEX
  8
M53LXLIFT
 62
7
 10
5871.545
 20
-7826.612
 30
58.000
 70
    32
  0
VERTEX
  8
M53LXLIFT
 62
7
 10
5854.039
 20
-7814.871
 30
58.000
 70
    32
  0
VERTEX
  8
M53LXLIFT
 62
7
 10
5851.559
 20
-7816.992
 30
58.000
 70
    32
  0
VERTEX
  8
M53LXLIFT
 62
7
 10
5851.271
 20
-7824.687
 30
58.000
 70
    32
  0
VERTEX
  8
M53LXLIFT
 62
7
 10
5846.189
 20
-7832.056
 30
58.000
 70
    32
  0
VERTEX
  8
M53LXLIFT
 62
7
 10
5844.490
 20
-7837.952
 30
58.000
 70
    32
  0
VERTEX
  8
M53LXLIFT
 62
7
 10
5850.601
 20
-7844.595
 30
58.000
 70
    32
  0
VERTEX
  8
M53LXLIFT
 62
7
 10
5861.072
 20
-7855.461
 30
58.000
 70
    32
  0
SEQEND
  8
M53LXLIFT
  0
POLYLINE
  8
M53LXLIFT
 62
13
 66
     1
 70
     9
  0
VERTEX
  8
M53LXLIFT
 62
13
 10
5907.395
 20
-7873.069
 30
40.000
 70
    32
  0
VERTEX
  8
M53LXLIFT
 62
13
 10
5921.320
 20
-7889.672
 30
40.000
 70
    32
  0
VERTEX
  8
M53LXLIFT
 62
13
 10
5935.466
 20
-7904.799
 30
40.000
 70
    32
  0
VERTEX
  8
M53LXLIFT
 62
13
 10
5916.919
 20
-7928.365
 30
40.000
 70
    32
  0
VERTEX
  8
M53LXLIFT
 62
13
 10
5920.964
 20
-7939.153
 30
40.000
 70
    32
  0
VERTEX
  8
M53LXLIFT
 62
13
 10
5920.397
 20
-7942.526
 30
40.000
 70
    32
  0
VERTEX
  8
M53LXLIFT
 62
13
 10
5913.047
 20
-7942.496
 30
40.000
 70
    32
  0
VERTEX
  8
M53LXLIFT
 62
13
 10
5898.385
 20
-7922.829
 30
40.000
 70
    32
  0
VERTEX
  8
M53LXLIFT
 62
13
 10
5896.903
 20
-7891.114
 30
40.000
 70
    32
  0
VERTEX
  8
M53LXLIFT
 62
13
 10
5895.372
 20
-7885.793
 30
40.000
 70
    32
  0
SEQEND
  8
M53LXLIFT
  0
POLYLINE
  8
M53LXLIFT
 62
13
 66
     1
 70
     9
  0
VERTEX
  8
M53LXLIFT
 62
13
 10
5905.313
 20
-7887.663
 30
29.000
 70
    32
  0
VERTEX
  8
M53LXLIFT
 62
13
 10
5912.756
 20
-7898.235
 30
29.000
 70
    32
  0
VERTEX
  8
M53LXLIFT
 62
13
 10
5900.889
 20
-7915.975
 30
29.000
 70
    32
  0
VERTEX
  8
M53LXLIFT
 62
13
 10
5904.490
 20
-7923.846
 30
29.000
 70
    32
  0
VERTEX
  8
M53LXLIFT
 62
13
 10
5907.819
 20
-7926.166
 30
29.000
 70
    32
  0
VERTEX
  8
M53LXLIFT
 62
13
 10
5916.865
 20
-7936.949
 30
29.000
 70
    32
  0
VERTEX
  8
M53LXLIFT
 62
13
 10
5921.090
 20
-7931.050
 30
29.000
 70
    32
  0
VERTEX
  8
M53LXLIFT
 62
13
 10
5935.442
 20
-7913.951
 30
29.000
 70
    32
  0
VERTEX
  8
M53LXLIFT
 62
13
 10
5939.651
 20
-7908.175
 30
29.000
 70
    32
  0
VERTEX
  8
M53LXLIFT
 62
13
 10
5917.895
 20
-7879.231
 30
29.000
 70
    32
  0
SEQEND
  8
M53LXLIFT
  0
POLYLINE
  8
M53LXLIFT
 62
13
 66
     1
 70
     9
  0
VERTEX
  8
M53LXLIFT
 62
13
 10
5945.228
 20
-7952.521
 30
62.000
 70
    32
  0
VERTEX
  8
M53LXLIFT
 62
13
 10
5945.764
 20
-7943.670
 30
62.000
 70
    32
  0
VERTEX
  8
M53LXLIFT
 62
13
 10
5937.879
 20
-7929.630
 30
62.000
 70
    32
  0
VERTEX
  8
M53LXLIFT
 62
13
 10
5919.340
 20
-7911.367
 30
62.000
 70
    32
  0
VERTEX
  8
M53LXLIFT
 62
13
 10
5908.670
 20
-7891.532
 30
62.000
 70
    32
  0
VERTEX
  8
M53LXLIFT
 62
13
 10
5895.299
 20
-7885.803
 30
62.000
 70
    32
  0
VERTEX
  8
M53LXLIFT
 62
13
 10
5888.015
 20
-7877.839
 30
62.000
 70
    32
  0
VERTEX
  8
M53LXLIFT
 62
13
 10
5871.774
 20
-7881.785
 30
62.000
 70
    32
  0
VERTEX
  8
M53LXLIFT
 62
13
 10
5874.864
 20
-7887.252
 30
62.000
 70
    32
  0
VERTEX
  8
M53LXLIFT
 62
13
 10
5881.756
 20
-7888.229
 30
62.000
 70
    32
  0
VERTEX
  8
M53LXLIFT
 62
13
 10
5891.913
 20
-7901.059
 30
62.000
 70
    32
  0
VERTEX
  8
M53LXLIFT
 62
13
 10
5888.022
 20
-7919.066
 30
62.000
 70
    32
  0
VERTEX
  8
M53LXLIFT
 62
13
 10
5891.450
 20
-7929.497
 30
62.000
 70
    32
  0
VERTEX
  8
M53LXLIFT
 62
13
 10
5897.127
 20
-7936.889
 30
62.000
 70
    32
  0
VERTEX
  8
M53LXLIFT
 62
13
 10
5910.153
 20
-7946.339
 30
62.000
 70
    32
  0
VERTEX
  8
M53LXLIFT
 62
13
 10
5917.771
 20
-7961.657
 30
62.000
 70
    32
  0
VERTEX
  8
M53LXLIFT
 62
13
 10
5922.167
 20
-7966.830
 30
62.000
 70
    32
  0
SEQEND
  8
M53LXLIFT
  0
POLYLINE
  8
M53LXLIFT
 62
1
 66
     1
 70
     9
  0
VERTEX
  8
M53LXLIFT
 62
1
 10
5926.742
 20
-7967.859
 30
81.000
 70
    32
  0
VERTEX
  8
M53LXLIFT
 62
1
 10
5909.597
 20
-7953.935
 30
81.000
 70
    32
  0
VERTEX
  8
M53LXLIFT
 62
1
 10
5895.117
 20
-7946.442
 30
81.000
 70
    32
  0
VERTEX
  8
M53LXLIFT
 62
1
 10
5883.573
 20
-7909.966
 30
81.000
 70
    32
  0
VERTEX
  8
M53LXLIFT
 62
1
 10
5873.819
 20
-7891.388
 30
81.000
 70
    32
  0
VERTEX
  8
M53LXLIFT
 62
1
 10
5877.451
 20
-7881.195
 30
81.000
 70
    32
  0
VERTEX
  8
M53LXLIFT
 62
1
 10
5880.898
 20
-7879.806
 30
81.000
 70
    32
  0
VERTEX
  8
M53LXLIFT
 62
1
 10
5887.903
 20
-7881.715
 30
81.000
 70
    32
  0
VERTEX
  8
M53LXLIFT
 62
1
 10
5900.476
 20
-7896.970
 30
81.000
 70
    32
  0
VERTEX
  8
M53LXLIFT
 62
1
 10
5903.277
 20
-7895.286
 30
81.000
 70
    32
  0
VERTEX
  8
M53LXLIFT
 62
1
 10
5912.962
 20
-7905.460
 30
81.000
 70
    32
  0
VERTEX
  8
M53LXLIFT
 62
1
 10
5916.675
 20
-7913.958
 30
81.000
 70
    32
  0
VERTEX
  8
M53LXLIFT
 62
1
 10
5928.672
 20
-7918.896
 30
81.000
 70
    32
  0
VERTEX
  8
M53LXLIFT
 62
1
 10
5942.859
 20
-7932.776
 30
81.000
 70
    32
  0
VERTEX
  8
M53LXLIFT
 62
1
 10
5950.621
 20
-7953.109
 30
81.000
 70
    32
  0
SEQEND
  8
M53LXLIFT
  0
POLYLINE
  8
M53LXLIFT
 62
13
 66
     1
 70
     9
  0
VERTEX
  8
M53LXLIFT
 62
13
 10
5949.621
 20
-7954.109
 30
71.000
 70
    32
  0
VERTEX
  8
M53LXLIFT
 62
13
 10
5941.859
 20
-7933.776
 30
71.000
 70
    32
  0
VERTEX
  8
M53LXLIFT
 62
13
 10
5927.672
 20
-7919.896
 30
71.000
 70
    32
  0
VERTEX
  8
M53LXLIFT
 62
13
 10
5915.675
 20
-7914.958
 30
71.000
 70
    32
  0
VERTEX
  8
M53LXLIFT
 62
13
 10
5911.962
 20
-7906.460
 30
71.000
 70
    32
  0
VERTEX
  8
M53LXLIFT
 62
13
 10
5902.277
 20
-7896.286
 30
71.000
 70
    32
  0
VERTEX
  8
M53LXLIFT
 62
13
 10
5899.476
 20
-7897.970
 30
71.000
 70
    32
  0
VERTEX
  8
M53LXLIFT
 62
13
 10
5886.903
 20
-7882.715
 30
71.000
 70
    32
  0
VERTEX
  8
M53LXLIFT
 62
13
 10
5879.898
 20
-7880.806
 30
71.000
 70
    32
  0
VERTEX
  8
M53LXLIFT
 62
13
 10
5876.451
 20
-7882.195
 30
71.000
 70
    32
  0
VERTEX
  8
M53LXLIFT
 62
13
 10
5872.819
 20
-7892.388
 30
71.000
 70
    32
  0
VERTEX
  8
M53LXLIFT
 62
13
 10
5882.573
 20
-7910.966
 30
71.000
 70
    32
  0
VERTEX
  8
M53LXLIFT
 62
13
 10
5894.117
 20
-7947.442
 30
71.000
 70
    32
  0
VERTEX
  8
M53LXLIFT
 62
13
 10
5908.597
 20
-7954.935
 30
71.000
 70
    32
  0
VERTEX
  8
M53LXLIFT
 62
13
 10
5925.742
 20
-7968.859
 30
71.000
 70
    32
  0
SEQEND
  8
M53LXLIFT
  0
POLYLINE
  8
M53LXLIFT
 62
13
 66
     1
 70
     9
  0
VERTEX
  8
M53LXLIFT
 62
13
 10
5903.215
 20
-7924.045
 30
18.000
 70
    32
  0
VERTEX
  8
M53LXLIFT
 62
13
 10
5913.047
 20
-7921.151
 30
18.000
 70
    32
  0
VERTEX
  8
M53LXLIFT
 62
13
 10
5921.374
 20
-7922.166
 30
18.000
 70
    32
  0
VERTEX
  8
M53LXLIFT
 62
13
 10
5925.400
 20
-7924.130
 30
18.000
 70
    32
  0
VERTEX
  8
M53LXLIFT
 62
13
 10
5942.267
 20
-7912.235
 30
18.000
 70
    32
  0
VERTEX
  8
M53LXLIFT
 62
13
 10
5942.704
 20
-7905.953
 30
18.000
 70
    32
  0
VERTEX
  8
M53LXLIFT
 62
13
 10
5932.909
 20
-7891.686
 30
18.000
 70
    32
  0
VERTEX
  8
M53LXLIFT
 62
13
 10
5920.342
 20
-7896.344
 30
18.000
 70
    32
  0
VERTEX
  8
M53LXLIFT
 62
13
 10
5907.144
 20
-7904.172
 30
18.000
 70
    32
  0
VERTEX
  8
M53LXLIFT
 62
13
 10
5903.154
 20
-7907.497
 30
18.000
 70
    32
  0
VERTEX
  8
M53LXLIFT
 62
13
 10
5900.980
 20
-7913.627
 30
18.000
 70
    32
  0
VERTEX
  8
M53LXLIFT
 62
13
 10
5895.899
 20
-7917.091
 30
18.000
 70
    32
  0
SEQEND
  8
M53LXLIFT
  0
POLYLINE
  8
M53LXLIFT
 62
13
 66
     1
 70
     9
  0
VERTEX
  8
M53LXLIFT
 62
13
 10
5905.182
 20
-7876.021
 30
51.000
 70
    32
  0
VERTEX
  8
M53LXLIFT
 62
13
 10
5900.639
 20
-7884.559
 30
51.000
 70
    32
  0
VERTEX
  8
M53LXLIFT
 62
13
 10
5894.821
 20
-7888.369
 30
51.000
 70
    32
  0
VERTEX
  8
M53LXLIFT
 62
13
 10
5895.055
 20
-7897.340
 30
51.000
 70
    32
  0
VERTEX
  8
M53LXLIFT
 62
13
 10
5899.717
 20
-7902.535
 30
51.000
 70
    32
  0
VERTEX
  8
M53LXLIFT
 62
13
 10
5896.038
 20
-7909.573
 30
51.000
 70
    32
  0
VERTEX
  8
M53LXLIFT
 62
13
 10
5897.521
 20
-7919.809
 30
51.000
 70
    32
  0
VERTEX
  8
M53LXLIFT
 62
13
 10
5892.037
 20
-7926.313
 30
51.000
 70
    32
  0
VERTEX
  8
M53LXLIFT
 62
13
 10
5905.527
 20
-7943.459
 30
51.000
 70
    32
  0
VERTEX
  8
M53LXLIFT
 62
13
 10
5912.254
 20
-7946.712
 30
51.000
 70
    32
  0
VERTEX
  8
M53LXLIFT
 62
13
 10
5915.031
 20
-7953.501
 30
51.000
 70
    32
  0
VERTEX
  8
M53LXLIFT
 62
13
 10
5929.281
 20
-7964.976
 30
51.000
 70
    32
  0
VERTEX
  8
M53LXLIFT
 62
13
 10
5936.028
 20
-7964.080
 30
51.000
 70
    32
  0
VERTEX
  8
M53LXLIFT
 62
13
 10
5947.553
 20
-7956.759
 30
51.000
 70
    32
  0
VERTEX
  8
M53LXLIFT
 62
13
 10
5958.759
 20
-7934.979
 30
51.000
 70
    32
  0
VERTEX
  8
M53LXLIFT
 62
13
 10
5947.211
 20
-7923.925
 30
51.000
 70
    32
  0
VERTEX
  8
M53LXLIFT
 62
13
 10
5923.502
 20
-7935.131
 30
51.000
 70
    32
  0
VERTEX
  8
M53LXLIFT
 62
13
 10
5919.546
 20
-7931.053
 30
51.000
 70
    32
  0
VERTEX
  8
M53LXLIFT
 62
13
 10
5913.002
 20
-7924.619
 30
51.000
 70
    32
  0
VERTEX
  8
M53LXLIFT
 62
13
 10
5914.984
 20
-7919.581
 30
51.000
 70
    32
  0
VERTEX
  8
M53LXLIFT
 62
13
 10
5925.055
 20
-7903.853
 30
51.000
 70
    32
  0
VERTEX
  8
M53LXLIFT
 62
13
 10
5916.814
 20
-7891.366
 30
51.000
 70
    32
  0
SEQEND
  8
M53LXLIFT
  0
POLYLINE
  8
M53LXLIFT
 62
13
 66
     1
 70
     9
  0
VERTEX
  8
M53LXLIFT
 62
13
 10
5895.899
 20
-7917.091
 30
8.000
 70
    32
  0
VERTEX
  8
M53LXLIFT
 62
13
 10
5900.980
 20
-7913.627
 30
8.000
 70
    32
  0
VERTEX
  8
M53LXLIFT
 62
13
 10
5903.154
 20
-7907.497
 30
8.000
 70
    32
  0
VERTEX
  8
M53LXLIFT
 62
13
 10
5907.144
 20
-7904.172
 30
8.000
 70
    32
  0
VERTEX
  8
M53LXLIFT
 62
13
 10
5920.342
 20
-7896.344
 30
8.000
 70
    32
  0
VERTEX
  8
M53LXLIFT
 62
13
 10
5932.909
 20
-7891.686
 30
8.000
 70
    32
  0
VERTEX
  8
M53LXLIFT
 62
13
 10
5942.704
 20
-7905.953
 30
8.000
 70
    32
  0
VERTEX
  8
M53LXLIFT
 62
13
 10
5942.267
 20
-7912.235
 30
8.000
 70
    32
  0
VERTEX
  8
M53LXLIFT
 62
13
 10
5925.400
 20
-7924.130
 30
8.000
 70
    32
  0
VERTEX
  8
M53LXLIFT
 62
13
 10
5921.374
 20
-7922.166
 30
8.000
 70
    32
  0
VERTEX
  8
M53LXLIFT
 62
13
 10
5913.047
 20
-7921.151
 30
8.000
 70
    32
  0
VERTEX
  8
M53LXLIFT
 62
13
 10
5903.215
 20
-7924.045
 30
8.000
 70
    32
  0
SEQEND
  8
M53LXLIFT
  0
POLYLINE
  8
M53LXLIFT
 62
3
 66
     1
 70
     9
  0
VERTEX
  8
M53LXLIFT
 62
3
 10
6041.935
 20
-8061.435
 30
-45.000
 70
    32
  0
VERTEX
  8
M53LXLIFT
 62
3
 10
6055.629
 20
-8062.350
 30
-45.000
 70
    32
  0
VERTEX
  8
M53LXLIFT
 62
3
 10
6059.595
 20
-8046.875
 30
-45.000
 70
    32
  0
VERTEX
  8
M53LXLIFT
 62
3
 10
6046.219
 20
-8018.583
 30
-45.000
 70
    32
  0
VERTEX
  8
M53LXLIFT
 62
3
 10
6042.916
 20
-8012.837
 30
-45.000
 70
    32
  0
VERTEX
  8
M53LXLIFT
 62
3
 10
6033.788
 20
-8005.350
 30
-45.000
 70
    32
  0
VERTEX
  8
M53LXLIFT
 62
3
 10
6026.073
 20
-8015.512
 30
-45.000
 70
    32
  0
VERTEX
  8
M53LXLIFT
 62
3
 10
6031.221
 20
-8024.695
 30
-45.000
 70
    32
  0
VERTEX
  8
M53LXLIFT
 62
3
 10
6035.134
 20
-8043.245
 30
-45.000
 70
    32
  0
SEQEND
  8
M53LXLIFT
  0
POLYLINE
  8
M53LXLIFT
 62
1
 66
     1
 70
     9
  0
VERTEX
  8
M53LXLIFT
 62
1
 10
6043.473
 20
-8005.048
 30
-26.000
 70
    32
  0
VERTEX
  8
M53LXLIFT
 62
1
 10
6046.063
 20
-8020.999
 30
-26.000
 70
    32
  0
VERTEX
  8
M53LXLIFT
 62
1
 10
6051.307
 20
-8033.277
 30
-26.000
 70
    32
  0
VERTEX
  8
M53LXLIFT
 62
1
 10
6061.135
 20
-8047.220
 30
-26.000
 70
    32
  0
VERTEX
  8
M53LXLIFT
 62
1
 10
6069.339
 20
-8049.076
 30
-26.000
 70
    32
  0
VERTEX
  8
M53LXLIFT
 62
1
 10
6069.238
 20
-8061.332
 30
-26.000
 70
    32
  0
VERTEX
  8
M53LXLIFT
 62
1
 10
6062.997
 20
-8067.400
 30
-26.000
 70
    32
  0
VERTEX
  8
M53LXLIFT
 62
1
 10
6041.337
 20
-8058.268
 30
-26.000
 70
    32
  0
VERTEX
  8
M53LXLIFT
 62
1
 10
6036.594
 20
-8051.606
 30
-26.000
 70
    32
  0
VERTEX
  8
M53LXLIFT
 62
1
 10
6033.056
 20
-8039.282
 30
-26.000
 70
    32
  0
VERTEX
  8
M53LXLIFT
 62
1
 10
6024.969
 20
-8019.068
 30
-26.000
 70
    32
  0
VERTEX
  8
M53LXLIFT
 62
1
 10
6027.249
 20
-8006.965
 30
-26.000
 70
    32
  0
SEQEND
  8
M53LXLIFT
  0
POLYLINE
  8
M53LXLIFT
 62
3
 66
     1
 70
     9
  0
VERTEX
  8
M53LXLIFT
 62
3
 10
6026.249
 20
-8007.965
 30
-36.000
 70
    32
  0
VERTEX
  8
M53LXLIFT
 62
3
 10
6023.969
 20
-8020.068
 30
-36.000
 70
    32
  0
VERTEX
  8
M53LXLIFT
 62
3
 10
6032.056
 20
-8040.282
 30
-36.000
 70
    32
  0
VERTEX
  8
M53LXLIFT
 62
3
 10
6035.594
 20
-8052.606
 30
-36.000
 70
    32
  0
VERTEX
  8
M53LXLIFT
 62
3
 10
6040.337
 20
-8059.268
 30
-36.000
 70
    32
  0
VERTEX
  8
M53LXLIFT
 62
3
 10
6061.997
 20
-8068.400
 30
-36.000
 70
    32
  0
VERTEX
  8
M53LXLIFT
 62
3
 10
6068.238
 20
-8062.332
 30
-36.000
 70
    32
  0
VERTEX
  8
M53LXLIFT
 62
3
 10
6068.339
 20
-8050.076
 30
-36.000
 70
    32
  0
VERTEX
  8
M53LXLIFT
 62
3
 10
6060.135
 20
-8048.220
 30
-36.000
 70
    32
  0
VERTEX
  8
M53LXLIFT
 62
3
 10
6050.307
 20
-8034.277
 30
-36.000
 70
    32
  0
VERTEX
  8
M53LXLIFT
 62
3
 10
6045.063
 20
-8021.999
 30
-36.000
 70
    32
  0
VERTEX
  8
M53LXLIFT
 62
3
 10
6042.473
 20
-8006.048
 30
-36.000
 70
    32
  0
SEQEND
  8
M53LXLIFT
  0
POLYLINE
  8
M53LXLIFT
 62
3
 66
     1
 70
     9
  0
VERTEX
  8
M53LXLIFT
 62
3
 10
6071.670
 20
-8066.924
 30
-57.000
 70
    32
  0
VERTEX
  8
M53LXLIFT
 62
3
 10
6071.431
 20
-8056.025
 30
-57.000
 70
    32
  0
VERTEX
  8
M53LXLIFT
 62
3
 10
6073.282
 20
-8053.657
 30
-57.000
 70
    32
  0
VERTEX
  8
M53LXLIFT
 62
3
 10
6065.270
 20
-8044.392
 30
-57.000
 70
    32
  0
VERTEX
  8
M53LXLIFT
 62
3
 10
6054.477
 20
-8036.985
 30
-57.000
 70
    32
  0
VERTEX
  8
M53LXLIFT
 62
3
 10
6049.628
 20
-8027.992
 30
-57.000
 70
    32
  0
VERTEX
  8
M53LXLIFT
 62
3
 10
6047.756
 20
-8016.667
 30
-57.000
 70
    32
  0
VERTEX
  8
M53LXLIFT
 62
3
 10
6044.426
 20
-8012.353
 30
-57.000
 70
    32
  0
VERTEX
  8
M53LXLIFT
 62
3
 10
6032.310
 20
-8006.701
 30
-57.000
 70
    32
  0
VERTEX
  8
M53LXLIFT
 62
3
 10
6028.469
 20
-8002.878
 30
-57.000
 70
    32
  0
VERTEX
  8
M53LXLIFT
 62
3
 10
6023.267
 20
-8002.813
 30
-57.000
 70
    32
  0
VERTEX
  8
M53LXLIFT
 62
3
 10
6019.460
 20
-8006.970
 30
-57.000
 70
    32
  0
VERTEX
  8
M53LXLIFT
 62
3
 10
6026.515
 20
-8019.800
 30
-57.000
 70
    32
  0
VERTEX
  8
M53LXLIFT
 62
3
 10
6039.363
 20
-8043.331
 30
-57.000
 70
    32
  0
VERTEX
  8
M53LXLIFT
 62
3
 10
6050.674
 20
-8062.745
 30
-57.000
 70
    32
  0
VERTEX
  8
M53LXLIFT
 62
3
 10
6054.137
 20
-8070.470
 30
-57.000
 70
    32
  0
VERTEX
  8
M53LXLIFT
 62
3
 10
6060.141
 20
-8073.665
 30
-57.000
 70
    32
  0
SEQEND
  8
M53LXLIFT
  0
POLYLINE
  8
M53LXLIFT
 62
2
 66
     1
 70
     9
  0
VERTEX
  8
M53LXLIFT
 62
2
 10
5991.335
 20
-7737.060
 30
-70.436
 70
    32
  0
VERTEX
  8
M53LXLIFT
 62
2
 10
5989.350
 20
-7730.848
 30
-70.423
 70
    32
  0
VERTEX
  8
M53LXLIFT
 62
2
 10
5982.579
 20
-7727.643
 30
-70.406
 70
    32
  0
VERTEX
  8
M53LXLIFT
 62
2
 10
5980.577
 20
-7723.948
 30
-70.396
 70
    32
  0
VERTEX
  8
M53LXLIFT
 62
2
 10
5981.022
 20
-7719.230
 30
-70.390
 70
    32
  0
VERTEX
  8
M53LXLIFT
 62
2
 10
6013.410
 20
-7713.100
 30
-70.440
 70
    32
  0
VERTEX
  8
M53LXLIFT
 62
2
 10
6019.198
 20
-7708.337
 30
-70.444
 70
    32
  0
VERTEX
  8
M53LXLIFT
 62
2
 10
6020.627
 20
-7710.017
 30
-70.449
 70
    32
  0
VERTEX
  8
M53LXLIFT
 62
2
 10
6026.917
 20
-7710.044
 30
-70.460
 70
    32
  0
SEQEND
  8
M53LXLIFT
  0
POLYLINE
  8
M53LXLIFT
 62
3
 66
     1
 70
     9
  0
VERTEX
  8
M53LXLIFT
 62
3
 10
6052.341
 20
-8068.276
 30
-70.936
 70
    32
  0
VERTEX
  8
M53LXLIFT
 62
3
 10
6051.812
 20
-8058.068
 30
-70.939
 70
    32
  0
VERTEX
  8
M53LXLIFT
 62
3
 10
6050.331
 20
-8053.180
 30
-70.941
 70
    32
  0
VERTEX
  8
M53LXLIFT
 62
3
 10
6043.855
 20
-8048.064
 30
-70.943
 70
    32
  0
VERTEX
  8
M53LXLIFT
 62
3
 10
6038.577
 20
-8031.477
 30
-70.948
 70
    32
  0
VERTEX
  8
M53LXLIFT
 62
3
 10
6042.425
 20
-8019.384
 30
-70.949
 70
    32
  0
VERTEX
  8
M53LXLIFT
 62
3
 10
6038.128
 20
-8013.904
 30
-70.945
 70
    32
  0
VERTEX
  8
M53LXLIFT
 62
3
 10
6030.214
 20
-8014.956
 30
-70.932
 70
    32
  0
VERTEX
  8
M53LXLIFT
 62
3
 10
6025.967
 20
-8008.540
 30
-70.914
 70
    32
  0
VERTEX
  8
M53LXLIFT
 62
3
 10
6030.261
 20
-8007.301
 30
-70.920
 70
    32
  0
VERTEX
  8
M53LXLIFT
 62
3
 10
6048.782
 20
-8009.918
 30
-70.949
 70
    32
  0
VERTEX
  8
M53LXLIFT
 62
3
 10
6058.096
 20
-8030.509
 30
-70.945
 70
    32
  0
VERTEX
  8
M53LXLIFT
 62
3
 10
6062.119
 20
-8044.496
 30
-70.940
 70
    32
  0
VERTEX
  8
M53LXLIFT
 62
3
 10
6070.212
 20
-8054.681
 30
-70.936
 70
    32
  0
VERTEX
  8
M53LXLIFT
 62
3
 10
6076.032
 20
-8060.485
 30
-70.933
 70
    32
  0
VERTEX
  8
M53LXLIFT
 62
3
 10
6075.666
 20
-8075.771
 30
-70.929
 70
    32
  0
VERTEX
  8
M53LXLIFT
 62
3
 10
6073.048
 20
-8080.289
 30
-70.928
 70
    32
  0
VERTEX
  8
M53LXLIFT
 62
3
 10
6070.269
 20
-8081.460
 30
-70.928
 70
    32
  0
VERTEX
  8
M53LXLIFT
 62
3
 10
6058.307
 20
-8073.012
 30
-70.933
 70
    32
  0
SEQEND
  8
M53LXLIFT
  0
POLYLINE
  8
M53LXLIFT
 62
6
 66
     1
 70
     9
  0
VERTEX
  8
M53LXLIFT
 62
6
 10
6309.342
 20
-7720.884
 30
-70.947
 70
    32
  0
VERTEX
  8
M53LXLIFT
 62
6
 10
6317.465
 20
-7712.385
 30
-70.947
 70
    32
  0
VERTEX
  8
M53LXLIFT
 62
6
 10
6310.701
 20
-7670.188
 30
-70.955
 70
    32
  0
VERTEX
  8
M53LXLIFT
 62
6
 10
6333.753
 20
-7655.583
 30
-70.955
 70
    32
  0
VERTEX
  8
M53LXLIFT
 62
6
 10
6339.196
 20
-7653.666
 30
-70.954
 70
    32
  0
VERTEX
  8
M53LXLIFT
 62
6
 10
6343.875
 20
-7659.632
 30
-70.953
 70
    32
  0
VERTEX
  8
M53LXLIFT
 62
6
 10
6337.962
 20
-7687.236
 30
-70.949
 70
    32
  0
VERTEX
  8
M53LXLIFT
 62
6
 10
6338.764
 20
-7703.972
 30
-70.946
 70
    32
  0
VERTEX
  8
M53LXLIFT
 62
6
 10
6348.338
 20
-7716.181
 30
-70.943
 70
    32
  0
VERTEX
  8
M53LXLIFT
 62
6
 10
6353.513
 20
-7726.351
 30
-70.941
 70
    32
  0
VERTEX
  8
M53LXLIFT
 62
6
 10
6342.228
 20
-7742.819
 30
-70.939
 70
    32
  0
VERTEX
  8
M53LXLIFT
 62
6
 10
6345.371
 20
-7749.541
 30
-70.938
 70
    32
  0
VERTEX
  8
M53LXLIFT
 62
6
 10
6351.462
 20
-7754.735
 30
-70.937
 70
    32
  0
VERTEX
  8
M53LXLIFT
 62
6
 10
6358.034
 20
-7758.544
 30
-70.935
 70
    32
  0
VERTEX
  8
M53LXLIFT
 62
6
 10
6371.697
 20
-7760.824
 30
-70.933
 70
    32
  0
VERTEX
  8
M53LXLIFT
 62
6
 10
6377.443
 20
-7768.866
 30
-70.931
 70
    32
  0
VERTEX
  8
M53LXLIFT
 62
6
 10
6365.730
 20
-7778.500
 30
-70.931
 70
    32
  0
VERTEX
  8
M53LXLIFT
 62
6
 10
6333.951
 20
-7795.692
 30
-70.932
 70
    32
  0
VERTEX
  8
M53LXLIFT
 62
6
 10
6329.832
 20
-7800.154
 30
-70.933
 70
    32
  0
VERTEX
  8
M53LXLIFT
 62
6
 10
6319.493
 20
-7784.399
 30
-70.936
 70
    32
  0
VERTEX
  8
M53LXLIFT
 62
6
 10
6310.018
 20
-7793.174
 30
-70.937
 70
    32
  0
VERTEX
  8
M53LXLIFT
 62
6
 10
6304.485
 20
-7795.833
 30
-70.937
 70
    32
  0
VERTEX
  8
M53LXLIFT
 62
6
 10
6298.807
 20
-7789.307
 30
-70.939
 70
    32
  0
VERTEX
  8
M53LXLIFT
 62
6
 10
6303.026
 20
-7782.973
 30
-70.939
 70
    32
  0
VERTEX
  8
M53LXLIFT
 62
6
 10
6314.751
 20
-7777.924
 30
-70.938
 70
    32
  0
VERTEX
  8
M53LXLIFT
 62
6
 10
6316.620
 20
-7775.450
 30
-70.938
 70
    32
  0
VERTEX
  8
M53LXLIFT
 62
6
 10
6311.570
 20
-7769.439
 30
-70.939
 70
    32
  0
VERTEX
  8
M53LXLIFT
 62
6
 10
6311.192
 20
-7765.814
 30
-70.940
 70
    32
  0
SEQEND
  8
M53LXLIFT
  0
ENDSEC
  0
EOF
