999
********************************
999
*   DXF File - Entities Only   *
999
*        3D Data Format        *
999
*     Output from ENVISAGE     *
999
*     31-Dec-2007 15:11:24     *
999
********************************
  0
SECTION 
  2
HEADER
  9
$ACADVER
  1
AC1009
  9
$EXTMIN
 10
-290000.000
 20
-250000.000
 30
-4000.000
  9
$EXTMAX
 10
320000.000
 20
160000.000
 30
6000.000
  0
ENDSEC
  0
SECTION
  2
ENTITIES
  0
POLYLINE
  8
M54LXLIFT
 62
3
 66
     1
 70
     9
  0
VERTEX
  8
M54LXLIFT
 62
3
 10
6339.497
 20
-7576.053
 30
-138.000
 70
    32
  0
VERTEX
  8
M54LXLIFT
 62
3
 10
6353.485
 20
-7592.064
 30
-138.000
 70
    32
  0
VERTEX
  8
M54LXLIFT
 62
3
 10
6354.879
 20
-7610.205
 30
-138.000
 70
    32
  0
VERTEX
  8
M54LXLIFT
 62
3
 10
6346.195
 20
-7618.729
 30
-138.000
 70
    32
  0
VERTEX
  8
M54LXLIFT
 62
3
 10
6337.107
 20
-7628.637
 30
-138.000
 70
    32
  0
VERTEX
  8
M54LXLIFT
 62
3
 10
6334.134
 20
-7617.420
 30
-138.000
 70
    32
  0
VERTEX
  8
M54LXLIFT
 62
3
 10
6332.982
 20
-7605.417
 30
-138.000
 70
    32
  0
VERTEX
  8
M54LXLIFT
 62
3
 10
6329.413
 20
-7588.321
 30
-138.000
 70
    32
  0
VERTEX
  8
M54LXLIFT
 62
3
 10
6331.165
 20
-7580.292
 30
-138.000
 70
    32
  0
SEQEND
  8
M54LXLIFT
  0
POLYLINE
  8
M54LXLIFT
 62
3
 66
     1
 70
     9
  0
VERTEX
  8
M54LXLIFT
 62
3
 10
6352.312
 20
-7588.206
 30
-148.000
 70
    32
  0
VERTEX
  8
M54LXLIFT
 62
3
 10
6356.071
 20
-7601.706
 30
-148.000
 70
    32
  0
VERTEX
  8
M54LXLIFT
 62
3
 10
6358.531
 20
-7612.463
 30
-148.000
 70
    32
  0
VERTEX
  8
M54LXLIFT
 62
3
 10
6347.584
 20
-7626.806
 30
-148.000
 70
    32
  0
VERTEX
  8
M54LXLIFT
 62
3
 10
6338.192
 20
-7624.202
 30
-148.000
 70
    32
  0
VERTEX
  8
M54LXLIFT
 62
3
 10
6334.088
 20
-7609.761
 30
-148.000
 70
    32
  0
VERTEX
  8
M54LXLIFT
 62
3
 10
6334.521
 20
-7595.335
 30
-148.000
 70
    32
  0
VERTEX
  8
M54LXLIFT
 62
3
 10
6338.211
 20
-7588.081
 30
-148.000
 70
    32
  0
SEQEND
  8
M54LXLIFT
  0
POLYLINE
  8
M54LXLIFT
 62
3
 66
     1
 70
     9
  0
VERTEX
  8
M54LXLIFT
 62
3
 10
6356.065
 20
-7627.650
 30
-158.000
 70
    32
  0
VERTEX
  8
M54LXLIFT
 62
3
 10
6363.816
 20
-7618.385
 30
-158.000
 70
    32
  0
VERTEX
  8
M54LXLIFT
 62
3
 10
6361.694
 20
-7605.494
 30
-158.000
 70
    32
  0
VERTEX
  8
M54LXLIFT
 62
3
 10
6358.874
 20
-7594.947
 30
-158.000
 70
    32
  0
VERTEX
  8
M54LXLIFT
 62
3
 10
6352.759
 20
-7595.337
 30
-158.000
 70
    32
  0
VERTEX
  8
M54LXLIFT
 62
3
 10
6345.153
 20
-7605.256
 30
-158.000
 70
    32
  0
VERTEX
  8
M54LXLIFT
 62
3
 10
6340.389
 20
-7623.644
 30
-158.000
 70
    32
  0
SEQEND
  8
M54LXLIFT
  0
POLYLINE
  8
M54LXLIFT
 62
3
 66
     1
 70
     9
  0
VERTEX
  8
M54LXLIFT
 62
3
 10
6359.544
 20
-7597.443
 30
-168.000
 70
    32
  0
VERTEX
  8
M54LXLIFT
 62
3
 10
6350.062
 20
-7601.921
 30
-168.000
 70
    32
  0
VERTEX
  8
M54LXLIFT
 62
3
 10
6345.157
 20
-7612.312
 30
-168.000
 70
    32
  0
VERTEX
  8
M54LXLIFT
 62
3
 10
6339.496
 20
-7620.638
 30
-168.000
 70
    32
  0
VERTEX
  8
M54LXLIFT
 62
3
 10
6341.558
 20
-7624.472
 30
-168.000
 70
    32
  0
VERTEX
  8
M54LXLIFT
 62
3
 10
6346.205
 20
-7626.181
 30
-168.000
 70
    32
  0
VERTEX
  8
M54LXLIFT
 62
3
 10
6359.315
 20
-7616.842
 30
-168.000
 70
    32
  0
VERTEX
  8
M54LXLIFT
 62
3
 10
6367.834
 20
-7605.426
 30
-168.000
 70
    32
  0
SEQEND
  8
M54LXLIFT
  0
POLYLINE
  8
M54LXLIFT
 62
3
 66
     1
 70
     9
  0
VERTEX
  8
M54LXLIFT
 62
3
 10
6329.102
 20
-7622.890
 30
-179.000
 70
    32
  0
VERTEX
  8
M54LXLIFT
 62
3
 10
6339.915
 20
-7618.104
 30
-179.000
 70
    32
  0
VERTEX
  8
M54LXLIFT
 62
3
 10
6344.131
 20
-7621.983
 30
-179.000
 70
    32
  0
VERTEX
  8
M54LXLIFT
 62
3
 10
6349.960
 20
-7619.494
 30
-179.000
 70
    32
  0
VERTEX
  8
M54LXLIFT
 62
3
 10
6365.583
 20
-7611.003
 30
-179.000
 70
    32
  0
VERTEX
  8
M54LXLIFT
 62
3
 10
6392.410
 20
-7626.323
 30
-179.000
 70
    32
  0
VERTEX
  8
M54LXLIFT
 62
3
 10
6389.429
 20
-7619.983
 30
-179.000
 70
    32
  0
VERTEX
  8
M54LXLIFT
 62
3
 10
6376.808
 20
-7612.060
 30
-179.000
 70
    32
  0
VERTEX
  8
M54LXLIFT
 62
3
 10
6370.804
 20
-7603.586
 30
-179.000
 70
    32
  0
VERTEX
  8
M54LXLIFT
 62
3
 10
6369.803
 20
-7592.252
 30
-179.000
 70
    32
  0
VERTEX
  8
M54LXLIFT
 62
3
 10
6375.466
 20
-7573.081
 30
-179.000
 70
    32
  0
VERTEX
  8
M54LXLIFT
 62
3
 10
6379.393
 20
-7560.699
 30
-179.000
 70
    32
  0
VERTEX
  8
M54LXLIFT
 62
3
 10
6379.241
 20
-7556.969
 30
-179.000
 70
    32
  0
VERTEX
  8
M54LXLIFT
 62
3
 10
6376.340
 20
-7555.732
 30
-179.000
 70
    32
  0
VERTEX
  8
M54LXLIFT
 62
3
 10
6371.283
 20
-7559.401
 30
-179.000
 70
    32
  0
VERTEX
  8
M54LXLIFT
 62
3
 10
6365.282
 20
-7570.477
 30
-179.000
 70
    32
  0
VERTEX
  8
M54LXLIFT
 62
3
 10
6364.815
 20
-7586.313
 30
-179.000
 70
    32
  0
VERTEX
  8
M54LXLIFT
 62
3
 10
6363.487
 20
-7591.150
 30
-179.000
 70
    32
  0
VERTEX
  8
M54LXLIFT
 62
3
 10
6352.530
 20
-7598.241
 30
-179.000
 70
    32
  0
VERTEX
  8
M54LXLIFT
 62
3
 10
6343.346
 20
-7607.851
 30
-179.000
 70
    32
  0
VERTEX
  8
M54LXLIFT
 62
3
 10
6328.372
 20
-7617.504
 30
-179.000
 70
    32
  0
SEQEND
  8
M54LXLIFT
  0
POLYLINE
  8
M54LXLIFT
 62
3
 66
     1
 70
     9
  0
VERTEX
  8
M54LXLIFT
 62
3
 10
6349.001
 20
-7620.654
 30
-199.000
 70
    32
  0
VERTEX
  8
M54LXLIFT
 62
3
 10
6357.370
 20
-7621.866
 30
-199.000
 70
    32
  0
VERTEX
  8
M54LXLIFT
 62
3
 10
6362.803
 20
-7619.776
 30
-199.000
 70
    32
  0
VERTEX
  8
M54LXLIFT
 62
3
 10
6368.124
 20
-7612.883
 30
-199.000
 70
    32
  0
VERTEX
  8
M54LXLIFT
 62
3
 10
6373.531
 20
-7620.799
 30
-199.000
 70
    32
  0
VERTEX
  8
M54LXLIFT
 62
3
 10
6376.852
 20
-7628.381
 30
-199.000
 70
    32
  0
VERTEX
  8
M54LXLIFT
 62
3
 10
6383.668
 20
-7632.997
 30
-199.000
 70
    32
  0
VERTEX
  8
M54LXLIFT
 62
3
 10
6387.356
 20
-7631.194
 30
-199.000
 70
    32
  0
VERTEX
  8
M54LXLIFT
 62
3
 10
6382.896
 20
-7618.141
 30
-199.000
 70
    32
  0
VERTEX
  8
M54LXLIFT
 62
3
 10
6385.032
 20
-7610.298
 30
-199.000
 70
    32
  0
VERTEX
  8
M54LXLIFT
 62
3
 10
6394.064
 20
-7602.236
 30
-199.000
 70
    32
  0
VERTEX
  8
M54LXLIFT
 62
3
 10
6403.421
 20
-7584.279
 30
-199.000
 70
    32
  0
VERTEX
  8
M54LXLIFT
 62
3
 10
6408.893
 20
-7575.648
 30
-199.000
 70
    32
  0
VERTEX
  8
M54LXLIFT
 62
3
 10
6407.304
 20
-7571.805
 30
-199.000
 70
    32
  0
VERTEX
  8
M54LXLIFT
 62
3
 10
6396.836
 20
-7569.942
 30
-199.000
 70
    32
  0
VERTEX
  8
M54LXLIFT
 62
3
 10
6377.079
 20
-7591.525
 30
-199.000
 70
    32
  0
VERTEX
  8
M54LXLIFT
 62
3
 10
6377.350
 20
-7598.493
 30
-199.000
 70
    32
  0
VERTEX
  8
M54LXLIFT
 62
3
 10
6369.414
 20
-7604.024
 30
-199.000
 70
    32
  0
VERTEX
  8
M54LXLIFT
 62
3
 10
6357.294
 20
-7604.226
 30
-199.000
 70
    32
  0
VERTEX
  8
M54LXLIFT
 62
3
 10
6350.235
 20
-7604.671
 30
-199.000
 70
    32
  0
VERTEX
  8
M54LXLIFT
 62
3
 10
6342.447
 20
-7610.855
 30
-199.000
 70
    32
  0
SEQEND
  8
M54LXLIFT
  0
POLYLINE
  8
M54LXLIFT
 62
3
 66
     1
 70
     9
  0
VERTEX
  8
M54LXLIFT
 62
3
 10
6366.114
 20
-7574.224
 30
-188.000
 70
    32
  0
VERTEX
  8
M54LXLIFT
 62
3
 10
6376.066
 20
-7566.109
 30
-188.000
 70
    32
  0
VERTEX
  8
M54LXLIFT
 62
3
 10
6382.187
 20
-7565.564
 30
-188.000
 70
    32
  0
VERTEX
  8
M54LXLIFT
 62
3
 10
6384.655
 20
-7568.656
 30
-188.000
 70
    32
  0
VERTEX
  8
M54LXLIFT
 62
3
 10
6380.832
 20
-7581.758
 30
-188.000
 70
    32
  0
VERTEX
  8
M54LXLIFT
 62
3
 10
6376.368
 20
-7590.547
 30
-188.000
 70
    32
  0
VERTEX
  8
M54LXLIFT
 62
3
 10
6376.327
 20
-7598.398
 30
-188.000
 70
    32
  0
VERTEX
  8
M54LXLIFT
 62
3
 10
6377.605
 20
-7611.046
 30
-188.000
 70
    32
  0
VERTEX
  8
M54LXLIFT
 62
3
 10
6391.860
 20
-7622.719
 30
-188.000
 70
    32
  0
VERTEX
  8
M54LXLIFT
 62
3
 10
6392.250
 20
-7628.627
 30
-188.000
 70
    32
  0
VERTEX
  8
M54LXLIFT
 62
3
 10
6383.257
 20
-7629.851
 30
-188.000
 70
    32
  0
VERTEX
  8
M54LXLIFT
 62
3
 10
6369.879
 20
-7616.996
 30
-188.000
 70
    32
  0
VERTEX
  8
M54LXLIFT
 62
3
 10
6345.289
 20
-7623.058
 30
-188.000
 70
    32
  0
VERTEX
  8
M54LXLIFT
 62
3
 10
6343.718
 20
-7618.662
 30
-188.000
 70
    32
  0
VERTEX
  8
M54LXLIFT
 62
3
 10
6349.446
 20
-7606.237
 30
-188.000
 70
    32
  0
VERTEX
  8
M54LXLIFT
 62
3
 10
6361.623
 20
-7605.953
 30
-188.000
 70
    32
  0
VERTEX
  8
M54LXLIFT
 62
3
 10
6363.889
 20
-7593.549
 30
-188.000
 70
    32
  0
SEQEND
  8
M54LXLIFT
  0
POLYLINE
  8
M54LXLIFT
 62
3
 66
     1
 70
     9
  0
VERTEX
  8
M54LXLIFT
 62
3
 10
6389.931
 20
-7646.173
 30
-209.000
 70
    32
  0
VERTEX
  8
M54LXLIFT
 62
3
 10
6398.351
 20
-7637.323
 30
-209.000
 70
    32
  0
VERTEX
  8
M54LXLIFT
 62
3
 10
6405.803
 20
-7624.693
 30
-209.000
 70
    32
  0
VERTEX
  8
M54LXLIFT
 62
3
 10
6403.021
 20
-7616.446
 30
-209.000
 70
    32
  0
VERTEX
  8
M54LXLIFT
 62
3
 10
6399.270
 20
-7603.978
 30
-209.000
 70
    32
  0
VERTEX
  8
M54LXLIFT
 62
3
 10
6398.615
 20
-7594.025
 30
-209.000
 70
    32
  0
VERTEX
  8
M54LXLIFT
 62
3
 10
6399.648
 20
-7581.485
 30
-209.000
 70
    32
  0
VERTEX
  8
M54LXLIFT
 62
3
 10
6410.120
 20
-7558.231
 30
-209.000
 70
    32
  0
VERTEX
  8
M54LXLIFT
 62
3
 10
6400.816
 20
-7557.408
 30
-209.000
 70
    32
  0
VERTEX
  8
M54LXLIFT
 62
3
 10
6392.413
 20
-7565.695
 30
-209.000
 70
    32
  0
VERTEX
  8
M54LXLIFT
 62
3
 10
6389.978
 20
-7588.963
 30
-209.000
 70
    32
  0
VERTEX
  8
M54LXLIFT
 62
3
 10
6385.655
 20
-7596.386
 30
-209.000
 70
    32
  0
VERTEX
  8
M54LXLIFT
 62
3
 10
6382.867
 20
-7617.281
 30
-209.000
 70
    32
  0
VERTEX
  8
M54LXLIFT
 62
3
 10
6387.019
 20
-7621.201
 30
-209.000
 70
    32
  0
VERTEX
  8
M54LXLIFT
 62
3
 10
6379.218
 20
-7638.931
 30
-209.000
 70
    32
  0
SEQEND
  8
M54LXLIFT
  0
POLYLINE
  8
M54LXLIFT
 62
4
 66
     1
 70
     9
  0
VERTEX
  8
M54LXLIFT
 62
4
 10
6350.970
 20
-7766.012
 30
-137.000
 70
    32
  0
VERTEX
  8
M54LXLIFT
 62
4
 10
6350.952
 20
-7744.689
 30
-137.000
 70
    32
  0
VERTEX
  8
M54LXLIFT
 62
4
 10
6354.040
 20
-7728.062
 30
-137.000
 70
    32
  0
VERTEX
  8
M54LXLIFT
 62
4
 10
6358.837
 20
-7715.412
 30
-137.000
 70
    32
  0
VERTEX
  8
M54LXLIFT
 62
4
 10
6362.843
 20
-7712.701
 30
-137.000
 70
    32
  0
VERTEX
  8
M54LXLIFT
 62
4
 10
6364.434
 20
-7716.219
 30
-137.000
 70
    32
  0
VERTEX
  8
M54LXLIFT
 62
4
 10
6375.064
 20
-7708.123
 30
-137.000
 70
    32
  0
VERTEX
  8
M54LXLIFT
 62
4
 10
6375.284
 20
-7691.742
 30
-137.000
 70
    32
  0
VERTEX
  8
M54LXLIFT
 62
4
 10
6380.384
 20
-7675.931
 30
-137.000
 70
    32
  0
VERTEX
  8
M54LXLIFT
 62
4
 10
6388.854
 20
-7659.072
 30
-137.000
 70
    32
  0
VERTEX
  8
M54LXLIFT
 62
4
 10
6384.699
 20
-7651.005
 30
-137.000
 70
    32
  0
VERTEX
  8
M54LXLIFT
 62
4
 10
6357.664
 20
-7665.104
 30
-137.000
 70
    32
  0
VERTEX
  8
M54LXLIFT
 62
4
 10
6355.872
 20
-7669.353
 30
-137.000
 70
    32
  0
VERTEX
  8
M54LXLIFT
 62
4
 10
6349.303
 20
-7676.005
 30
-137.000
 70
    32
  0
VERTEX
  8
M54LXLIFT
 62
4
 10
6341.078
 20
-7692.902
 30
-137.000
 70
    32
  0
VERTEX
  8
M54LXLIFT
 62
4
 10
6337.166
 20
-7705.124
 30
-137.000
 70
    32
  0
VERTEX
  8
M54LXLIFT
 62
4
 10
6331.518
 20
-7724.057
 30
-137.000
 70
    32
  0
VERTEX
  8
M54LXLIFT
 62
4
 10
6328.022
 20
-7735.212
 30
-137.000
 70
    32
  0
VERTEX
  8
M54LXLIFT
 62
4
 10
6339.026
 20
-7765.162
 30
-137.000
 70
    32
  0
SEQEND
  8
M54LXLIFT
  0
POLYLINE
  8
M54LXLIFT
 62
4
 66
     1
 70
     9
  0
VERTEX
  8
M54LXLIFT
 62
4
 10
6342.080
 20
-7758.326
 30
-147.000
 70
    32
  0
VERTEX
  8
M54LXLIFT
 62
4
 10
6334.230
 20
-7735.873
 30
-147.000
 70
    32
  0
VERTEX
  8
M54LXLIFT
 62
4
 10
6334.101
 20
-7728.097
 30
-147.000
 70
    32
  0
VERTEX
  8
M54LXLIFT
 62
4
 10
6345.596
 20
-7704.957
 30
-147.000
 70
    32
  0
VERTEX
  8
M54LXLIFT
 62
4
 10
6342.253
 20
-7685.666
 30
-147.000
 70
    32
  0
VERTEX
  8
M54LXLIFT
 62
4
 10
6343.264
 20
-7676.003
 30
-147.000
 70
    32
  0
VERTEX
  8
M54LXLIFT
 62
4
 10
6358.879
 20
-7665.352
 30
-147.000
 70
    32
  0
VERTEX
  8
M54LXLIFT
 62
4
 10
6371.163
 20
-7651.678
 30
-147.000
 70
    32
  0
VERTEX
  8
M54LXLIFT
 62
4
 10
6378.384
 20
-7652.589
 30
-147.000
 70
    32
  0
VERTEX
  8
M54LXLIFT
 62
4
 10
6385.369
 20
-7660.458
 30
-147.000
 70
    32
  0
VERTEX
  8
M54LXLIFT
 62
4
 10
6381.417
 20
-7679.646
 30
-147.000
 70
    32
  0
VERTEX
  8
M54LXLIFT
 62
4
 10
6380.952
 20
-7701.317
 30
-147.000
 70
    32
  0
VERTEX
  8
M54LXLIFT
 62
4
 10
6379.277
 20
-7704.121
 30
-147.000
 70
    32
  0
VERTEX
  8
M54LXLIFT
 62
4
 10
6371.910
 20
-7707.409
 30
-147.000
 70
    32
  0
VERTEX
  8
M54LXLIFT
 62
4
 10
6373.640
 20
-7709.847
 30
-147.000
 70
    32
  0
VERTEX
  8
M54LXLIFT
 62
4
 10
6370.872
 20
-7719.463
 30
-147.000
 70
    32
  0
VERTEX
  8
M54LXLIFT
 62
4
 10
6360.470
 20
-7732.449
 30
-147.000
 70
    32
  0
VERTEX
  8
M54LXLIFT
 62
4
 10
6351.633
 20
-7738.829
 30
-147.000
 70
    32
  0
VERTEX
  8
M54LXLIFT
 62
4
 10
6353.376
 20
-7753.436
 30
-147.000
 70
    32
  0
SEQEND
  8
M54LXLIFT
  0
POLYLINE
  8
M54LXLIFT
 62
4
 66
     1
 70
     9
  0
VERTEX
  8
M54LXLIFT
 62
4
 10
6378.932
 20
-7766.171
 30
-125.000
 70
    32
  0
VERTEX
  8
M54LXLIFT
 62
4
 10
6380.667
 20
-7759.651
 30
-125.000
 70
    32
  0
VERTEX
  8
M54LXLIFT
 62
4
 10
6377.255
 20
-7754.846
 30
-125.000
 70
    32
  0
VERTEX
  8
M54LXLIFT
 62
4
 10
6366.941
 20
-7749.439
 30
-125.000
 70
    32
  0
VERTEX
  8
M54LXLIFT
 62
4
 10
6360.481
 20
-7740.647
 30
-125.000
 70
    32
  0
VERTEX
  8
M54LXLIFT
 62
4
 10
6358.263
 20
-7725.066
 30
-125.000
 70
    32
  0
VERTEX
  8
M54LXLIFT
 62
4
 10
6358.318
 20
-7716.179
 30
-125.000
 70
    32
  0
VERTEX
  8
M54LXLIFT
 62
4
 10
6368.196
 20
-7712.617
 30
-125.000
 70
    32
  0
VERTEX
  8
M54LXLIFT
 62
4
 10
6376.120
 20
-7705.695
 30
-125.000
 70
    32
  0
VERTEX
  8
M54LXLIFT
 62
4
 10
6368.405
 20
-7692.400
 30
-125.000
 70
    32
  0
VERTEX
  8
M54LXLIFT
 62
4
 10
6359.567
 20
-7693.173
 30
-125.000
 70
    32
  0
VERTEX
  8
M54LXLIFT
 62
4
 10
6355.508
 20
-7673.937
 30
-125.000
 70
    32
  0
VERTEX
  8
M54LXLIFT
 62
4
 10
6354.452
 20
-7663.789
 30
-125.000
 70
    32
  0
VERTEX
  8
M54LXLIFT
 62
4
 10
6344.468
 20
-7661.277
 30
-125.000
 70
    32
  0
VERTEX
  8
M54LXLIFT
 62
4
 10
6329.611
 20
-7671.504
 30
-125.000
 70
    32
  0
VERTEX
  8
M54LXLIFT
 62
4
 10
6329.278
 20
-7685.012
 30
-125.000
 70
    32
  0
VERTEX
  8
M54LXLIFT
 62
4
 10
6334.260
 20
-7703.270
 30
-125.000
 70
    32
  0
VERTEX
  8
M54LXLIFT
 62
4
 10
6331.280
 20
-7719.736
 30
-125.000
 70
    32
  0
VERTEX
  8
M54LXLIFT
 62
4
 10
6329.198
 20
-7729.415
 30
-125.000
 70
    32
  0
VERTEX
  8
M54LXLIFT
 62
4
 10
6333.195
 20
-7749.020
 30
-125.000
 70
    32
  0
VERTEX
  8
M54LXLIFT
 62
4
 10
6344.586
 20
-7771.896
 30
-125.000
 70
    32
  0
VERTEX
  8
M54LXLIFT
 62
4
 10
6347.638
 20
-7777.713
 30
-125.000
 70
    32
  0
VERTEX
  8
M54LXLIFT
 62
4
 10
6356.903
 20
-7781.492
 30
-125.000
 70
    32
  0
SEQEND
  8
M54LXLIFT
  0
POLYLINE
  8
M54LXLIFT
 62
4
 66
     1
 70
     9
  0
VERTEX
  8
M54LXLIFT
 62
4
 10
6371.008
 20
-7775.435
 30
-110.000
 70
    32
  0
VERTEX
  8
M54LXLIFT
 62
4
 10
6357.244
 20
-7740.547
 30
-110.000
 70
    32
  0
VERTEX
  8
M54LXLIFT
 62
4
 10
6351.198
 20
-7719.326
 30
-110.000
 70
    32
  0
VERTEX
  8
M54LXLIFT
 62
4
 10
6360.348
 20
-7720.046
 30
-110.000
 70
    32
  0
VERTEX
  8
M54LXLIFT
 62
4
 10
6366.246
 20
-7714.090
 30
-110.000
 70
    32
  0
VERTEX
  8
M54LXLIFT
 62
4
 10
6344.915
 20
-7691.074
 30
-110.000
 70
    32
  0
VERTEX
  8
M54LXLIFT
 62
4
 10
6353.986
 20
-7673.953
 30
-110.000
 70
    32
  0
VERTEX
  8
M54LXLIFT
 62
4
 10
6357.435
 20
-7661.822
 30
-110.000
 70
    32
  0
VERTEX
  8
M54LXLIFT
 62
4
 10
6358.974
 20
-7645.741
 30
-110.000
 70
    32
  0
VERTEX
  8
M54LXLIFT
 62
4
 10
6352.583
 20
-7623.900
 30
-110.000
 70
    32
  0
VERTEX
  8
M54LXLIFT
 62
4
 10
6343.211
 20
-7622.578
 30
-110.000
 70
    32
  0
VERTEX
  8
M54LXLIFT
 62
4
 10
6349.170
 20
-7646.810
 30
-110.000
 70
    32
  0
VERTEX
  8
M54LXLIFT
 62
4
 10
6324.854
 20
-7672.476
 30
-110.000
 70
    32
  0
VERTEX
  8
M54LXLIFT
 62
4
 10
6322.600
 20
-7689.517
 30
-110.000
 70
    32
  0
VERTEX
  8
M54LXLIFT
 62
4
 10
6322.117
 20
-7711.809
 30
-110.000
 70
    32
  0
VERTEX
  8
M54LXLIFT
 62
4
 10
6319.734
 20
-7730.909
 30
-110.000
 70
    32
  0
VERTEX
  8
M54LXLIFT
 62
4
 10
6328.303
 20
-7751.701
 30
-110.000
 70
    32
  0
VERTEX
  8
M54LXLIFT
 62
4
 10
6357.966
 20
-7790.117
 30
-110.000
 70
    32
  0
SEQEND
  8
M54LXLIFT
  0
POLYLINE
  8
M54LXLIFT
 62
4
 66
     1
 70
     9
  0
VERTEX
  8
M54LXLIFT
 62
4
 10
6344.976
 20
-7749.030
 30
-158.000
 70
    32
  0
VERTEX
  8
M54LXLIFT
 62
4
 10
6368.707
 20
-7737.264
 30
-158.000
 70
    32
  0
VERTEX
  8
M54LXLIFT
 62
4
 10
6384.197
 20
-7714.950
 30
-158.000
 70
    32
  0
VERTEX
  8
M54LXLIFT
 62
4
 10
6380.648
 20
-7709.265
 30
-158.000
 70
    32
  0
VERTEX
  8
M54LXLIFT
 62
4
 10
6390.384
 20
-7691.308
 30
-158.000
 70
    32
  0
VERTEX
  8
M54LXLIFT
 62
4
 10
6382.018
 20
-7677.273
 30
-158.000
 70
    32
  0
VERTEX
  8
M54LXLIFT
 62
4
 10
6374.661
 20
-7662.077
 30
-158.000
 70
    32
  0
VERTEX
  8
M54LXLIFT
 62
4
 10
6368.582
 20
-7664.176
 30
-158.000
 70
    32
  0
VERTEX
  8
M54LXLIFT
 62
4
 10
6363.521
 20
-7670.853
 30
-158.000
 70
    32
  0
VERTEX
  8
M54LXLIFT
 62
4
 10
6361.288
 20
-7681.458
 30
-158.000
 70
    32
  0
VERTEX
  8
M54LXLIFT
 62
4
 10
6361.925
 20
-7693.793
 30
-158.000
 70
    32
  0
VERTEX
  8
M54LXLIFT
 62
4
 10
6336.022
 20
-7733.574
 30
-158.000
 70
    32
  0
SEQEND
  8
M54LXLIFT
  0
POLYLINE
  8
M54LXLIFT
 62
4
 66
     1
 70
     9
  0
VERTEX
  8
M54LXLIFT
 62
4
 10
6395.124
 20
-7694.898
 30
-168.000
 70
    32
  0
VERTEX
  8
M54LXLIFT
 62
4
 10
6382.071
 20
-7720.912
 30
-168.000
 70
    32
  0
VERTEX
  8
M54LXLIFT
 62
4
 10
6380.424
 20
-7733.053
 30
-168.000
 70
    32
  0
VERTEX
  8
M54LXLIFT
 62
4
 10
6376.509
 20
-7738.562
 30
-168.000
 70
    32
  0
VERTEX
  8
M54LXLIFT
 62
4
 10
6367.973
 20
-7741.359
 30
-168.000
 70
    32
  0
VERTEX
  8
M54LXLIFT
 62
4
 10
6363.837
 20
-7730.859
 30
-168.000
 70
    32
  0
VERTEX
  8
M54LXLIFT
 62
4
 10
6368.700
 20
-7717.003
 30
-168.000
 70
    32
  0
VERTEX
  8
M54LXLIFT
 62
4
 10
6364.798
 20
-7692.891
 30
-168.000
 70
    32
  0
VERTEX
  8
M54LXLIFT
 62
4
 10
6368.716
 20
-7684.867
 30
-168.000
 70
    32
  0
VERTEX
  8
M54LXLIFT
 62
4
 10
6378.011
 20
-7679.543
 30
-168.000
 70
    32
  0
SEQEND
  8
M54LXLIFT
  0
POLYLINE
  8
M54LXLIFT
 62
1
 66
     1
 70
     9
  0
VERTEX
  8
M54LXLIFT
 62
1
 10
6390.426
 20
-7858.495
 30
-118.000
 70
    32
  0
VERTEX
  8
M54LXLIFT
 62
1
 10
6385.881
 20
-7852.551
 30
-118.000
 70
    32
  0
VERTEX
  8
M54LXLIFT
 62
1
 10
6378.497
 20
-7848.840
 30
-118.000
 70
    32
  0
VERTEX
  8
M54LXLIFT
 62
1
 10
6375.360
 20
-7844.270
 30
-118.000
 70
    32
  0
VERTEX
  8
M54LXLIFT
 62
1
 10
6368.256
 20
-7839.281
 30
-118.000
 70
    32
  0
VERTEX
  8
M54LXLIFT
 62
1
 10
6364.530
 20
-7825.526
 30
-118.000
 70
    32
  0
VERTEX
  8
M54LXLIFT
 62
1
 10
6353.184
 20
-7819.881
 30
-118.000
 70
    32
  0
VERTEX
  8
M54LXLIFT
 62
1
 10
6343.932
 20
-7807.462
 30
-118.000
 70
    32
  0
VERTEX
  8
M54LXLIFT
 62
1
 10
6344.405
 20
-7802.810
 30
-118.000
 70
    32
  0
VERTEX
  8
M54LXLIFT
 62
1
 10
6358.420
 20
-7789.727
 30
-118.000
 70
    32
  0
VERTEX
  8
M54LXLIFT
 62
1
 10
6370.491
 20
-7776.947
 30
-118.000
 70
    32
  0
VERTEX
  8
M54LXLIFT
 62
1
 10
6374.629
 20
-7778.216
 30
-118.000
 70
    32
  0
VERTEX
  8
M54LXLIFT
 62
1
 10
6387.280
 20
-7789.192
 30
-118.000
 70
    32
  0
VERTEX
  8
M54LXLIFT
 62
1
 10
6391.827
 20
-7801.824
 30
-118.000
 70
    32
  0
VERTEX
  8
M54LXLIFT
 62
1
 10
6391.952
 20
-7808.533
 30
-118.000
 70
    32
  0
VERTEX
  8
M54LXLIFT
 62
1
 10
6387.967
 20
-7822.369
 30
-118.000
 70
    32
  0
VERTEX
  8
M54LXLIFT
 62
1
 10
6389.809
 20
-7829.369
 30
-118.000
 70
    32
  0
VERTEX
  8
M54LXLIFT
 62
1
 10
6392.753
 20
-7841.413
 30
-118.000
 70
    32
  0
VERTEX
  8
M54LXLIFT
 62
1
 10
6395.895
 20
-7855.258
 30
-118.000
 70
    32
  0
SEQEND
  8
M54LXLIFT
  0
POLYLINE
  8
M54LXLIFT
 62
8
 66
     1
 70
     9
  0
VERTEX
  8
M54LXLIFT
 62
8
 10
6394.895
 20
-7856.258
 30
-128.000
 70
    32
  0
VERTEX
  8
M54LXLIFT
 62
8
 10
6391.753
 20
-7842.413
 30
-128.000
 70
    32
  0
VERTEX
  8
M54LXLIFT
 62
8
 10
6388.809
 20
-7830.369
 30
-128.000
 70
    32
  0
VERTEX
  8
M54LXLIFT
 62
8
 10
6386.967
 20
-7823.369
 30
-128.000
 70
    32
  0
VERTEX
  8
M54LXLIFT
 62
8
 10
6390.952
 20
-7809.533
 30
-128.000
 70
    32
  0
VERTEX
  8
M54LXLIFT
 62
8
 10
6390.827
 20
-7802.824
 30
-128.000
 70
    32
  0
VERTEX
  8
M54LXLIFT
 62
8
 10
6386.280
 20
-7790.192
 30
-128.000
 70
    32
  0
VERTEX
  8
M54LXLIFT
 62
8
 10
6373.629
 20
-7779.216
 30
-128.000
 70
    32
  0
VERTEX
  8
M54LXLIFT
 62
8
 10
6369.491
 20
-7777.947
 30
-128.000
 70
    32
  0
VERTEX
  8
M54LXLIFT
 62
8
 10
6357.420
 20
-7790.727
 30
-128.000
 70
    32
  0
VERTEX
  8
M54LXLIFT
 62
8
 10
6343.405
 20
-7803.810
 30
-128.000
 70
    32
  0
VERTEX
  8
M54LXLIFT
 62
8
 10
6342.932
 20
-7808.462
 30
-128.000
 70
    32
  0
VERTEX
  8
M54LXLIFT
 62
8
 10
6352.184
 20
-7820.881
 30
-128.000
 70
    32
  0
VERTEX
  8
M54LXLIFT
 62
8
 10
6363.530
 20
-7826.526
 30
-128.000
 70
    32
  0
VERTEX
  8
M54LXLIFT
 62
8
 10
6367.256
 20
-7840.281
 30
-128.000
 70
    32
  0
VERTEX
  8
M54LXLIFT
 62
8
 10
6374.360
 20
-7845.270
 30
-128.000
 70
    32
  0
VERTEX
  8
M54LXLIFT
 62
8
 10
6377.497
 20
-7849.840
 30
-128.000
 70
    32
  0
VERTEX
  8
M54LXLIFT
 62
8
 10
6384.881
 20
-7853.551
 30
-128.000
 70
    32
  0
VERTEX
  8
M54LXLIFT
 62
8
 10
6389.426
 20
-7859.495
 30
-128.000
 70
    32
  0
SEQEND
  8
M54LXLIFT
  0
POLYLINE
  8
M54LXLIFT
 62
8
 66
     1
 70
     9
  0
VERTEX
  8
M54LXLIFT
 62
8
 10
6397.371
 20
-7787.944
 30
-139.000
 70
    32
  0
VERTEX
  8
M54LXLIFT
 62
8
 10
6391.338
 20
-7799.647
 30
-139.000
 70
    32
  0
VERTEX
  8
M54LXLIFT
 62
8
 10
6396.385
 20
-7808.042
 30
-139.000
 70
    32
  0
VERTEX
  8
M54LXLIFT
 62
8
 10
6406.227
 20
-7813.912
 30
-139.000
 70
    32
  0
VERTEX
  8
M54LXLIFT
 62
8
 10
6399.645
 20
-7820.247
 30
-139.000
 70
    32
  0
VERTEX
  8
M54LXLIFT
 62
8
 10
6394.468
 20
-7828.058
 30
-139.000
 70
    32
  0
VERTEX
  8
M54LXLIFT
 62
8
 10
6394.016
 20
-7836.227
 30
-139.000
 70
    32
  0
VERTEX
  8
M54LXLIFT
 62
8
 10
6395.730
 20
-7839.764
 30
-139.000
 70
    32
  0
VERTEX
  8
M54LXLIFT
 62
8
 10
6395.277
 20
-7842.272
 30
-139.000
 70
    32
  0
VERTEX
  8
M54LXLIFT
 62
8
 10
6380.916
 20
-7852.115
 30
-139.000
 70
    32
  0
VERTEX
  8
M54LXLIFT
 62
8
 10
6362.982
 20
-7839.641
 30
-139.000
 70
    32
  0
VERTEX
  8
M54LXLIFT
 62
8
 10
6358.832
 20
-7831.134
 30
-139.000
 70
    32
  0
VERTEX
  8
M54LXLIFT
 62
8
 10
6352.865
 20
-7816.118
 30
-139.000
 70
    32
  0
VERTEX
  8
M54LXLIFT
 62
8
 10
6356.453
 20
-7803.154
 30
-139.000
 70
    32
  0
VERTEX
  8
M54LXLIFT
 62
8
 10
6356.760
 20
-7791.064
 30
-139.000
 70
    32
  0
VERTEX
  8
M54LXLIFT
 62
8
 10
6373.065
 20
-7786.114
 30
-139.000
 70
    32
  0
VERTEX
  8
M54LXLIFT
 62
8
 10
6390.326
 20
-7779.049
 30
-139.000
 70
    32
  0
SEQEND
  8
M54LXLIFT
  0
POLYLINE
  8
M54LXLIFT
 62
8
 66
     1
 70
     9
  0
VERTEX
  8
M54LXLIFT
 62
8
 10
6410.956
 20
-7815.706
 30
-158.000
 70
    32
  0
VERTEX
  8
M54LXLIFT
 62
8
 10
6395.173
 20
-7821.644
 30
-158.000
 70
    32
  0
VERTEX
  8
M54LXLIFT
 62
8
 10
6375.471
 20
-7798.636
 30
-158.000
 70
    32
  0
VERTEX
  8
M54LXLIFT
 62
8
 10
6362.094
 20
-7799.482
 30
-158.000
 70
    32
  0
VERTEX
  8
M54LXLIFT
 62
8
 10
6355.845
 20
-7811.134
 30
-158.000
 70
    32
  0
VERTEX
  8
M54LXLIFT
 62
8
 10
6360.611
 20
-7828.303
 30
-158.000
 70
    32
  0
VERTEX
  8
M54LXLIFT
 62
8
 10
6377.220
 20
-7844.754
 30
-158.000
 70
    32
  0
VERTEX
  8
M54LXLIFT
 62
8
 10
6387.185
 20
-7850.918
 30
-158.000
 70
    32
  0
VERTEX
  8
M54LXLIFT
 62
8
 10
6400.412
 20
-7845.194
 30
-158.000
 70
    32
  0
VERTEX
  8
M54LXLIFT
 62
8
 10
6416.598
 20
-7825.957
 30
-158.000
 70
    32
  0
SEQEND
  8
M54LXLIFT
  0
POLYLINE
  8
M54LXLIFT
 62
8
 66
     1
 70
     9
  0
VERTEX
  8
M54LXLIFT
 62
8
 10
6394.264
 20
-7852.001
 30
-168.000
 70
    32
  0
VERTEX
  8
M54LXLIFT
 62
8
 10
6403.910
 20
-7836.038
 30
-168.000
 70
    32
  0
VERTEX
  8
M54LXLIFT
 62
8
 10
6404.243
 20
-7829.673
 30
-168.000
 70
    32
  0
VERTEX
  8
M54LXLIFT
 62
8
 10
6400.467
 20
-7824.700
 30
-168.000
 70
    32
  0
VERTEX
  8
M54LXLIFT
 62
8
 10
6387.788
 20
-7819.952
 30
-168.000
 70
    32
  0
VERTEX
  8
M54LXLIFT
 62
8
 10
6377.859
 20
-7825.307
 30
-168.000
 70
    32
  0
VERTEX
  8
M54LXLIFT
 62
8
 10
6372.585
 20
-7831.490
 30
-168.000
 70
    32
  0
VERTEX
  8
M54LXLIFT
 62
8
 10
6375.472
 20
-7839.851
 30
-168.000
 70
    32
  0
VERTEX
  8
M54LXLIFT
 62
8
 10
6383.925
 20
-7845.091
 30
-168.000
 70
    32
  0
SEQEND
  8
M54LXLIFT
  0
POLYLINE
  8
M54LXLIFT
 62
8
 66
     1
 70
     9
  0
VERTEX
  8
M54LXLIFT
 62
8
 10
6359.753
 20
-7766.371
 30
-148.000
 70
    32
  0
VERTEX
  8
M54LXLIFT
 62
8
 10
6355.312
 20
-7788.060
 30
-148.000
 70
    32
  0
VERTEX
  8
M54LXLIFT
 62
8
 10
6355.182
 20
-7807.014
 30
-148.000
 70
    32
  0
VERTEX
  8
M54LXLIFT
 62
8
 10
6356.860
 20
-7832.769
 30
-148.000
 70
    32
  0
VERTEX
  8
M54LXLIFT
 62
8
 10
6358.849
 20
-7840.735
 30
-148.000
 70
    32
  0
VERTEX
  8
M54LXLIFT
 62
8
 10
6370.436
 20
-7847.494
 30
-148.000
 70
    32
  0
VERTEX
  8
M54LXLIFT
 62
8
 10
6391.734
 20
-7846.068
 30
-148.000
 70
    32
  0
VERTEX
  8
M54LXLIFT
 62
8
 10
6408.333
 20
-7831.487
 30
-148.000
 70
    32
  0
VERTEX
  8
M54LXLIFT
 62
8
 10
6398.221
 20
-7816.783
 30
-148.000
 70
    32
  0
VERTEX
  8
M54LXLIFT
 62
8
 10
6394.219
 20
-7805.827
 30
-148.000
 70
    32
  0
VERTEX
  8
M54LXLIFT
 62
8
 10
6394.532
 20
-7793.965
 30
-148.000
 70
    32
  0
VERTEX
  8
M54LXLIFT
 62
8
 10
6400.260
 20
-7775.457
 30
-148.000
 70
    32
  0
VERTEX
  8
M54LXLIFT
 62
8
 10
6393.760
 20
-7759.160
 30
-148.000
 70
    32
  0
SEQEND
  8
M54LXLIFT
  0
POLYLINE
  8
M54LXLIFT
 62
8
 66
     1
 70
     9
  0
VERTEX
  8
M54LXLIFT
 62
8
 10
6385.914
 20
-7815.602
 30
-178.000
 70
    32
  0
VERTEX
  8
M54LXLIFT
 62
8
 10
6389.285
 20
-7820.113
 30
-178.000
 70
    32
  0
VERTEX
  8
M54LXLIFT
 62
8
 10
6393.984
 20
-7819.786
 30
-178.000
 70
    32
  0
VERTEX
  8
M54LXLIFT
 62
8
 10
6399.803
 20
-7822.577
 30
-178.000
 70
    32
  0
VERTEX
  8
M54LXLIFT
 62
8
 10
6405.106
 20
-7829.818
 30
-178.000
 70
    32
  0
VERTEX
  8
M54LXLIFT
 62
8
 10
6404.442
 20
-7837.454
 30
-178.000
 70
    32
  0
VERTEX
  8
M54LXLIFT
 62
8
 10
6415.079
 20
-7853.010
 30
-178.000
 70
    32
  0
VERTEX
  8
M54LXLIFT
 62
8
 10
6410.607
 20
-7854.375
 30
-178.000
 70
    32
  0
VERTEX
  8
M54LXLIFT
 62
8
 10
6398.722
 20
-7868.749
 30
-178.000
 70
    32
  0
VERTEX
  8
M54LXLIFT
 62
8
 10
6387.085
 20
-7851.414
 30
-178.000
 70
    32
  0
VERTEX
  8
M54LXLIFT
 62
8
 10
6386.079
 20
-7842.719
 30
-178.000
 70
    32
  0
VERTEX
  8
M54LXLIFT
 62
8
 10
6384.483
 20
-7839.848
 30
-178.000
 70
    32
  0
VERTEX
  8
M54LXLIFT
 62
8
 10
6382.747
 20
-7825.768
 30
-178.000
 70
    32
  0
VERTEX
  8
M54LXLIFT
 62
8
 10
6380.098
 20
-7820.608
 30
-178.000
 70
    32
  0
SEQEND
  8
M54LXLIFT
  0
POLYLINE
  8
M54LXLIFT
 62
3
 66
     1
 70
     9
  0
VERTEX
  8
M54LXLIFT
 62
3
 10
6328.203
 20
-7647.547
 30
-92.000
 70
    32
  0
VERTEX
  8
M54LXLIFT
 62
3
 10
6332.795
 20
-7636.983
 30
-92.000
 70
    32
  0
VERTEX
  8
M54LXLIFT
 62
3
 10
6335.726
 20
-7617.597
 30
-92.000
 70
    32
  0
VERTEX
  8
M54LXLIFT
 62
3
 10
6338.973
 20
-7599.834
 30
-92.000
 70
    32
  0
VERTEX
  8
M54LXLIFT
 62
3
 10
6346.003
 20
-7577.554
 30
-92.000
 70
    32
  0
VERTEX
  8
M54LXLIFT
 62
3
 10
6352.043
 20
-7541.706
 30
-92.000
 70
    32
  0
VERTEX
  8
M54LXLIFT
 62
3
 10
6359.068
 20
-7519.866
 30
-92.000
 70
    32
  0
VERTEX
  8
M54LXLIFT
 62
3
 10
6354.960
 20
-7512.619
 30
-92.000
 70
    32
  0
VERTEX
  8
M54LXLIFT
 62
3
 10
6335.825
 20
-7509.286
 30
-92.000
 70
    32
  0
VERTEX
  8
M54LXLIFT
 62
3
 10
6323.707
 20
-7515.980
 30
-92.000
 70
    32
  0
VERTEX
  8
M54LXLIFT
 62
3
 10
6311.577
 20
-7517.445
 30
-92.000
 70
    32
  0
VERTEX
  8
M54LXLIFT
 62
3
 10
6313.662
 20
-7538.613
 30
-92.000
 70
    32
  0
VERTEX
  8
M54LXLIFT
 62
3
 10
6314.002
 20
-7556.804
 30
-92.000
 70
    32
  0
VERTEX
  8
M54LXLIFT
 62
3
 10
6322.406
 20
-7573.343
 30
-92.000
 70
    32
  0
VERTEX
  8
M54LXLIFT
 62
3
 10
6312.045
 20
-7602.099
 30
-92.000
 70
    32
  0
VERTEX
  8
M54LXLIFT
 62
3
 10
6323.984
 20
-7628.379
 30
-92.000
 70
    32
  0
VERTEX
  8
M54LXLIFT
 62
3
 10
6322.251
 20
-7646.124
 30
-92.000
 70
    32
  0
SEQEND
  8
M54LXLIFT
  0
POLYLINE
  8
M54LXLIFT
 62
1
 66
     1
 70
     9
  0
VERTEX
  8
M54LXLIFT
 62
1
 10
6323.251
 20
-7645.124
 30
-82.000
 70
    32
  0
VERTEX
  8
M54LXLIFT
 62
1
 10
6324.984
 20
-7627.379
 30
-82.000
 70
    32
  0
VERTEX
  8
M54LXLIFT
 62
1
 10
6313.045
 20
-7601.099
 30
-82.000
 70
    32
  0
VERTEX
  8
M54LXLIFT
 62
1
 10
6323.406
 20
-7572.343
 30
-82.000
 70
    32
  0
VERTEX
  8
M54LXLIFT
 62
1
 10
6315.002
 20
-7555.804
 30
-82.000
 70
    32
  0
VERTEX
  8
M54LXLIFT
 62
1
 10
6314.662
 20
-7537.613
 30
-82.000
 70
    32
  0
VERTEX
  8
M54LXLIFT
 62
1
 10
6312.577
 20
-7516.445
 30
-82.000
 70
    32
  0
VERTEX
  8
M54LXLIFT
 62
1
 10
6324.707
 20
-7514.980
 30
-82.000
 70
    32
  0
VERTEX
  8
M54LXLIFT
 62
1
 10
6336.825
 20
-7508.286
 30
-82.000
 70
    32
  0
VERTEX
  8
M54LXLIFT
 62
1
 10
6355.960
 20
-7511.619
 30
-82.000
 70
    32
  0
VERTEX
  8
M54LXLIFT
 62
1
 10
6360.068
 20
-7518.866
 30
-82.000
 70
    32
  0
VERTEX
  8
M54LXLIFT
 62
1
 10
6353.043
 20
-7540.706
 30
-82.000
 70
    32
  0
VERTEX
  8
M54LXLIFT
 62
1
 10
6347.003
 20
-7576.554
 30
-82.000
 70
    32
  0
VERTEX
  8
M54LXLIFT
 62
1
 10
6339.973
 20
-7598.834
 30
-82.000
 70
    32
  0
VERTEX
  8
M54LXLIFT
 62
1
 10
6336.726
 20
-7616.597
 30
-82.000
 70
    32
  0
VERTEX
  8
M54LXLIFT
 62
1
 10
6333.795
 20
-7635.983
 30
-82.000
 70
    32
  0
VERTEX
  8
M54LXLIFT
 62
1
 10
6329.203
 20
-7646.547
 30
-82.000
 70
    32
  0
SEQEND
  8
M54LXLIFT
  0
POLYLINE
  8
M54LXLIFT
 62
3
 66
     1
 70
     9
  0
VERTEX
  8
M54LXLIFT
 62
3
 10
6374.220
 20
-7547.139
 30
-127.000
 70
    32
  0
VERTEX
  8
M54LXLIFT
 62
3
 10
6367.225
 20
-7535.922
 30
-127.000
 70
    32
  0
VERTEX
  8
M54LXLIFT
 62
3
 10
6362.339
 20
-7534.968
 30
-127.000
 70
    32
  0
VERTEX
  8
M54LXLIFT
 62
3
 10
6338.446
 20
-7544.168
 30
-127.000
 70
    32
  0
VERTEX
  8
M54LXLIFT
 62
3
 10
6320.184
 20
-7550.663
 30
-127.000
 70
    32
  0
VERTEX
  8
M54LXLIFT
 62
3
 10
6312.077
 20
-7557.176
 30
-127.000
 70
    32
  0
VERTEX
  8
M54LXLIFT
 62
3
 10
6308.847
 20
-7564.326
 30
-127.000
 70
    32
  0
VERTEX
  8
M54LXLIFT
 62
3
 10
6312.096
 20
-7572.700
 30
-127.000
 70
    32
  0
VERTEX
  8
M54LXLIFT
 62
3
 10
6315.819
 20
-7576.422
 30
-127.000
 70
    32
  0
VERTEX
  8
M54LXLIFT
 62
3
 10
6349.531
 20
-7570.715
 30
-127.000
 70
    32
  0
SEQEND
  8
M54LXLIFT
  0
POLYLINE
  8
M54LXLIFT
 62
3
 66
     1
 70
     9
  0
VERTEX
  8
M54LXLIFT
 62
3
 10
6361.210
 20
-7578.874
 30
-148.000
 70
    32
  0
VERTEX
  8
M54LXLIFT
 62
3
 10
6337.352
 20
-7568.644
 30
-148.000
 70
    32
  0
VERTEX
  8
M54LXLIFT
 62
3
 10
6324.100
 20
-7565.006
 30
-148.000
 70
    32
  0
VERTEX
  8
M54LXLIFT
 62
3
 10
6325.527
 20
-7556.233
 30
-148.000
 70
    32
  0
VERTEX
  8
M54LXLIFT
 62
3
 10
6331.257
 20
-7550.335
 30
-148.000
 70
    32
  0
VERTEX
  8
M54LXLIFT
 62
3
 10
6347.149
 20
-7555.871
 30
-148.000
 70
    32
  0
VERTEX
  8
M54LXLIFT
 62
3
 10
6359.923
 20
-7555.644
 30
-148.000
 70
    32
  0
VERTEX
  8
M54LXLIFT
 62
3
 10
6375.846
 20
-7548.010
 30
-148.000
 70
    32
  0
VERTEX
  8
M54LXLIFT
 62
3
 10
6386.210
 20
-7540.439
 30
-148.000
 70
    32
  0
VERTEX
  8
M54LXLIFT
 62
3
 10
6397.255
 20
-7543.702
 30
-148.000
 70
    32
  0
VERTEX
  8
M54LXLIFT
 62
3
 10
6398.132
 20
-7554.506
 30
-148.000
 70
    32
  0
SEQEND
  8
M54LXLIFT
  0
POLYLINE
  8
M54LXLIFT
 62
3
 66
     1
 70
     9
  0
VERTEX
  8
M54LXLIFT
 62
3
 10
6374.541
 20
-7558.168
 30
-136.000
 70
    32
  0
VERTEX
  8
M54LXLIFT
 62
3
 10
6380.158
 20
-7553.192
 30
-136.000
 70
    32
  0
VERTEX
  8
M54LXLIFT
 62
3
 10
6382.371
 20
-7546.240
 30
-136.000
 70
    32
  0
VERTEX
  8
M54LXLIFT
 62
3
 10
6381.524
 20
-7543.593
 30
-136.000
 70
    32
  0
VERTEX
  8
M54LXLIFT
 62
3
 10
6376.293
 20
-7547.308
 30
-136.000
 70
    32
  0
VERTEX
  8
M54LXLIFT
 62
3
 10
6360.867
 20
-7543.778
 30
-136.000
 70
    32
  0
VERTEX
  8
M54LXLIFT
 62
3
 10
6349.789
 20
-7545.451
 30
-136.000
 70
    32
  0
VERTEX
  8
M54LXLIFT
 62
3
 10
6337.060
 20
-7548.441
 30
-136.000
 70
    32
  0
VERTEX
  8
M54LXLIFT
 62
3
 10
6330.425
 20
-7549.045
 30
-136.000
 70
    32
  0
VERTEX
  8
M54LXLIFT
 62
3
 10
6322.991
 20
-7553.172
 30
-136.000
 70
    32
  0
VERTEX
  8
M54LXLIFT
 62
3
 10
6317.086
 20
-7561.625
 30
-136.000
 70
    32
  0
VERTEX
  8
M54LXLIFT
 62
3
 10
6316.974
 20
-7566.387
 30
-136.000
 70
    32
  0
VERTEX
  8
M54LXLIFT
 62
3
 10
6322.542
 20
-7568.196
 30
-136.000
 70
    32
  0
VERTEX
  8
M54LXLIFT
 62
3
 10
6331.584
 20
-7569.099
 30
-136.000
 70
    32
  0
VERTEX
  8
M54LXLIFT
 62
3
 10
6347.463
 20
-7572.952
 30
-136.000
 70
    32
  0
VERTEX
  8
M54LXLIFT
 62
3
 10
6357.414
 20
-7570.033
 30
-136.000
 70
    32
  0
SEQEND
  8
M54LXLIFT
  0
POLYLINE
  8
M54LXLIFT
 62
3
 66
     1
 70
     9
  0
VERTEX
  8
M54LXLIFT
 62
3
 10
6335.248
 20
-7630.483
 30
-116.000
 70
    32
  0
VERTEX
  8
M54LXLIFT
 62
3
 10
6343.716
 20
-7616.859
 30
-116.000
 70
    32
  0
VERTEX
  8
M54LXLIFT
 62
3
 10
6348.186
 20
-7600.161
 30
-116.000
 70
    32
  0
VERTEX
  8
M54LXLIFT
 62
3
 10
6340.295
 20
-7598.627
 30
-116.000
 70
    32
  0
VERTEX
  8
M54LXLIFT
 62
3
 10
6332.048
 20
-7585.130
 30
-116.000
 70
    32
  0
VERTEX
  8
M54LXLIFT
 62
3
 10
6326.347
 20
-7586.139
 30
-116.000
 70
    32
  0
VERTEX
  8
M54LXLIFT
 62
3
 10
6324.257
 20
-7598.039
 30
-116.000
 70
    32
  0
VERTEX
  8
M54LXLIFT
 62
3
 10
6316.308
 20
-7614.011
 30
-116.000
 70
    32
  0
VERTEX
  8
M54LXLIFT
 62
3
 10
6324.206
 20
-7619.579
 30
-116.000
 70
    32
  0
SEQEND
  8
M54LXLIFT
  0
POLYLINE
  8
M54LXLIFT
 62
3
 66
     1
 70
     9
  0
VERTEX
  8
M54LXLIFT
 62
3
 10
6316.345
 20
-7508.355
 30
-102.000
 70
    32
  0
VERTEX
  8
M54LXLIFT
 62
3
 10
6299.143
 20
-7510.444
 30
-102.000
 70
    32
  0
VERTEX
  8
M54LXLIFT
 62
3
 10
6288.165
 20
-7514.200
 30
-102.000
 70
    32
  0
VERTEX
  8
M54LXLIFT
 62
3
 10
6274.308
 20
-7529.091
 30
-102.000
 70
    32
  0
VERTEX
  8
M54LXLIFT
 62
3
 10
6285.194
 20
-7541.187
 30
-102.000
 70
    32
  0
VERTEX
  8
M54LXLIFT
 62
3
 10
6289.641
 20
-7550.573
 30
-102.000
 70
    32
  0
VERTEX
  8
M54LXLIFT
 62
3
 10
6294.734
 20
-7571.898
 30
-102.000
 70
    32
  0
VERTEX
  8
M54LXLIFT
 62
3
 10
6307.769
 20
-7579.924
 30
-102.000
 70
    32
  0
VERTEX
  8
M54LXLIFT
 62
3
 10
6308.987
 20
-7593.841
 30
-102.000
 70
    32
  0
VERTEX
  8
M54LXLIFT
 62
3
 10
6303.020
 20
-7601.783
 30
-102.000
 70
    32
  0
VERTEX
  8
M54LXLIFT
 62
3
 10
6308.494
 20
-7615.864
 30
-102.000
 70
    32
  0
VERTEX
  8
M54LXLIFT
 62
3
 10
6325.511
 20
-7628.606
 30
-102.000
 70
    32
  0
VERTEX
  8
M54LXLIFT
 62
3
 10
6333.002
 20
-7635.447
 30
-102.000
 70
    32
  0
VERTEX
  8
M54LXLIFT
 62
3
 10
6338.074
 20
-7631.205
 30
-102.000
 70
    32
  0
VERTEX
  8
M54LXLIFT
 62
3
 10
6339.759
 20
-7616.043
 30
-102.000
 70
    32
  0
VERTEX
  8
M54LXLIFT
 62
3
 10
6333.950
 20
-7591.647
 30
-102.000
 70
    32
  0
VERTEX
  8
M54LXLIFT
 62
3
 10
6324.741
 20
-7574.084
 30
-102.000
 70
    32
  0
VERTEX
  8
M54LXLIFT
 62
3
 10
6321.984
 20
-7567.167
 30
-102.000
 70
    32
  0
VERTEX
  8
M54LXLIFT
 62
3
 10
6310.763
 20
-7555.207
 30
-102.000
 70
    32
  0
VERTEX
  8
M54LXLIFT
 62
3
 10
6309.841
 20
-7540.203
 30
-102.000
 70
    32
  0
VERTEX
  8
M54LXLIFT
 62
3
 10
6314.263
 20
-7532.081
 30
-102.000
 70
    32
  0
VERTEX
  8
M54LXLIFT
 62
3
 10
6320.547
 20
-7524.126
 30
-102.000
 70
    32
  0
SEQEND
  8
M54LXLIFT
  0
POLYLINE
  8
M54LXLIFT
 62
3
 66
     1
 70
     9
  0
VERTEX
  8
M54LXLIFT
 62
3
 10
6345.234
 20
-7633.054
 30
-121.000
 70
    32
  0
VERTEX
  8
M54LXLIFT
 62
3
 10
6346.989
 20
-7614.389
 30
-121.000
 70
    32
  0
VERTEX
  8
M54LXLIFT
 62
3
 10
6348.859
 20
-7602.161
 30
-121.000
 70
    32
  0
VERTEX
  8
M54LXLIFT
 62
3
 10
6339.542
 20
-7590.241
 30
-121.000
 70
    32
  0
VERTEX
  8
M54LXLIFT
 62
3
 10
6330.065
 20
-7596.043
 30
-121.000
 70
    32
  0
VERTEX
  8
M54LXLIFT
 62
3
 10
6329.645
 20
-7599.501
 30
-121.000
 70
    32
  0
VERTEX
  8
M54LXLIFT
 62
3
 10
6326.232
 20
-7598.395
 30
-121.000
 70
    32
  0
VERTEX
  8
M54LXLIFT
 62
3
 10
6328.331
 20
-7609.803
 30
-121.000
 70
    32
  0
VERTEX
  8
M54LXLIFT
 62
3
 10
6337.436
 20
-7619.486
 30
-121.000
 70
    32
  0
VERTEX
  8
M54LXLIFT
 62
3
 10
6336.199
 20
-7631.689
 30
-121.000
 70
    32
  0
SEQEND
  8
M54LXLIFT
  0
POLYLINE
  8
M54LXLIFT
 62
3
 66
     1
 70
     9
  0
VERTEX
  8
M54LXLIFT
 62
3
 10
6343.859
 20
-7633.224
 30
-129.000
 70
    32
  0
VERTEX
  8
M54LXLIFT
 62
3
 10
6347.615
 20
-7620.738
 30
-129.000
 70
    32
  0
VERTEX
  8
M54LXLIFT
 62
3
 10
6352.513
 20
-7602.262
 30
-129.000
 70
    32
  0
VERTEX
  8
M54LXLIFT
 62
3
 10
6353.012
 20
-7595.217
 30
-129.000
 70
    32
  0
VERTEX
  8
M54LXLIFT
 62
3
 10
6347.819
 20
-7594.589
 30
-129.000
 70
    32
  0
VERTEX
  8
M54LXLIFT
 62
3
 10
6342.931
 20
-7579.502
 30
-129.000
 70
    32
  0
VERTEX
  8
M54LXLIFT
 62
3
 10
6335.073
 20
-7577.098
 30
-129.000
 70
    32
  0
VERTEX
  8
M54LXLIFT
 62
3
 10
6331.259
 20
-7580.994
 30
-129.000
 70
    32
  0
VERTEX
  8
M54LXLIFT
 62
3
 10
6337.781
 20
-7596.863
 30
-129.000
 70
    32
  0
VERTEX
  8
M54LXLIFT
 62
3
 10
6338.359
 20
-7602.387
 30
-129.000
 70
    32
  0
VERTEX
  8
M54LXLIFT
 62
3
 10
6334.880
 20
-7614.353
 30
-129.000
 70
    32
  0
VERTEX
  8
M54LXLIFT
 62
3
 10
6333.199
 20
-7630.976
 30
-129.000
 70
    32
  0
SEQEND
  8
M54LXLIFT
  0
POLYLINE
  8
M54LXLIFT
 62
4
 66
     1
 70
     9
  0
VERTEX
  8
M54LXLIFT
 62
4
 10
6321.615
 20
-7656.266
 30
-98.000
 70
    32
  0
VERTEX
  8
M54LXLIFT
 62
4
 10
6318.827
 20
-7673.648
 30
-98.000
 70
    32
  0
VERTEX
  8
M54LXLIFT
 62
4
 10
6314.824
 20
-7697.577
 30
-98.000
 70
    32
  0
VERTEX
  8
M54LXLIFT
 62
4
 10
6308.943
 20
-7719.825
 30
-98.000
 70
    32
  0
VERTEX
  8
M54LXLIFT
 62
4
 10
6310.025
 20
-7726.984
 30
-98.000
 70
    32
  0
VERTEX
  8
M54LXLIFT
 62
4
 10
6323.122
 20
-7762.723
 30
-98.000
 70
    32
  0
VERTEX
  8
M54LXLIFT
 62
4
 10
6325.321
 20
-7769.176
 30
-98.000
 70
    32
  0
VERTEX
  8
M54LXLIFT
 62
4
 10
6326.391
 20
-7783.636
 30
-98.000
 70
    32
  0
VERTEX
  8
M54LXLIFT
 62
4
 10
6335.591
 20
-7798.049
 30
-98.000
 70
    32
  0
VERTEX
  8
M54LXLIFT
 62
4
 10
6359.487
 20
-7783.788
 30
-98.000
 70
    32
  0
VERTEX
  8
M54LXLIFT
 62
4
 10
6356.428
 20
-7778.397
 30
-98.000
 70
    32
  0
VERTEX
  8
M54LXLIFT
 62
4
 10
6367.548
 20
-7774.537
 30
-98.000
 70
    32
  0
VERTEX
  8
M54LXLIFT
 62
4
 10
6385.924
 20
-7757.332
 30
-98.000
 70
    32
  0
VERTEX
  8
M54LXLIFT
 62
4
 10
6382.485
 20
-7752.763
 30
-98.000
 70
    32
  0
VERTEX
  8
M54LXLIFT
 62
4
 10
6374.174
 20
-7759.583
 30
-98.000
 70
    32
  0
VERTEX
  8
M54LXLIFT
 62
4
 10
6365.401
 20
-7756.507
 30
-98.000
 70
    32
  0
VERTEX
  8
M54LXLIFT
 62
4
 10
6362.816
 20
-7740.865
 30
-98.000
 70
    32
  0
VERTEX
  8
M54LXLIFT
 62
4
 10
6361.641
 20
-7718.643
 30
-98.000
 70
    32
  0
VERTEX
  8
M54LXLIFT
 62
4
 10
6353.334
 20
-7716.207
 30
-98.000
 70
    32
  0
VERTEX
  8
M54LXLIFT
 62
4
 10
6337.709
 20
-7699.402
 30
-98.000
 70
    32
  0
VERTEX
  8
M54LXLIFT
 62
4
 10
6344.420
 20
-7679.487
 30
-98.000
 70
    32
  0
VERTEX
  8
M54LXLIFT
 62
4
 10
6356.947
 20
-7655.006
 30
-98.000
 70
    32
  0
VERTEX
  8
M54LXLIFT
 62
4
 10
6359.204
 20
-7648.244
 30
-98.000
 70
    32
  0
VERTEX
  8
M54LXLIFT
 62
4
 10
6352.462
 20
-7640.639
 30
-98.000
 70
    32
  0
VERTEX
  8
M54LXLIFT
 62
4
 10
6344.182
 20
-7645.260
 30
-98.000
 70
    32
  0
VERTEX
  8
M54LXLIFT
 62
4
 10
6344.807
 20
-7654.928
 30
-98.000
 70
    32
  0
SEQEND
  8
M54LXLIFT
  0
POLYLINE
  8
M54LXLIFT
 62
1
 66
     1
 70
     9
  0
VERTEX
  8
M54LXLIFT
 62
1
 10
6342.756
 20
-7681.138
 30
-77.000
 70
    32
  0
VERTEX
  8
M54LXLIFT
 62
1
 10
6339.080
 20
-7704.125
 30
-77.000
 70
    32
  0
VERTEX
  8
M54LXLIFT
 62
1
 10
6349.456
 20
-7716.056
 30
-77.000
 70
    32
  0
VERTEX
  8
M54LXLIFT
 62
1
 10
6357.107
 20
-7716.671
 30
-77.000
 70
    32
  0
VERTEX
  8
M54LXLIFT
 62
1
 10
6361.150
 20
-7721.893
 30
-77.000
 70
    32
  0
VERTEX
  8
M54LXLIFT
 62
1
 10
6348.714
 20
-7730.238
 30
-77.000
 70
    32
  0
VERTEX
  8
M54LXLIFT
 62
1
 10
6343.260
 20
-7742.307
 30
-77.000
 70
    32
  0
VERTEX
  8
M54LXLIFT
 62
1
 10
6353.295
 20
-7754.815
 30
-77.000
 70
    32
  0
VERTEX
  8
M54LXLIFT
 62
1
 10
6361.996
 20
-7757.607
 30
-77.000
 70
    32
  0
VERTEX
  8
M54LXLIFT
 62
1
 10
6367.142
 20
-7761.803
 30
-77.000
 70
    32
  0
VERTEX
  8
M54LXLIFT
 62
1
 10
6364.151
 20
-7770.977
 30
-77.000
 70
    32
  0
VERTEX
  8
M54LXLIFT
 62
1
 10
6342.976
 20
-7784.522
 30
-77.000
 70
    32
  0
VERTEX
  8
M54LXLIFT
 62
1
 10
6328.045
 20
-7795.568
 30
-77.000
 70
    32
  0
VERTEX
  8
M54LXLIFT
 62
1
 10
6315.313
 20
-7798.893
 30
-77.000
 70
    32
  0
VERTEX
  8
M54LXLIFT
 62
1
 10
6309.668
 20
-7790.589
 30
-77.000
 70
    32
  0
VERTEX
  8
M54LXLIFT
 62
1
 10
6309.510
 20
-7768.774
 30
-77.000
 70
    32
  0
VERTEX
  8
M54LXLIFT
 62
1
 10
6313.271
 20
-7744.414
 30
-77.000
 70
    32
  0
VERTEX
  8
M54LXLIFT
 62
1
 10
6315.419
 20
-7721.128
 30
-77.000
 70
    32
  0
VERTEX
  8
M54LXLIFT
 62
1
 10
6319.804
 20
-7699.259
 30
-77.000
 70
    32
  0
VERTEX
  8
M54LXLIFT
 62
1
 10
6322.948
 20
-7678.079
 30
-77.000
 70
    32
  0
VERTEX
  8
M54LXLIFT
 62
1
 10
6326.899
 20
-7663.511
 30
-77.000
 70
    32
  0
VERTEX
  8
M54LXLIFT
 62
1
 10
6331.115
 20
-7654.967
 30
-77.000
 70
    32
  0
VERTEX
  8
M54LXLIFT
 62
1
 10
6336.970
 20
-7652.533
 30
-77.000
 70
    32
  0
VERTEX
  8
M54LXLIFT
 62
1
 10
6344.073
 20
-7653.441
 30
-77.000
 70
    32
  0
VERTEX
  8
M54LXLIFT
 62
1
 10
6353.896
 20
-7662.831
 30
-77.000
 70
    32
  0
VERTEX
  8
M54LXLIFT
 62
1
 10
6358.566
 20
-7673.377
 30
-77.000
 70
    32
  0
SEQEND
  8
M54LXLIFT
  0
POLYLINE
  8
M54LXLIFT
 62
4
 66
     1
 70
     9
  0
VERTEX
  8
M54LXLIFT
 62
4
 10
6375.101
 20
-7769.368
 30
-121.000
 70
    32
  0
VERTEX
  8
M54LXLIFT
 62
4
 10
6371.678
 20
-7755.988
 30
-121.000
 70
    32
  0
VERTEX
  8
M54LXLIFT
 62
4
 10
6371.002
 20
-7741.155
 30
-121.000
 70
    32
  0
VERTEX
  8
M54LXLIFT
 62
4
 10
6358.368
 20
-7732.298
 30
-121.000
 70
    32
  0
VERTEX
  8
M54LXLIFT
 62
4
 10
6354.860
 20
-7722.241
 30
-121.000
 70
    32
  0
VERTEX
  8
M54LXLIFT
 62
4
 10
6366.857
 20
-7717.215
 30
-121.000
 70
    32
  0
VERTEX
  8
M54LXLIFT
 62
4
 10
6370.174
 20
-7709.369
 30
-121.000
 70
    32
  0
VERTEX
  8
M54LXLIFT
 62
4
 10
6365.852
 20
-7699.687
 30
-121.000
 70
    32
  0
VERTEX
  8
M54LXLIFT
 62
4
 10
6359.363
 20
-7697.339
 30
-121.000
 70
    32
  0
VERTEX
  8
M54LXLIFT
 62
4
 10
6351.177
 20
-7685.032
 30
-121.000
 70
    32
  0
VERTEX
  8
M54LXLIFT
 62
4
 10
6368.579
 20
-7668.903
 30
-121.000
 70
    32
  0
VERTEX
  8
M54LXLIFT
 62
4
 10
6361.626
 20
-7661.133
 30
-121.000
 70
    32
  0
VERTEX
  8
M54LXLIFT
 62
4
 10
6355.293
 20
-7654.216
 30
-121.000
 70
    32
  0
VERTEX
  8
M54LXLIFT
 62
4
 10
6336.651
 20
-7667.443
 30
-121.000
 70
    32
  0
VERTEX
  8
M54LXLIFT
 62
4
 10
6332.817
 20
-7675.773
 30
-121.000
 70
    32
  0
VERTEX
  8
M54LXLIFT
 62
4
 10
6331.198
 20
-7688.796
 30
-121.000
 70
    32
  0
VERTEX
  8
M54LXLIFT
 62
4
 10
6334.493
 20
-7700.204
 30
-121.000
 70
    32
  0
VERTEX
  8
M54LXLIFT
 62
4
 10
6338.802
 20
-7710.766
 30
-121.000
 70
    32
  0
VERTEX
  8
M54LXLIFT
 62
4
 10
6326.835
 20
-7729.138
 30
-121.000
 70
    32
  0
VERTEX
  8
M54LXLIFT
 62
4
 10
6325.851
 20
-7734.962
 30
-121.000
 70
    32
  0
VERTEX
  8
M54LXLIFT
 62
4
 10
6332.290
 20
-7759.516
 30
-121.000
 70
    32
  0
VERTEX
  8
M54LXLIFT
 62
4
 10
6338.234
 20
-7773.672
 30
-121.000
 70
    32
  0
VERTEX
  8
M54LXLIFT
 62
4
 10
6345.825
 20
-7789.346
 30
-121.000
 70
    32
  0
SEQEND
  8
M54LXLIFT
  0
POLYLINE
  8
M54LXLIFT
 62
4
 66
     1
 70
     9
  0
VERTEX
  8
M54LXLIFT
 62
4
 10
6391.841
 20
-7664.771
 30
-190.000
 70
    32
  0
VERTEX
  8
M54LXLIFT
 62
4
 10
6388.608
 20
-7680.920
 30
-190.000
 70
    32
  0
VERTEX
  8
M54LXLIFT
 62
4
 10
6384.670
 20
-7682.375
 30
-190.000
 70
    32
  0
VERTEX
  8
M54LXLIFT
 62
4
 10
6379.486
 20
-7683.759
 30
-190.000
 70
    32
  0
VERTEX
  8
M54LXLIFT
 62
4
 10
6372.029
 20
-7696.792
 30
-190.000
 70
    32
  0
VERTEX
  8
M54LXLIFT
 62
4
 10
6365.169
 20
-7703.632
 30
-190.000
 70
    32
  0
VERTEX
  8
M54LXLIFT
 62
4
 10
6378.741
 20
-7717.649
 30
-190.000
 70
    32
  0
VERTEX
  8
M54LXLIFT
 62
4
 10
6398.085
 20
-7704.979
 30
-190.000
 70
    32
  0
VERTEX
  8
M54LXLIFT
 62
4
 10
6412.857
 20
-7690.206
 30
-190.000
 70
    32
  0
VERTEX
  8
M54LXLIFT
 62
4
 10
6410.889
 20
-7665.569
 30
-190.000
 70
    32
  0
SEQEND
  8
M54LXLIFT
  0
POLYLINE
  8
M54LXLIFT
 62
4
 66
     1
 70
     9
  0
VERTEX
  8
M54LXLIFT
 62
4
 10
6383.468
 20
-7732.083
 30
-179.000
 70
    32
  0
VERTEX
  8
M54LXLIFT
 62
4
 10
6388.633
 20
-7726.795
 30
-179.000
 70
    32
  0
VERTEX
  8
M54LXLIFT
 62
4
 10
6387.217
 20
-7720.933
 30
-179.000
 70
    32
  0
VERTEX
  8
M54LXLIFT
 62
4
 10
6385.224
 20
-7713.416
 30
-179.000
 70
    32
  0
VERTEX
  8
M54LXLIFT
 62
4
 10
6387.856
 20
-7707.384
 30
-179.000
 70
    32
  0
VERTEX
  8
M54LXLIFT
 62
4
 10
6400.638
 20
-7693.328
 30
-179.000
 70
    32
  0
VERTEX
  8
M54LXLIFT
 62
4
 10
6401.600
 20
-7686.238
 30
-179.000
 70
    32
  0
VERTEX
  8
M54LXLIFT
 62
4
 10
6385.404
 20
-7658.689
 30
-179.000
 70
    32
  0
VERTEX
  8
M54LXLIFT
 62
4
 10
6378.080
 20
-7671.523
 30
-179.000
 70
    32
  0
VERTEX
  8
M54LXLIFT
 62
4
 10
6373.011
 20
-7672.236
 30
-179.000
 70
    32
  0
VERTEX
  8
M54LXLIFT
 62
4
 10
6363.595
 20
-7673.452
 30
-179.000
 70
    32
  0
VERTEX
  8
M54LXLIFT
 62
4
 10
6361.131
 20
-7683.970
 30
-179.000
 70
    32
  0
VERTEX
  8
M54LXLIFT
 62
4
 10
6365.448
 20
-7690.629
 30
-179.000
 70
    32
  0
VERTEX
  8
M54LXLIFT
 62
4
 10
6369.471
 20
-7704.978
 30
-179.000
 70
    32
  0
VERTEX
  8
M54LXLIFT
 62
4
 10
6370.174
 20
-7716.206
 30
-179.000
 70
    32
  0
VERTEX
  8
M54LXLIFT
 62
4
 10
6376.526
 20
-7726.616
 30
-179.000
 70
    32
  0
SEQEND
  8
M54LXLIFT
  0
POLYLINE
  8
M54LXLIFT
 62
4
 66
     1
 70
     9
  0
VERTEX
  8
M54LXLIFT
 62
4
 10
6428.377
 20
-7689.630
 30
-201.000
 70
    32
  0
VERTEX
  8
M54LXLIFT
 62
4
 10
6419.572
 20
-7696.658
 30
-201.000
 70
    32
  0
VERTEX
  8
M54LXLIFT
 62
4
 10
6403.559
 20
-7710.970
 30
-201.000
 70
    32
  0
VERTEX
  8
M54LXLIFT
 62
4
 10
6381.267
 20
-7720.059
 30
-201.000
 70
    32
  0
VERTEX
  8
M54LXLIFT
 62
4
 10
6374.357
 20
-7710.518
 30
-201.000
 70
    32
  0
VERTEX
  8
M54LXLIFT
 62
4
 10
6384.265
 20
-7687.927
 30
-201.000
 70
    32
  0
VERTEX
  8
M54LXLIFT
 62
4
 10
6396.561
 20
-7677.176
 30
-201.000
 70
    32
  0
VERTEX
  8
M54LXLIFT
 62
4
 10
6413.574
 20
-7667.242
 30
-201.000
 70
    32
  0
VERTEX
  8
M54LXLIFT
 62
4
 10
6419.539
 20
-7677.577
 30
-201.000
 70
    32
  0
SEQEND
  8
M54LXLIFT
  0
POLYLINE
  8
M54LXLIFT
 62
4
 66
     1
 70
     9
  0
VERTEX
  8
M54LXLIFT
 62
4
 10
6385.572
 20
-7694.855
 30
-210.000
 70
    32
  0
VERTEX
  8
M54LXLIFT
 62
4
 10
6381.113
 20
-7714.694
 30
-210.000
 70
    32
  0
VERTEX
  8
M54LXLIFT
 62
4
 10
6404.855
 20
-7716.443
 30
-210.000
 70
    32
  0
VERTEX
  8
M54LXLIFT
 62
4
 10
6413.979
 20
-7705.747
 30
-210.000
 70
    32
  0
VERTEX
  8
M54LXLIFT
 62
4
 10
6423.671
 20
-7710.896
 30
-210.000
 70
    32
  0
VERTEX
  8
M54LXLIFT
 62
4
 10
6430.246
 20
-7704.421
 30
-210.000
 70
    32
  0
VERTEX
  8
M54LXLIFT
 62
4
 10
6426.160
 20
-7690.336
 30
-210.000
 70
    32
  0
VERTEX
  8
M54LXLIFT
 62
4
 10
6425.221
 20
-7673.998
 30
-210.000
 70
    32
  0
VERTEX
  8
M54LXLIFT
 62
4
 10
6424.551
 20
-7669.004
 30
-210.000
 70
    32
  0
SEQEND
  8
M54LXLIFT
  0
POLYLINE
  8
M54LXLIFT
 62
4
 66
     1
 70
     9
  0
VERTEX
  8
M54LXLIFT
 62
4
 10
6357.566
 20
-7674.377
 30
-87.000
 70
    32
  0
VERTEX
  8
M54LXLIFT
 62
4
 10
6352.896
 20
-7663.831
 30
-87.000
 70
    32
  0
VERTEX
  8
M54LXLIFT
 62
4
 10
6343.073
 20
-7654.441
 30
-87.000
 70
    32
  0
VERTEX
  8
M54LXLIFT
 62
4
 10
6335.970
 20
-7653.533
 30
-87.000
 70
    32
  0
VERTEX
  8
M54LXLIFT
 62
4
 10
6330.115
 20
-7655.967
 30
-87.000
 70
    32
  0
VERTEX
  8
M54LXLIFT
 62
4
 10
6325.899
 20
-7664.511
 30
-87.000
 70
    32
  0
VERTEX
  8
M54LXLIFT
 62
4
 10
6321.948
 20
-7679.079
 30
-87.000
 70
    32
  0
VERTEX
  8
M54LXLIFT
 62
4
 10
6318.804
 20
-7700.259
 30
-87.000
 70
    32
  0
VERTEX
  8
M54LXLIFT
 62
4
 10
6314.419
 20
-7722.128
 30
-87.000
 70
    32
  0
VERTEX
  8
M54LXLIFT
 62
4
 10
6312.271
 20
-7745.414
 30
-87.000
 70
    32
  0
VERTEX
  8
M54LXLIFT
 62
4
 10
6308.510
 20
-7769.774
 30
-87.000
 70
    32
  0
VERTEX
  8
M54LXLIFT
 62
4
 10
6308.668
 20
-7791.589
 30
-87.000
 70
    32
  0
VERTEX
  8
M54LXLIFT
 62
4
 10
6314.313
 20
-7799.893
 30
-87.000
 70
    32
  0
VERTEX
  8
M54LXLIFT
 62
4
 10
6327.045
 20
-7796.568
 30
-87.000
 70
    32
  0
VERTEX
  8
M54LXLIFT
 62
4
 10
6341.976
 20
-7785.522
 30
-87.000
 70
    32
  0
VERTEX
  8
M54LXLIFT
 62
4
 10
6363.151
 20
-7771.977
 30
-87.000
 70
    32
  0
VERTEX
  8
M54LXLIFT
 62
4
 10
6366.142
 20
-7762.803
 30
-87.000
 70
    32
  0
VERTEX
  8
M54LXLIFT
 62
4
 10
6360.996
 20
-7758.607
 30
-87.000
 70
    32
  0
VERTEX
  8
M54LXLIFT
 62
4
 10
6352.295
 20
-7755.815
 30
-87.000
 70
    32
  0
VERTEX
  8
M54LXLIFT
 62
4
 10
6342.260
 20
-7743.307
 30
-87.000
 70
    32
  0
VERTEX
  8
M54LXLIFT
 62
4
 10
6347.714
 20
-7731.238
 30
-87.000
 70
    32
  0
VERTEX
  8
M54LXLIFT
 62
4
 10
6360.150
 20
-7722.893
 30
-87.000
 70
    32
  0
VERTEX
  8
M54LXLIFT
 62
4
 10
6356.107
 20
-7717.671
 30
-87.000
 70
    32
  0
VERTEX
  8
M54LXLIFT
 62
4
 10
6348.456
 20
-7717.056
 30
-87.000
 70
    32
  0
VERTEX
  8
M54LXLIFT
 62
4
 10
6338.080
 20
-7705.125
 30
-87.000
 70
    32
  0
VERTEX
  8
M54LXLIFT
 62
4
 10
6341.756
 20
-7682.138
 30
-87.000
 70
    32
  0
SEQEND
  8
M54LXLIFT
  0
POLYLINE
  8
M54LXLIFT
 62
6
 66
     1
 70
     9
  0
VERTEX
  8
M54LXLIFT
 62
6
 10
6244.876
 20
-7870.741
 30
-150.000
 70
    32
  0
VERTEX
  8
M54LXLIFT
 62
6
 10
6244.277
 20
-7886.148
 30
-150.000
 70
    32
  0
VERTEX
  8
M54LXLIFT
 62
6
 10
6260.842
 20
-7888.835
 30
-150.000
 70
    32
  0
VERTEX
  8
M54LXLIFT
 62
6
 10
6259.172
 20
-7896.811
 30
-150.000
 70
    32
  0
VERTEX
  8
M54LXLIFT
 62
6
 10
6263.655
 20
-7914.216
 30
-150.000
 70
    32
  0
VERTEX
  8
M54LXLIFT
 62
6
 10
6268.742
 20
-7938.090
 30
-150.000
 70
    32
  0
VERTEX
  8
M54LXLIFT
 62
6
 10
6271.473
 20
-7943.913
 30
-150.000
 70
    32
  0
VERTEX
  8
M54LXLIFT
 62
6
 10
6279.864
 20
-7959.838
 30
-150.000
 70
    32
  0
VERTEX
  8
M54LXLIFT
 62
6
 10
6271.502
 20
-7964.155
 30
-150.000
 70
    32
  0
VERTEX
  8
M54LXLIFT
 62
6
 10
6264.831
 20
-7950.350
 30
-150.000
 70
    32
  0
VERTEX
  8
M54LXLIFT
 62
6
 10
6258.413
 20
-7941.001
 30
-150.000
 70
    32
  0
VERTEX
  8
M54LXLIFT
 62
6
 10
6243.478
 20
-7936.510
 30
-150.000
 70
    32
  0
VERTEX
  8
M54LXLIFT
 62
6
 10
6236.376
 20
-7939.717
 30
-150.000
 70
    32
  0
VERTEX
  8
M54LXLIFT
 62
6
 10
6232.381
 20
-7933.176
 30
-150.000
 70
    32
  0
VERTEX
  8
M54LXLIFT
 62
6
 10
6235.519
 20
-7922.865
 30
-150.000
 70
    32
  0
VERTEX
  8
M54LXLIFT
 62
6
 10
6238.870
 20
-7909.817
 30
-150.000
 70
    32
  0
VERTEX
  8
M54LXLIFT
 62
6
 10
6240.301
 20
-7902.873
 30
-150.000
 70
    32
  0
VERTEX
  8
M54LXLIFT
 62
6
 10
6236.049
 20
-7890.046
 30
-150.000
 70
    32
  0
VERTEX
  8
M54LXLIFT
 62
6
 10
6234.029
 20
-7875.960
 30
-150.000
 70
    32
  0
SEQEND
  8
M54LXLIFT
  0
POLYLINE
  8
M54LXLIFT
 62
6
 66
     1
 70
     9
  0
VERTEX
  8
M54LXLIFT
 62
6
 10
6228.139
 20
-7879.837
 30
-158.000
 70
    32
  0
VERTEX
  8
M54LXLIFT
 62
6
 10
6229.297
 20
-7886.267
 30
-158.000
 70
    32
  0
VERTEX
  8
M54LXLIFT
 62
6
 10
6238.521
 20
-7908.575
 30
-158.000
 70
    32
  0
VERTEX
  8
M54LXLIFT
 62
6
 10
6249.867
 20
-7920.575
 30
-158.000
 70
    32
  0
VERTEX
  8
M54LXLIFT
 62
6
 10
6261.723
 20
-7937.953
 30
-158.000
 70
    32
  0
VERTEX
  8
M54LXLIFT
 62
6
 10
6273.273
 20
-7946.771
 30
-158.000
 70
    32
  0
VERTEX
  8
M54LXLIFT
 62
6
 10
6276.511
 20
-7939.671
 30
-158.000
 70
    32
  0
VERTEX
  8
M54LXLIFT
 62
6
 10
6272.982
 20
-7931.152
 30
-158.000
 70
    32
  0
VERTEX
  8
M54LXLIFT
 62
6
 10
6265.267
 20
-7918.924
 30
-158.000
 70
    32
  0
VERTEX
  8
M54LXLIFT
 62
6
 10
6265.228
 20
-7913.749
 30
-158.000
 70
    32
  0
VERTEX
  8
M54LXLIFT
 62
6
 10
6255.135
 20
-7894.451
 30
-158.000
 70
    32
  0
VERTEX
  8
M54LXLIFT
 62
6
 10
6244.663
 20
-7869.354
 30
-158.000
 70
    32
  0
VERTEX
  8
M54LXLIFT
 62
6
 10
6241.690
 20
-7870.193
 30
-158.000
 70
    32
  0
SEQEND
  8
M54LXLIFT
  0
POLYLINE
  8
M54LXLIFT
 62
1
 66
     1
 70
     9
  0
VERTEX
  8
M54LXLIFT
 62
1
 10
6229.995
 20
-7925.819
 30
-120.000
 70
    32
  0
VERTEX
  8
M54LXLIFT
 62
1
 10
6226.747
 20
-7909.243
 30
-120.000
 70
    32
  0
VERTEX
  8
M54LXLIFT
 62
1
 10
6222.900
 20
-7894.711
 30
-120.000
 70
    32
  0
VERTEX
  8
M54LXLIFT
 62
1
 10
6217.111
 20
-7883.825
 30
-120.000
 70
    32
  0
VERTEX
  8
M54LXLIFT
 62
1
 10
6214.626
 20
-7872.426
 30
-120.000
 70
    32
  0
VERTEX
  8
M54LXLIFT
 62
1
 10
6232.480
 20
-7857.912
 30
-120.000
 70
    32
  0
VERTEX
  8
M54LXLIFT
 62
1
 10
6249.006
 20
-7876.927
 30
-120.000
 70
    32
  0
VERTEX
  8
M54LXLIFT
 62
1
 10
6250.231
 20
-7888.680
 30
-120.000
 70
    32
  0
VERTEX
  8
M54LXLIFT
 62
1
 10
6250.829
 20
-7909.728
 30
-120.000
 70
    32
  0
VERTEX
  8
M54LXLIFT
 62
1
 10
6250.959
 20
-7918.267
 30
-120.000
 70
    32
  0
VERTEX
  8
M54LXLIFT
 62
1
 10
6256.404
 20
-7916.667
 30
-120.000
 70
    32
  0
VERTEX
  8
M54LXLIFT
 62
1
 10
6254.541
 20
-7924.679
 30
-120.000
 70
    32
  0
VERTEX
  8
M54LXLIFT
 62
1
 10
6246.325
 20
-7929.974
 30
-120.000
 70
    32
  0
SEQEND
  8
M54LXLIFT
  0
POLYLINE
  8
M54LXLIFT
 62
6
 66
     1
 70
     9
  0
VERTEX
  8
M54LXLIFT
 62
6
 10
6245.325
 20
-7930.974
 30
-130.000
 70
    32
  0
VERTEX
  8
M54LXLIFT
 62
6
 10
6253.541
 20
-7925.679
 30
-130.000
 70
    32
  0
VERTEX
  8
M54LXLIFT
 62
6
 10
6255.404
 20
-7917.667
 30
-130.000
 70
    32
  0
VERTEX
  8
M54LXLIFT
 62
6
 10
6249.959
 20
-7919.267
 30
-130.000
 70
    32
  0
VERTEX
  8
M54LXLIFT
 62
6
 10
6249.829
 20
-7910.728
 30
-130.000
 70
    32
  0
VERTEX
  8
M54LXLIFT
 62
6
 10
6249.231
 20
-7889.680
 30
-130.000
 70
    32
  0
VERTEX
  8
M54LXLIFT
 62
6
 10
6248.006
 20
-7877.927
 30
-130.000
 70
    32
  0
VERTEX
  8
M54LXLIFT
 62
6
 10
6231.480
 20
-7858.912
 30
-130.000
 70
    32
  0
VERTEX
  8
M54LXLIFT
 62
6
 10
6213.626
 20
-7873.426
 30
-130.000
 70
    32
  0
VERTEX
  8
M54LXLIFT
 62
6
 10
6216.111
 20
-7884.825
 30
-130.000
 70
    32
  0
VERTEX
  8
M54LXLIFT
 62
6
 10
6221.900
 20
-7895.711
 30
-130.000
 70
    32
  0
VERTEX
  8
M54LXLIFT
 62
6
 10
6225.747
 20
-7910.243
 30
-130.000
 70
    32
  0
VERTEX
  8
M54LXLIFT
 62
6
 10
6228.995
 20
-7926.819
 30
-130.000
 70
    32
  0
SEQEND
  8
M54LXLIFT
  0
POLYLINE
  8
M54LXLIFT
 62
6
 66
     1
 70
     9
  0
VERTEX
  8
M54LXLIFT
 62
6
 10
6230.449
 20
-7934.004
 30
-140.000
 70
    32
  0
VERTEX
  8
M54LXLIFT
 62
6
 10
6236.287
 20
-7932.459
 30
-140.000
 70
    32
  0
VERTEX
  8
M54LXLIFT
 62
6
 10
6244.644
 20
-7933.318
 30
-140.000
 70
    32
  0
VERTEX
  8
M54LXLIFT
 62
6
 10
6252.856
 20
-7935.916
 30
-140.000
 70
    32
  0
VERTEX
  8
M54LXLIFT
 62
6
 10
6257.386
 20
-7930.645
 30
-140.000
 70
    32
  0
VERTEX
  8
M54LXLIFT
 62
6
 10
6260.415
 20
-7921.682
 30
-140.000
 70
    32
  0
VERTEX
  8
M54LXLIFT
 62
6
 10
6256.195
 20
-7916.058
 30
-140.000
 70
    32
  0
VERTEX
  8
M54LXLIFT
 62
6
 10
6253.804
 20
-7913.233
 30
-140.000
 70
    32
  0
VERTEX
  8
M54LXLIFT
 62
6
 10
6250.239
 20
-7900.163
 30
-140.000
 70
    32
  0
VERTEX
  8
M54LXLIFT
 62
6
 10
6250.358
 20
-7887.666
 30
-140.000
 70
    32
  0
VERTEX
  8
M54LXLIFT
 62
6
 10
6247.342
 20
-7882.794
 30
-140.000
 70
    32
  0
VERTEX
  8
M54LXLIFT
 62
6
 10
6241.389
 20
-7882.246
 30
-140.000
 70
    32
  0
VERTEX
  8
M54LXLIFT
 62
6
 10
6238.406
 20
-7877.568
 30
-140.000
 70
    32
  0
VERTEX
  8
M54LXLIFT
 62
6
 10
6233.575
 20
-7873.044
 30
-140.000
 70
    32
  0
VERTEX
  8
M54LXLIFT
 62
6
 10
6222.645
 20
-7879.835
 30
-140.000
 70
    32
  0
VERTEX
  8
M54LXLIFT
 62
6
 10
6227.760
 20
-7889.813
 30
-140.000
 70
    32
  0
VERTEX
  8
M54LXLIFT
 62
6
 10
6227.608
 20
-7899.286
 30
-140.000
 70
    32
  0
VERTEX
  8
M54LXLIFT
 62
6
 10
6226.730
 20
-7904.936
 30
-140.000
 70
    32
  0
VERTEX
  8
M54LXLIFT
 62
6
 10
6232.172
 20
-7911.191
 30
-140.000
 70
    32
  0
VERTEX
  8
M54LXLIFT
 62
6
 10
6228.993
 20
-7913.841
 30
-140.000
 70
    32
  0
VERTEX
  8
M54LXLIFT
 62
6
 10
6223.696
 20
-7925.659
 30
-140.000
 70
    32
  0
SEQEND
  8
M54LXLIFT
  0
POLYLINE
  8
M54LXLIFT
 62
6
 66
     1
 70
     9
  0
VERTEX
  8
M54LXLIFT
 62
6
 10
6237.989
 20
-7889.756
 30
-168.000
 70
    32
  0
VERTEX
  8
M54LXLIFT
 62
6
 10
6239.985
 20
-7897.354
 30
-168.000
 70
    32
  0
VERTEX
  8
M54LXLIFT
 62
6
 10
6240.586
 20
-7912.099
 30
-168.000
 70
    32
  0
VERTEX
  8
M54LXLIFT
 62
6
 10
6247.795
 20
-7920.987
 30
-168.000
 70
    32
  0
VERTEX
  8
M54LXLIFT
 62
6
 10
6254.401
 20
-7941.357
 30
-168.000
 70
    32
  0
VERTEX
  8
M54LXLIFT
 62
6
 10
6244.924
 20
-7949.547
 30
-168.000
 70
    32
  0
VERTEX
  8
M54LXLIFT
 62
6
 10
6247.374
 20
-7955.389
 30
-168.000
 70
    32
  0
VERTEX
  8
M54LXLIFT
 62
6
 10
6258.430
 20
-7954.230
 30
-168.000
 70
    32
  0
VERTEX
  8
M54LXLIFT
 62
6
 10
6264.001
 20
-7954.821
 30
-168.000
 70
    32
  0
VERTEX
  8
M54LXLIFT
 62
6
 10
6271.911
 20
-7953.250
 30
-168.000
 70
    32
  0
VERTEX
  8
M54LXLIFT
 62
6
 10
6283.919
 20
-7958.273
 30
-168.000
 70
    32
  0
VERTEX
  8
M54LXLIFT
 62
6
 10
6286.452
 20
-7956.077
 30
-168.000
 70
    32
  0
VERTEX
  8
M54LXLIFT
 62
6
 10
6277.726
 20
-7934.758
 30
-168.000
 70
    32
  0
VERTEX
  8
M54LXLIFT
 62
6
 10
6271.990
 20
-7919.866
 30
-168.000
 70
    32
  0
VERTEX
  8
M54LXLIFT
 62
6
 10
6264.039
 20
-7898.412
 30
-168.000
 70
    32
  0
VERTEX
  8
M54LXLIFT
 62
6
 10
6254.957
 20
-7884.020
 30
-168.000
 70
    32
  0
VERTEX
  8
M54LXLIFT
 62
6
 10
6246.477
 20
-7875.631
 30
-168.000
 70
    32
  0
VERTEX
  8
M54LXLIFT
 62
6
 10
6239.835
 20
-7881.293
 30
-168.000
 70
    32
  0
SEQEND
  8
M54LXLIFT
  0
POLYLINE
  8
M54LXLIFT
 62
6
 66
     1
 70
     9
  0
VERTEX
  8
M54LXLIFT
 62
6
 10
6246.328
 20
-7902.788
 30
-178.000
 70
    32
  0
VERTEX
  8
M54LXLIFT
 62
6
 10
6241.071
 20
-7910.892
 30
-178.000
 70
    32
  0
VERTEX
  8
M54LXLIFT
 62
6
 10
6243.875
 20
-7917.143
 30
-178.000
 70
    32
  0
VERTEX
  8
M54LXLIFT
 62
6
 10
6253.535
 20
-7928.158
 30
-178.000
 70
    32
  0
VERTEX
  8
M54LXLIFT
 62
6
 10
6258.704
 20
-7941.100
 30
-178.000
 70
    32
  0
VERTEX
  8
M54LXLIFT
 62
6
 10
6257.078
 20
-7945.831
 30
-178.000
 70
    32
  0
VERTEX
  8
M54LXLIFT
 62
6
 10
6261.240
 20
-7950.519
 30
-178.000
 70
    32
  0
VERTEX
  8
M54LXLIFT
 62
6
 10
6265.166
 20
-7949.452
 30
-178.000
 70
    32
  0
VERTEX
  8
M54LXLIFT
 62
6
 10
6272.548
 20
-7954.480
 30
-178.000
 70
    32
  0
VERTEX
  8
M54LXLIFT
 62
6
 10
6285.967
 20
-7959.060
 30
-178.000
 70
    32
  0
VERTEX
  8
M54LXLIFT
 62
6
 10
6293.713
 20
-7967.660
 30
-178.000
 70
    32
  0
VERTEX
  8
M54LXLIFT
 62
6
 10
6298.655
 20
-7969.129
 30
-178.000
 70
    32
  0
VERTEX
  8
M54LXLIFT
 62
6
 10
6303.502
 20
-7964.298
 30
-178.000
 70
    32
  0
VERTEX
  8
M54LXLIFT
 62
6
 10
6285.343
 20
-7942.940
 30
-178.000
 70
    32
  0
VERTEX
  8
M54LXLIFT
 62
6
 10
6283.390
 20
-7932.537
 30
-178.000
 70
    32
  0
VERTEX
  8
M54LXLIFT
 62
6
 10
6277.453
 20
-7926.210
 30
-178.000
 70
    32
  0
VERTEX
  8
M54LXLIFT
 62
6
 10
6270.705
 20
-7920.708
 30
-178.000
 70
    32
  0
VERTEX
  8
M54LXLIFT
 62
6
 10
6268.467
 20
-7912.275
 30
-178.000
 70
    32
  0
VERTEX
  8
M54LXLIFT
 62
6
 10
6262.869
 20
-7902.728
 30
-178.000
 70
    32
  0
SEQEND
  8
M54LXLIFT
  0
POLYLINE
  8
M54LXLIFT
 62
6
 66
     1
 70
     9
  0
VERTEX
  8
M54LXLIFT
 62
6
 10
6258.478
 20
-7913.391
 30
-189.000
 70
    32
  0
VERTEX
  8
M54LXLIFT
 62
6
 10
6257.644
 20
-7923.884
 30
-189.000
 70
    32
  0
VERTEX
  8
M54LXLIFT
 62
6
 10
6262.544
 20
-7951.057
 30
-189.000
 70
    32
  0
VERTEX
  8
M54LXLIFT
 62
6
 10
6276.927
 20
-7959.921
 30
-189.000
 70
    32
  0
VERTEX
  8
M54LXLIFT
 62
6
 10
6285.593
 20
-7963.171
 30
-189.000
 70
    32
  0
VERTEX
  8
M54LXLIFT
 62
6
 10
6298.280
 20
-7975.226
 30
-189.000
 70
    32
  0
VERTEX
  8
M54LXLIFT
 62
6
 10
6300.939
 20
-7973.507
 30
-189.000
 70
    32
  0
VERTEX
  8
M54LXLIFT
 62
6
 10
6299.742
 20
-7967.535
 30
-189.000
 70
    32
  0
VERTEX
  8
M54LXLIFT
 62
6
 10
6291.879
 20
-7957.183
 30
-189.000
 70
    32
  0
VERTEX
  8
M54LXLIFT
 62
6
 10
6287.698
 20
-7948.604
 30
-189.000
 70
    32
  0
VERTEX
  8
M54LXLIFT
 62
6
 10
6281.635
 20
-7935.203
 30
-189.000
 70
    32
  0
VERTEX
  8
M54LXLIFT
 62
6
 10
6273.731
 20
-7919.124
 30
-189.000
 70
    32
  0
VERTEX
  8
M54LXLIFT
 62
6
 10
6271.777
 20
-7910.770
 30
-189.000
 70
    32
  0
VERTEX
  8
M54LXLIFT
 62
6
 10
6268.450
 20
-7906.349
 30
-189.000
 70
    32
  0
SEQEND
  8
M54LXLIFT
  0
POLYLINE
  8
M54LXLIFT
 62
6
 66
     1
 70
     9
  0
VERTEX
  8
M54LXLIFT
 62
6
 10
6255.350
 20
-7915.361
 30
-199.000
 70
    32
  0
VERTEX
  8
M54LXLIFT
 62
6
 10
6259.602
 20
-7926.177
 30
-199.000
 70
    32
  0
VERTEX
  8
M54LXLIFT
 62
6
 10
6259.337
 20
-7932.556
 30
-199.000
 70
    32
  0
VERTEX
  8
M54LXLIFT
 62
6
 10
6265.472
 20
-7948.520
 30
-199.000
 70
    32
  0
VERTEX
  8
M54LXLIFT
 62
6
 10
6279.272
 20
-7958.282
 30
-199.000
 70
    32
  0
VERTEX
  8
M54LXLIFT
 62
6
 10
6292.387
 20
-7961.701
 30
-199.000
 70
    32
  0
VERTEX
  8
M54LXLIFT
 62
6
 10
6302.593
 20
-7968.748
 30
-199.000
 70
    32
  0
VERTEX
  8
M54LXLIFT
 62
6
 10
6309.079
 20
-7963.615
 30
-199.000
 70
    32
  0
VERTEX
  8
M54LXLIFT
 62
6
 10
6298.930
 20
-7947.953
 30
-199.000
 70
    32
  0
VERTEX
  8
M54LXLIFT
 62
6
 10
6288.402
 20
-7933.867
 30
-199.000
 70
    32
  0
VERTEX
  8
M54LXLIFT
 62
6
 10
6279.971
 20
-7921.627
 30
-199.000
 70
    32
  0
VERTEX
  8
M54LXLIFT
 62
6
 10
6276.314
 20
-7911.032
 30
-199.000
 70
    32
  0
VERTEX
  8
M54LXLIFT
 62
6
 10
6272.041
 20
-7904.683
 30
-199.000
 70
    32
  0
SEQEND
  8
M54LXLIFT
  0
POLYLINE
  8
M54LXLIFT
 62
6
 66
     1
 70
     9
  0
VERTEX
  8
M54LXLIFT
 62
6
 10
6275.736
 20
-7897.147
 30
-210.000
 70
    32
  0
VERTEX
  8
M54LXLIFT
 62
6
 10
6256.819
 20
-7913.106
 30
-210.000
 70
    32
  0
VERTEX
  8
M54LXLIFT
 62
6
 10
6251.318
 20
-7920.864
 30
-210.000
 70
    32
  0
VERTEX
  8
M54LXLIFT
 62
6
 10
6252.798
 20
-7928.109
 30
-210.000
 70
    32
  0
VERTEX
  8
M54LXLIFT
 62
6
 10
6268.355
 20
-7954.694
 30
-210.000
 70
    32
  0
VERTEX
  8
M54LXLIFT
 62
6
 10
6282.167
 20
-7968.406
 30
-210.000
 70
    32
  0
VERTEX
  8
M54LXLIFT
 62
6
 10
6288.482
 20
-7971.692
 30
-210.000
 70
    32
  0
VERTEX
  8
M54LXLIFT
 62
6
 10
6295.587
 20
-7971.636
 30
-210.000
 70
    32
  0
VERTEX
  8
M54LXLIFT
 62
6
 10
6303.112
 20
-7966.867
 30
-210.000
 70
    32
  0
VERTEX
  8
M54LXLIFT
 62
6
 10
6304.393
 20
-7960.957
 30
-210.000
 70
    32
  0
VERTEX
  8
M54LXLIFT
 62
6
 10
6289.593
 20
-7935.674
 30
-210.000
 70
    32
  0
VERTEX
  8
M54LXLIFT
 62
6
 10
6286.828
 20
-7928.183
 30
-210.000
 70
    32
  0
VERTEX
  8
M54LXLIFT
 62
6
 10
6283.869
 20
-7915.451
 30
-210.000
 70
    32
  0
VERTEX
  8
M54LXLIFT
 62
6
 10
6284.706
 20
-7899.429
 30
-210.000
 70
    32
  0
SEQEND
  8
M54LXLIFT
  0
POLYLINE
  8
M54LXLIFT
 62
27
 66
     1
 70
     9
  0
VERTEX
  8
M54LXLIFT
 62
27
 10
6088.242
 20
-7789.921
 30
-89.000
 70
    32
  0
VERTEX
  8
M54LXLIFT
 62
27
 10
6104.288
 20
-7809.593
 30
-89.000
 70
    32
  0
VERTEX
  8
M54LXLIFT
 62
27
 10
6116.216
 20
-7829.006
 30
-89.000
 70
    32
  0
VERTEX
  8
M54LXLIFT
 62
27
 10
6115.968
 20
-7839.990
 30
-89.000
 70
    32
  0
VERTEX
  8
M54LXLIFT
 62
27
 10
6120.053
 20
-7846.163
 30
-89.000
 70
    32
  0
VERTEX
  8
M54LXLIFT
 62
27
 10
6149.111
 20
-7868.851
 30
-89.000
 70
    32
  0
VERTEX
  8
M54LXLIFT
 62
27
 10
6157.161
 20
-7876.266
 30
-89.000
 70
    32
  0
VERTEX
  8
M54LXLIFT
 62
27
 10
6173.072
 20
-7881.306
 30
-89.000
 70
    32
  0
VERTEX
  8
M54LXLIFT
 62
27
 10
6197.076
 20
-7894.712
 30
-89.000
 70
    32
  0
VERTEX
  8
M54LXLIFT
 62
27
 10
6206.016
 20
-7884.126
 30
-89.000
 70
    32
  0
VERTEX
  8
M54LXLIFT
 62
27
 10
6206.736
 20
-7865.595
 30
-89.000
 70
    32
  0
VERTEX
  8
M54LXLIFT
 62
27
 10
6184.727
 20
-7848.655
 30
-89.000
 70
    32
  0
VERTEX
  8
M54LXLIFT
 62
27
 10
6162.614
 20
-7831.574
 30
-89.000
 70
    32
  0
VERTEX
  8
M54LXLIFT
 62
27
 10
6142.522
 20
-7820.976
 30
-89.000
 70
    32
  0
VERTEX
  8
M54LXLIFT
 62
27
 10
6118.777
 20
-7811.200
 30
-89.000
 70
    32
  0
VERTEX
  8
M54LXLIFT
 62
27
 10
6094.089
 20
-7785.093
 30
-89.000
 70
    32
  0
SEQEND
  8
M54LXLIFT
  0
POLYLINE
  8
M54LXLIFT
 62
27
 66
     1
 70
     9
  0
VERTEX
  8
M54LXLIFT
 62
27
 10
6168.573
 20
-7906.775
 30
-109.000
 70
    32
  0
VERTEX
  8
M54LXLIFT
 62
27
 10
6184.013
 20
-7879.423
 30
-109.000
 70
    32
  0
VERTEX
  8
M54LXLIFT
 62
27
 10
6193.496
 20
-7878.809
 30
-109.000
 70
    32
  0
VERTEX
  8
M54LXLIFT
 62
27
 10
6201.470
 20
-7882.246
 30
-109.000
 70
    32
  0
VERTEX
  8
M54LXLIFT
 62
27
 10
6211.664
 20
-7894.972
 30
-109.000
 70
    32
  0
VERTEX
  8
M54LXLIFT
 62
27
 10
6227.401
 20
-7884.866
 30
-109.000
 70
    32
  0
VERTEX
  8
M54LXLIFT
 62
27
 10
6226.252
 20
-7875.993
 30
-109.000
 70
    32
  0
VERTEX
  8
M54LXLIFT
 62
27
 10
6225.503
 20
-7861.261
 30
-109.000
 70
    32
  0
VERTEX
  8
M54LXLIFT
 62
27
 10
6207.971
 20
-7849.543
 30
-109.000
 70
    32
  0
VERTEX
  8
M54LXLIFT
 62
27
 10
6168.455
 20
-7838.209
 30
-109.000
 70
    32
  0
VERTEX
  8
M54LXLIFT
 62
27
 10
6145.853
 20
-7841.774
 30
-109.000
 70
    32
  0
VERTEX
  8
M54LXLIFT
 62
27
 10
6139.561
 20
-7849.874
 30
-109.000
 70
    32
  0
VERTEX
  8
M54LXLIFT
 62
27
 10
6142.638
 20
-7856.461
 30
-109.000
 70
    32
  0
VERTEX
  8
M54LXLIFT
 62
27
 10
6140.022
 20
-7869.729
 30
-109.000
 70
    32
  0
VERTEX
  8
M54LXLIFT
 62
27
 10
6141.828
 20
-7881.285
 30
-109.000
 70
    32
  0
VERTEX
  8
M54LXLIFT
 62
27
 10
6150.958
 20
-7891.516
 30
-109.000
 70
    32
  0
SEQEND
  8
M54LXLIFT
  0
POLYLINE
  8
M54LXLIFT
 62
27
 66
     1
 70
     9
  0
VERTEX
  8
M54LXLIFT
 62
27
 10
6224.447
 20
-7878.849
 30
-98.000
 70
    32
  0
VERTEX
  8
M54LXLIFT
 62
27
 10
6212.384
 20
-7860.209
 30
-98.000
 70
    32
  0
VERTEX
  8
M54LXLIFT
 62
27
 10
6196.047
 20
-7849.147
 30
-98.000
 70
    32
  0
VERTEX
  8
M54LXLIFT
 62
27
 10
6182.467
 20
-7838.581
 30
-98.000
 70
    32
  0
VERTEX
  8
M54LXLIFT
 62
27
 10
6165.202
 20
-7831.026
 30
-98.000
 70
    32
  0
VERTEX
  8
M54LXLIFT
 62
27
 10
6150.097
 20
-7827.776
 30
-98.000
 70
    32
  0
VERTEX
  8
M54LXLIFT
 62
27
 10
6130.175
 20
-7826.731
 30
-98.000
 70
    32
  0
VERTEX
  8
M54LXLIFT
 62
27
 10
6123.112
 20
-7832.423
 30
-98.000
 70
    32
  0
VERTEX
  8
M54LXLIFT
 62
27
 10
6124.368
 20
-7839.672
 30
-98.000
 70
    32
  0
VERTEX
  8
M54LXLIFT
 62
27
 10
6132.608
 20
-7845.750
 30
-98.000
 70
    32
  0
VERTEX
  8
M54LXLIFT
 62
27
 10
6136.790
 20
-7855.220
 30
-98.000
 70
    32
  0
VERTEX
  8
M54LXLIFT
 62
27
 10
6137.450
 20
-7861.053
 30
-98.000
 70
    32
  0
VERTEX
  8
M54LXLIFT
 62
27
 10
6143.932
 20
-7868.303
 30
-98.000
 70
    32
  0
VERTEX
  8
M54LXLIFT
 62
27
 10
6164.228
 20
-7868.967
 30
-98.000
 70
    32
  0
VERTEX
  8
M54LXLIFT
 62
27
 10
6176.621
 20
-7881.488
 30
-98.000
 70
    32
  0
VERTEX
  8
M54LXLIFT
 62
27
 10
6184.170
 20
-7882.734
 30
-98.000
 70
    32
  0
VERTEX
  8
M54LXLIFT
 62
27
 10
6206.746
 20
-7903.400
 30
-98.000
 70
    32
  0
VERTEX
  8
M54LXLIFT
 62
27
 10
6212.813
 20
-7898.433
 30
-98.000
 70
    32
  0
SEQEND
  8
M54LXLIFT
  0
POLYLINE
  8
M54LXLIFT
 62
27
 66
     1
 70
     9
  0
VERTEX
  8
M54LXLIFT
 62
27
 10
6240.277
 20
-7862.702
 30
-143.000
 70
    32
  0
VERTEX
  8
M54LXLIFT
 62
27
 10
6233.628
 20
-7854.499
 30
-143.000
 70
    32
  0
VERTEX
  8
M54LXLIFT
 62
27
 10
6222.298
 20
-7853.744
 30
-143.000
 70
    32
  0
VERTEX
  8
M54LXLIFT
 62
27
 10
6213.065
 20
-7851.239
 30
-143.000
 70
    32
  0
VERTEX
  8
M54LXLIFT
 62
27
 10
6207.159
 20
-7845.541
 30
-143.000
 70
    32
  0
VERTEX
  8
M54LXLIFT
 62
27
 10
6202.068
 20
-7840.661
 30
-143.000
 70
    32
  0
VERTEX
  8
M54LXLIFT
 62
27
 10
6186.771
 20
-7845.201
 30
-143.000
 70
    32
  0
VERTEX
  8
M54LXLIFT
 62
27
 10
6183.272
 20
-7843.840
 30
-143.000
 70
    32
  0
VERTEX
  8
M54LXLIFT
 62
27
 10
6182.707
 20
-7839.789
 30
-143.000
 70
    32
  0
VERTEX
  8
M54LXLIFT
 62
27
 10
6183.544
 20
-7830.360
 30
-143.000
 70
    32
  0
VERTEX
  8
M54LXLIFT
 62
27
 10
6173.484
 20
-7827.915
 30
-143.000
 70
    32
  0
VERTEX
  8
M54LXLIFT
 62
27
 10
6166.224
 20
-7823.642
 30
-143.000
 70
    32
  0
VERTEX
  8
M54LXLIFT
 62
27
 10
6160.722
 20
-7827.881
 30
-143.000
 70
    32
  0
VERTEX
  8
M54LXLIFT
 62
27
 10
6159.857
 20
-7833.847
 30
-143.000
 70
    32
  0
VERTEX
  8
M54LXLIFT
 62
27
 10
6155.358
 20
-7843.776
 30
-143.000
 70
    32
  0
VERTEX
  8
M54LXLIFT
 62
27
 10
6155.211
 20
-7855.640
 30
-143.000
 70
    32
  0
VERTEX
  8
M54LXLIFT
 62
27
 10
6151.860
 20
-7859.396
 30
-143.000
 70
    32
  0
VERTEX
  8
M54LXLIFT
 62
27
 10
6156.738
 20
-7867.261
 30
-143.000
 70
    32
  0
VERTEX
  8
M54LXLIFT
 62
27
 10
6169.326
 20
-7878.527
 30
-143.000
 70
    32
  0
VERTEX
  8
M54LXLIFT
 62
27
 10
6177.812
 20
-7884.626
 30
-143.000
 70
    32
  0
VERTEX
  8
M54LXLIFT
 62
27
 10
6184.704
 20
-7891.672
 30
-143.000
 70
    32
  0
VERTEX
  8
M54LXLIFT
 62
27
 10
6192.924
 20
-7892.195
 30
-143.000
 70
    32
  0
VERTEX
  8
M54LXLIFT
 62
27
 10
6201.112
 20
-7889.695
 30
-143.000
 70
    32
  0
VERTEX
  8
M54LXLIFT
 62
27
 10
6207.959
 20
-7886.105
 30
-143.000
 70
    32
  0
VERTEX
  8
M54LXLIFT
 62
27
 10
6212.009
 20
-7885.540
 30
-143.000
 70
    32
  0
VERTEX
  8
M54LXLIFT
 62
27
 10
6215.907
 20
-7888.788
 30
-143.000
 70
    32
  0
SEQEND
  8
M54LXLIFT
  0
POLYLINE
  8
M54LXLIFT
 62
27
 66
     1
 70
     9
  0
VERTEX
  8
M54LXLIFT
 62
27
 10
6157.045
 20
-7880.396
 30
-120.000
 70
    32
  0
VERTEX
  8
M54LXLIFT
 62
27
 10
6168.284
 20
-7880.159
 30
-120.000
 70
    32
  0
VERTEX
  8
M54LXLIFT
 62
27
 10
6170.500
 20
-7884.852
 30
-120.000
 70
    32
  0
VERTEX
  8
M54LXLIFT
 62
27
 10
6183.104
 20
-7883.949
 30
-120.000
 70
    32
  0
VERTEX
  8
M54LXLIFT
 62
27
 10
6191.535
 20
-7868.039
 30
-120.000
 70
    32
  0
VERTEX
  8
M54LXLIFT
 62
27
 10
6203.410
 20
-7853.428
 30
-120.000
 70
    32
  0
VERTEX
  8
M54LXLIFT
 62
27
 10
6208.750
 20
-7847.916
 30
-120.000
 70
    32
  0
VERTEX
  8
M54LXLIFT
 62
27
 10
6206.282
 20
-7843.624
 30
-120.000
 70
    32
  0
VERTEX
  8
M54LXLIFT
 62
27
 10
6198.158
 20
-7842.465
 30
-120.000
 70
    32
  0
VERTEX
  8
M54LXLIFT
 62
27
 10
6182.705
 20
-7841.092
 30
-120.000
 70
    32
  0
VERTEX
  8
M54LXLIFT
 62
27
 10
6163.902
 20
-7847.371
 30
-120.000
 70
    32
  0
VERTEX
  8
M54LXLIFT
 62
27
 10
6150.378
 20
-7865.245
 30
-120.000
 70
    32
  0
VERTEX
  8
M54LXLIFT
 62
27
 10
6146.538
 20
-7866.841
 30
-120.000
 70
    32
  0
VERTEX
  8
M54LXLIFT
 62
27
 10
6147.888
 20
-7870.642
 30
-120.000
 70
    32
  0
SEQEND
  8
M54LXLIFT
  0
POLYLINE
  8
M54LXLIFT
 62
27
 66
     1
 70
     9
  0
VERTEX
  8
M54LXLIFT
 62
27
 10
6143.339
 20
-7825.048
 30
-131.000
 70
    32
  0
VERTEX
  8
M54LXLIFT
 62
27
 10
6147.806
 20
-7840.758
 30
-131.000
 70
    32
  0
VERTEX
  8
M54LXLIFT
 62
27
 10
6155.238
 20
-7856.843
 30
-131.000
 70
    32
  0
VERTEX
  8
M54LXLIFT
 62
27
 10
6168.862
 20
-7878.458
 30
-131.000
 70
    32
  0
VERTEX
  8
M54LXLIFT
 62
27
 10
6181.051
 20
-7886.202
 30
-131.000
 70
    32
  0
VERTEX
  8
M54LXLIFT
 62
27
 10
6193.590
 20
-7881.829
 30
-131.000
 70
    32
  0
VERTEX
  8
M54LXLIFT
 62
27
 10
6195.270
 20
-7865.962
 30
-131.000
 70
    32
  0
VERTEX
  8
M54LXLIFT
 62
27
 10
6205.630
 20
-7858.065
 30
-131.000
 70
    32
  0
VERTEX
  8
M54LXLIFT
 62
27
 10
6201.891
 20
-7852.951
 30
-131.000
 70
    32
  0
VERTEX
  8
M54LXLIFT
 62
27
 10
6194.113
 20
-7847.469
 30
-131.000
 70
    32
  0
VERTEX
  8
M54LXLIFT
 62
27
 10
6181.815
 20
-7845.953
 30
-131.000
 70
    32
  0
VERTEX
  8
M54LXLIFT
 62
27
 10
6176.538
 20
-7842.472
 30
-131.000
 70
    32
  0
VERTEX
  8
M54LXLIFT
 62
27
 10
6172.044
 20
-7836.600
 30
-131.000
 70
    32
  0
VERTEX
  8
M54LXLIFT
 62
27
 10
6160.841
 20
-7830.853
 30
-131.000
 70
    32
  0
VERTEX
  8
M54LXLIFT
 62
27
 10
6154.343
 20
-7817.449
 30
-131.000
 70
    32
  0
SEQEND
  8
M54LXLIFT
  0
POLYLINE
  8
M54LXLIFT
 62
11
 66
     1
 70
     9
  0
VERTEX
  8
M54LXLIFT
 62
11
 10
6197.497
 20
-7834.997
 30
-163.000
 70
    32
  0
VERTEX
  8
M54LXLIFT
 62
11
 10
6205.113
 20
-7842.417
 30
-163.000
 70
    32
  0
VERTEX
  8
M54LXLIFT
 62
11
 10
6207.041
 20
-7858.051
 30
-163.000
 70
    32
  0
VERTEX
  8
M54LXLIFT
 62
11
 10
6204.058
 20
-7862.041
 30
-163.000
 70
    32
  0
VERTEX
  8
M54LXLIFT
 62
11
 10
6193.183
 20
-7864.555
 30
-163.000
 70
    32
  0
VERTEX
  8
M54LXLIFT
 62
11
 10
6187.608
 20
-7873.229
 30
-163.000
 70
    32
  0
VERTEX
  8
M54LXLIFT
 62
11
 10
6182.482
 20
-7876.050
 30
-163.000
 70
    32
  0
VERTEX
  8
M54LXLIFT
 62
11
 10
6177.739
 20
-7871.115
 30
-163.000
 70
    32
  0
VERTEX
  8
M54LXLIFT
 62
11
 10
6170.061
 20
-7857.885
 30
-163.000
 70
    32
  0
VERTEX
  8
M54LXLIFT
 62
11
 10
6178.847
 20
-7848.852
 30
-163.000
 70
    32
  0
VERTEX
  8
M54LXLIFT
 62
11
 10
6182.616
 20
-7841.587
 30
-163.000
 70
    32
  0
SEQEND
  8
M54LXLIFT
  0
POLYLINE
  8
M54LXLIFT
 62
1
 66
     1
 70
     9
  0
VERTEX
  8
M54LXLIFT
 62
1
 10
6177.682
 20
-7877.662
 30
-68.000
 70
    32
  0
VERTEX
  8
M54LXLIFT
 62
1
 10
6160.863
 20
-7866.997
 30
-68.000
 70
    32
  0
VERTEX
  8
M54LXLIFT
 62
1
 10
6157.743
 20
-7857.276
 30
-68.000
 70
    32
  0
VERTEX
  8
M54LXLIFT
 62
1
 10
6138.453
 20
-7847.558
 30
-68.000
 70
    32
  0
VERTEX
  8
M54LXLIFT
 62
1
 10
6118.562
 20
-7827.683
 30
-68.000
 70
    32
  0
VERTEX
  8
M54LXLIFT
 62
1
 10
6112.881
 20
-7825.312
 30
-68.000
 70
    32
  0
VERTEX
  8
M54LXLIFT
 62
1
 10
6101.620
 20
-7814.924
 30
-68.000
 70
    32
  0
VERTEX
  8
M54LXLIFT
 62
1
 10
6093.855
 20
-7805.128
 30
-68.000
 70
    32
  0
VERTEX
  8
M54LXLIFT
 62
1
 10
6088.428
 20
-7795.686
 30
-68.000
 70
    32
  0
VERTEX
  8
M54LXLIFT
 62
1
 10
6085.699
 20
-7785.458
 30
-68.000
 70
    32
  0
VERTEX
  8
M54LXLIFT
 62
1
 10
6076.947
 20
-7769.724
 30
-68.000
 70
    32
  0
VERTEX
  8
M54LXLIFT
 62
1
 10
6081.196
 20
-7766.592
 30
-68.000
 70
    32
  0
VERTEX
  8
M54LXLIFT
 62
1
 10
6087.213
 20
-7770.901
 30
-68.000
 70
    32
  0
VERTEX
  8
M54LXLIFT
 62
1
 10
6090.675
 20
-7771.300
 30
-68.000
 70
    32
  0
VERTEX
  8
M54LXLIFT
 62
1
 10
6096.371
 20
-7778.140
 30
-68.000
 70
    32
  0
VERTEX
  8
M54LXLIFT
 62
1
 10
6093.549
 20
-7780.984
 30
-68.000
 70
    32
  0
VERTEX
  8
M54LXLIFT
 62
1
 10
6099.547
 20
-7789.569
 30
-68.000
 70
    32
  0
VERTEX
  8
M54LXLIFT
 62
1
 10
6111.446
 20
-7799.488
 30
-68.000
 70
    32
  0
VERTEX
  8
M54LXLIFT
 62
1
 10
6126.997
 20
-7808.136
 30
-68.000
 70
    32
  0
VERTEX
  8
M54LXLIFT
 62
1
 10
6136.219
 20
-7814.126
 30
-68.000
 70
    32
  0
VERTEX
  8
M54LXLIFT
 62
1
 10
6145.937
 20
-7815.598
 30
-68.000
 70
    32
  0
VERTEX
  8
M54LXLIFT
 62
1
 10
6150.634
 20
-7819.896
 30
-68.000
 70
    32
  0
VERTEX
  8
M54LXLIFT
 62
1
 10
6161.056
 20
-7825.439
 30
-68.000
 70
    32
  0
VERTEX
  8
M54LXLIFT
 62
1
 10
6166.357
 20
-7829.073
 30
-68.000
 70
    32
  0
VERTEX
  8
M54LXLIFT
 62
1
 10
6169.641
 20
-7836.051
 30
-68.000
 70
    32
  0
VERTEX
  8
M54LXLIFT
 62
1
 10
6186.855
 20
-7858.226
 30
-68.000
 70
    32
  0
VERTEX
  8
M54LXLIFT
 62
1
 10
6186.747
 20
-7866.829
 30
-68.000
 70
    32
  0
SEQEND
  8
M54LXLIFT
  0
POLYLINE
  8
M54LXLIFT
 62
27
 66
     1
 70
     9
  0
VERTEX
  8
M54LXLIFT
 62
27
 10
6185.747
 20
-7867.829
 30
-78.000
 70
    32
  0
VERTEX
  8
M54LXLIFT
 62
27
 10
6185.855
 20
-7859.226
 30
-78.000
 70
    32
  0
VERTEX
  8
M54LXLIFT
 62
27
 10
6168.641
 20
-7837.051
 30
-78.000
 70
    32
  0
VERTEX
  8
M54LXLIFT
 62
27
 10
6165.357
 20
-7830.073
 30
-78.000
 70
    32
  0
VERTEX
  8
M54LXLIFT
 62
27
 10
6160.056
 20
-7826.439
 30
-78.000
 70
    32
  0
VERTEX
  8
M54LXLIFT
 62
27
 10
6149.634
 20
-7820.896
 30
-78.000
 70
    32
  0
VERTEX
  8
M54LXLIFT
 62
27
 10
6144.937
 20
-7816.598
 30
-78.000
 70
    32
  0
VERTEX
  8
M54LXLIFT
 62
27
 10
6135.219
 20
-7815.126
 30
-78.000
 70
    32
  0
VERTEX
  8
M54LXLIFT
 62
27
 10
6125.997
 20
-7809.136
 30
-78.000
 70
    32
  0
VERTEX
  8
M54LXLIFT
 62
27
 10
6110.446
 20
-7800.488
 30
-78.000
 70
    32
  0
VERTEX
  8
M54LXLIFT
 62
27
 10
6098.547
 20
-7790.569
 30
-78.000
 70
    32
  0
VERTEX
  8
M54LXLIFT
 62
27
 10
6092.549
 20
-7781.984
 30
-78.000
 70
    32
  0
VERTEX
  8
M54LXLIFT
 62
27
 10
6095.371
 20
-7779.140
 30
-78.000
 70
    32
  0
VERTEX
  8
M54LXLIFT
 62
27
 10
6089.675
 20
-7772.300
 30
-78.000
 70
    32
  0
VERTEX
  8
M54LXLIFT
 62
27
 10
6086.213
 20
-7771.901
 30
-78.000
 70
    32
  0
VERTEX
  8
M54LXLIFT
 62
27
 10
6080.196
 20
-7767.592
 30
-78.000
 70
    32
  0
VERTEX
  8
M54LXLIFT
 62
27
 10
6075.947
 20
-7770.724
 30
-78.000
 70
    32
  0
VERTEX
  8
M54LXLIFT
 62
27
 10
6084.699
 20
-7786.458
 30
-78.000
 70
    32
  0
VERTEX
  8
M54LXLIFT
 62
27
 10
6087.428
 20
-7796.686
 30
-78.000
 70
    32
  0
VERTEX
  8
M54LXLIFT
 62
27
 10
6092.855
 20
-7806.128
 30
-78.000
 70
    32
  0
VERTEX
  8
M54LXLIFT
 62
27
 10
6100.620
 20
-7815.924
 30
-78.000
 70
    32
  0
VERTEX
  8
M54LXLIFT
 62
27
 10
6111.881
 20
-7826.312
 30
-78.000
 70
    32
  0
VERTEX
  8
M54LXLIFT
 62
27
 10
6117.562
 20
-7828.683
 30
-78.000
 70
    32
  0
VERTEX
  8
M54LXLIFT
 62
27
 10
6137.453
 20
-7848.558
 30
-78.000
 70
    32
  0
VERTEX
  8
M54LXLIFT
 62
27
 10
6156.743
 20
-7858.276
 30
-78.000
 70
    32
  0
VERTEX
  8
M54LXLIFT
 62
27
 10
6159.863
 20
-7867.997
 30
-78.000
 70
    32
  0
VERTEX
  8
M54LXLIFT
 62
27
 10
6176.682
 20
-7878.662
 30
-78.000
 70
    32
  0
SEQEND
  8
M54LXLIFT
  0
POLYLINE
  8
M54LXLIFT
 62
27
 66
     1
 70
     9
  0
VERTEX
  8
M54LXLIFT
 62
27
 10
6237.865
 20
-7867.848
 30
-150.000
 70
    32
  0
VERTEX
  8
M54LXLIFT
 62
27
 10
6230.168
 20
-7858.976
 30
-150.000
 70
    32
  0
VERTEX
  8
M54LXLIFT
 62
27
 10
6217.325
 20
-7851.814
 30
-150.000
 70
    32
  0
VERTEX
  8
M54LXLIFT
 62
27
 10
6215.730
 20
-7848.958
 30
-150.000
 70
    32
  0
VERTEX
  8
M54LXLIFT
 62
27
 10
6218.990
 20
-7842.010
 30
-150.000
 70
    32
  0
VERTEX
  8
M54LXLIFT
 62
27
 10
6212.805
 20
-7833.142
 30
-150.000
 70
    32
  0
VERTEX
  8
M54LXLIFT
 62
27
 10
6197.641
 20
-7829.999
 30
-150.000
 70
    32
  0
VERTEX
  8
M54LXLIFT
 62
27
 10
6176.287
 20
-7836.207
 30
-150.000
 70
    32
  0
VERTEX
  8
M54LXLIFT
 62
27
 10
6160.089
 20
-7846.947
 30
-150.000
 70
    32
  0
VERTEX
  8
M54LXLIFT
 62
27
 10
6160.474
 20
-7861.009
 30
-150.000
 70
    32
  0
VERTEX
  8
M54LXLIFT
 62
27
 10
6169.952
 20
-7875.731
 30
-150.000
 70
    32
  0
VERTEX
  8
M54LXLIFT
 62
27
 10
6180.982
 20
-7870.922
 30
-150.000
 70
    32
  0
VERTEX
  8
M54LXLIFT
 62
27
 10
6184.074
 20
-7872.393
 30
-150.000
 70
    32
  0
VERTEX
  8
M54LXLIFT
 62
27
 10
6188.638
 20
-7880.040
 30
-150.000
 70
    32
  0
VERTEX
  8
M54LXLIFT
 62
27
 10
6193.050
 20
-7880.789
 30
-150.000
 70
    32
  0
VERTEX
  8
M54LXLIFT
 62
27
 10
6212.193
 20
-7879.060
 30
-150.000
 70
    32
  0
VERTEX
  8
M54LXLIFT
 62
27
 10
6218.344
 20
-7882.563
 30
-150.000
 70
    32
  0
SEQEND
  8
M54LXLIFT
  0
POLYLINE
  8
M54LXLIFT
 62
7
 66
     1
 70
     9
  0
VERTEX
  8
M54LXLIFT
 62
7
 10
6113.229
 20
-8072.654
 30
-168.000
 70
    32
  0
VERTEX
  8
M54LXLIFT
 62
7
 10
6117.164
 20
-8060.356
 30
-168.000
 70
    32
  0
VERTEX
  8
M54LXLIFT
 62
7
 10
6110.511
 20
-8045.702
 30
-168.000
 70
    32
  0
VERTEX
  8
M54LXLIFT
 62
7
 10
6120.988
 20
-8040.054
 30
-168.000
 70
    32
  0
VERTEX
  8
M54LXLIFT
 62
7
 10
6118.888
 20
-8034.390
 30
-168.000
 70
    32
  0
VERTEX
  8
M54LXLIFT
 62
7
 10
6110.377
 20
-8010.399
 30
-168.000
 70
    32
  0
VERTEX
  8
M54LXLIFT
 62
7
 10
6108.199
 20
-7990.699
 30
-168.000
 70
    32
  0
VERTEX
  8
M54LXLIFT
 62
7
 10
6106.316
 20
-7986.515
 30
-168.000
 70
    32
  0
VERTEX
  8
M54LXLIFT
 62
7
 10
6116.084
 20
-7979.312
 30
-168.000
 70
    32
  0
VERTEX
  8
M54LXLIFT
 62
7
 10
6114.753
 20
-7976.470
 30
-168.000
 70
    32
  0
VERTEX
  8
M54LXLIFT
 62
7
 10
6120.298
 20
-7965.170
 30
-168.000
 70
    32
  0
VERTEX
  8
M54LXLIFT
 62
7
 10
6121.194
 20
-7958.827
 30
-168.000
 70
    32
  0
VERTEX
  8
M54LXLIFT
 62
7
 10
6109.638
 20
-7956.640
 30
-168.000
 70
    32
  0
VERTEX
  8
M54LXLIFT
 62
7
 10
6088.132
 20
-7964.520
 30
-168.000
 70
    32
  0
VERTEX
  8
M54LXLIFT
 62
7
 10
6078.815
 20
-7974.558
 30
-168.000
 70
    32
  0
VERTEX
  8
M54LXLIFT
 62
7
 10
6073.291
 20
-7979.069
 30
-168.000
 70
    32
  0
VERTEX
  8
M54LXLIFT
 62
7
 10
6072.118
 20
-7982.665
 30
-168.000
 70
    32
  0
VERTEX
  8
M54LXLIFT
 62
7
 10
6065.255
 20
-7987.288
 30
-168.000
 70
    32
  0
VERTEX
  8
M54LXLIFT
 62
7
 10
6066.527
 20
-7990.939
 30
-168.000
 70
    32
  0
VERTEX
  8
M54LXLIFT
 62
7
 10
6094.210
 20
-7991.288
 30
-168.000
 70
    32
  0
VERTEX
  8
M54LXLIFT
 62
7
 10
6097.617
 20
-7994.130
 30
-168.000
 70
    32
  0
VERTEX
  8
M54LXLIFT
 62
7
 10
6106.949
 20
-8033.906
 30
-168.000
 70
    32
  0
VERTEX
  8
M54LXLIFT
 62
7
 10
6095.634
 20
-8040.937
 30
-168.000
 70
    32
  0
VERTEX
  8
M54LXLIFT
 62
7
 10
6095.172
 20
-8063.132
 30
-168.000
 70
    32
  0
SEQEND
  8
M54LXLIFT
  0
POLYLINE
  8
M54LXLIFT
 62
7
 66
     1
 70
     9
  0
VERTEX
  8
M54LXLIFT
 62
7
 10
6057.716
 20
-7910.349
 30
-125.000
 70
    32
  0
VERTEX
  8
M54LXLIFT
 62
7
 10
6064.591
 20
-7920.788
 30
-125.000
 70
    32
  0
VERTEX
  8
M54LXLIFT
 62
7
 10
6073.100
 20
-7927.908
 30
-125.000
 70
    32
  0
VERTEX
  8
M54LXLIFT
 62
7
 10
6065.122
 20
-7939.616
 30
-125.000
 70
    32
  0
VERTEX
  8
M54LXLIFT
 62
7
 10
6061.274
 20
-7948.176
 30
-125.000
 70
    32
  0
VERTEX
  8
M54LXLIFT
 62
7
 10
6064.398
 20
-7965.487
 30
-125.000
 70
    32
  0
VERTEX
  8
M54LXLIFT
 62
7
 10
6072.036
 20
-7977.002
 30
-125.000
 70
    32
  0
VERTEX
  8
M54LXLIFT
 62
7
 10
6078.747
 20
-7983.566
 30
-125.000
 70
    32
  0
VERTEX
  8
M54LXLIFT
 62
7
 10
6085.054
 20
-7999.587
 30
-125.000
 70
    32
  0
VERTEX
  8
M54LXLIFT
 62
7
 10
6090.097
 20
-8014.133
 30
-125.000
 70
    32
  0
VERTEX
  8
M54LXLIFT
 62
7
 10
6090.248
 20
-8022.549
 30
-125.000
 70
    32
  0
VERTEX
  8
M54LXLIFT
 62
7
 10
6099.706
 20
-8041.944
 30
-125.000
 70
    32
  0
VERTEX
  8
M54LXLIFT
 62
7
 10
6100.602
 20
-8050.802
 30
-125.000
 70
    32
  0
VERTEX
  8
M54LXLIFT
 62
7
 10
6088.183
 20
-8060.054
 30
-125.000
 70
    32
  0
VERTEX
  8
M54LXLIFT
 62
7
 10
6079.100
 20
-8049.241
 30
-125.000
 70
    32
  0
VERTEX
  8
M54LXLIFT
 62
7
 10
6076.525
 20
-8037.258
 30
-125.000
 70
    32
  0
VERTEX
  8
M54LXLIFT
 62
7
 10
6076.140
 20
-8020.916
 30
-125.000
 70
    32
  0
VERTEX
  8
M54LXLIFT
 62
7
 10
6073.661
 20
-8011.347
 30
-125.000
 70
    32
  0
VERTEX
  8
M54LXLIFT
 62
7
 10
6059.960
 20
-7995.398
 30
-125.000
 70
    32
  0
VERTEX
  8
M54LXLIFT
 62
7
 10
6052.342
 20
-7983.760
 30
-125.000
 70
    32
  0
VERTEX
  8
M54LXLIFT
 62
7
 10
6047.776
 20
-7970.494
 30
-125.000
 70
    32
  0
VERTEX
  8
M54LXLIFT
 62
7
 10
6044.941
 20
-7956.323
 30
-125.000
 70
    32
  0
VERTEX
  8
M54LXLIFT
 62
7
 10
6047.282
 20
-7938.044
 30
-125.000
 70
    32
  0
VERTEX
  8
M54LXLIFT
 62
7
 10
6050.683
 20
-7924.299
 30
-125.000
 70
    32
  0
VERTEX
  8
M54LXLIFT
 62
7
 10
6053.646
 20
-7917.987
 30
-125.000
 70
    32
  0
VERTEX
  8
M54LXLIFT
 62
7
 10
6051.594
 20
-7912.970
 30
-125.000
 70
    32
  0
SEQEND
  8
M54LXLIFT
  0
POLYLINE
  8
M54LXLIFT
 62
7
 66
     1
 70
     9
  0
VERTEX
  8
M54LXLIFT
 62
7
 10
6105.301
 20
-8085.509
 30
-108.000
 70
    32
  0
VERTEX
  8
M54LXLIFT
 62
7
 10
6105.401
 20
-8076.704
 30
-108.000
 70
    32
  0
VERTEX
  8
M54LXLIFT
 62
7
 10
6095.020
 20
-8044.795
 30
-108.000
 70
    32
  0
VERTEX
  8
M54LXLIFT
 62
7
 10
6082.382
 20
-7997.732
 30
-108.000
 70
    32
  0
VERTEX
  8
M54LXLIFT
 62
7
 10
6078.294
 20
-7993.194
 30
-108.000
 70
    32
  0
VERTEX
  8
M54LXLIFT
 62
7
 10
6067.398
 20
-7991.133
 30
-108.000
 70
    32
  0
VERTEX
  8
M54LXLIFT
 62
7
 10
6063.905
 20
-7982.340
 30
-108.000
 70
    32
  0
VERTEX
  8
M54LXLIFT
 62
7
 10
6050.667
 20
-7963.220
 30
-108.000
 70
    32
  0
VERTEX
  8
M54LXLIFT
 62
7
 10
6051.650
 20
-7957.261
 30
-108.000
 70
    32
  0
VERTEX
  8
M54LXLIFT
 62
7
 10
6043.935
 20
-7948.068
 30
-108.000
 70
    32
  0
VERTEX
  8
M54LXLIFT
 62
7
 10
6037.895
 20
-7940.267
 30
-108.000
 70
    32
  0
VERTEX
  8
M54LXLIFT
 62
7
 10
6034.416
 20
-7924.042
 30
-108.000
 70
    32
  0
VERTEX
  8
M54LXLIFT
 62
7
 10
6035.498
 20
-7912.553
 30
-108.000
 70
    32
  0
VERTEX
  8
M54LXLIFT
 62
7
 10
6037.360
 20
-7909.879
 30
-108.000
 70
    32
  0
VERTEX
  8
M54LXLIFT
 62
7
 10
6034.358
 20
-7902.800
 30
-108.000
 70
    32
  0
VERTEX
  8
M54LXLIFT
 62
7
 10
6022.439
 20
-7908.582
 30
-108.000
 70
    32
  0
VERTEX
  8
M54LXLIFT
 62
7
 10
6020.174
 20
-7928.142
 30
-108.000
 70
    32
  0
VERTEX
  8
M54LXLIFT
 62
7
 10
6034.764
 20
-7958.495
 30
-108.000
 70
    32
  0
VERTEX
  8
M54LXLIFT
 62
7
 10
6046.381
 20
-7980.767
 30
-108.000
 70
    32
  0
VERTEX
  8
M54LXLIFT
 62
7
 10
6056.530
 20
-7997.455
 30
-108.000
 70
    32
  0
VERTEX
  8
M54LXLIFT
 62
7
 10
6063.104
 20
-7998.534
 30
-108.000
 70
    32
  0
VERTEX
  8
M54LXLIFT
 62
7
 10
6069.109
 20
-8026.553
 30
-108.000
 70
    32
  0
VERTEX
  8
M54LXLIFT
 62
7
 10
6071.267
 20
-8042.764
 30
-108.000
 70
    32
  0
VERTEX
  8
M54LXLIFT
 62
7
 10
6070.128
 20
-8054.622
 30
-108.000
 70
    32
  0
VERTEX
  8
M54LXLIFT
 62
7
 10
6075.557
 20
-8079.024
 30
-108.000
 70
    32
  0
VERTEX
  8
M54LXLIFT
 62
7
 10
6086.688
 20
-8099.141
 30
-108.000
 70
    32
  0
SEQEND
  8
M54LXLIFT
  0
POLYLINE
  8
M54LXLIFT
 62
7
 66
     1
 70
     9
  0
VERTEX
  8
M54LXLIFT
 62
7
 10
6087.181
 20
-8070.724
 30
-135.000
 70
    32
  0
VERTEX
  8
M54LXLIFT
 62
7
 10
6103.124
 20
-8060.813
 30
-135.000
 70
    32
  0
VERTEX
  8
M54LXLIFT
 62
7
 10
6104.446
 20
-8046.238
 30
-135.000
 70
    32
  0
VERTEX
  8
M54LXLIFT
 62
7
 10
6094.016
 20
-8021.095
 30
-135.000
 70
    32
  0
VERTEX
  8
M54LXLIFT
 62
7
 10
6085.769
 20
-8001.322
 30
-135.000
 70
    32
  0
VERTEX
  8
M54LXLIFT
 62
7
 10
6077.725
 20
-7987.933
 30
-135.000
 70
    32
  0
VERTEX
  8
M54LXLIFT
 62
7
 10
6071.120
 20
-7979.045
 30
-135.000
 70
    32
  0
VERTEX
  8
M54LXLIFT
 62
7
 10
6067.904
 20
-7966.155
 30
-135.000
 70
    32
  0
VERTEX
  8
M54LXLIFT
 62
7
 10
6066.620
 20
-7959.037
 30
-135.000
 70
    32
  0
VERTEX
  8
M54LXLIFT
 62
7
 10
6083.365
 20
-7941.137
 30
-135.000
 70
    32
  0
VERTEX
  8
M54LXLIFT
 62
7
 10
6085.164
 20
-7936.448
 30
-135.000
 70
    32
  0
VERTEX
  8
M54LXLIFT
 62
7
 10
6082.117
 20
-7932.578
 30
-135.000
 70
    32
  0
VERTEX
  8
M54LXLIFT
 62
7
 10
6071.738
 20
-7934.612
 30
-135.000
 70
    32
  0
VERTEX
  8
M54LXLIFT
 62
7
 10
6060.267
 20
-7936.791
 30
-135.000
 70
    32
  0
VERTEX
  8
M54LXLIFT
 62
7
 10
6054.237
 20
-7946.860
 30
-135.000
 70
    32
  0
VERTEX
  8
M54LXLIFT
 62
7
 10
6051.727
 20
-7965.023
 30
-135.000
 70
    32
  0
VERTEX
  8
M54LXLIFT
 62
7
 10
6051.718
 20
-7991.374
 30
-135.000
 70
    32
  0
VERTEX
  8
M54LXLIFT
 62
7
 10
6053.911
 20
-8008.822
 30
-135.000
 70
    32
  0
VERTEX
  8
M54LXLIFT
 62
7
 10
6064.835
 20
-8026.747
 30
-135.000
 70
    32
  0
VERTEX
  8
M54LXLIFT
 62
7
 10
6071.018
 20
-8037.142
 30
-135.000
 70
    32
  0
VERTEX
  8
M54LXLIFT
 62
7
 10
6079.898
 20
-8059.717
 30
-135.000
 70
    32
  0
SEQEND
  8
M54LXLIFT
  0
POLYLINE
  8
M54LXLIFT
 62
7
 66
     1
 70
     9
  0
VERTEX
  8
M54LXLIFT
 62
7
 10
6108.568
 20
-7975.209
 30
-158.000
 70
    32
  0
VERTEX
  8
M54LXLIFT
 62
7
 10
6105.767
 20
-7958.360
 30
-158.000
 70
    32
  0
VERTEX
  8
M54LXLIFT
 62
7
 10
6099.785
 20
-7947.487
 30
-158.000
 70
    32
  0
VERTEX
  8
M54LXLIFT
 62
7
 10
6085.668
 20
-7952.877
 30
-158.000
 70
    32
  0
VERTEX
  8
M54LXLIFT
 62
7
 10
6079.873
 20
-7960.191
 30
-158.000
 70
    32
  0
VERTEX
  8
M54LXLIFT
 62
7
 10
6070.722
 20
-7978.810
 30
-158.000
 70
    32
  0
VERTEX
  8
M54LXLIFT
 62
7
 10
6073.060
 20
-7986.126
 30
-158.000
 70
    32
  0
VERTEX
  8
M54LXLIFT
 62
7
 10
6087.388
 20
-7985.247
 30
-158.000
 70
    32
  0
VERTEX
  8
M54LXLIFT
 62
7
 10
6094.241
 20
-7996.577
 30
-158.000
 70
    32
  0
VERTEX
  8
M54LXLIFT
 62
7
 10
6108.120
 20
-8033.640
 30
-158.000
 70
    32
  0
VERTEX
  8
M54LXLIFT
 62
7
 10
6100.293
 20
-8038.731
 30
-158.000
 70
    32
  0
VERTEX
  8
M54LXLIFT
 62
7
 10
6091.566
 20
-8050.107
 30
-158.000
 70
    32
  0
VERTEX
  8
M54LXLIFT
 62
7
 10
6090.442
 20
-8067.828
 30
-158.000
 70
    32
  0
VERTEX
  8
M54LXLIFT
 62
7
 10
6095.410
 20
-8078.346
 30
-158.000
 70
    32
  0
VERTEX
  8
M54LXLIFT
 62
7
 10
6104.466
 20
-8087.766
 30
-158.000
 70
    32
  0
VERTEX
  8
M54LXLIFT
 62
7
 10
6112.778
 20
-8086.663
 30
-158.000
 70
    32
  0
VERTEX
  8
M54LXLIFT
 62
7
 10
6116.550
 20
-8082.865
 30
-158.000
 70
    32
  0
VERTEX
  8
M54LXLIFT
 62
7
 10
6109.107
 20
-8066.647
 30
-158.000
 70
    32
  0
VERTEX
  8
M54LXLIFT
 62
7
 10
6105.010
 20
-8056.585
 30
-158.000
 70
    32
  0
VERTEX
  8
M54LXLIFT
 62
7
 10
6110.910
 20
-8050.171
 30
-158.000
 70
    32
  0
VERTEX
  8
M54LXLIFT
 62
7
 10
6116.377
 20
-8039.841
 30
-158.000
 70
    32
  0
VERTEX
  8
M54LXLIFT
 62
7
 10
6110.256
 20
-8024.406
 30
-158.000
 70
    32
  0
VERTEX
  8
M54LXLIFT
 62
7
 10
6096.846
 20
-7984.078
 30
-158.000
 70
    32
  0
VERTEX
  8
M54LXLIFT
 62
7
 10
6098.610
 20
-7979.448
 30
-158.000
 70
    32
  0
SEQEND
  8
M54LXLIFT
  0
POLYLINE
  8
M54LXLIFT
 62
7
 66
     1
 70
     9
  0
VERTEX
  8
M54LXLIFT
 62
7
 10
6060.768
 20
-7925.717
 30
-116.000
 70
    32
  0
VERTEX
  8
M54LXLIFT
 62
7
 10
6057.722
 20
-7933.040
 30
-116.000
 70
    32
  0
VERTEX
  8
M54LXLIFT
 62
7
 10
6047.509
 20
-7939.921
 30
-116.000
 70
    32
  0
VERTEX
  8
M54LXLIFT
 62
7
 10
6048.257
 20
-7947.528
 30
-116.000
 70
    32
  0
VERTEX
  8
M54LXLIFT
 62
7
 10
6051.663
 20
-7949.073
 30
-116.000
 70
    32
  0
VERTEX
  8
M54LXLIFT
 62
7
 10
6056.801
 20
-7951.207
 30
-116.000
 70
    32
  0
VERTEX
  8
M54LXLIFT
 62
7
 10
6059.764
 20
-7970.681
 30
-116.000
 70
    32
  0
VERTEX
  8
M54LXLIFT
 62
7
 10
6063.026
 20
-7979.504
 30
-116.000
 70
    32
  0
VERTEX
  8
M54LXLIFT
 62
7
 10
6073.095
 20
-7982.292
 30
-116.000
 70
    32
  0
VERTEX
  8
M54LXLIFT
 62
7
 10
6082.987
 20
-8000.533
 30
-116.000
 70
    32
  0
VERTEX
  8
M54LXLIFT
 62
7
 10
6086.390
 20
-8016.426
 30
-116.000
 70
    32
  0
VERTEX
  8
M54LXLIFT
 62
7
 10
6090.510
 20
-8033.755
 30
-116.000
 70
    32
  0
VERTEX
  8
M54LXLIFT
 62
7
 10
6098.567
 20
-8050.069
 30
-116.000
 70
    32
  0
VERTEX
  8
M54LXLIFT
 62
7
 10
6101.499
 20
-8060.980
 30
-116.000
 70
    32
  0
VERTEX
  8
M54LXLIFT
 62
7
 10
6110.712
 20
-8079.931
 30
-116.000
 70
    32
  0
VERTEX
  8
M54LXLIFT
 62
7
 10
6107.544
 20
-8083.647
 30
-116.000
 70
    32
  0
VERTEX
  8
M54LXLIFT
 62
7
 10
6096.416
 20
-8077.608
 30
-116.000
 70
    32
  0
VERTEX
  8
M54LXLIFT
 62
7
 10
6083.351
 20
-8091.780
 30
-116.000
 70
    32
  0
VERTEX
  8
M54LXLIFT
 62
7
 10
6079.914
 20
-8085.258
 30
-116.000
 70
    32
  0
VERTEX
  8
M54LXLIFT
 62
7
 10
6073.200
 20
-8077.966
 30
-116.000
 70
    32
  0
VERTEX
  8
M54LXLIFT
 62
7
 10
6082.355
 20
-8061.855
 30
-116.000
 70
    32
  0
VERTEX
  8
M54LXLIFT
 62
7
 10
6081.186
 20
-8056.510
 30
-116.000
 70
    32
  0
VERTEX
  8
M54LXLIFT
 62
7
 10
6071.248
 20
-8044.932
 30
-116.000
 70
    32
  0
VERTEX
  8
M54LXLIFT
 62
7
 10
6065.786
 20
-8014.994
 30
-116.000
 70
    32
  0
VERTEX
  8
M54LXLIFT
 62
7
 10
6065.245
 20
-8004.084
 30
-116.000
 70
    32
  0
VERTEX
  8
M54LXLIFT
 62
7
 10
6059.539
 20
-7996.385
 30
-116.000
 70
    32
  0
VERTEX
  8
M54LXLIFT
 62
7
 10
6055.984
 20
-7998.970
 30
-116.000
 70
    32
  0
VERTEX
  8
M54LXLIFT
 62
7
 10
6059.576
 20
-8009.292
 30
-116.000
 70
    32
  0
VERTEX
  8
M54LXLIFT
 62
7
 10
6055.083
 20
-8012.232
 30
-116.000
 70
    32
  0
VERTEX
  8
M54LXLIFT
 62
7
 10
6046.444
 20
-8003.189
 30
-116.000
 70
    32
  0
VERTEX
  8
M54LXLIFT
 62
7
 10
6040.955
 20
-7976.204
 30
-116.000
 70
    32
  0
VERTEX
  8
M54LXLIFT
 62
7
 10
6036.875
 20
-7953.847
 30
-116.000
 70
    32
  0
VERTEX
  8
M54LXLIFT
 62
7
 10
6032.594
 20
-7929.571
 30
-116.000
 70
    32
  0
VERTEX
  8
M54LXLIFT
 62
7
 10
6041.676
 20
-7923.077
 30
-116.000
 70
    32
  0
VERTEX
  8
M54LXLIFT
 62
7
 10
6051.969
 20
-7915.375
 30
-116.000
 70
    32
  0
SEQEND
  8
M54LXLIFT
  0
POLYLINE
  8
M54LXLIFT
 62
7
 66
     1
 70
     9
  0
VERTEX
  8
M54LXLIFT
 62
7
 10
6079.593
 20
-8078.138
 30
-146.000
 70
    32
  0
VERTEX
  8
M54LXLIFT
 62
7
 10
6092.893
 20
-8069.238
 30
-146.000
 70
    32
  0
VERTEX
  8
M54LXLIFT
 62
7
 10
6099.324
 20
-8054.759
 30
-146.000
 70
    32
  0
VERTEX
  8
M54LXLIFT
 62
7
 10
6109.233
 20
-8045.787
 30
-146.000
 70
    32
  0
VERTEX
  8
M54LXLIFT
 62
7
 10
6112.072
 20
-8039.461
 30
-146.000
 70
    32
  0
VERTEX
  8
M54LXLIFT
 62
7
 10
6110.153
 20
-8035.541
 30
-146.000
 70
    32
  0
VERTEX
  8
M54LXLIFT
 62
7
 10
6102.469
 20
-8035.497
 30
-146.000
 70
    32
  0
VERTEX
  8
M54LXLIFT
 62
7
 10
6098.650
 20
-8031.633
 30
-146.000
 70
    32
  0
VERTEX
  8
M54LXLIFT
 62
7
 10
6098.079
 20
-8021.260
 30
-146.000
 70
    32
  0
VERTEX
  8
M54LXLIFT
 62
7
 10
6092.488
 20
-8015.204
 30
-146.000
 70
    32
  0
VERTEX
  8
M54LXLIFT
 62
7
 10
6082.679
 20
-8001.686
 30
-146.000
 70
    32
  0
VERTEX
  8
M54LXLIFT
 62
7
 10
6080.243
 20
-7986.709
 30
-146.000
 70
    32
  0
VERTEX
  8
M54LXLIFT
 62
7
 10
6070.772
 20
-7973.059
 30
-146.000
 70
    32
  0
VERTEX
  8
M54LXLIFT
 62
7
 10
6072.222
 20
-7963.407
 30
-146.000
 70
    32
  0
VERTEX
  8
M54LXLIFT
 62
7
 10
6082.530
 20
-7963.960
 30
-146.000
 70
    32
  0
VERTEX
  8
M54LXLIFT
 62
7
 10
6094.647
 20
-7957.948
 30
-146.000
 70
    32
  0
VERTEX
  8
M54LXLIFT
 62
7
 10
6097.096
 20
-7945.756
 30
-146.000
 70
    32
  0
VERTEX
  8
M54LXLIFT
 62
7
 10
6086.240
 20
-7933.951
 30
-146.000
 70
    32
  0
VERTEX
  8
M54LXLIFT
 62
7
 10
6064.698
 20
-7941.262
 30
-146.000
 70
    32
  0
VERTEX
  8
M54LXLIFT
 62
7
 10
6048.008
 20
-7945.992
 30
-146.000
 70
    32
  0
VERTEX
  8
M54LXLIFT
 62
7
 10
6056.658
 20
-7960.764
 30
-146.000
 70
    32
  0
VERTEX
  8
M54LXLIFT
 62
7
 10
6055.286
 20
-7981.461
 30
-146.000
 70
    32
  0
VERTEX
  8
M54LXLIFT
 62
7
 10
6059.424
 20
-8011.290
 30
-146.000
 70
    32
  0
VERTEX
  8
M54LXLIFT
 62
7
 10
6065.475
 20
-8017.236
 30
-146.000
 70
    32
  0
VERTEX
  8
M54LXLIFT
 62
7
 10
6073.936
 20
-8010.477
 30
-146.000
 70
    32
  0
VERTEX
  8
M54LXLIFT
 62
7
 10
6068.313
 20
-7994.959
 30
-146.000
 70
    32
  0
VERTEX
  8
M54LXLIFT
 62
7
 10
6069.282
 20
-7988.882
 30
-146.000
 70
    32
  0
VERTEX
  8
M54LXLIFT
 62
7
 10
6073.213
 20
-7989.865
 30
-146.000
 70
    32
  0
VERTEX
  8
M54LXLIFT
 62
7
 10
6076.970
 20
-8000.779
 30
-146.000
 70
    32
  0
VERTEX
  8
M54LXLIFT
 62
7
 10
6081.738
 20
-8012.054
 30
-146.000
 70
    32
  0
VERTEX
  8
M54LXLIFT
 62
7
 10
6085.588
 20
-8026.136
 30
-146.000
 70
    32
  0
VERTEX
  8
M54LXLIFT
 62
7
 10
6084.123
 20
-8040.325
 30
-146.000
 70
    32
  0
VERTEX
  8
M54LXLIFT
 62
7
 10
6076.576
 20
-8049.130
 30
-146.000
 70
    32
  0
VERTEX
  8
M54LXLIFT
 62
7
 10
6066.253
 20
-8059.796
 30
-146.000
 70
    32
  0
SEQEND
  8
M54LXLIFT
  0
POLYLINE
  8
M54LXLIFT
 62
7
 66
     1
 70
     9
  0
VERTEX
  8
M54LXLIFT
 62
7
 10
6123.385
 20
-8033.995
 30
-179.000
 70
    32
  0
VERTEX
  8
M54LXLIFT
 62
7
 10
6118.175
 20
-8024.378
 30
-179.000
 70
    32
  0
VERTEX
  8
M54LXLIFT
 62
7
 10
6114.030
 20
-8009.572
 30
-179.000
 70
    32
  0
VERTEX
  8
M54LXLIFT
 62
7
 10
6116.498
 20
-7996.413
 30
-179.000
 70
    32
  0
VERTEX
  8
M54LXLIFT
 62
7
 10
6125.311
 20
-7987.630
 30
-179.000
 70
    32
  0
VERTEX
  8
M54LXLIFT
 62
7
 10
6122.822
 20
-7971.366
 30
-179.000
 70
    32
  0
VERTEX
  8
M54LXLIFT
 62
7
 10
6109.552
 20
-7972.716
 30
-179.000
 70
    32
  0
VERTEX
  8
M54LXLIFT
 62
7
 10
6098.362
 20
-7971.853
 30
-179.000
 70
    32
  0
VERTEX
  8
M54LXLIFT
 62
7
 10
6087.038
 20
-7977.130
 30
-179.000
 70
    32
  0
VERTEX
  8
M54LXLIFT
 62
7
 10
6083.774
 20
-7982.316
 30
-179.000
 70
    32
  0
VERTEX
  8
M54LXLIFT
 62
7
 10
6082.261
 20
-7992.344
 30
-179.000
 70
    32
  0
VERTEX
  8
M54LXLIFT
 62
7
 10
6085.105
 20
-7996.149
 30
-179.000
 70
    32
  0
VERTEX
  8
M54LXLIFT
 62
7
 10
6098.420
 20
-8000.149
 30
-179.000
 70
    32
  0
VERTEX
  8
M54LXLIFT
 62
7
 10
6104.730
 20
-8014.325
 30
-179.000
 70
    32
  0
VERTEX
  8
M54LXLIFT
 62
7
 10
6104.791
 20
-8030.426
 30
-179.000
 70
    32
  0
VERTEX
  8
M54LXLIFT
 62
7
 10
6106.594
 20
-8036.219
 30
-179.000
 70
    32
  0
VERTEX
  8
M54LXLIFT
 62
7
 10
6105.479
 20
-8040.018
 30
-179.000
 70
    32
  0
VERTEX
  8
M54LXLIFT
 62
7
 10
6109.625
 20
-8043.949
 30
-179.000
 70
    32
  0
SEQEND
  8
M54LXLIFT
  0
POLYLINE
  8
M54LXLIFT
 62
7
 66
     1
 70
     9
  0
VERTEX
  8
M54LXLIFT
 62
7
 10
6141.271
 20
-8031.415
 30
-190.000
 70
    32
  0
VERTEX
  8
M54LXLIFT
 62
7
 10
6127.769
 20
-8014.957
 30
-190.000
 70
    32
  0
VERTEX
  8
M54LXLIFT
 62
7
 10
6119.516
 20
-8011.080
 30
-190.000
 70
    32
  0
VERTEX
  8
M54LXLIFT
 62
7
 10
6114.862
 20
-8013.491
 30
-190.000
 70
    32
  0
VERTEX
  8
M54LXLIFT
 62
7
 10
6116.464
 20
-8016.886
 30
-190.000
 70
    32
  0
VERTEX
  8
M54LXLIFT
 62
7
 10
6114.504
 20
-8022.550
 30
-190.000
 70
    32
  0
VERTEX
  8
M54LXLIFT
 62
7
 10
6123.181
 20
-8033.722
 30
-190.000
 70
    32
  0
VERTEX
  8
M54LXLIFT
 62
7
 10
6122.969
 20
-8036.266
 30
-190.000
 70
    32
  0
VERTEX
  8
M54LXLIFT
 62
7
 10
6113.894
 20
-8043.198
 30
-190.000
 70
    32
  0
VERTEX
  8
M54LXLIFT
 62
7
 10
6106.974
 20
-8045.629
 30
-190.000
 70
    32
  0
VERTEX
  8
M54LXLIFT
 62
7
 10
6104.705
 20
-8039.677
 30
-190.000
 70
    32
  0
VERTEX
  8
M54LXLIFT
 62
7
 10
6104.028
 20
-8028.004
 30
-190.000
 70
    32
  0
VERTEX
  8
M54LXLIFT
 62
7
 10
6092.144
 20
-8005.263
 30
-190.000
 70
    32
  0
VERTEX
  8
M54LXLIFT
 62
7
 10
6099.934
 20
-7999.700
 30
-190.000
 70
    32
  0
VERTEX
  8
M54LXLIFT
 62
7
 10
6114.306
 20
-7984.676
 30
-190.000
 70
    32
  0
VERTEX
  8
M54LXLIFT
 62
7
 10
6124.912
 20
-7981.191
 30
-190.000
 70
    32
  0
VERTEX
  8
M54LXLIFT
 62
7
 10
6131.500
 20
-7973.678
 30
-190.000
 70
    32
  0
VERTEX
  8
M54LXLIFT
 62
7
 10
6139.875
 20
-7975.185
 30
-190.000
 70
    32
  0
VERTEX
  8
M54LXLIFT
 62
7
 10
6155.897
 20
-7996.000
 30
-190.000
 70
    32
  0
VERTEX
  8
M54LXLIFT
 62
7
 10
6164.055
 20
-8002.879
 30
-190.000
 70
    32
  0
VERTEX
  8
M54LXLIFT
 62
7
 10
6164.512
 20
-8012.757
 30
-190.000
 70
    32
  0
SEQEND
  8
M54LXLIFT
  0
POLYLINE
  8
M54LXLIFT
 62
7
 66
     1
 70
     9
  0
VERTEX
  8
M54LXLIFT
 62
7
 10
6132.035
 20
-8040.063
 30
-201.000
 70
    32
  0
VERTEX
  8
M54LXLIFT
 62
7
 10
6120.800
 20
-8050.480
 30
-201.000
 70
    32
  0
VERTEX
  8
M54LXLIFT
 62
7
 10
6112.636
 20
-8060.192
 30
-201.000
 70
    32
  0
VERTEX
  8
M54LXLIFT
 62
7
 10
6108.174
 20
-8054.631
 30
-201.000
 70
    32
  0
VERTEX
  8
M54LXLIFT
 62
7
 10
6110.818
 20
-8044.792
 30
-201.000
 70
    32
  0
VERTEX
  8
M54LXLIFT
 62
7
 10
6101.386
 20
-8038.814
 30
-201.000
 70
    32
  0
VERTEX
  8
M54LXLIFT
 62
7
 10
6103.030
 20
-8024.597
 30
-201.000
 70
    32
  0
VERTEX
  8
M54LXLIFT
 62
7
 10
6108.036
 20
-8016.520
 30
-201.000
 70
    32
  0
VERTEX
  8
M54LXLIFT
 62
7
 10
6118.532
 20
-8007.181
 30
-201.000
 70
    32
  0
VERTEX
  8
M54LXLIFT
 62
7
 10
6125.082
 20
-8002.437
 30
-201.000
 70
    32
  0
VERTEX
  8
M54LXLIFT
 62
7
 10
6132.589
 20
-8001.560
 30
-201.000
 70
    32
  0
VERTEX
  8
M54LXLIFT
 62
7
 10
6143.199
 20
-8009.615
 30
-201.000
 70
    32
  0
VERTEX
  8
M54LXLIFT
 62
7
 10
6141.295
 20
-8018.376
 30
-201.000
 70
    32
  0
SEQEND
  8
M54LXLIFT
  0
POLYLINE
  8
M54LXLIFT
 62
7
 66
     1
 70
     9
  0
VERTEX
  8
M54LXLIFT
 62
7
 10
6092.685
 20
-8085.933
 30
-97.000
 70
    32
  0
VERTEX
  8
M54LXLIFT
 62
7
 10
6095.130
 20
-8079.579
 30
-97.000
 70
    32
  0
VERTEX
  8
M54LXLIFT
 62
7
 10
6091.268
 20
-8067.262
 30
-97.000
 70
    32
  0
VERTEX
  8
M54LXLIFT
 62
7
 10
6081.091
 20
-8052.255
 30
-97.000
 70
    32
  0
VERTEX
  8
M54LXLIFT
 62
7
 10
6079.716
 20
-8036.928
 30
-97.000
 70
    32
  0
VERTEX
  8
M54LXLIFT
 62
7
 10
6060.604
 20
-8001.001
 30
-97.000
 70
    32
  0
VERTEX
  8
M54LXLIFT
 62
7
 10
6046.405
 20
-7975.101
 30
-97.000
 70
    32
  0
VERTEX
  8
M54LXLIFT
 62
7
 10
6044.898
 20
-7957.801
 30
-97.000
 70
    32
  0
VERTEX
  8
M54LXLIFT
 62
7
 10
6031.633
 20
-7946.025
 30
-97.000
 70
    32
  0
VERTEX
  8
M54LXLIFT
 62
7
 10
6033.732
 20
-7931.431
 30
-97.000
 70
    32
  0
VERTEX
  8
M54LXLIFT
 62
7
 10
6032.141
 20
-7919.093
 30
-97.000
 70
    32
  0
VERTEX
  8
M54LXLIFT
 62
7
 10
6037.671
 20
-7907.115
 30
-97.000
 70
    32
  0
VERTEX
  8
M54LXLIFT
 62
7
 10
6037.277
 20
-7895.971
 30
-97.000
 70
    32
  0
VERTEX
  8
M54LXLIFT
 62
7
 10
6028.723
 20
-7880.652
 30
-97.000
 70
    32
  0
VERTEX
  8
M54LXLIFT
 62
7
 10
6019.279
 20
-7885.468
 30
-97.000
 70
    32
  0
VERTEX
  8
M54LXLIFT
 62
7
 10
6019.900
 20
-7909.618
 30
-97.000
 70
    32
  0
VERTEX
  8
M54LXLIFT
 62
7
 10
6018.318
 20
-7923.726
 30
-97.000
 70
    32
  0
VERTEX
  8
M54LXLIFT
 62
7
 10
6023.309
 20
-7946.105
 30
-97.000
 70
    32
  0
VERTEX
  8
M54LXLIFT
 62
7
 10
6031.758
 20
-7971.734
 30
-97.000
 70
    32
  0
VERTEX
  8
M54LXLIFT
 62
7
 10
6042.144
 20
-7994.644
 30
-97.000
 70
    32
  0
VERTEX
  8
M54LXLIFT
 62
7
 10
6046.845
 20
-8017.671
 30
-97.000
 70
    32
  0
VERTEX
  8
M54LXLIFT
 62
7
 10
6055.275
 20
-8043.422
 30
-97.000
 70
    32
  0
VERTEX
  8
M54LXLIFT
 62
7
 10
6061.551
 20
-8074.881
 30
-97.000
 70
    32
  0
VERTEX
  8
M54LXLIFT
 62
7
 10
6063.732
 20
-8082.653
 30
-97.000
 70
    32
  0
VERTEX
  8
M54LXLIFT
 62
7
 10
6070.657
 20
-8098.724
 30
-97.000
 70
    32
  0
VERTEX
  8
M54LXLIFT
 62
7
 10
6073.448
 20
-8101.806
 30
-97.000
 70
    32
  0
SEQEND
  8
M54LXLIFT
  0
POLYLINE
  8
M54LXLIFT
 62
1
 66
     1
 70
     9
  0
VERTEX
  8
M54LXLIFT
 62
1
 10
6021.607
 20
-7884.724
 30
-76.000
 70
    32
  0
VERTEX
  8
M54LXLIFT
 62
1
 10
6022.553
 20
-7894.506
 30
-76.000
 70
    32
  0
VERTEX
  8
M54LXLIFT
 62
1
 10
6020.655
 20
-7911.281
 30
-76.000
 70
    32
  0
VERTEX
  8
M54LXLIFT
 62
1
 10
6023.383
 20
-7923.794
 30
-76.000
 70
    32
  0
VERTEX
  8
M54LXLIFT
 62
1
 10
6027.157
 20
-7954.419
 30
-76.000
 70
    32
  0
VERTEX
  8
M54LXLIFT
 62
1
 10
6030.131
 20
-7957.586
 30
-76.000
 70
    32
  0
VERTEX
  8
M54LXLIFT
 62
1
 10
6036.108
 20
-7958.446
 30
-76.000
 70
    32
  0
VERTEX
  8
M54LXLIFT
 62
1
 10
6042.357
 20
-7953.869
 30
-76.000
 70
    32
  0
VERTEX
  8
M54LXLIFT
 62
1
 10
6046.523
 20
-7959.110
 30
-76.000
 70
    32
  0
VERTEX
  8
M54LXLIFT
 62
1
 10
6040.653
 20
-7962.864
 30
-76.000
 70
    32
  0
VERTEX
  8
M54LXLIFT
 62
1
 10
6044.739
 20
-7975.146
 30
-76.000
 70
    32
  0
VERTEX
  8
M54LXLIFT
 62
1
 10
6047.338
 20
-7989.718
 30
-76.000
 70
    32
  0
VERTEX
  8
M54LXLIFT
 62
1
 10
6052.356
 20
-7995.972
 30
-76.000
 70
    32
  0
VERTEX
  8
M54LXLIFT
 62
1
 10
6052.259
 20
-7999.862
 30
-76.000
 70
    32
  0
VERTEX
  8
M54LXLIFT
 62
1
 10
6048.253
 20
-8003.778
 30
-76.000
 70
    32
  0
VERTEX
  8
M54LXLIFT
 62
1
 10
6044.525
 20
-8001.817
 30
-76.000
 70
    32
  0
VERTEX
  8
M54LXLIFT
 62
1
 10
6040.078
 20
-7991.872
 30
-76.000
 70
    32
  0
VERTEX
  8
M54LXLIFT
 62
1
 10
6020.404
 20
-7961.437
 30
-76.000
 70
    32
  0
VERTEX
  8
M54LXLIFT
 62
1
 10
6009.833
 20
-7935.683
 30
-76.000
 70
    32
  0
VERTEX
  8
M54LXLIFT
 62
1
 10
6000.640
 20
-7900.191
 30
-76.000
 70
    32
  0
VERTEX
  8
M54LXLIFT
 62
1
 10
6011.794
 20
-7882.201
 30
-76.000
 70
    32
  0
SEQEND
  8
M54LXLIFT
  0
POLYLINE
  8
M54LXLIFT
 62
7
 66
     1
 70
     9
  0
VERTEX
  8
M54LXLIFT
 62
7
 10
6010.794
 20
-7883.201
 30
-86.000
 70
    32
  0
VERTEX
  8
M54LXLIFT
 62
7
 10
5999.640
 20
-7901.191
 30
-86.000
 70
    32
  0
VERTEX
  8
M54LXLIFT
 62
7
 10
6008.833
 20
-7936.683
 30
-86.000
 70
    32
  0
VERTEX
  8
M54LXLIFT
 62
7
 10
6019.404
 20
-7962.437
 30
-86.000
 70
    32
  0
VERTEX
  8
M54LXLIFT
 62
7
 10
6039.078
 20
-7992.872
 30
-86.000
 70
    32
  0
VERTEX
  8
M54LXLIFT
 62
7
 10
6043.525
 20
-8002.817
 30
-86.000
 70
    32
  0
VERTEX
  8
M54LXLIFT
 62
7
 10
6047.253
 20
-8004.778
 30
-86.000
 70
    32
  0
VERTEX
  8
M54LXLIFT
 62
7
 10
6051.259
 20
-8000.862
 30
-86.000
 70
    32
  0
VERTEX
  8
M54LXLIFT
 62
7
 10
6051.356
 20
-7996.972
 30
-86.000
 70
    32
  0
VERTEX
  8
M54LXLIFT
 62
7
 10
6046.338
 20
-7990.718
 30
-86.000
 70
    32
  0
VERTEX
  8
M54LXLIFT
 62
7
 10
6043.739
 20
-7976.146
 30
-86.000
 70
    32
  0
VERTEX
  8
M54LXLIFT
 62
7
 10
6039.653
 20
-7963.864
 30
-86.000
 70
    32
  0
VERTEX
  8
M54LXLIFT
 62
7
 10
6045.523
 20
-7960.110
 30
-86.000
 70
    32
  0
VERTEX
  8
M54LXLIFT
 62
7
 10
6041.357
 20
-7954.869
 30
-86.000
 70
    32
  0
VERTEX
  8
M54LXLIFT
 62
7
 10
6035.108
 20
-7959.446
 30
-86.000
 70
    32
  0
VERTEX
  8
M54LXLIFT
 62
7
 10
6029.131
 20
-7958.586
 30
-86.000
 70
    32
  0
VERTEX
  8
M54LXLIFT
 62
7
 10
6026.157
 20
-7955.419
 30
-86.000
 70
    32
  0
VERTEX
  8
M54LXLIFT
 62
7
 10
6022.383
 20
-7924.794
 30
-86.000
 70
    32
  0
VERTEX
  8
M54LXLIFT
 62
7
 10
6019.655
 20
-7912.281
 30
-86.000
 70
    32
  0
VERTEX
  8
M54LXLIFT
 62
7
 10
6021.553
 20
-7895.506
 30
-86.000
 70
    32
  0
VERTEX
  8
M54LXLIFT
 62
7
 10
6020.607
 20
-7885.724
 30
-86.000
 70
    32
  0
SEQEND
  8
M54LXLIFT
  0
POLYLINE
  8
M54LXLIFT
 62
1
 66
     1
 70
     9
  0
VERTEX
  8
M54LXLIFT
 62
1
 10
6077.440
 20
-8097.402
 30
-76.000
 70
    32
  0
VERTEX
  8
M54LXLIFT
 62
1
 10
6068.383
 20
-8088.761
 30
-76.000
 70
    32
  0
VERTEX
  8
M54LXLIFT
 62
1
 10
6055.819
 20
-8072.650
 30
-76.000
 70
    32
  0
VERTEX
  8
M54LXLIFT
 62
1
 10
6046.981
 20
-8044.645
 30
-76.000
 70
    32
  0
VERTEX
  8
M54LXLIFT
 62
1
 10
6047.281
 20
-8032.095
 30
-76.000
 70
    32
  0
VERTEX
  8
M54LXLIFT
 62
1
 10
6040.066
 20
-8020.904
 30
-76.000
 70
    32
  0
VERTEX
  8
M54LXLIFT
 62
1
 10
6043.538
 20
-8015.961
 30
-76.000
 70
    32
  0
VERTEX
  8
M54LXLIFT
 62
1
 10
6050.660
 20
-8015.108
 30
-76.000
 70
    32
  0
VERTEX
  8
M54LXLIFT
 62
1
 10
6059.757
 20
-8020.229
 30
-76.000
 70
    32
  0
VERTEX
  8
M54LXLIFT
 62
1
 10
6062.894
 20
-8029.279
 30
-76.000
 70
    32
  0
VERTEX
  8
M54LXLIFT
 62
1
 10
6071.756
 20
-8048.974
 30
-76.000
 70
    32
  0
VERTEX
  8
M54LXLIFT
 62
1
 10
6075.794
 20
-8046.890
 30
-76.000
 70
    32
  0
VERTEX
  8
M54LXLIFT
 62
1
 10
6080.261
 20
-8055.074
 30
-76.000
 70
    32
  0
VERTEX
  8
M54LXLIFT
 62
1
 10
6082.105
 20
-8066.381
 30
-76.000
 70
    32
  0
VERTEX
  8
M54LXLIFT
 62
1
 10
6085.536
 20
-8082.089
 30
-76.000
 70
    32
  0
VERTEX
  8
M54LXLIFT
 62
1
 10
6082.202
 20
-8095.115
 30
-76.000
 70
    32
  0
SEQEND
  8
M54LXLIFT
  0
POLYLINE
  8
M54LXLIFT
 62
7
 66
     1
 70
     9
  0
VERTEX
  8
M54LXLIFT
 62
7
 10
6081.202
 20
-8096.115
 30
-86.000
 70
    32
  0
VERTEX
  8
M54LXLIFT
 62
7
 10
6084.536
 20
-8083.089
 30
-86.000
 70
    32
  0
VERTEX
  8
M54LXLIFT
 62
7
 10
6081.105
 20
-8067.381
 30
-86.000
 70
    32
  0
VERTEX
  8
M54LXLIFT
 62
7
 10
6079.261
 20
-8056.074
 30
-86.000
 70
    32
  0
VERTEX
  8
M54LXLIFT
 62
7
 10
6074.794
 20
-8047.890
 30
-86.000
 70
    32
  0
VERTEX
  8
M54LXLIFT
 62
7
 10
6070.756
 20
-8049.974
 30
-86.000
 70
    32
  0
VERTEX
  8
M54LXLIFT
 62
7
 10
6061.894
 20
-8030.279
 30
-86.000
 70
    32
  0
VERTEX
  8
M54LXLIFT
 62
7
 10
6058.757
 20
-8021.229
 30
-86.000
 70
    32
  0
VERTEX
  8
M54LXLIFT
 62
7
 10
6049.660
 20
-8016.108
 30
-86.000
 70
    32
  0
VERTEX
  8
M54LXLIFT
 62
7
 10
6042.538
 20
-8016.961
 30
-86.000
 70
    32
  0
VERTEX
  8
M54LXLIFT
 62
7
 10
6039.066
 20
-8021.904
 30
-86.000
 70
    32
  0
VERTEX
  8
M54LXLIFT
 62
7
 10
6046.281
 20
-8033.095
 30
-86.000
 70
    32
  0
VERTEX
  8
M54LXLIFT
 62
7
 10
6045.981
 20
-8045.645
 30
-86.000
 70
    32
  0
VERTEX
  8
M54LXLIFT
 62
7
 10
6054.819
 20
-8073.650
 30
-86.000
 70
    32
  0
VERTEX
  8
M54LXLIFT
 62
7
 10
6067.383
 20
-8089.761
 30
-86.000
 70
    32
  0
VERTEX
  8
M54LXLIFT
 62
7
 10
6076.440
 20
-8098.402
 30
-86.000
 70
    32
  0
SEQEND
  8
M54LXLIFT
  0
POLYLINE
  8
M54LXLIFT
 62
1
 66
     1
 70
     9
  0
VERTEX
  8
M54LXLIFT
 62
1
 10
6101.172
 20
-8113.490
 30
-146.000
 70
    32
  0
VERTEX
  8
M54LXLIFT
 62
1
 10
6102.348
 20
-8127.930
 30
-146.000
 70
    32
  0
VERTEX
  8
M54LXLIFT
 62
1
 10
6116.760
 20
-8159.406
 30
-146.000
 70
    32
  0
VERTEX
  8
M54LXLIFT
 62
1
 10
6131.901
 20
-8179.842
 30
-146.000
 70
    32
  0
VERTEX
  8
M54LXLIFT
 62
1
 10
6143.702
 20
-8199.103
 30
-146.000
 70
    32
  0
VERTEX
  8
M54LXLIFT
 62
1
 10
6157.610
 20
-8212.403
 30
-146.000
 70
    32
  0
VERTEX
  8
M54LXLIFT
 62
1
 10
6163.436
 20
-8240.083
 30
-146.000
 70
    32
  0
VERTEX
  8
M54LXLIFT
 62
1
 10
6147.053
 20
-8270.195
 30
-146.000
 70
    32
  0
VERTEX
  8
M54LXLIFT
 62
1
 10
6143.229
 20
-8267.743
 30
-146.000
 70
    32
  0
VERTEX
  8
M54LXLIFT
 62
1
 10
6131.369
 20
-8229.118
 30
-146.000
 70
    32
  0
VERTEX
  8
M54LXLIFT
 62
1
 10
6118.946
 20
-8216.375
 30
-146.000
 70
    32
  0
VERTEX
  8
M54LXLIFT
 62
1
 10
6121.919
 20
-8197.758
 30
-146.000
 70
    32
  0
VERTEX
  8
M54LXLIFT
 62
1
 10
6095.842
 20
-8148.115
 30
-146.000
 70
    32
  0
VERTEX
  8
M54LXLIFT
 62
1
 10
6086.557
 20
-8117.286
 30
-146.000
 70
    32
  0
VERTEX
  8
M54LXLIFT
 62
1
 10
6093.097
 20
-8112.363
 30
-146.000
 70
    32
  0
SEQEND
  8
M54LXLIFT
  0
POLYLINE
  8
M54LXLIFT
 62
2
 66
     1
 70
     9
  0
VERTEX
  8
M54LXLIFT
 62
2
 10
6092.097
 20
-8113.363
 30
-156.000
 70
    32
  0
VERTEX
  8
M54LXLIFT
 62
2
 10
6085.557
 20
-8118.286
 30
-156.000
 70
    32
  0
VERTEX
  8
M54LXLIFT
 62
2
 10
6094.842
 20
-8149.115
 30
-156.000
 70
    32
  0
VERTEX
  8
M54LXLIFT
 62
2
 10
6120.919
 20
-8198.758
 30
-156.000
 70
    32
  0
VERTEX
  8
M54LXLIFT
 62
2
 10
6117.946
 20
-8217.375
 30
-156.000
 70
    32
  0
VERTEX
  8
M54LXLIFT
 62
2
 10
6130.369
 20
-8230.118
 30
-156.000
 70
    32
  0
VERTEX
  8
M54LXLIFT
 62
2
 10
6142.229
 20
-8268.743
 30
-156.000
 70
    32
  0
VERTEX
  8
M54LXLIFT
 62
2
 10
6146.053
 20
-8271.195
 30
-156.000
 70
    32
  0
VERTEX
  8
M54LXLIFT
 62
2
 10
6162.436
 20
-8241.083
 30
-156.000
 70
    32
  0
VERTEX
  8
M54LXLIFT
 62
2
 10
6156.610
 20
-8213.403
 30
-156.000
 70
    32
  0
VERTEX
  8
M54LXLIFT
 62
2
 10
6142.702
 20
-8200.103
 30
-156.000
 70
    32
  0
VERTEX
  8
M54LXLIFT
 62
2
 10
6130.901
 20
-8180.842
 30
-156.000
 70
    32
  0
VERTEX
  8
M54LXLIFT
 62
2
 10
6115.760
 20
-8160.406
 30
-156.000
 70
    32
  0
VERTEX
  8
M54LXLIFT
 62
2
 10
6101.348
 20
-8128.930
 30
-156.000
 70
    32
  0
VERTEX
  8
M54LXLIFT
 62
2
 10
6100.172
 20
-8114.490
 30
-156.000
 70
    32
  0
SEQEND
  8
M54LXLIFT
  0
POLYLINE
  8
M54LXLIFT
 62
2
 66
     1
 70
     9
  0
VERTEX
  8
M54LXLIFT
 62
2
 10
6088.385
 20
-8106.945
 30
-174.000
 70
    32
  0
VERTEX
  8
M54LXLIFT
 62
2
 10
6096.759
 20
-8118.591
 30
-174.000
 70
    32
  0
VERTEX
  8
M54LXLIFT
 62
2
 10
6108.708
 20
-8138.988
 30
-174.000
 70
    32
  0
VERTEX
  8
M54LXLIFT
 62
2
 10
6121.196
 20
-8163.047
 30
-174.000
 70
    32
  0
VERTEX
  8
M54LXLIFT
 62
2
 10
6139.372
 20
-8174.727
 30
-174.000
 70
    32
  0
VERTEX
  8
M54LXLIFT
 62
2
 10
6152.184
 20
-8194.369
 30
-174.000
 70
    32
  0
VERTEX
  8
M54LXLIFT
 62
2
 10
6167.977
 20
-8210.356
 30
-174.000
 70
    32
  0
VERTEX
  8
M54LXLIFT
 62
2
 10
6173.753
 20
-8228.667
 30
-174.000
 70
    32
  0
VERTEX
  8
M54LXLIFT
 62
2
 10
6163.867
 20
-8257.914
 30
-174.000
 70
    32
  0
VERTEX
  8
M54LXLIFT
 62
2
 10
6165.898
 20
-8263.865
 30
-174.000
 70
    32
  0
VERTEX
  8
M54LXLIFT
 62
2
 10
6148.709
 20
-8272.758
 30
-174.000
 70
    32
  0
VERTEX
  8
M54LXLIFT
 62
2
 10
6145.032
 20
-8272.100
 30
-174.000
 70
    32
  0
VERTEX
  8
M54LXLIFT
 62
2
 10
6141.697
 20
-8266.904
 30
-174.000
 70
    32
  0
VERTEX
  8
M54LXLIFT
 62
2
 10
6153.094
 20
-8228.949
 30
-174.000
 70
    32
  0
VERTEX
  8
M54LXLIFT
 62
2
 10
6151.118
 20
-8221.308
 30
-174.000
 70
    32
  0
VERTEX
  8
M54LXLIFT
 62
2
 10
6125.113
 20
-8188.569
 30
-174.000
 70
    32
  0
VERTEX
  8
M54LXLIFT
 62
2
 10
6119.197
 20
-8179.919
 30
-174.000
 70
    32
  0
VERTEX
  8
M54LXLIFT
 62
2
 10
6115.552
 20
-8171.220
 30
-174.000
 70
    32
  0
VERTEX
  8
M54LXLIFT
 62
2
 10
6103.387
 20
-8153.180
 30
-174.000
 70
    32
  0
VERTEX
  8
M54LXLIFT
 62
2
 10
6096.723
 20
-8139.707
 30
-174.000
 70
    32
  0
VERTEX
  8
M54LXLIFT
 62
2
 10
6077.163
 20
-8114.563
 30
-174.000
 70
    32
  0
SEQEND
  8
M54LXLIFT
  0
POLYLINE
  8
M54LXLIFT
 62
2
 66
     1
 70
     9
  0
VERTEX
  8
M54LXLIFT
 62
2
 10
6076.608
 20
-8113.532
 30
-166.000
 70
    32
  0
VERTEX
  8
M54LXLIFT
 62
2
 10
6082.355
 20
-8129.181
 30
-166.000
 70
    32
  0
VERTEX
  8
M54LXLIFT
 62
2
 10
6095.188
 20
-8151.625
 30
-166.000
 70
    32
  0
VERTEX
  8
M54LXLIFT
 62
2
 10
6114.248
 20
-8174.066
 30
-166.000
 70
    32
  0
VERTEX
  8
M54LXLIFT
 62
2
 10
6122.697
 20
-8190.564
 30
-166.000
 70
    32
  0
VERTEX
  8
M54LXLIFT
 62
2
 10
6137.052
 20
-8205.439
 30
-166.000
 70
    32
  0
VERTEX
  8
M54LXLIFT
 62
2
 10
6145.200
 20
-8235.161
 30
-166.000
 70
    32
  0
VERTEX
  8
M54LXLIFT
 62
2
 10
6140.785
 20
-8263.110
 30
-166.000
 70
    32
  0
VERTEX
  8
M54LXLIFT
 62
2
 10
6146.093
 20
-8267.938
 30
-166.000
 70
    32
  0
VERTEX
  8
M54LXLIFT
 62
2
 10
6155.239
 20
-8261.522
 30
-166.000
 70
    32
  0
VERTEX
  8
M54LXLIFT
 62
2
 10
6159.037
 20
-8253.039
 30
-166.000
 70
    32
  0
VERTEX
  8
M54LXLIFT
 62
2
 10
6161.583
 20
-8242.858
 30
-166.000
 70
    32
  0
VERTEX
  8
M54LXLIFT
 62
2
 10
6171.794
 20
-8235.220
 30
-166.000
 70
    32
  0
VERTEX
  8
M54LXLIFT
 62
2
 10
6170.857
 20
-8229.355
 30
-166.000
 70
    32
  0
VERTEX
  8
M54LXLIFT
 62
2
 10
6153.076
 20
-8196.792
 30
-166.000
 70
    32
  0
VERTEX
  8
M54LXLIFT
 62
2
 10
6126.232
 20
-8173.425
 30
-166.000
 70
    32
  0
VERTEX
  8
M54LXLIFT
 62
2
 10
6113.833
 20
-8158.092
 30
-166.000
 70
    32
  0
VERTEX
  8
M54LXLIFT
 62
2
 10
6100.467
 20
-8134.184
 30
-166.000
 70
    32
  0
VERTEX
  8
M54LXLIFT
 62
2
 10
6089.804
 20
-8117.352
 30
-166.000
 70
    32
  0
VERTEX
  8
M54LXLIFT
 62
2
 10
6080.766
 20
-8110.576
 30
-166.000
 70
    32
  0
SEQEND
  8
M54LXLIFT
  0
POLYLINE
  8
M54LXLIFT
 62
2
 66
     1
 70
     9
  0
VERTEX
  8
M54LXLIFT
 62
2
 10
6141.916
 20
-8098.401
 30
-191.000
 70
    32
  0
VERTEX
  8
M54LXLIFT
 62
2
 10
6154.124
 20
-8108.306
 30
-191.000
 70
    32
  0
VERTEX
  8
M54LXLIFT
 62
2
 10
6160.481
 20
-8117.038
 30
-191.000
 70
    32
  0
VERTEX
  8
M54LXLIFT
 62
2
 10
6164.623
 20
-8123.473
 30
-191.000
 70
    32
  0
VERTEX
  8
M54LXLIFT
 62
2
 10
6177.975
 20
-8136.890
 30
-191.000
 70
    32
  0
VERTEX
  8
M54LXLIFT
 62
2
 10
6193.572
 20
-8160.404
 30
-191.000
 70
    32
  0
VERTEX
  8
M54LXLIFT
 62
2
 10
6205.017
 20
-8180.749
 30
-191.000
 70
    32
  0
VERTEX
  8
M54LXLIFT
 62
2
 10
6207.461
 20
-8201.564
 30
-191.000
 70
    32
  0
VERTEX
  8
M54LXLIFT
 62
2
 10
6208.903
 20
-8221.152
 30
-191.000
 70
    32
  0
VERTEX
  8
M54LXLIFT
 62
2
 10
6205.502
 20
-8237.967
 30
-191.000
 70
    32
  0
VERTEX
  8
M54LXLIFT
 62
2
 10
6201.749
 20
-8247.434
 30
-191.000
 70
    32
  0
VERTEX
  8
M54LXLIFT
 62
2
 10
6208.310
 20
-8262.862
 30
-191.000
 70
    32
  0
VERTEX
  8
M54LXLIFT
 62
2
 10
6212.089
 20
-8281.184
 30
-191.000
 70
    32
  0
VERTEX
  8
M54LXLIFT
 62
2
 10
6217.925
 20
-8293.229
 30
-191.000
 70
    32
  0
VERTEX
  8
M54LXLIFT
 62
2
 10
6217.502
 20
-8298.317
 30
-191.000
 70
    32
  0
VERTEX
  8
M54LXLIFT
 62
2
 10
6211.305
 20
-8302.936
 30
-191.000
 70
    32
  0
VERTEX
  8
M54LXLIFT
 62
2
 10
6200.440
 20
-8304.872
 30
-191.000
 70
    32
  0
VERTEX
  8
M54LXLIFT
 62
2
 10
6188.310
 20
-8295.671
 30
-191.000
 70
    32
  0
VERTEX
  8
M54LXLIFT
 62
2
 10
6175.955
 20
-8286.308
 30
-191.000
 70
    32
  0
VERTEX
  8
M54LXLIFT
 62
2
 10
6152.822
 20
-8275.124
 30
-191.000
 70
    32
  0
VERTEX
  8
M54LXLIFT
 62
2
 10
6143.964
 20
-8263.106
 30
-191.000
 70
    32
  0
VERTEX
  8
M54LXLIFT
 62
2
 10
6140.350
 20
-8251.725
 30
-191.000
 70
    32
  0
VERTEX
  8
M54LXLIFT
 62
2
 10
6149.403
 20
-8241.332
 30
-191.000
 70
    32
  0
VERTEX
  8
M54LXLIFT
 62
2
 10
6154.220
 20
-8228.700
 30
-191.000
 70
    32
  0
VERTEX
  8
M54LXLIFT
 62
2
 10
6159.472
 20
-8220.098
 30
-191.000
 70
    32
  0
VERTEX
  8
M54LXLIFT
 62
2
 10
6161.569
 20
-8204.776
 30
-191.000
 70
    32
  0
VERTEX
  8
M54LXLIFT
 62
2
 10
6176.676
 20
-8188.672
 30
-191.000
 70
    32
  0
VERTEX
  8
M54LXLIFT
 62
2
 10
6174.804
 20
-8174.611
 30
-191.000
 70
    32
  0
VERTEX
  8
M54LXLIFT
 62
2
 10
6166.814
 20
-8155.878
 30
-191.000
 70
    32
  0
VERTEX
  8
M54LXLIFT
 62
2
 10
6153.391
 20
-8141.318
 30
-191.000
 70
    32
  0
VERTEX
  8
M54LXLIFT
 62
2
 10
6143.667
 20
-8127.215
 30
-191.000
 70
    32
  0
VERTEX
  8
M54LXLIFT
 62
2
 10
6134.098
 20
-8113.325
 30
-191.000
 70
    32
  0
SEQEND
  8
M54LXLIFT
  0
POLYLINE
  8
M54LXLIFT
 62
2
 66
     1
 70
     9
  0
VERTEX
  8
M54LXLIFT
 62
2
 10
6223.327
 20
-8251.841
 30
-196.000
 70
    32
  0
VERTEX
  8
M54LXLIFT
 62
2
 10
6217.456
 20
-8226.350
 30
-196.000
 70
    32
  0
VERTEX
  8
M54LXLIFT
 62
2
 10
6211.508
 20
-8184.414
 30
-196.000
 70
    32
  0
VERTEX
  8
M54LXLIFT
 62
2
 10
6211.328
 20
-8177.271
 30
-196.000
 70
    32
  0
VERTEX
  8
M54LXLIFT
 62
2
 10
6198.509
 20
-8161.371
 30
-196.000
 70
    32
  0
VERTEX
  8
M54LXLIFT
 62
2
 10
6189.914
 20
-8150.553
 30
-196.000
 70
    32
  0
VERTEX
  8
M54LXLIFT
 62
2
 10
6187.910
 20
-8144.189
 30
-196.000
 70
    32
  0
VERTEX
  8
M54LXLIFT
 62
2
 10
6172.299
 20
-8124.883
 30
-196.000
 70
    32
  0
VERTEX
  8
M54LXLIFT
 62
2
 10
6164.728
 20
-8115.929
 30
-196.000
 70
    32
  0
VERTEX
  8
M54LXLIFT
 62
2
 10
6157.781
 20
-8111.733
 30
-196.000
 70
    32
  0
VERTEX
  8
M54LXLIFT
 62
2
 10
6148.137
 20
-8118.501
 30
-196.000
 70
    32
  0
VERTEX
  8
M54LXLIFT
 62
2
 10
6157.990
 20
-8134.053
 30
-196.000
 70
    32
  0
VERTEX
  8
M54LXLIFT
 62
2
 10
6164.768
 20
-8145.210
 30
-196.000
 70
    32
  0
VERTEX
  8
M54LXLIFT
 62
2
 10
6172.999
 20
-8153.577
 30
-196.000
 70
    32
  0
VERTEX
  8
M54LXLIFT
 62
2
 10
6179.061
 20
-8173.937
 30
-196.000
 70
    32
  0
VERTEX
  8
M54LXLIFT
 62
2
 10
6182.207
 20
-8181.428
 30
-196.000
 70
    32
  0
VERTEX
  8
M54LXLIFT
 62
2
 10
6182.481
 20
-8196.644
 30
-196.000
 70
    32
  0
VERTEX
  8
M54LXLIFT
 62
2
 10
6186.273
 20
-8210.724
 30
-196.000
 70
    32
  0
VERTEX
  8
M54LXLIFT
 62
2
 10
6178.881
 20
-8219.552
 30
-196.000
 70
    32
  0
VERTEX
  8
M54LXLIFT
 62
2
 10
6174.262
 20
-8244.499
 30
-196.000
 70
    32
  0
VERTEX
  8
M54LXLIFT
 62
2
 10
6180.517
 20
-8264.827
 30
-196.000
 70
    32
  0
VERTEX
  8
M54LXLIFT
 62
2
 10
6193.463
 20
-8268.912
 30
-196.000
 70
    32
  0
VERTEX
  8
M54LXLIFT
 62
2
 10
6209.702
 20
-8257.910
 30
-196.000
 70
    32
  0
SEQEND
  8
M54LXLIFT
  0
POLYLINE
  8
M54LXLIFT
 62
2
 66
     1
 70
     9
  0
VERTEX
  8
M54LXLIFT
 62
2
 10
6172.479
 20
-8144.089
 30
-207.000
 70
    32
  0
VERTEX
  8
M54LXLIFT
 62
2
 10
6187.228
 20
-8172.820
 30
-207.000
 70
    32
  0
VERTEX
  8
M54LXLIFT
 62
2
 10
6201.713
 20
-8199.000
 30
-207.000
 70
    32
  0
VERTEX
  8
M54LXLIFT
 62
2
 10
6186.593
 20
-8212.548
 30
-207.000
 70
    32
  0
VERTEX
  8
M54LXLIFT
 62
2
 10
6189.568
 20
-8217.682
 30
-207.000
 70
    32
  0
VERTEX
  8
M54LXLIFT
 62
2
 10
6204.359
 20
-8219.224
 30
-207.000
 70
    32
  0
VERTEX
  8
M54LXLIFT
 62
2
 10
6215.189
 20
-8210.655
 30
-207.000
 70
    32
  0
VERTEX
  8
M54LXLIFT
 62
2
 10
6213.425
 20
-8197.905
 30
-207.000
 70
    32
  0
VERTEX
  8
M54LXLIFT
 62
2
 10
6208.812
 20
-8184.436
 30
-207.000
 70
    32
  0
VERTEX
  8
M54LXLIFT
 62
2
 10
6196.125
 20
-8166.801
 30
-207.000
 70
    32
  0
VERTEX
  8
M54LXLIFT
 62
2
 10
6188.751
 20
-8155.074
 30
-207.000
 70
    32
  0
VERTEX
  8
M54LXLIFT
 62
2
 10
6183.644
 20
-8138.017
 30
-207.000
 70
    32
  0
SEQEND
  8
M54LXLIFT
  0
POLYLINE
  8
M54LXLIFT
 62
2
 66
     1
 70
     9
  0
VERTEX
  8
M54LXLIFT
 62
2
 10
6189.334
 20
-8219.148
 30
-220.919
 70
    32
  0
VERTEX
  8
M54LXLIFT
 62
2
 10
6182.006
 20
-8211.031
 30
-220.920
 70
    32
  0
VERTEX
  8
M54LXLIFT
 62
2
 10
6198.679
 20
-8197.573
 30
-220.918
 70
    32
  0
VERTEX
  8
M54LXLIFT
 62
2
 10
6188.975
 20
-8174.922
 30
-220.919
 70
    32
  0
VERTEX
  8
M54LXLIFT
 62
2
 10
6177.973
 20
-8162.654
 30
-220.920
 70
    32
  0
VERTEX
  8
M54LXLIFT
 62
2
 10
6173.931
 20
-8152.479
 30
-220.921
 70
    32
  0
VERTEX
  8
M54LXLIFT
 62
2
 10
6173.940
 20
-8139.346
 30
-220.921
 70
    32
  0
VERTEX
  8
M54LXLIFT
 62
2
 10
6179.601
 20
-8123.848
 30
-220.920
 70
    32
  0
VERTEX
  8
M54LXLIFT
 62
2
 10
6192.172
 20
-8123.823
 30
-220.919
 70
    32
  0
VERTEX
  8
M54LXLIFT
 62
2
 10
6189.594
 20
-8135.752
 30
-220.919
 70
    32
  0
VERTEX
  8
M54LXLIFT
 62
2
 10
6190.055
 20
-8154.902
 30
-220.919
 70
    32
  0
VERTEX
  8
M54LXLIFT
 62
2
 10
6207.540
 20
-8179.285
 30
-220.917
 70
    32
  0
VERTEX
  8
M54LXLIFT
 62
2
 10
6211.990
 20
-8191.109
 30
-220.917
 70
    32
  0
VERTEX
  8
M54LXLIFT
 62
2
 10
6223.899
 20
-8194.649
 30
-220.916
 70
    32
  0
SEQEND
  8
M54LXLIFT
  0
POLYLINE
  8
M54LXLIFT
 62
6
 66
     1
 70
     9
  0
VERTEX
  8
M54LXLIFT
 62
6
 10
6282.876
 20
-7912.935
 30
-220.918
 70
    32
  0
VERTEX
  8
M54LXLIFT
 62
6
 10
6304.604
 20
-7963.770
 30
-220.915
 70
    32
  0
VERTEX
  8
M54LXLIFT
 62
6
 10
6315.380
 20
-7974.799
 30
-220.914
 70
    32
  0
VERTEX
  8
M54LXLIFT
 62
6
 10
6318.070
 20
-7986.570
 30
-220.914
 70
    32
  0
VERTEX
  8
M54LXLIFT
 62
6
 10
6311.605
 20
-7989.615
 30
-220.914
 70
    32
  0
VERTEX
  8
M54LXLIFT
 62
6
 10
6307.099
 20
-7989.021
 30
-220.914
 70
    32
  0
VERTEX
  8
M54LXLIFT
 62
6
 10
6305.025
 20
-7984.240
 30
-220.915
 70
    32
  0
VERTEX
  8
M54LXLIFT
 62
6
 10
6301.142
 20
-7982.239
 30
-220.915
 70
    32
  0
VERTEX
  8
M54LXLIFT
 62
6
 10
6297.539
 20
-7982.624
 30
-220.915
 70
    32
  0
VERTEX
  8
M54LXLIFT
 62
6
 10
6292.697
 20
-7966.879
 30
-220.916
 70
    32
  0
VERTEX
  8
M54LXLIFT
 62
6
 10
6260.203
 20
-7947.466
 30
-220.918
 70
    32
  0
VERTEX
  8
M54LXLIFT
 62
6
 10
6261.595
 20
-7936.910
 30
-220.918
 70
    32
  0
VERTEX
  8
M54LXLIFT
 62
6
 10
6256.644
 20
-7931.433
 30
-220.919
 70
    32
  0
SEQEND
  8
M54LXLIFT
  0
POLYLINE
  8
M54LXLIFT
 62
4
 66
     1
 70
     9
  0
VERTEX
  8
M54LXLIFT
 62
4
 10
6390.644
 20
-7700.818
 30
-220.919
 70
    32
  0
VERTEX
  8
M54LXLIFT
 62
4
 10
6387.376
 20
-7696.771
 30
-220.920
 70
    32
  0
VERTEX
  8
M54LXLIFT
 62
4
 10
6388.570
 20
-7695.715
 30
-220.920
 70
    32
  0
VERTEX
  8
M54LXLIFT
 62
4
 10
6399.176
 20
-7688.465
 30
-220.919
 70
    32
  0
VERTEX
  8
M54LXLIFT
 62
4
 10
6411.109
 20
-7684.477
 30
-220.919
 70
    32
  0
VERTEX
  8
M54LXLIFT
 62
4
 10
6422.742
 20
-7670.585
 30
-220.919
 70
    32
  0
VERTEX
  8
M54LXLIFT
 62
4
 10
6430.794
 20
-7679.120
 30
-220.918
 70
    32
  0
VERTEX
  8
M54LXLIFT
 62
4
 10
6435.271
 20
-7692.970
 30
-220.917
 70
    32
  0
VERTEX
  8
M54LXLIFT
 62
4
 10
6430.752
 20
-7701.530
 30
-220.917
 70
    32
  0
VERTEX
  8
M54LXLIFT
 62
4
 10
6438.543
 20
-7709.388
 30
-220.917
 70
    32
  0
VERTEX
  8
M54LXLIFT
 62
4
 10
6436.854
 20
-7716.925
 30
-220.916
 70
    32
  0
VERTEX
  8
M54LXLIFT
 62
4
 10
6431.029
 20
-7722.101
 30
-220.916
 70
    32
  0
VERTEX
  8
M54LXLIFT
 62
4
 10
6423.581
 20
-7704.641
 30
-220.917
 70
    32
  0
VERTEX
  8
M54LXLIFT
 62
4
 10
6416.986
 20
-7710.252
 30
-220.918
 70
    32
  0
VERTEX
  8
M54LXLIFT
 62
4
 10
6418.538
 20
-7716.583
 30
-220.917
 70
    32
  0
VERTEX
  8
M54LXLIFT
 62
4
 10
6415.167
 20
-7717.450
 30
-220.917
 70
    32
  0
VERTEX
  8
M54LXLIFT
 62
4
 10
6409.506
 20
-7713.688
 30
-220.918
 70
    32
  0
VERTEX
  8
M54LXLIFT
 62
4
 10
6402.775
 20
-7719.717
 30
-220.918
 70
    32
  0
VERTEX
  8
M54LXLIFT
 62
4
 10
6397.561
 20
-7732.640
 30
-220.918
 70
    32
  0
VERTEX
  8
M54LXLIFT
 62
4
 10
6392.081
 20
-7729.288
 30
-220.918
 70
    32
  0
VERTEX
  8
M54LXLIFT
 62
4
 10
6395.688
 20
-7713.623
 30
-220.919
 70
    32
  0
VERTEX
  8
M54LXLIFT
 62
4
 10
6390.795
 20
-7709.269
 30
-220.919
 70
    32
  0
SEQEND
  8
M54LXLIFT
  0
POLYLINE
  8
M54LXLIFT
 62
3
 66
     1
 70
     9
  0
VERTEX
  8
M54LXLIFT
 62
3
 10
6386.791
 20
-7633.518
 30
-220.922
 70
    32
  0
VERTEX
  8
M54LXLIFT
 62
3
 10
6383.260
 20
-7626.701
 30
-220.922
 70
    32
  0
VERTEX
  8
M54LXLIFT
 62
3
 10
6395.051
 20
-7621.008
 30
-220.922
 70
    32
  0
VERTEX
  8
M54LXLIFT
 62
3
 10
6394.153
 20
-7614.531
 30
-220.922
 70
    32
  0
VERTEX
  8
M54LXLIFT
 62
3
 10
6396.599
 20
-7609.904
 30
-220.922
 70
    32
  0
VERTEX
  8
M54LXLIFT
 62
3
 10
6397.654
 20
-7586.028
 30
-220.923
 70
    32
  0
VERTEX
  8
M54LXLIFT
 62
3
 10
6403.145
 20
-7571.511
 30
-220.923
 70
    32
  0
VERTEX
  8
M54LXLIFT
 62
3
 10
6405.911
 20
-7570.855
 30
-220.923
 70
    32
  0
VERTEX
  8
M54LXLIFT
 62
3
 10
6415.597
 20
-7559.088
 30
-220.923
 70
    32
  0
VERTEX
  8
M54LXLIFT
 62
3
 10
6421.663
 20
-7563.426
 30
-220.922
 70
    32
  0
VERTEX
  8
M54LXLIFT
 62
3
 10
6408.090
 20
-7582.664
 30
-220.922
 70
    32
  0
VERTEX
  8
M54LXLIFT
 62
3
 10
6405.492
 20
-7584.170
 30
-220.922
 70
    32
  0
VERTEX
  8
M54LXLIFT
 62
3
 10
6407.901
 20
-7609.911
 30
-220.921
 70
    32
  0
VERTEX
  8
M54LXLIFT
 62
3
 10
6405.370
 20
-7615.028
 30
-220.921
 70
    32
  0
VERTEX
  8
M54LXLIFT
 62
3
 10
6405.158
 20
-7624.968
 30
-220.921
 70
    32
  0
VERTEX
  8
M54LXLIFT
 62
3
 10
6408.893
 20
-7630.732
 30
-220.921
 70
    32
  0
VERTEX
  8
M54LXLIFT
 62
3
 10
6403.274
 20
-7643.080
 30
-220.920
 70
    32
  0
VERTEX
  8
M54LXLIFT
 62
3
 10
6395.368
 20
-7654.777
 30
-220.921
 70
    32
  0
VERTEX
  8
M54LXLIFT
 62
3
 10
6392.670
 20
-7645.594
 30
-220.921
 70
    32
  0
VERTEX
  8
M54LXLIFT
 62
3
 10
6384.496
 20
-7644.321
 30
-220.921
 70
    32
  0
SEQEND
  8
M54LXLIFT
  0
ENDSEC
  0
EOF
