999
********************************
999
*   DXF File - Entities Only   *
999
*        3D Data Format        *
999
*     Output from ENVISAGE     *
999
*     31-Dec-2007 15:11:54     *
999
********************************
  0
SECTION 
  2
HEADER
  9
$ACADVER
  1
AC1009
  9
$EXTMIN
 10
-290000.000
 20
-250000.000
 30
-4000.000
  9
$EXTMAX
 10
320000.000
 20
160000.000
 30
6000.000
  0
ENDSEC
  0
SECTION
  2
ENTITIES
  0
POLYLINE
  8
M56LXLIFT
 62
6
 66
     1
 70
     9
  0
VERTEX
  8
M56LXLIFT
 62
6
 10
6502.016
 20
-7837.233
 30
-359.000
 70
    32
  0
VERTEX
  8
M56LXLIFT
 62
6
 10
6486.648
 20
-7824.024
 30
-359.000
 70
    32
  0
VERTEX
  8
M56LXLIFT
 62
6
 10
6471.675
 20
-7818.723
 30
-359.000
 70
    32
  0
VERTEX
  8
M56LXLIFT
 62
6
 10
6460.269
 20
-7822.805
 30
-359.000
 70
    32
  0
VERTEX
  8
M56LXLIFT
 62
6
 10
6449.940
 20
-7841.615
 30
-359.000
 70
    32
  0
VERTEX
  8
M56LXLIFT
 62
6
 10
6448.619
 20
-7848.388
 30
-359.000
 70
    32
  0
VERTEX
  8
M56LXLIFT
 62
6
 10
6448.268
 20
-7860.894
 30
-359.000
 70
    32
  0
VERTEX
  8
M56LXLIFT
 62
6
 10
6445.596
 20
-7873.809
 30
-359.000
 70
    32
  0
VERTEX
  8
M56LXLIFT
 62
6
 10
6457.313
 20
-7895.956
 30
-359.000
 70
    32
  0
VERTEX
  8
M56LXLIFT
 62
6
 10
6461.880
 20
-7902.412
 30
-359.000
 70
    32
  0
VERTEX
  8
M56LXLIFT
 62
6
 10
6475.362
 20
-7900.836
 30
-359.000
 70
    32
  0
VERTEX
  8
M56LXLIFT
 62
6
 10
6486.781
 20
-7894.558
 30
-359.000
 70
    32
  0
VERTEX
  8
M56LXLIFT
 62
6
 10
6498.853
 20
-7887.686
 30
-359.000
 70
    32
  0
VERTEX
  8
M56LXLIFT
 62
6
 10
6505.812
 20
-7880.997
 30
-359.000
 70
    32
  0
VERTEX
  8
M56LXLIFT
 62
6
 10
6504.138
 20
-7863.104
 30
-359.000
 70
    32
  0
SEQEND
  8
M56LXLIFT
  0
POLYLINE
  8
M56LXLIFT
 62
1
 66
     1
 70
     9
  0
VERTEX
  8
M56LXLIFT
 62
1
 10
6463.924
 20
-7905.306
 30
-301.000
 70
    32
  0
VERTEX
  8
M56LXLIFT
 62
1
 10
6458.117
 20
-7911.340
 30
-301.000
 70
    32
  0
VERTEX
  8
M56LXLIFT
 62
1
 10
6445.398
 20
-7918.291
 30
-301.000
 70
    32
  0
VERTEX
  8
M56LXLIFT
 62
1
 10
6441.395
 20
-7915.030
 30
-301.000
 70
    32
  0
VERTEX
  8
M56LXLIFT
 62
1
 10
6439.869
 20
-7904.389
 30
-301.000
 70
    32
  0
VERTEX
  8
M56LXLIFT
 62
1
 10
6445.336
 20
-7890.456
 30
-301.000
 70
    32
  0
VERTEX
  8
M56LXLIFT
 62
1
 10
6446.446
 20
-7884.770
 30
-301.000
 70
    32
  0
VERTEX
  8
M56LXLIFT
 62
1
 10
6450.788
 20
-7877.086
 30
-301.000
 70
    32
  0
VERTEX
  8
M56LXLIFT
 62
1
 10
6460.142
 20
-7874.877
 30
-301.000
 70
    32
  0
VERTEX
  8
M56LXLIFT
 62
1
 10
6464.492
 20
-7888.677
 30
-301.000
 70
    32
  0
VERTEX
  8
M56LXLIFT
 62
1
 10
6467.227
 20
-7891.133
 30
-301.000
 70
    32
  0
VERTEX
  8
M56LXLIFT
 62
1
 10
6468.458
 20
-7897.147
 30
-301.000
 70
    32
  0
SEQEND
  8
M56LXLIFT
  0
POLYLINE
  8
M56LXLIFT
 62
6
 66
     1
 70
     9
  0
VERTEX
  8
M56LXLIFT
 62
6
 10
6467.458
 20
-7898.147
 30
-310.000
 70
    32
  0
VERTEX
  8
M56LXLIFT
 62
6
 10
6466.227
 20
-7892.133
 30
-310.000
 70
    32
  0
VERTEX
  8
M56LXLIFT
 62
6
 10
6463.492
 20
-7889.677
 30
-310.000
 70
    32
  0
VERTEX
  8
M56LXLIFT
 62
6
 10
6459.142
 20
-7875.877
 30
-310.000
 70
    32
  0
VERTEX
  8
M56LXLIFT
 62
6
 10
6449.788
 20
-7878.086
 30
-310.000
 70
    32
  0
VERTEX
  8
M56LXLIFT
 62
6
 10
6445.446
 20
-7885.770
 30
-310.000
 70
    32
  0
VERTEX
  8
M56LXLIFT
 62
6
 10
6444.336
 20
-7891.456
 30
-310.000
 70
    32
  0
VERTEX
  8
M56LXLIFT
 62
6
 10
6438.869
 20
-7905.389
 30
-310.000
 70
    32
  0
VERTEX
  8
M56LXLIFT
 62
6
 10
6440.395
 20
-7916.030
 30
-310.000
 70
    32
  0
VERTEX
  8
M56LXLIFT
 62
6
 10
6444.398
 20
-7919.291
 30
-310.000
 70
    32
  0
VERTEX
  8
M56LXLIFT
 62
6
 10
6457.117
 20
-7912.340
 30
-310.000
 70
    32
  0
VERTEX
  8
M56LXLIFT
 62
6
 10
6462.924
 20
-7906.306
 30
-310.000
 70
    32
  0
SEQEND
  8
M56LXLIFT
  0
POLYLINE
  8
M56LXLIFT
 62
6
 66
     1
 70
     9
  0
VERTEX
  8
M56LXLIFT
 62
6
 10
6475.587
 20
-7889.849
 30
-321.000
 70
    32
  0
VERTEX
  8
M56LXLIFT
 62
6
 10
6470.600
 20
-7889.137
 30
-321.000
 70
    32
  0
VERTEX
  8
M56LXLIFT
 62
6
 10
6465.066
 20
-7884.249
 30
-321.000
 70
    32
  0
VERTEX
  8
M56LXLIFT
 62
6
 10
6461.889
 20
-7875.133
 30
-321.000
 70
    32
  0
VERTEX
  8
M56LXLIFT
 62
6
 10
6451.523
 20
-7855.586
 30
-321.000
 70
    32
  0
VERTEX
  8
M56LXLIFT
 62
6
 10
6446.641
 20
-7863.512
 30
-321.000
 70
    32
  0
VERTEX
  8
M56LXLIFT
 62
6
 10
6443.359
 20
-7867.218
 30
-321.000
 70
    32
  0
VERTEX
  8
M56LXLIFT
 62
6
 10
6442.664
 20
-7879.382
 30
-321.000
 70
    32
  0
VERTEX
  8
M56LXLIFT
 62
6
 10
6443.676
 20
-7894.328
 30
-321.000
 70
    32
  0
VERTEX
  8
M56LXLIFT
 62
6
 10
6440.400
 20
-7908.923
 30
-321.000
 70
    32
  0
VERTEX
  8
M56LXLIFT
 62
6
 10
6440.614
 20
-7917.263
 30
-321.000
 70
    32
  0
VERTEX
  8
M56LXLIFT
 62
6
 10
6448.259
 20
-7920.717
 30
-321.000
 70
    32
  0
VERTEX
  8
M56LXLIFT
 62
6
 10
6454.158
 20
-7924.466
 30
-321.000
 70
    32
  0
VERTEX
  8
M56LXLIFT
 62
6
 10
6464.250
 20
-7907.722
 30
-321.000
 70
    32
  0
VERTEX
  8
M56LXLIFT
 62
6
 10
6469.451
 20
-7900.978
 30
-321.000
 70
    32
  0
VERTEX
  8
M56LXLIFT
 62
6
 10
6474.777
 20
-7902.750
 30
-321.000
 70
    32
  0
VERTEX
  8
M56LXLIFT
 62
6
 10
6481.536
 20
-7898.137
 30
-321.000
 70
    32
  0
SEQEND
  8
M56LXLIFT
  0
POLYLINE
  8
M56LXLIFT
 62
6
 66
     1
 70
     9
  0
VERTEX
  8
M56LXLIFT
 62
6
 10
6464.082
 20
-7917.647
 30
-330.000
 70
    32
  0
VERTEX
  8
M56LXLIFT
 62
6
 10
6463.167
 20
-7912.102
 30
-330.000
 70
    32
  0
VERTEX
  8
M56LXLIFT
 62
6
 10
6468.827
 20
-7898.883
 30
-330.000
 70
    32
  0
VERTEX
  8
M56LXLIFT
 62
6
 10
6467.507
 20
-7887.744
 30
-330.000
 70
    32
  0
VERTEX
  8
M56LXLIFT
 62
6
 10
6463.441
 20
-7865.752
 30
-330.000
 70
    32
  0
VERTEX
  8
M56LXLIFT
 62
6
 10
6462.941
 20
-7853.355
 30
-330.000
 70
    32
  0
VERTEX
  8
M56LXLIFT
 62
6
 10
6457.477
 20
-7854.974
 30
-330.000
 70
    32
  0
VERTEX
  8
M56LXLIFT
 62
6
 10
6448.990
 20
-7890.455
 30
-330.000
 70
    32
  0
VERTEX
  8
M56LXLIFT
 62
6
 10
6443.725
 20
-7908.511
 30
-330.000
 70
    32
  0
VERTEX
  8
M56LXLIFT
 62
6
 10
6453.132
 20
-7928.866
 30
-330.000
 70
    32
  0
SEQEND
  8
M56LXLIFT
  0
POLYLINE
  8
M56LXLIFT
 62
6
 66
     1
 70
     9
  0
VERTEX
  8
M56LXLIFT
 62
6
 10
6456.099
 20
-7943.339
 30
-349.000
 70
    32
  0
VERTEX
  8
M56LXLIFT
 62
6
 10
6461.759
 20
-7940.807
 30
-349.000
 70
    32
  0
VERTEX
  8
M56LXLIFT
 62
6
 10
6465.043
 20
-7924.976
 30
-349.000
 70
    32
  0
VERTEX
  8
M56LXLIFT
 62
6
 10
6467.115
 20
-7915.054
 30
-349.000
 70
    32
  0
VERTEX
  8
M56LXLIFT
 62
6
 10
6472.879
 20
-7900.667
 30
-349.000
 70
    32
  0
VERTEX
  8
M56LXLIFT
 62
6
 10
6476.089
 20
-7895.251
 30
-349.000
 70
    32
  0
VERTEX
  8
M56LXLIFT
 62
6
 10
6475.210
 20
-7887.392
 30
-349.000
 70
    32
  0
VERTEX
  8
M56LXLIFT
 62
6
 10
6472.560
 20
-7877.129
 30
-349.000
 70
    32
  0
VERTEX
  8
M56LXLIFT
 62
6
 10
6479.108
 20
-7869.582
 30
-349.000
 70
    32
  0
VERTEX
  8
M56LXLIFT
 62
6
 10
6484.245
 20
-7860.564
 30
-349.000
 70
    32
  0
VERTEX
  8
M56LXLIFT
 62
6
 10
6490.019
 20
-7853.151
 30
-349.000
 70
    32
  0
VERTEX
  8
M56LXLIFT
 62
6
 10
6494.600
 20
-7841.599
 30
-349.000
 70
    32
  0
VERTEX
  8
M56LXLIFT
 62
6
 10
6494.570
 20
-7828.971
 30
-349.000
 70
    32
  0
VERTEX
  8
M56LXLIFT
 62
6
 10
6491.376
 20
-7824.780
 30
-349.000
 70
    32
  0
VERTEX
  8
M56LXLIFT
 62
6
 10
6469.437
 20
-7826.975
 30
-349.000
 70
    32
  0
VERTEX
  8
M56LXLIFT
 62
6
 10
6460.242
 20
-7827.965
 30
-349.000
 70
    32
  0
VERTEX
  8
M56LXLIFT
 62
6
 10
6446.382
 20
-7840.243
 30
-349.000
 70
    32
  0
VERTEX
  8
M56LXLIFT
 62
6
 10
6440.550
 20
-7854.243
 30
-349.000
 70
    32
  0
VERTEX
  8
M56LXLIFT
 62
6
 10
6439.734
 20
-7869.129
 30
-349.000
 70
    32
  0
VERTEX
  8
M56LXLIFT
 62
6
 10
6442.342
 20
-7882.149
 30
-349.000
 70
    32
  0
VERTEX
  8
M56LXLIFT
 62
6
 10
6442.934
 20
-7902.651
 30
-349.000
 70
    32
  0
VERTEX
  8
M56LXLIFT
 62
6
 10
6443.348
 20
-7909.434
 30
-349.000
 70
    32
  0
VERTEX
  8
M56LXLIFT
 62
6
 10
6452.223
 20
-7918.821
 30
-349.000
 70
    32
  0
VERTEX
  8
M56LXLIFT
 62
6
 10
6450.708
 20
-7931.278
 30
-349.000
 70
    32
  0
VERTEX
  8
M56LXLIFT
 62
6
 10
6451.197
 20
-7937.570
 30
-349.000
 70
    32
  0
SEQEND
  8
M56LXLIFT
  0
POLYLINE
  8
M56LXLIFT
 62
6
 66
     1
 70
     9
  0
VERTEX
  8
M56LXLIFT
 62
6
 10
6455.844
 20
-7940.232
 30
-339.000
 70
    32
  0
VERTEX
  8
M56LXLIFT
 62
6
 10
6461.438
 20
-7925.706
 30
-339.000
 70
    32
  0
VERTEX
  8
M56LXLIFT
 62
6
 10
6470.727
 20
-7897.197
 30
-339.000
 70
    32
  0
VERTEX
  8
M56LXLIFT
 62
6
 10
6469.093
 20
-7885.782
 30
-339.000
 70
    32
  0
VERTEX
  8
M56LXLIFT
 62
6
 10
6463.994
 20
-7870.920
 30
-339.000
 70
    32
  0
VERTEX
  8
M56LXLIFT
 62
6
 10
6466.845
 20
-7858.011
 30
-339.000
 70
    32
  0
VERTEX
  8
M56LXLIFT
 62
6
 10
6454.306
 20
-7841.143
 30
-339.000
 70
    32
  0
VERTEX
  8
M56LXLIFT
 62
6
 10
6445.600
 20
-7845.803
 30
-339.000
 70
    32
  0
VERTEX
  8
M56LXLIFT
 62
6
 10
6441.835
 20
-7857.200
 30
-339.000
 70
    32
  0
VERTEX
  8
M56LXLIFT
 62
6
 10
6444.348
 20
-7873.011
 30
-339.000
 70
    32
  0
VERTEX
  8
M56LXLIFT
 62
6
 10
6442.782
 20
-7883.528
 30
-339.000
 70
    32
  0
VERTEX
  8
M56LXLIFT
 62
6
 10
6440.863
 20
-7897.827
 30
-339.000
 70
    32
  0
VERTEX
  8
M56LXLIFT
 62
6
 10
6442.041
 20
-7908.046
 30
-339.000
 70
    32
  0
VERTEX
  8
M56LXLIFT
 62
6
 10
6442.654
 20
-7927.040
 30
-339.000
 70
    32
  0
VERTEX
  8
M56LXLIFT
 62
6
 10
6447.542
 20
-7939.423
 30
-339.000
 70
    32
  0
SEQEND
  8
M56LXLIFT
  0
POLYLINE
  8
M56LXLIFT
 62
2
 66
     1
 70
     9
  0
VERTEX
  8
M56LXLIFT
 62
2
 10
6325.001
 20
-8011.425
 30
-359.000
 70
    32
  0
VERTEX
  8
M56LXLIFT
 62
2
 10
6335.863
 20
-8004.248
 30
-359.000
 70
    32
  0
VERTEX
  8
M56LXLIFT
 62
2
 10
6340.658
 20
-8001.130
 30
-359.000
 70
    32
  0
VERTEX
  8
M56LXLIFT
 62
2
 10
6343.356
 20
-7993.117
 30
-359.000
 70
    32
  0
VERTEX
  8
M56LXLIFT
 62
2
 10
6342.889
 20
-7988.652
 30
-359.000
 70
    32
  0
VERTEX
  8
M56LXLIFT
 62
2
 10
6333.272
 20
-7983.645
 30
-359.000
 70
    32
  0
VERTEX
  8
M56LXLIFT
 62
2
 10
6320.629
 20
-7992.252
 30
-359.000
 70
    32
  0
VERTEX
  8
M56LXLIFT
 62
2
 10
6317.201
 20
-8005.180
 30
-359.000
 70
    32
  0
SEQEND
  8
M56LXLIFT
  0
POLYLINE
  8
M56LXLIFT
 62
7
 66
     1
 70
     9
  0
VERTEX
  8
M56LXLIFT
 62
7
 10
6198.535
 20
-8052.732
 30
-250.000
 70
    32
  0
VERTEX
  8
M56LXLIFT
 62
7
 10
6204.472
 20
-8062.819
 30
-250.000
 70
    32
  0
VERTEX
  8
M56LXLIFT
 62
7
 10
6207.813
 20
-8079.768
 30
-250.000
 70
    32
  0
VERTEX
  8
M56LXLIFT
 62
7
 10
6183.075
 20
-8082.076
 30
-250.000
 70
    32
  0
VERTEX
  8
M56LXLIFT
 62
7
 10
6176.964
 20
-8074.422
 30
-250.000
 70
    32
  0
VERTEX
  8
M56LXLIFT
 62
7
 10
6168.162
 20
-8068.763
 30
-250.000
 70
    32
  0
VERTEX
  8
M56LXLIFT
 62
7
 10
6164.806
 20
-8072.677
 30
-250.000
 70
    32
  0
VERTEX
  8
M56LXLIFT
 62
7
 10
6171.559
 20
-8078.976
 30
-250.000
 70
    32
  0
VERTEX
  8
M56LXLIFT
 62
7
 10
6170.776
 20
-8089.324
 30
-250.000
 70
    32
  0
VERTEX
  8
M56LXLIFT
 62
7
 10
6174.776
 20
-8092.945
 30
-250.000
 70
    32
  0
VERTEX
  8
M56LXLIFT
 62
7
 10
6207.375
 20
-8094.579
 30
-250.000
 70
    32
  0
VERTEX
  8
M56LXLIFT
 62
7
 10
6203.592
 20
-8120.429
 30
-250.000
 70
    32
  0
VERTEX
  8
M56LXLIFT
 62
7
 10
6204.205
 20
-8127.328
 30
-250.000
 70
    32
  0
VERTEX
  8
M56LXLIFT
 62
7
 10
6218.435
 20
-8149.049
 30
-250.000
 70
    32
  0
VERTEX
  8
M56LXLIFT
 62
7
 10
6217.445
 20
-8161.634
 30
-250.000
 70
    32
  0
VERTEX
  8
M56LXLIFT
 62
7
 10
6222.519
 20
-8186.847
 30
-250.000
 70
    32
  0
VERTEX
  8
M56LXLIFT
 62
7
 10
6235.244
 20
-8206.390
 30
-250.000
 70
    32
  0
VERTEX
  8
M56LXLIFT
 62
7
 10
6257.276
 20
-8214.648
 30
-250.000
 70
    32
  0
VERTEX
  8
M56LXLIFT
 62
7
 10
6262.682
 20
-8213.057
 30
-250.000
 70
    32
  0
VERTEX
  8
M56LXLIFT
 62
7
 10
6256.016
 20
-8194.730
 30
-250.000
 70
    32
  0
VERTEX
  8
M56LXLIFT
 62
7
 10
6244.861
 20
-8184.120
 30
-250.000
 70
    32
  0
VERTEX
  8
M56LXLIFT
 62
7
 10
6233.967
 20
-8164.975
 30
-250.000
 70
    32
  0
VERTEX
  8
M56LXLIFT
 62
7
 10
6230.125
 20
-8146.312
 30
-250.000
 70
    32
  0
VERTEX
  8
M56LXLIFT
 62
7
 10
6235.811
 20
-8123.772
 30
-250.000
 70
    32
  0
VERTEX
  8
M56LXLIFT
 62
7
 10
6229.413
 20
-8095.588
 30
-250.000
 70
    32
  0
VERTEX
  8
M56LXLIFT
 62
7
 10
6222.764
 20
-8065.288
 30
-250.000
 70
    32
  0
VERTEX
  8
M56LXLIFT
 62
7
 10
6218.192
 20
-8050.677
 30
-250.000
 70
    32
  0
VERTEX
  8
M56LXLIFT
 62
7
 10
6208.159
 20
-8044.393
 30
-250.000
 70
    32
  0
SEQEND
  8
M56LXLIFT
  0
POLYLINE
  8
M56LXLIFT
 62
7
 66
     1
 70
     9
  0
VERTEX
  8
M56LXLIFT
 62
7
 10
6229.976
 20
-8206.590
 30
-282.000
 70
    32
  0
VERTEX
  8
M56LXLIFT
 62
7
 10
6226.525
 20
-8183.110
 30
-282.000
 70
    32
  0
VERTEX
  8
M56LXLIFT
 62
7
 10
6228.392
 20
-8171.296
 30
-282.000
 70
    32
  0
VERTEX
  8
M56LXLIFT
 62
7
 10
6225.947
 20
-8162.978
 30
-282.000
 70
    32
  0
VERTEX
  8
M56LXLIFT
 62
7
 10
6229.558
 20
-8154.043
 30
-282.000
 70
    32
  0
VERTEX
  8
M56LXLIFT
 62
7
 10
6232.750
 20
-8145.868
 30
-282.000
 70
    32
  0
VERTEX
  8
M56LXLIFT
 62
7
 10
6233.222
 20
-8124.497
 30
-282.000
 70
    32
  0
VERTEX
  8
M56LXLIFT
 62
7
 10
6231.653
 20
-8112.527
 30
-282.000
 70
    32
  0
VERTEX
  8
M56LXLIFT
 62
7
 10
6224.277
 20
-8104.415
 30
-282.000
 70
    32
  0
VERTEX
  8
M56LXLIFT
 62
7
 10
6210.220
 20
-8098.720
 30
-282.000
 70
    32
  0
VERTEX
  8
M56LXLIFT
 62
7
 10
6191.476
 20
-8095.590
 30
-282.000
 70
    32
  0
VERTEX
  8
M56LXLIFT
 62
7
 10
6173.137
 20
-8095.471
 30
-282.000
 70
    32
  0
VERTEX
  8
M56LXLIFT
 62
7
 10
6169.338
 20
-8090.613
 30
-282.000
 70
    32
  0
VERTEX
  8
M56LXLIFT
 62
7
 10
6166.565
 20
-8080.554
 30
-282.000
 70
    32
  0
VERTEX
  8
M56LXLIFT
 62
7
 10
6169.279
 20
-8077.719
 30
-282.000
 70
    32
  0
VERTEX
  8
M56LXLIFT
 62
7
 10
6171.039
 20
-8074.502
 30
-282.000
 70
    32
  0
VERTEX
  8
M56LXLIFT
 62
7
 10
6175.358
 20
-8075.093
 30
-282.000
 70
    32
  0
VERTEX
  8
M56LXLIFT
 62
7
 10
6176.695
 20
-8077.727
 30
-282.000
 70
    32
  0
VERTEX
  8
M56LXLIFT
 62
7
 10
6183.800
 20
-8078.636
 30
-282.000
 70
    32
  0
VERTEX
  8
M56LXLIFT
 62
7
 10
6187.341
 20
-8081.698
 30
-282.000
 70
    32
  0
VERTEX
  8
M56LXLIFT
 62
7
 10
6190.585
 20
-8085.096
 30
-282.000
 70
    32
  0
VERTEX
  8
M56LXLIFT
 62
7
 10
6200.071
 20
-8086.520
 30
-282.000
 70
    32
  0
VERTEX
  8
M56LXLIFT
 62
7
 10
6216.393
 20
-8088.061
 30
-282.000
 70
    32
  0
VERTEX
  8
M56LXLIFT
 62
7
 10
6222.709
 20
-8083.707
 30
-282.000
 70
    32
  0
VERTEX
  8
M56LXLIFT
 62
7
 10
6222.393
 20
-8074.989
 30
-282.000
 70
    32
  0
VERTEX
  8
M56LXLIFT
 62
7
 10
6224.809
 20
-8066.519
 30
-282.000
 70
    32
  0
VERTEX
  8
M56LXLIFT
 62
7
 10
6241.336
 20
-8078.963
 30
-282.000
 70
    32
  0
VERTEX
  8
M56LXLIFT
 62
7
 10
6256.349
 20
-8106.161
 30
-282.000
 70
    32
  0
VERTEX
  8
M56LXLIFT
 62
7
 10
6250.131
 20
-8124.044
 30
-282.000
 70
    32
  0
VERTEX
  8
M56LXLIFT
 62
7
 10
6253.750
 20
-8149.055
 30
-282.000
 70
    32
  0
VERTEX
  8
M56LXLIFT
 62
7
 10
6244.484
 20
-8184.624
 30
-282.000
 70
    32
  0
VERTEX
  8
M56LXLIFT
 62
7
 10
6244.314
 20
-8203.333
 30
-282.000
 70
    32
  0
SEQEND
  8
M56LXLIFT
  0
POLYLINE
  8
M56LXLIFT
 62
7
 66
     1
 70
     9
  0
VERTEX
  8
M56LXLIFT
 62
7
 10
6209.607
 20
-8185.598
 30
-261.000
 70
    32
  0
VERTEX
  8
M56LXLIFT
 62
7
 10
6204.803
 20
-8177.284
 30
-261.000
 70
    32
  0
VERTEX
  8
M56LXLIFT
 62
7
 10
6206.979
 20
-8167.124
 30
-261.000
 70
    32
  0
VERTEX
  8
M56LXLIFT
 62
7
 10
6214.503
 20
-8141.726
 30
-261.000
 70
    32
  0
VERTEX
  8
M56LXLIFT
 62
7
 10
6215.488
 20
-8122.348
 30
-261.000
 70
    32
  0
VERTEX
  8
M56LXLIFT
 62
7
 10
6213.549
 20
-8101.831
 30
-261.000
 70
    32
  0
VERTEX
  8
M56LXLIFT
 62
7
 10
6211.409
 20
-8098.030
 30
-261.000
 70
    32
  0
VERTEX
  8
M56LXLIFT
 62
7
 10
6202.923
 20
-8094.403
 30
-261.000
 70
    32
  0
VERTEX
  8
M56LXLIFT
 62
7
 10
6189.802
 20
-8091.335
 30
-261.000
 70
    32
  0
VERTEX
  8
M56LXLIFT
 62
7
 10
6182.643
 20
-8093.534
 30
-261.000
 70
    32
  0
VERTEX
  8
M56LXLIFT
 62
7
 10
6176.133
 20
-8092.292
 30
-261.000
 70
    32
  0
VERTEX
  8
M56LXLIFT
 62
7
 10
6164.789
 20
-8074.201
 30
-261.000
 70
    32
  0
VERTEX
  8
M56LXLIFT
 62
7
 10
6173.689
 20
-8070.940
 30
-261.000
 70
    32
  0
VERTEX
  8
M56LXLIFT
 62
7
 10
6196.291
 20
-8081.072
 30
-261.000
 70
    32
  0
VERTEX
  8
M56LXLIFT
 62
7
 10
6213.803
 20
-8085.186
 30
-261.000
 70
    32
  0
VERTEX
  8
M56LXLIFT
 62
7
 10
6218.210
 20
-8072.395
 30
-261.000
 70
    32
  0
VERTEX
  8
M56LXLIFT
 62
7
 10
6224.698
 20
-8074.202
 30
-261.000
 70
    32
  0
VERTEX
  8
M56LXLIFT
 62
7
 10
6226.486
 20
-8087.808
 30
-261.000
 70
    32
  0
VERTEX
  8
M56LXLIFT
 62
7
 10
6228.477
 20
-8108.396
 30
-261.000
 70
    32
  0
VERTEX
  8
M56LXLIFT
 62
7
 10
6230.718
 20
-8140.650
 30
-261.000
 70
    32
  0
VERTEX
  8
M56LXLIFT
 62
7
 10
6223.474
 20
-8158.382
 30
-261.000
 70
    32
  0
VERTEX
  8
M56LXLIFT
 62
7
 10
6219.924
 20
-8180.087
 30
-261.000
 70
    32
  0
SEQEND
  8
M56LXLIFT
  0
POLYLINE
  8
M56LXLIFT
 62
7
 66
     1
 70
     9
  0
VERTEX
  8
M56LXLIFT
 62
7
 10
6238.556
 20
-8197.950
 30
-272.000
 70
    32
  0
VERTEX
  8
M56LXLIFT
 62
7
 10
6242.125
 20
-8165.945
 30
-272.000
 70
    32
  0
VERTEX
  8
M56LXLIFT
 62
7
 10
6244.538
 20
-8151.012
 30
-272.000
 70
    32
  0
VERTEX
  8
M56LXLIFT
 62
7
 10
6242.855
 20
-8128.924
 30
-272.000
 70
    32
  0
VERTEX
  8
M56LXLIFT
 62
7
 10
6244.542
 20
-8111.679
 30
-272.000
 70
    32
  0
VERTEX
  8
M56LXLIFT
 62
7
 10
6246.873
 20
-8098.559
 30
-272.000
 70
    32
  0
VERTEX
  8
M56LXLIFT
 62
7
 10
6244.098
 20
-8088.454
 30
-272.000
 70
    32
  0
VERTEX
  8
M56LXLIFT
 62
7
 10
6231.294
 20
-8071.318
 30
-272.000
 70
    32
  0
VERTEX
  8
M56LXLIFT
 62
7
 10
6221.826
 20
-8070.663
 30
-272.000
 70
    32
  0
VERTEX
  8
M56LXLIFT
 62
7
 10
6215.038
 20
-8084.127
 30
-272.000
 70
    32
  0
VERTEX
  8
M56LXLIFT
 62
7
 10
6190.922
 20
-8083.368
 30
-272.000
 70
    32
  0
VERTEX
  8
M56LXLIFT
 62
7
 10
6185.053
 20
-8078.404
 30
-272.000
 70
    32
  0
VERTEX
  8
M56LXLIFT
 62
7
 10
6178.142
 20
-8077.060
 30
-272.000
 70
    32
  0
VERTEX
  8
M56LXLIFT
 62
7
 10
6171.045
 20
-8074.430
 30
-272.000
 70
    32
  0
VERTEX
  8
M56LXLIFT
 62
7
 10
6168.262
 20
-8077.477
 30
-272.000
 70
    32
  0
VERTEX
  8
M56LXLIFT
 62
7
 10
6166.851
 20
-8089.916
 30
-272.000
 70
    32
  0
VERTEX
  8
M56LXLIFT
 62
7
 10
6175.599
 20
-8096.253
 30
-272.000
 70
    32
  0
VERTEX
  8
M56LXLIFT
 62
7
 10
6192.418
 20
-8092.339
 30
-272.000
 70
    32
  0
VERTEX
  8
M56LXLIFT
 62
7
 10
6206.823
 20
-8097.882
 30
-272.000
 70
    32
  0
VERTEX
  8
M56LXLIFT
 62
7
 10
6214.436
 20
-8099.582
 30
-272.000
 70
    32
  0
VERTEX
  8
M56LXLIFT
 62
7
 10
6219.281
 20
-8111.002
 30
-272.000
 70
    32
  0
VERTEX
  8
M56LXLIFT
 62
7
 10
6224.081
 20
-8126.946
 30
-272.000
 70
    32
  0
VERTEX
  8
M56LXLIFT
 62
7
 10
6225.648
 20
-8138.822
 30
-272.000
 70
    32
  0
VERTEX
  8
M56LXLIFT
 62
7
 10
6221.323
 20
-8161.526
 30
-272.000
 70
    32
  0
VERTEX
  8
M56LXLIFT
 62
7
 10
6218.584
 20
-8195.983
 30
-272.000
 70
    32
  0
SEQEND
  8
M56LXLIFT
  0
POLYLINE
  8
M56LXLIFT
 62
13
 66
     1
 70
     9
  0
VERTEX
  8
M56LXLIFT
 62
13
 10
6305.465
 20
-8148.507
 30
-339.000
 70
    32
  0
VERTEX
  8
M56LXLIFT
 62
13
 10
6297.883
 20
-8158.918
 30
-339.000
 70
    32
  0
VERTEX
  8
M56LXLIFT
 62
13
 10
6289.985
 20
-8173.304
 30
-339.000
 70
    32
  0
VERTEX
  8
M56LXLIFT
 62
13
 10
6283.300
 20
-8185.351
 30
-339.000
 70
    32
  0
VERTEX
  8
M56LXLIFT
 62
13
 10
6271.077
 20
-8180.337
 30
-339.000
 70
    32
  0
VERTEX
  8
M56LXLIFT
 62
13
 10
6269.494
 20
-8185.262
 30
-339.000
 70
    32
  0
VERTEX
  8
M56LXLIFT
 62
13
 10
6272.869
 20
-8199.878
 30
-339.000
 70
    32
  0
VERTEX
  8
M56LXLIFT
 62
13
 10
6280.324
 20
-8221.107
 30
-339.000
 70
    32
  0
VERTEX
  8
M56LXLIFT
 62
13
 10
6287.323
 20
-8230.587
 30
-339.000
 70
    32
  0
VERTEX
  8
M56LXLIFT
 62
13
 10
6288.078
 20
-8242.441
 30
-339.000
 70
    32
  0
VERTEX
  8
M56LXLIFT
 62
13
 10
6288.781
 20
-8252.906
 30
-339.000
 70
    32
  0
VERTEX
  8
M56LXLIFT
 62
13
 10
6298.294
 20
-8266.326
 30
-339.000
 70
    32
  0
VERTEX
  8
M56LXLIFT
 62
13
 10
6306.102
 20
-8274.980
 30
-339.000
 70
    32
  0
VERTEX
  8
M56LXLIFT
 62
13
 10
6308.106
 20
-8282.491
 30
-339.000
 70
    32
  0
VERTEX
  8
M56LXLIFT
 62
13
 10
6317.549
 20
-8295.524
 30
-339.000
 70
    32
  0
VERTEX
  8
M56LXLIFT
 62
13
 10
6317.619
 20
-8306.903
 30
-339.000
 70
    32
  0
VERTEX
  8
M56LXLIFT
 62
13
 10
6311.954
 20
-8321.923
 30
-339.000
 70
    32
  0
VERTEX
  8
M56LXLIFT
 62
13
 10
6306.484
 20
-8324.595
 30
-339.000
 70
    32
  0
VERTEX
  8
M56LXLIFT
 62
13
 10
6295.668
 20
-8319.406
 30
-339.000
 70
    32
  0
VERTEX
  8
M56LXLIFT
 62
13
 10
6286.734
 20
-8311.156
 30
-339.000
 70
    32
  0
VERTEX
  8
M56LXLIFT
 62
13
 10
6286.894
 20
-8299.496
 30
-339.000
 70
    32
  0
VERTEX
  8
M56LXLIFT
 62
13
 10
6299.875
 20
-8288.223
 30
-339.000
 70
    32
  0
VERTEX
  8
M56LXLIFT
 62
13
 10
6298.098
 20
-8286.148
 30
-339.000
 70
    32
  0
VERTEX
  8
M56LXLIFT
 62
13
 10
6289.006
 20
-8285.162
 30
-339.000
 70
    32
  0
VERTEX
  8
M56LXLIFT
 62
13
 10
6287.283
 20
-8272.604
 30
-339.000
 70
    32
  0
VERTEX
  8
M56LXLIFT
 62
13
 10
6280.813
 20
-8255.033
 30
-339.000
 70
    32
  0
VERTEX
  8
M56LXLIFT
 62
13
 10
6271.247
 20
-8236.266
 30
-339.000
 70
    32
  0
VERTEX
  8
M56LXLIFT
 62
13
 10
6262.525
 20
-8223.901
 30
-339.000
 70
    32
  0
VERTEX
  8
M56LXLIFT
 62
13
 10
6263.247
 20
-8213.138
 30
-339.000
 70
    32
  0
VERTEX
  8
M56LXLIFT
 62
13
 10
6257.234
 20
-8198.082
 30
-339.000
 70
    32
  0
VERTEX
  8
M56LXLIFT
 62
13
 10
6255.125
 20
-8184.715
 30
-339.000
 70
    32
  0
VERTEX
  8
M56LXLIFT
 62
13
 10
6258.573
 20
-8172.897
 30
-339.000
 70
    32
  0
VERTEX
  8
M56LXLIFT
 62
13
 10
6257.379
 20
-8160.163
 30
-339.000
 70
    32
  0
VERTEX
  8
M56LXLIFT
 62
13
 10
6270.078
 20
-8151.740
 30
-339.000
 70
    32
  0
VERTEX
  8
M56LXLIFT
 62
13
 10
6273.612
 20
-8157.773
 30
-339.000
 70
    32
  0
VERTEX
  8
M56LXLIFT
 62
13
 10
6297.657
 20
-8137.215
 30
-339.000
 70
    32
  0
SEQEND
  8
M56LXLIFT
  0
POLYLINE
  8
M56LXLIFT
 62
13
 66
     1
 70
     9
  0
VERTEX
  8
M56LXLIFT
 62
13
 10
6282.503
 20
-8092.956
 30
-301.000
 70
    32
  0
VERTEX
  8
M56LXLIFT
 62
13
 10
6282.053
 20
-8112.303
 30
-301.000
 70
    32
  0
VERTEX
  8
M56LXLIFT
 62
13
 10
6283.488
 20
-8127.272
 30
-301.000
 70
    32
  0
VERTEX
  8
M56LXLIFT
 62
13
 10
6281.214
 20
-8138.757
 30
-301.000
 70
    32
  0
VERTEX
  8
M56LXLIFT
 62
13
 10
6270.773
 20
-8159.876
 30
-301.000
 70
    32
  0
VERTEX
  8
M56LXLIFT
 62
13
 10
6266.545
 20
-8173.593
 30
-301.000
 70
    32
  0
VERTEX
  8
M56LXLIFT
 62
13
 10
6267.955
 20
-8202.317
 30
-301.000
 70
    32
  0
VERTEX
  8
M56LXLIFT
 62
13
 10
6271.147
 20
-8221.244
 30
-301.000
 70
    32
  0
VERTEX
  8
M56LXLIFT
 62
13
 10
6279.933
 20
-8238.837
 30
-301.000
 70
    32
  0
VERTEX
  8
M56LXLIFT
 62
13
 10
6291.270
 20
-8254.848
 30
-301.000
 70
    32
  0
VERTEX
  8
M56LXLIFT
 62
13
 10
6300.798
 20
-8265.952
 30
-301.000
 70
    32
  0
VERTEX
  8
M56LXLIFT
 62
13
 10
6300.775
 20
-8312.123
 30
-301.000
 70
    32
  0
VERTEX
  8
M56LXLIFT
 62
13
 10
6297.519
 20
-8316.430
 30
-301.000
 70
    32
  0
VERTEX
  8
M56LXLIFT
 62
13
 10
6282.849
 20
-8317.971
 30
-301.000
 70
    32
  0
VERTEX
  8
M56LXLIFT
 62
13
 10
6277.311
 20
-8312.340
 30
-301.000
 70
    32
  0
VERTEX
  8
M56LXLIFT
 62
13
 10
6271.830
 20
-8298.424
 30
-301.000
 70
    32
  0
VERTEX
  8
M56LXLIFT
 62
13
 10
6264.491
 20
-8271.615
 30
-301.000
 70
    32
  0
VERTEX
  8
M56LXLIFT
 62
13
 10
6255.640
 20
-8245.280
 30
-301.000
 70
    32
  0
VERTEX
  8
M56LXLIFT
 62
13
 10
6246.330
 20
-8220.387
 30
-301.000
 70
    32
  0
VERTEX
  8
M56LXLIFT
 62
13
 10
6248.582
 20
-8181.886
 30
-301.000
 70
    32
  0
VERTEX
  8
M56LXLIFT
 62
13
 10
6255.786
 20
-8161.874
 30
-301.000
 70
    32
  0
VERTEX
  8
M56LXLIFT
 62
13
 10
6256.395
 20
-8140.099
 30
-301.000
 70
    32
  0
VERTEX
  8
M56LXLIFT
 62
13
 10
6255.525
 20
-8121.190
 30
-301.000
 70
    32
  0
VERTEX
  8
M56LXLIFT
 62
13
 10
6262.447
 20
-8100.509
 30
-301.000
 70
    32
  0
VERTEX
  8
M56LXLIFT
 62
13
 10
6269.451
 20
-8093.284
 30
-301.000
 70
    32
  0
SEQEND
  8
M56LXLIFT
  0
POLYLINE
  8
M56LXLIFT
 62
13
 66
     1
 70
     9
  0
VERTEX
  8
M56LXLIFT
 62
13
 10
6282.819
 20
-8323.394
 30
-328.000
 70
    32
  0
VERTEX
  8
M56LXLIFT
 62
13
 10
6301.211
 20
-8315.322
 30
-328.000
 70
    32
  0
VERTEX
  8
M56LXLIFT
 62
13
 10
6314.873
 20
-8307.345
 30
-328.000
 70
    32
  0
VERTEX
  8
M56LXLIFT
 62
13
 10
6320.344
 20
-8301.139
 30
-328.000
 70
    32
  0
VERTEX
  8
M56LXLIFT
 62
13
 10
6313.893
 20
-8289.846
 30
-328.000
 70
    32
  0
VERTEX
  8
M56LXLIFT
 62
13
 10
6315.281
 20
-8282.389
 30
-328.000
 70
    32
  0
VERTEX
  8
M56LXLIFT
 62
13
 10
6314.004
 20
-8277.982
 30
-328.000
 70
    32
  0
VERTEX
  8
M56LXLIFT
 62
13
 10
6306.922
 20
-8272.063
 30
-328.000
 70
    32
  0
VERTEX
  8
M56LXLIFT
 62
13
 10
6292.938
 20
-8256.166
 30
-328.000
 70
    32
  0
VERTEX
  8
M56LXLIFT
 62
13
 10
6287.140
 20
-8242.647
 30
-328.000
 70
    32
  0
VERTEX
  8
M56LXLIFT
 62
13
 10
6281.269
 20
-8227.546
 30
-328.000
 70
    32
  0
VERTEX
  8
M56LXLIFT
 62
13
 10
6274.310
 20
-8204.735
 30
-328.000
 70
    32
  0
VERTEX
  8
M56LXLIFT
 62
13
 10
6273.223
 20
-8191.243
 30
-328.000
 70
    32
  0
VERTEX
  8
M56LXLIFT
 62
13
 10
6287.872
 20
-8169.776
 30
-328.000
 70
    32
  0
VERTEX
  8
M56LXLIFT
 62
13
 10
6300.523
 20
-8155.234
 30
-328.000
 70
    32
  0
VERTEX
  8
M56LXLIFT
 62
13
 10
6296.485
 20
-8143.367
 30
-328.000
 70
    32
  0
VERTEX
  8
M56LXLIFT
 62
13
 10
6287.398
 20
-8135.759
 30
-328.000
 70
    32
  0
VERTEX
  8
M56LXLIFT
 62
13
 10
6274.176
 20
-8137.956
 30
-328.000
 70
    32
  0
VERTEX
  8
M56LXLIFT
 62
13
 10
6258.395
 20
-8150.764
 30
-328.000
 70
    32
  0
VERTEX
  8
M56LXLIFT
 62
13
 10
6252.035
 20
-8159.915
 30
-328.000
 70
    32
  0
VERTEX
  8
M56LXLIFT
 62
13
 10
6253.863
 20
-8173.080
 30
-328.000
 70
    32
  0
VERTEX
  8
M56LXLIFT
 62
13
 10
6250.179
 20
-8200.555
 30
-328.000
 70
    32
  0
VERTEX
  8
M56LXLIFT
 62
13
 10
6255.914
 20
-8222.739
 30
-328.000
 70
    32
  0
VERTEX
  8
M56LXLIFT
 62
13
 10
6260.522
 20
-8233.751
 30
-328.000
 70
    32
  0
VERTEX
  8
M56LXLIFT
 62
13
 10
6262.952
 20
-8254.111
 30
-328.000
 70
    32
  0
VERTEX
  8
M56LXLIFT
 62
13
 10
6259.766
 20
-8269.655
 30
-328.000
 70
    32
  0
VERTEX
  8
M56LXLIFT
 62
13
 10
6268.670
 20
-8291.253
 30
-328.000
 70
    32
  0
VERTEX
  8
M56LXLIFT
 62
13
 10
6278.022
 20
-8315.686
 30
-328.000
 70
    32
  0
SEQEND
  8
M56LXLIFT
  0
POLYLINE
  8
M56LXLIFT
 62
13
 66
     1
 70
     9
  0
VERTEX
  8
M56LXLIFT
 62
13
 10
6299.191
 20
-8155.691
 30
-309.000
 70
    32
  0
VERTEX
  8
M56LXLIFT
 62
13
 10
6285.071
 20
-8134.054
 30
-309.000
 70
    32
  0
VERTEX
  8
M56LXLIFT
 62
13
 10
6270.975
 20
-8114.933
 30
-309.000
 70
    32
  0
VERTEX
  8
M56LXLIFT
 62
13
 10
6269.992
 20
-8103.112
 30
-309.000
 70
    32
  0
VERTEX
  8
M56LXLIFT
 62
13
 10
6270.969
 20
-8100.171
 30
-309.000
 70
    32
  0
VERTEX
  8
M56LXLIFT
 62
13
 10
6268.773
 20
-8095.215
 30
-309.000
 70
    32
  0
VERTEX
  8
M56LXLIFT
 62
13
 10
6265.726
 20
-8094.098
 30
-309.000
 70
    32
  0
VERTEX
  8
M56LXLIFT
 62
13
 10
6264.035
 20
-8099.891
 30
-309.000
 70
    32
  0
VERTEX
  8
M56LXLIFT
 62
13
 10
6256.532
 20
-8103.238
 30
-309.000
 70
    32
  0
VERTEX
  8
M56LXLIFT
 62
13
 10
6251.888
 20
-8109.938
 30
-309.000
 70
    32
  0
VERTEX
  8
M56LXLIFT
 62
13
 10
6247.440
 20
-8117.481
 30
-309.000
 70
    32
  0
VERTEX
  8
M56LXLIFT
 62
13
 10
6242.492
 20
-8122.316
 30
-309.000
 70
    32
  0
VERTEX
  8
M56LXLIFT
 62
13
 10
6243.671
 20
-8128.260
 30
-309.000
 70
    32
  0
VERTEX
  8
M56LXLIFT
 62
13
 10
6253.356
 20
-8143.434
 30
-309.000
 70
    32
  0
VERTEX
  8
M56LXLIFT
 62
13
 10
6246.902
 20
-8187.757
 30
-309.000
 70
    32
  0
VERTEX
  8
M56LXLIFT
 62
13
 10
6248.406
 20
-8203.043
 30
-309.000
 70
    32
  0
VERTEX
  8
M56LXLIFT
 62
13
 10
6250.618
 20
-8219.999
 30
-309.000
 70
    32
  0
VERTEX
  8
M56LXLIFT
 62
13
 10
6256.622
 20
-8239.934
 30
-309.000
 70
    32
  0
VERTEX
  8
M56LXLIFT
 62
13
 10
6258.846
 20
-8254.567
 30
-309.000
 70
    32
  0
VERTEX
  8
M56LXLIFT
 62
13
 10
6266.046
 20
-8280.763
 30
-309.000
 70
    32
  0
VERTEX
  8
M56LXLIFT
 62
13
 10
6275.130
 20
-8300.690
 30
-309.000
 70
    32
  0
VERTEX
  8
M56LXLIFT
 62
13
 10
6287.582
 20
-8317.634
 30
-309.000
 70
    32
  0
VERTEX
  8
M56LXLIFT
 62
13
 10
6307.288
 20
-8311.032
 30
-309.000
 70
    32
  0
VERTEX
  8
M56LXLIFT
 62
13
 10
6318.257
 20
-8301.324
 30
-309.000
 70
    32
  0
VERTEX
  8
M56LXLIFT
 62
13
 10
6317.814
 20
-8294.164
 30
-309.000
 70
    32
  0
VERTEX
  8
M56LXLIFT
 62
13
 10
6309.808
 20
-8275.518
 30
-309.000
 70
    32
  0
VERTEX
  8
M56LXLIFT
 62
13
 10
6307.627
 20
-8269.560
 30
-309.000
 70
    32
  0
VERTEX
  8
M56LXLIFT
 62
13
 10
6293.055
 20
-8256.088
 30
-309.000
 70
    32
  0
VERTEX
  8
M56LXLIFT
 62
13
 10
6276.757
 20
-8229.813
 30
-309.000
 70
    32
  0
VERTEX
  8
M56LXLIFT
 62
13
 10
6269.736
 20
-8210.865
 30
-309.000
 70
    32
  0
VERTEX
  8
M56LXLIFT
 62
13
 10
6266.858
 20
-8195.073
 30
-309.000
 70
    32
  0
VERTEX
  8
M56LXLIFT
 62
13
 10
6276.387
 20
-8167.826
 30
-309.000
 70
    32
  0
VERTEX
  8
M56LXLIFT
 62
13
 10
6281.358
 20
-8170.909
 30
-309.000
 70
    32
  0
SEQEND
  8
M56LXLIFT
  0
POLYLINE
  8
M56LXLIFT
 62
13
 66
     1
 70
     9
  0
VERTEX
  8
M56LXLIFT
 62
13
 10
6308.007
 20
-8322.579
 30
-320.000
 70
    32
  0
VERTEX
  8
M56LXLIFT
 62
13
 10
6319.193
 20
-8298.389
 30
-320.000
 70
    32
  0
VERTEX
  8
M56LXLIFT
 62
13
 10
6317.833
 20
-8294.591
 30
-320.000
 70
    32
  0
VERTEX
  8
M56LXLIFT
 62
13
 10
6314.149
 20
-8295.214
 30
-320.000
 70
    32
  0
VERTEX
  8
M56LXLIFT
 62
13
 10
6309.060
 20
-8289.892
 30
-320.000
 70
    32
  0
VERTEX
  8
M56LXLIFT
 62
13
 10
6303.995
 20
-8272.679
 30
-320.000
 70
    32
  0
VERTEX
  8
M56LXLIFT
 62
13
 10
6297.475
 20
-8263.610
 30
-320.000
 70
    32
  0
VERTEX
  8
M56LXLIFT
 62
13
 10
6286.062
 20
-8254.850
 30
-320.000
 70
    32
  0
VERTEX
  8
M56LXLIFT
 62
13
 10
6282.292
 20
-8249.544
 30
-320.000
 70
    32
  0
VERTEX
  8
M56LXLIFT
 62
13
 10
6274.734
 20
-8233.392
 30
-320.000
 70
    32
  0
VERTEX
  8
M56LXLIFT
 62
13
 10
6268.101
 20
-8214.928
 30
-320.000
 70
    32
  0
VERTEX
  8
M56LXLIFT
 62
13
 10
6266.701
 20
-8194.383
 30
-320.000
 70
    32
  0
VERTEX
  8
M56LXLIFT
 62
13
 10
6274.051
 20
-8177.464
 30
-320.000
 70
    32
  0
VERTEX
  8
M56LXLIFT
 62
13
 10
6289.381
 20
-8163.862
 30
-320.000
 70
    32
  0
VERTEX
  8
M56LXLIFT
 62
13
 10
6294.470
 20
-8153.388
 30
-320.000
 70
    32
  0
VERTEX
  8
M56LXLIFT
 62
13
 10
6291.863
 20
-8139.390
 30
-320.000
 70
    32
  0
VERTEX
  8
M56LXLIFT
 62
13
 10
6285.175
 20
-8141.119
 30
-320.000
 70
    32
  0
VERTEX
  8
M56LXLIFT
 62
13
 10
6282.639
 20
-8127.069
 30
-320.000
 70
    32
  0
VERTEX
  8
M56LXLIFT
 62
13
 10
6270.667
 20
-8130.809
 30
-320.000
 70
    32
  0
VERTEX
  8
M56LXLIFT
 62
13
 10
6261.112
 20
-8136.812
 30
-320.000
 70
    32
  0
VERTEX
  8
M56LXLIFT
 62
13
 10
6256.279
 20
-8146.445
 30
-320.000
 70
    32
  0
VERTEX
  8
M56LXLIFT
 62
13
 10
6247.894
 20
-8163.140
 30
-320.000
 70
    32
  0
VERTEX
  8
M56LXLIFT
 62
13
 10
6246.231
 20
-8181.132
 30
-320.000
 70
    32
  0
VERTEX
  8
M56LXLIFT
 62
13
 10
6246.034
 20
-8207.093
 30
-320.000
 70
    32
  0
VERTEX
  8
M56LXLIFT
 62
13
 10
6246.606
 20
-8216.370
 30
-320.000
 70
    32
  0
VERTEX
  8
M56LXLIFT
 62
13
 10
6253.105
 20
-8238.525
 30
-320.000
 70
    32
  0
VERTEX
  8
M56LXLIFT
 62
13
 10
6258.337
 20
-8260.736
 30
-320.000
 70
    32
  0
VERTEX
  8
M56LXLIFT
 62
13
 10
6257.429
 20
-8273.055
 30
-320.000
 70
    32
  0
VERTEX
  8
M56LXLIFT
 62
13
 10
6261.224
 20
-8283.463
 30
-320.000
 70
    32
  0
VERTEX
  8
M56LXLIFT
 62
13
 10
6273.469
 20
-8299.022
 30
-320.000
 70
    32
  0
VERTEX
  8
M56LXLIFT
 62
13
 10
6283.116
 20
-8312.668
 30
-320.000
 70
    32
  0
VERTEX
  8
M56LXLIFT
 62
13
 10
6287.421
 20
-8323.029
 30
-320.000
 70
    32
  0
SEQEND
  8
M56LXLIFT
  0
POLYLINE
  8
M56LXLIFT
 62
13
 66
     1
 70
     9
  0
VERTEX
  8
M56LXLIFT
 62
13
 10
6286.898
 20
-8293.176
 30
-283.000
 70
    32
  0
VERTEX
  8
M56LXLIFT
 62
13
 10
6282.488
 20
-8281.804
 30
-283.000
 70
    32
  0
VERTEX
  8
M56LXLIFT
 62
13
 10
6278.631
 20
-8278.664
 30
-283.000
 70
    32
  0
VERTEX
  8
M56LXLIFT
 62
13
 10
6273.296
 20
-8282.986
 30
-283.000
 70
    32
  0
VERTEX
  8
M56LXLIFT
 62
13
 10
6263.727
 20
-8297.109
 30
-283.000
 70
    32
  0
VERTEX
  8
M56LXLIFT
 62
13
 10
6268.372
 20
-8301.420
 30
-283.000
 70
    32
  0
VERTEX
  8
M56LXLIFT
 62
13
 10
6271.160
 20
-8305.048
 30
-283.000
 70
    32
  0
SEQEND
  8
M56LXLIFT
  0
POLYLINE
  8
M56LXLIFT
 62
13
 66
     1
 70
     9
  0
VERTEX
  8
M56LXLIFT
 62
13
 10
6234.223
 20
-8355.098
 30
-262.000
 70
    32
  0
VERTEX
  8
M56LXLIFT
 62
13
 10
6242.086
 20
-8343.274
 30
-262.000
 70
    32
  0
VERTEX
  8
M56LXLIFT
 62
13
 10
6245.820
 20
-8330.760
 30
-262.000
 70
    32
  0
VERTEX
  8
M56LXLIFT
 62
13
 10
6251.633
 20
-8322.859
 30
-262.000
 70
    32
  0
VERTEX
  8
M56LXLIFT
 62
13
 10
6265.915
 20
-8306.639
 30
-262.000
 70
    32
  0
VERTEX
  8
M56LXLIFT
 62
13
 10
6278.636
 20
-8299.029
 30
-262.000
 70
    32
  0
VERTEX
  8
M56LXLIFT
 62
13
 10
6281.210
 20
-8283.748
 30
-262.000
 70
    32
  0
VERTEX
  8
M56LXLIFT
 62
13
 10
6280.310
 20
-8279.693
 30
-262.000
 70
    32
  0
VERTEX
  8
M56LXLIFT
 62
13
 10
6277.132
 20
-8277.315
 30
-262.000
 70
    32
  0
VERTEX
  8
M56LXLIFT
 62
13
 10
6271.112
 20
-8276.590
 30
-262.000
 70
    32
  0
VERTEX
  8
M56LXLIFT
 62
13
 10
6260.501
 20
-8279.464
 30
-262.000
 70
    32
  0
VERTEX
  8
M56LXLIFT
 62
13
 10
6246.382
 20
-8281.301
 30
-262.000
 70
    32
  0
VERTEX
  8
M56LXLIFT
 62
13
 10
6239.039
 20
-8294.278
 30
-262.000
 70
    32
  0
VERTEX
  8
M56LXLIFT
 62
13
 10
6233.785
 20
-8306.814
 30
-262.000
 70
    32
  0
VERTEX
  8
M56LXLIFT
 62
13
 10
6230.005
 20
-8322.544
 30
-262.000
 70
    32
  0
VERTEX
  8
M56LXLIFT
 62
13
 10
6228.782
 20
-8338.915
 30
-262.000
 70
    32
  0
VERTEX
  8
M56LXLIFT
 62
13
 10
6226.884
 20
-8347.664
 30
-262.000
 70
    32
  0
SEQEND
  8
M56LXLIFT
  0
POLYLINE
  8
M56LXLIFT
 62
13
 66
     1
 70
     9
  0
VERTEX
  8
M56LXLIFT
 62
13
 10
6237.056
 20
-8289.552
 30
-252.000
 70
    32
  0
VERTEX
  8
M56LXLIFT
 62
13
 10
6234.811
 20
-8299.556
 30
-252.000
 70
    32
  0
VERTEX
  8
M56LXLIFT
 62
13
 10
6234.462
 20
-8314.191
 30
-252.000
 70
    32
  0
VERTEX
  8
M56LXLIFT
 62
13
 10
6235.981
 20
-8323.053
 30
-252.000
 70
    32
  0
VERTEX
  8
M56LXLIFT
 62
13
 10
6235.517
 20
-8329.981
 30
-252.000
 70
    32
  0
VERTEX
  8
M56LXLIFT
 62
13
 10
6237.424
 20
-8341.737
 30
-252.000
 70
    32
  0
VERTEX
  8
M56LXLIFT
 62
13
 10
6237.030
 20
-8352.017
 30
-252.000
 70
    32
  0
VERTEX
  8
M56LXLIFT
 62
13
 10
6252.866
 20
-8376.498
 30
-252.000
 70
    32
  0
VERTEX
  8
M56LXLIFT
 62
13
 10
6262.041
 20
-8378.808
 30
-252.000
 70
    32
  0
VERTEX
  8
M56LXLIFT
 62
13
 10
6261.435
 20
-8367.624
 30
-252.000
 70
    32
  0
VERTEX
  8
M56LXLIFT
 62
13
 10
6259.973
 20
-8333.808
 30
-252.000
 70
    32
  0
VERTEX
  8
M56LXLIFT
 62
13
 10
6257.008
 20
-8321.958
 30
-252.000
 70
    32
  0
VERTEX
  8
M56LXLIFT
 62
13
 10
6267.895
 20
-8311.916
 30
-252.000
 70
    32
  0
VERTEX
  8
M56LXLIFT
 62
13
 10
6276.235
 20
-8302.882
 30
-252.000
 70
    32
  0
VERTEX
  8
M56LXLIFT
 62
13
 10
6270.465
 20
-8291.244
 30
-252.000
 70
    32
  0
VERTEX
  8
M56LXLIFT
 62
13
 10
6271.323
 20
-8286.329
 30
-252.000
 70
    32
  0
SEQEND
  8
M56LXLIFT
  0
POLYLINE
  8
M56LXLIFT
 62
13
 66
     1
 70
     9
  0
VERTEX
  8
M56LXLIFT
 62
13
 10
6284.672
 20
-8295.251
 30
-274.000
 70
    32
  0
VERTEX
  8
M56LXLIFT
 62
13
 10
6279.456
 20
-8299.005
 30
-274.000
 70
    32
  0
VERTEX
  8
M56LXLIFT
 62
13
 10
6264.539
 20
-8314.657
 30
-274.000
 70
    32
  0
VERTEX
  8
M56LXLIFT
 62
13
 10
6250.066
 20
-8311.684
 30
-274.000
 70
    32
  0
VERTEX
  8
M56LXLIFT
 62
13
 10
6243.642
 20
-8302.420
 30
-274.000
 70
    32
  0
VERTEX
  8
M56LXLIFT
 62
13
 10
6246.254
 20
-8298.404
 30
-274.000
 70
    32
  0
VERTEX
  8
M56LXLIFT
 62
13
 10
6254.056
 20
-8295.034
 30
-274.000
 70
    32
  0
VERTEX
  8
M56LXLIFT
 62
13
 10
6261.625
 20
-8289.428
 30
-274.000
 70
    32
  0
VERTEX
  8
M56LXLIFT
 62
13
 10
6277.244
 20
-8285.963
 30
-274.000
 70
    32
  0
SEQEND
  8
M56LXLIFT
  0
POLYLINE
  8
M56LXLIFT
 62
13
 66
     1
 70
     9
  0
VERTEX
  8
M56LXLIFT
 62
13
 10
6277.385
 20
-8278.199
 30
-291.000
 70
    32
  0
VERTEX
  8
M56LXLIFT
 62
13
 10
6279.608
 20
-8281.709
 30
-291.000
 70
    32
  0
VERTEX
  8
M56LXLIFT
 62
13
 10
6280.467
 20
-8292.890
 30
-291.000
 70
    32
  0
VERTEX
  8
M56LXLIFT
 62
13
 10
6283.138
 20
-8297.719
 30
-291.000
 70
    32
  0
VERTEX
  8
M56LXLIFT
 62
13
 10
6288.044
 20
-8299.081
 30
-291.000
 70
    32
  0
VERTEX
  8
M56LXLIFT
 62
13
 10
6295.255
 20
-8300.130
 30
-291.000
 70
    32
  0
VERTEX
  8
M56LXLIFT
 62
13
 10
6293.411
 20
-8295.226
 30
-291.000
 70
    32
  0
VERTEX
  8
M56LXLIFT
 62
13
 10
6294.001
 20
-8287.701
 30
-291.000
 70
    32
  0
VERTEX
  8
M56LXLIFT
 62
13
 10
6289.057
 20
-8276.967
 30
-291.000
 70
    32
  0
VERTEX
  8
M56LXLIFT
 62
13
 10
6283.995
 20
-8275.834
 30
-291.000
 70
    32
  0
SEQEND
  8
M56LXLIFT
  0
POLYLINE
  8
M56LXLIFT
 62
1
 66
     1
 70
     9
  0
VERTEX
  8
M56LXLIFT
 62
1
 10
6266.411
 20
-8328.428
 30
-284.000
 70
    32
  0
VERTEX
  8
M56LXLIFT
 62
1
 10
6278.956
 20
-8334.607
 30
-284.000
 70
    32
  0
VERTEX
  8
M56LXLIFT
 62
1
 10
6283.229
 20
-8351.158
 30
-284.000
 70
    32
  0
VERTEX
  8
M56LXLIFT
 62
1
 10
6286.275
 20
-8365.656
 30
-284.000
 70
    32
  0
VERTEX
  8
M56LXLIFT
 62
1
 10
6292.184
 20
-8375.767
 30
-284.000
 70
    32
  0
VERTEX
  8
M56LXLIFT
 62
1
 10
6294.731
 20
-8389.317
 30
-284.000
 70
    32
  0
VERTEX
  8
M56LXLIFT
 62
1
 10
6291.226
 20
-8392.420
 30
-284.000
 70
    32
  0
VERTEX
  8
M56LXLIFT
 62
1
 10
6284.833
 20
-8386.768
 30
-284.000
 70
    32
  0
VERTEX
  8
M56LXLIFT
 62
1
 10
6258.818
 20
-8369.695
 30
-284.000
 70
    32
  0
VERTEX
  8
M56LXLIFT
 62
1
 10
6249.933
 20
-8353.770
 30
-284.000
 70
    32
  0
VERTEX
  8
M56LXLIFT
 62
1
 10
6261.613
 20
-8339.149
 30
-284.000
 70
    32
  0
VERTEX
  8
M56LXLIFT
 62
1
 10
6260.335
 20
-8331.494
 30
-284.000
 70
    32
  0
SEQEND
  8
M56LXLIFT
  0
POLYLINE
  8
M56LXLIFT
 62
3
 66
     1
 70
     9
  0
VERTEX
  8
M56LXLIFT
 62
3
 10
6265.411
 20
-8329.428
 30
-294.000
 70
    32
  0
VERTEX
  8
M56LXLIFT
 62
3
 10
6277.956
 20
-8335.607
 30
-294.000
 70
    32
  0
VERTEX
  8
M56LXLIFT
 62
3
 10
6282.229
 20
-8352.158
 30
-294.000
 70
    32
  0
VERTEX
  8
M56LXLIFT
 62
3
 10
6285.275
 20
-8366.656
 30
-294.000
 70
    32
  0
VERTEX
  8
M56LXLIFT
 62
3
 10
6291.184
 20
-8376.767
 30
-294.000
 70
    32
  0
VERTEX
  8
M56LXLIFT
 62
3
 10
6293.731
 20
-8390.317
 30
-294.000
 70
    32
  0
VERTEX
  8
M56LXLIFT
 62
3
 10
6290.226
 20
-8393.420
 30
-294.000
 70
    32
  0
VERTEX
  8
M56LXLIFT
 62
3
 10
6283.833
 20
-8387.768
 30
-294.000
 70
    32
  0
VERTEX
  8
M56LXLIFT
 62
3
 10
6257.818
 20
-8370.695
 30
-294.000
 70
    32
  0
VERTEX
  8
M56LXLIFT
 62
3
 10
6248.933
 20
-8354.770
 30
-294.000
 70
    32
  0
VERTEX
  8
M56LXLIFT
 62
3
 10
6260.613
 20
-8340.149
 30
-294.000
 70
    32
  0
VERTEX
  8
M56LXLIFT
 62
3
 10
6259.335
 20
-8332.494
 30
-294.000
 70
    32
  0
SEQEND
  8
M56LXLIFT
  0
POLYLINE
  8
M56LXLIFT
 62
3
 66
     1
 70
     9
  0
VERTEX
  8
M56LXLIFT
 62
3
 10
6273.485
 20
-8330.701
 30
-303.000
 70
    32
  0
VERTEX
  8
M56LXLIFT
 62
3
 10
6291.756
 20
-8339.539
 30
-303.000
 70
    32
  0
VERTEX
  8
M56LXLIFT
 62
3
 10
6294.461
 20
-8346.084
 30
-303.000
 70
    32
  0
VERTEX
  8
M56LXLIFT
 62
3
 10
6294.191
 20
-8359.363
 30
-303.000
 70
    32
  0
VERTEX
  8
M56LXLIFT
 62
3
 10
6293.150
 20
-8365.747
 30
-303.000
 70
    32
  0
VERTEX
  8
M56LXLIFT
 62
3
 10
6295.101
 20
-8369.671
 30
-303.000
 70
    32
  0
VERTEX
  8
M56LXLIFT
 62
3
 10
6295.514
 20
-8386.504
 30
-303.000
 70
    32
  0
VERTEX
  8
M56LXLIFT
 62
3
 10
6300.699
 20
-8395.476
 30
-303.000
 70
    32
  0
VERTEX
  8
M56LXLIFT
 62
3
 10
6296.000
 20
-8400.645
 30
-303.000
 70
    32
  0
VERTEX
  8
M56LXLIFT
 62
3
 10
6288.649
 20
-8398.021
 30
-303.000
 70
    32
  0
VERTEX
  8
M56LXLIFT
 62
3
 10
6282.373
 20
-8391.844
 30
-303.000
 70
    32
  0
VERTEX
  8
M56LXLIFT
 62
3
 10
6279.878
 20
-8386.461
 30
-303.000
 70
    32
  0
VERTEX
  8
M56LXLIFT
 62
3
 10
6271.350
 20
-8380.652
 30
-303.000
 70
    32
  0
VERTEX
  8
M56LXLIFT
 62
3
 10
6264.653
 20
-8372.593
 30
-303.000
 70
    32
  0
VERTEX
  8
M56LXLIFT
 62
3
 10
6258.888
 20
-8362.846
 30
-303.000
 70
    32
  0
VERTEX
  8
M56LXLIFT
 62
3
 10
6258.472
 20
-8352.169
 30
-303.000
 70
    32
  0
VERTEX
  8
M56LXLIFT
 62
3
 10
6266.552
 20
-8336.994
 30
-303.000
 70
    32
  0
VERTEX
  8
M56LXLIFT
 62
3
 10
6265.481
 20
-8333.511
 30
-303.000
 70
    32
  0
SEQEND
  8
M56LXLIFT
  0
POLYLINE
  8
M56LXLIFT
 62
3
 66
     1
 70
     9
  0
VERTEX
  8
M56LXLIFT
 62
3
 10
6338.480
 20
-8357.712
 30
-318.000
 70
    32
  0
VERTEX
  8
M56LXLIFT
 62
3
 10
6336.111
 20
-8345.827
 30
-318.000
 70
    32
  0
VERTEX
  8
M56LXLIFT
 62
3
 10
6320.711
 20
-8340.853
 30
-318.000
 70
    32
  0
VERTEX
  8
M56LXLIFT
 62
3
 10
6303.456
 20
-8339.304
 30
-318.000
 70
    32
  0
VERTEX
  8
M56LXLIFT
 62
3
 10
6290.179
 20
-8349.008
 30
-318.000
 70
    32
  0
VERTEX
  8
M56LXLIFT
 62
3
 10
6277.124
 20
-8362.146
 30
-318.000
 70
    32
  0
VERTEX
  8
M56LXLIFT
 62
3
 10
6278.516
 20
-8381.934
 30
-318.000
 70
    32
  0
VERTEX
  8
M56LXLIFT
 62
3
 10
6282.691
 20
-8397.184
 30
-318.000
 70
    32
  0
VERTEX
  8
M56LXLIFT
 62
3
 10
6283.695
 20
-8414.206
 30
-318.000
 70
    32
  0
VERTEX
  8
M56LXLIFT
 62
3
 10
6287.522
 20
-8419.143
 30
-318.000
 70
    32
  0
VERTEX
  8
M56LXLIFT
 62
3
 10
6300.451
 20
-8404.790
 30
-318.000
 70
    32
  0
VERTEX
  8
M56LXLIFT
 62
3
 10
6308.203
 20
-8393.786
 30
-318.000
 70
    32
  0
VERTEX
  8
M56LXLIFT
 62
3
 10
6309.881
 20
-8376.111
 30
-318.000
 70
    32
  0
VERTEX
  8
M56LXLIFT
 62
3
 10
6315.432
 20
-8366.716
 30
-318.000
 70
    32
  0
VERTEX
  8
M56LXLIFT
 62
3
 10
6327.836
 20
-8365.057
 30
-318.000
 70
    32
  0
SEQEND
  8
M56LXLIFT
  0
POLYLINE
  8
M56LXLIFT
 62
3
 66
     1
 70
     9
  0
VERTEX
  8
M56LXLIFT
 62
3
 10
6345.536
 20
-8340.431
 30
-329.000
 70
    32
  0
VERTEX
  8
M56LXLIFT
 62
3
 10
6329.680
 20
-8336.821
 30
-329.000
 70
    32
  0
VERTEX
  8
M56LXLIFT
 62
3
 10
6320.623
 20
-8333.555
 30
-329.000
 70
    32
  0
VERTEX
  8
M56LXLIFT
 62
3
 10
6317.059
 20
-8329.303
 30
-329.000
 70
    32
  0
VERTEX
  8
M56LXLIFT
 62
3
 10
6308.021
 20
-8342.824
 30
-329.000
 70
    32
  0
VERTEX
  8
M56LXLIFT
 62
3
 10
6297.799
 20
-8347.615
 30
-329.000
 70
    32
  0
VERTEX
  8
M56LXLIFT
 62
3
 10
6290.410
 20
-8357.742
 30
-329.000
 70
    32
  0
VERTEX
  8
M56LXLIFT
 62
3
 10
6283.862
 20
-8368.122
 30
-329.000
 70
    32
  0
VERTEX
  8
M56LXLIFT
 62
3
 10
6283.118
 20
-8380.015
 30
-329.000
 70
    32
  0
VERTEX
  8
M56LXLIFT
 62
3
 10
6287.331
 20
-8391.972
 30
-329.000
 70
    32
  0
VERTEX
  8
M56LXLIFT
 62
3
 10
6303.129
 20
-8403.808
 30
-329.000
 70
    32
  0
VERTEX
  8
M56LXLIFT
 62
3
 10
6311.698
 20
-8402.851
 30
-329.000
 70
    32
  0
VERTEX
  8
M56LXLIFT
 62
3
 10
6313.629
 20
-8395.539
 30
-329.000
 70
    32
  0
VERTEX
  8
M56LXLIFT
 62
3
 10
6307.921
 20
-8381.846
 30
-329.000
 70
    32
  0
VERTEX
  8
M56LXLIFT
 62
3
 10
6317.394
 20
-8365.059
 30
-329.000
 70
    32
  0
VERTEX
  8
M56LXLIFT
 62
3
 10
6340.390
 20
-8362.654
 30
-329.000
 70
    32
  0
VERTEX
  8
M56LXLIFT
 62
3
 10
6343.302
 20
-8363.349
 30
-329.000
 70
    32
  0
VERTEX
  8
M56LXLIFT
 62
3
 10
6349.026
 20
-8358.376
 30
-329.000
 70
    32
  0
SEQEND
  8
M56LXLIFT
  0
POLYLINE
  8
M56LXLIFT
 62
3
 66
     1
 70
     9
  0
VERTEX
  8
M56LXLIFT
 62
3
 10
6296.644
 20
-8411.519
 30
-356.000
 70
    32
  0
VERTEX
  8
M56LXLIFT
 62
3
 10
6308.471
 20
-8407.563
 30
-356.000
 70
    32
  0
VERTEX
  8
M56LXLIFT
 62
3
 10
6318.536
 20
-8401.523
 30
-356.000
 70
    32
  0
VERTEX
  8
M56LXLIFT
 62
3
 10
6326.144
 20
-8391.728
 30
-356.000
 70
    32
  0
VERTEX
  8
M56LXLIFT
 62
3
 10
6335.618
 20
-8393.889
 30
-356.000
 70
    32
  0
VERTEX
  8
M56LXLIFT
 62
3
 10
6345.539
 20
-8394.735
 30
-356.000
 70
    32
  0
VERTEX
  8
M56LXLIFT
 62
3
 10
6351.841
 20
-8392.469
 30
-356.000
 70
    32
  0
VERTEX
  8
M56LXLIFT
 62
3
 10
6360.200
 20
-8383.538
 30
-356.000
 70
    32
  0
VERTEX
  8
M56LXLIFT
 62
3
 10
6368.744
 20
-8363.647
 30
-356.000
 70
    32
  0
VERTEX
  8
M56LXLIFT
 62
3
 10
6372.407
 20
-8352.513
 30
-356.000
 70
    32
  0
VERTEX
  8
M56LXLIFT
 62
3
 10
6363.899
 20
-8334.546
 30
-356.000
 70
    32
  0
VERTEX
  8
M56LXLIFT
 62
3
 10
6344.725
 20
-8342.309
 30
-356.000
 70
    32
  0
VERTEX
  8
M56LXLIFT
 62
3
 10
6327.721
 20
-8351.525
 30
-356.000
 70
    32
  0
VERTEX
  8
M56LXLIFT
 62
3
 10
6319.260
 20
-8359.875
 30
-356.000
 70
    32
  0
VERTEX
  8
M56LXLIFT
 62
3
 10
6308.667
 20
-8372.429
 30
-356.000
 70
    32
  0
VERTEX
  8
M56LXLIFT
 62
3
 10
6294.519
 20
-8386.088
 30
-356.000
 70
    32
  0
VERTEX
  8
M56LXLIFT
 62
3
 10
6288.485
 20
-8403.463
 30
-356.000
 70
    32
  0
SEQEND
  8
M56LXLIFT
  0
POLYLINE
  8
M56LXLIFT
 62
3
 66
     1
 70
     9
  0
VERTEX
  8
M56LXLIFT
 62
3
 10
6349.234
 20
-8332.712
 30
-347.000
 70
    32
  0
VERTEX
  8
M56LXLIFT
 62
3
 10
6323.813
 20
-8345.433
 30
-347.000
 70
    32
  0
VERTEX
  8
M56LXLIFT
 62
3
 10
6305.717
 20
-8359.956
 30
-347.000
 70
    32
  0
VERTEX
  8
M56LXLIFT
 62
3
 10
6295.841
 20
-8374.535
 30
-347.000
 70
    32
  0
VERTEX
  8
M56LXLIFT
 62
3
 10
6286.999
 20
-8387.261
 30
-347.000
 70
    32
  0
VERTEX
  8
M56LXLIFT
 62
3
 10
6293.555
 20
-8400.755
 30
-347.000
 70
    32
  0
VERTEX
  8
M56LXLIFT
 62
3
 10
6304.768
 20
-8403.839
 30
-347.000
 70
    32
  0
VERTEX
  8
M56LXLIFT
 62
3
 10
6314.098
 20
-8399.478
 30
-347.000
 70
    32
  0
VERTEX
  8
M56LXLIFT
 62
3
 10
6314.224
 20
-8389.134
 30
-347.000
 70
    32
  0
VERTEX
  8
M56LXLIFT
 62
3
 10
6320.601
 20
-8378.986
 30
-347.000
 70
    32
  0
VERTEX
  8
M56LXLIFT
 62
3
 10
6335.775
 20
-8367.159
 30
-347.000
 70
    32
  0
VERTEX
  8
M56LXLIFT
 62
3
 10
6347.693
 20
-8366.017
 30
-347.000
 70
    32
  0
VERTEX
  8
M56LXLIFT
 62
3
 10
6356.098
 20
-8368.989
 30
-347.000
 70
    32
  0
VERTEX
  8
M56LXLIFT
 62
3
 10
6359.549
 20
-8371.900
 30
-347.000
 70
    32
  0
VERTEX
  8
M56LXLIFT
 62
3
 10
6365.598
 20
-8365.156
 30
-347.000
 70
    32
  0
VERTEX
  8
M56LXLIFT
 62
3
 10
6360.776
 20
-8354.312
 30
-347.000
 70
    32
  0
VERTEX
  8
M56LXLIFT
 62
3
 10
6359.361
 20
-8347.502
 30
-347.000
 70
    32
  0
VERTEX
  8
M56LXLIFT
 62
3
 10
6355.623
 20
-8341.094
 30
-347.000
 70
    32
  0
SEQEND
  8
M56LXLIFT
  0
POLYLINE
  8
M56LXLIFT
 62
3
 66
     1
 70
     9
  0
VERTEX
  8
M56LXLIFT
 62
3
 10
6374.258
 20
-8380.571
 30
-370.995
 70
    32
  0
VERTEX
  8
M56LXLIFT
 62
3
 10
6352.317
 20
-8389.935
 30
-370.995
 70
    32
  0
VERTEX
  8
M56LXLIFT
 62
3
 10
6314.741
 20
-8413.704
 30
-370.993
 70
    32
  0
VERTEX
  8
M56LXLIFT
 62
3
 10
6293.650
 20
-8408.910
 30
-370.996
 70
    32
  0
VERTEX
  8
M56LXLIFT
 62
3
 10
6289.715
 20
-8400.659
 30
-370.997
 70
    32
  0
VERTEX
  8
M56LXLIFT
 62
3
 10
6295.722
 20
-8392.362
 30
-370.999
 70
    32
  0
VERTEX
  8
M56LXLIFT
 62
3
 10
6294.340
 20
-8387.385
 30
-371.000
 70
    32
  0
VERTEX
  8
M56LXLIFT
 62
3
 10
6301.680
 20
-8380.198
 30
-371.000
 70
    32
  0
VERTEX
  8
M56LXLIFT
 62
3
 10
6299.324
 20
-8375.374
 30
-371.001
 70
    32
  0
VERTEX
  8
M56LXLIFT
 62
3
 10
6302.351
 20
-8373.539
 30
-371.001
 70
    32
  0
VERTEX
  8
M56LXLIFT
 62
3
 10
6314.028
 20
-8371.823
 30
-371.001
 70
    32
  0
VERTEX
  8
M56LXLIFT
 62
3
 10
6327.344
 20
-8373.924
 30
-371.000
 70
    32
  0
VERTEX
  8
M56LXLIFT
 62
3
 10
6340.525
 20
-8362.462
 30
-371.001
 70
    32
  0
VERTEX
  8
M56LXLIFT
 62
3
 10
6343.555
 20
-8356.831
 30
-371.001
 70
    32
  0
VERTEX
  8
M56LXLIFT
 62
3
 10
6344.822
 20
-8348.121
 30
-371.003
 70
    32
  0
VERTEX
  8
M56LXLIFT
 62
3
 10
6342.233
 20
-8337.501
 30
-371.005
 70
    32
  0
VERTEX
  8
M56LXLIFT
 62
3
 10
6347.070
 20
-8330.148
 30
-371.006
 70
    32
  0
VERTEX
  8
M56LXLIFT
 62
3
 10
6364.030
 20
-8328.999
 30
-371.005
 70
    32
  0
VERTEX
  8
M56LXLIFT
 62
3
 10
6379.556
 20
-8356.843
 30
-370.999
 70
    32
  0
VERTEX
  8
M56LXLIFT
 62
3
 10
6375.972
 20
-8362.761
 30
-370.998
 70
    32
  0
VERTEX
  8
M56LXLIFT
 62
3
 10
6380.283
 20
-8376.706
 30
-370.995
 70
    32
  0
SEQEND
  8
M56LXLIFT
  0
POLYLINE
  8
M56LXLIFT
 62
1
 66
     1
 70
     9
  0
VERTEX
  8
M56LXLIFT
 62
1
 10
6272.323
 20
-8285.329
 30
-242.000
 70
    32
  0
VERTEX
  8
M56LXLIFT
 62
1
 10
6271.465
 20
-8290.244
 30
-242.000
 70
    32
  0
VERTEX
  8
M56LXLIFT
 62
1
 10
6277.235
 20
-8301.882
 30
-242.000
 70
    32
  0
VERTEX
  8
M56LXLIFT
 62
1
 10
6268.895
 20
-8310.916
 30
-242.000
 70
    32
  0
VERTEX
  8
M56LXLIFT
 62
1
 10
6258.008
 20
-8320.958
 30
-242.000
 70
    32
  0
VERTEX
  8
M56LXLIFT
 62
1
 10
6260.973
 20
-8332.808
 30
-242.000
 70
    32
  0
VERTEX
  8
M56LXLIFT
 62
1
 10
6262.435
 20
-8366.624
 30
-242.000
 70
    32
  0
VERTEX
  8
M56LXLIFT
 62
1
 10
6263.041
 20
-8377.808
 30
-242.000
 70
    32
  0
VERTEX
  8
M56LXLIFT
 62
1
 10
6253.866
 20
-8375.498
 30
-242.000
 70
    32
  0
VERTEX
  8
M56LXLIFT
 62
1
 10
6238.030
 20
-8351.017
 30
-242.000
 70
    32
  0
VERTEX
  8
M56LXLIFT
 62
1
 10
6238.424
 20
-8340.737
 30
-242.000
 70
    32
  0
VERTEX
  8
M56LXLIFT
 62
1
 10
6236.517
 20
-8328.981
 30
-242.000
 70
    32
  0
VERTEX
  8
M56LXLIFT
 62
1
 10
6236.981
 20
-8322.053
 30
-242.000
 70
    32
  0
VERTEX
  8
M56LXLIFT
 62
1
 10
6235.462
 20
-8313.191
 30
-242.000
 70
    32
  0
VERTEX
  8
M56LXLIFT
 62
1
 10
6235.811
 20
-8298.556
 30
-242.000
 70
    32
  0
VERTEX
  8
M56LXLIFT
 62
1
 10
6238.056
 20
-8288.552
 30
-242.000
 70
    32
  0
SEQEND
  8
M56LXLIFT
  0
POLYLINE
  8
M56LXLIFT
 62
1
 66
     1
 70
     9
  0
VERTEX
  8
M56LXLIFT
 62
1
 10
6209.159
 20
-8043.393
 30
-240.000
 70
    32
  0
VERTEX
  8
M56LXLIFT
 62
1
 10
6219.192
 20
-8049.677
 30
-240.000
 70
    32
  0
VERTEX
  8
M56LXLIFT
 62
1
 10
6223.764
 20
-8064.288
 30
-240.000
 70
    32
  0
VERTEX
  8
M56LXLIFT
 62
1
 10
6230.413
 20
-8094.588
 30
-240.000
 70
    32
  0
VERTEX
  8
M56LXLIFT
 62
1
 10
6236.811
 20
-8122.772
 30
-240.000
 70
    32
  0
VERTEX
  8
M56LXLIFT
 62
1
 10
6231.125
 20
-8145.312
 30
-240.000
 70
    32
  0
VERTEX
  8
M56LXLIFT
 62
1
 10
6234.967
 20
-8163.975
 30
-240.000
 70
    32
  0
VERTEX
  8
M56LXLIFT
 62
1
 10
6245.861
 20
-8183.120
 30
-240.000
 70
    32
  0
VERTEX
  8
M56LXLIFT
 62
1
 10
6257.016
 20
-8193.730
 30
-240.000
 70
    32
  0
VERTEX
  8
M56LXLIFT
 62
1
 10
6263.682
 20
-8212.057
 30
-240.000
 70
    32
  0
VERTEX
  8
M56LXLIFT
 62
1
 10
6258.276
 20
-8213.648
 30
-240.000
 70
    32
  0
VERTEX
  8
M56LXLIFT
 62
1
 10
6236.244
 20
-8205.390
 30
-240.000
 70
    32
  0
VERTEX
  8
M56LXLIFT
 62
1
 10
6223.519
 20
-8185.847
 30
-240.000
 70
    32
  0
VERTEX
  8
M56LXLIFT
 62
1
 10
6218.445
 20
-8160.634
 30
-240.000
 70
    32
  0
VERTEX
  8
M56LXLIFT
 62
1
 10
6219.435
 20
-8148.049
 30
-240.000
 70
    32
  0
VERTEX
  8
M56LXLIFT
 62
1
 10
6205.205
 20
-8126.328
 30
-240.000
 70
    32
  0
VERTEX
  8
M56LXLIFT
 62
1
 10
6204.592
 20
-8119.429
 30
-240.000
 70
    32
  0
VERTEX
  8
M56LXLIFT
 62
1
 10
6208.375
 20
-8093.579
 30
-240.000
 70
    32
  0
VERTEX
  8
M56LXLIFT
 62
1
 10
6175.776
 20
-8091.945
 30
-240.000
 70
    32
  0
VERTEX
  8
M56LXLIFT
 62
1
 10
6171.776
 20
-8088.324
 30
-240.000
 70
    32
  0
VERTEX
  8
M56LXLIFT
 62
1
 10
6172.559
 20
-8077.976
 30
-240.000
 70
    32
  0
VERTEX
  8
M56LXLIFT
 62
1
 10
6165.806
 20
-8071.677
 30
-240.000
 70
    32
  0
VERTEX
  8
M56LXLIFT
 62
1
 10
6169.162
 20
-8067.763
 30
-240.000
 70
    32
  0
VERTEX
  8
M56LXLIFT
 62
1
 10
6177.964
 20
-8073.422
 30
-240.000
 70
    32
  0
VERTEX
  8
M56LXLIFT
 62
1
 10
6184.075
 20
-8081.076
 30
-240.000
 70
    32
  0
VERTEX
  8
M56LXLIFT
 62
1
 10
6208.813
 20
-8078.768
 30
-240.000
 70
    32
  0
VERTEX
  8
M56LXLIFT
 62
1
 10
6205.472
 20
-8061.819
 30
-240.000
 70
    32
  0
VERTEX
  8
M56LXLIFT
 62
1
 10
6199.535
 20
-8051.732
 30
-240.000
 70
    32
  0
SEQEND
  8
M56LXLIFT
  0
POLYLINE
  8
M56LXLIFT
 62
2
 66
     1
 70
     9
  0
VERTEX
  8
M56LXLIFT
 62
2
 10
6345.421
 20
-7992.425
 30
-371.065
 70
    32
  0
VERTEX
  8
M56LXLIFT
 62
2
 10
6343.452
 20
-8006.839
 30
-371.062
 70
    32
  0
VERTEX
  8
M56LXLIFT
 62
2
 10
6329.801
 20
-8016.578
 30
-371.060
 70
    32
  0
VERTEX
  8
M56LXLIFT
 62
2
 10
6314.576
 20
-8014.537
 30
-371.061
 70
    32
  0
VERTEX
  8
M56LXLIFT
 62
2
 10
6310.398
 20
-8008.247
 30
-371.062
 70
    32
  0
VERTEX
  8
M56LXLIFT
 62
2
 10
6340.220
 20
-7986.697
 30
-371.066
 70
    32
  0
SEQEND
  8
M56LXLIFT
  0
POLYLINE
  8
M56LXLIFT
 62
1
 66
     1
 70
     9
  0
VERTEX
  8
M56LXLIFT
 62
1
 10
6318.201
 20
-8004.180
 30
-349.000
 70
    32
  0
VERTEX
  8
M56LXLIFT
 62
1
 10
6321.629
 20
-7991.252
 30
-349.000
 70
    32
  0
VERTEX
  8
M56LXLIFT
 62
1
 10
6334.272
 20
-7982.645
 30
-349.000
 70
    32
  0
VERTEX
  8
M56LXLIFT
 62
1
 10
6343.889
 20
-7987.652
 30
-349.000
 70
    32
  0
VERTEX
  8
M56LXLIFT
 62
1
 10
6344.356
 20
-7992.117
 30
-349.000
 70
    32
  0
VERTEX
  8
M56LXLIFT
 62
1
 10
6341.658
 20
-8000.130
 30
-349.000
 70
    32
  0
VERTEX
  8
M56LXLIFT
 62
1
 10
6336.863
 20
-8003.248
 30
-349.000
 70
    32
  0
VERTEX
  8
M56LXLIFT
 62
1
 10
6326.001
 20
-8010.425
 30
-349.000
 70
    32
  0
SEQEND
  8
M56LXLIFT
  0
POLYLINE
  8
M56LXLIFT
 62
6
 66
     1
 70
     9
  0
VERTEX
  8
M56LXLIFT
 62
6
 10
6460.942
 20
-7898.743
 30
-371.084
 70
    32
  0
VERTEX
  8
M56LXLIFT
 62
6
 10
6456.667
 20
-7892.902
 30
-371.086
 70
    32
  0
VERTEX
  8
M56LXLIFT
 62
6
 10
6449.250
 20
-7874.451
 30
-371.090
 70
    32
  0
VERTEX
  8
M56LXLIFT
 62
6
 10
6448.636
 20
-7856.567
 30
-371.094
 70
    32
  0
VERTEX
  8
M56LXLIFT
 62
6
 10
6453.886
 20
-7826.694
 30
-371.100
 70
    32
  0
VERTEX
  8
M56LXLIFT
 62
6
 10
6464.818
 20
-7818.462
 30
-371.102
 70
    32
  0
VERTEX
  8
M56LXLIFT
 62
6
 10
6485.542
 20
-7820.158
 30
-371.101
 70
    32
  0
VERTEX
  8
M56LXLIFT
 62
6
 10
6492.280
 20
-7824.892
 30
-371.100
 70
    32
  0
VERTEX
  8
M56LXLIFT
 62
6
 10
6497.456
 20
-7832.908
 30
-371.098
 70
    32
  0
VERTEX
  8
M56LXLIFT
 62
6
 10
6502.492
 20
-7835.712
 30
-371.098
 70
    32
  0
VERTEX
  8
M56LXLIFT
 62
6
 10
6506.824
 20
-7865.037
 30
-371.091
 70
    32
  0
VERTEX
  8
M56LXLIFT
 62
6
 10
6507.075
 20
-7875.266
 30
-371.089
 70
    32
  0
VERTEX
  8
M56LXLIFT
 62
6
 10
6504.626
 20
-7884.601
 30
-371.087
 70
    32
  0
VERTEX
  8
M56LXLIFT
 62
6
 10
6497.748
 20
-7890.917
 30
-371.086
 70
    32
  0
VERTEX
  8
M56LXLIFT
 62
6
 10
6473.970
 20
-7899.066
 30
-371.084
 70
    32
  0
SEQEND
  8
M56LXLIFT
  0
ENDSEC
  0
EOF
