999
********************************
999
*   DXF File - Entities Only   *
999
*        3D Data Format        *
999
*     Output from ENVISAGE     *
999
*     31-Dec-2007 15:30:04     *
999
********************************
  0
SECTION 
  2
HEADER
  9
$ACADVER
  1
AC1009
  9
$EXTMIN
 10
-290000.000
 20
-250000.000
 30
-4000.000
  9
$EXTMAX
 10
320000.000
 20
160000.000
 30
6000.000
  0
ENDSEC
  0
SECTION
  2
ENTITIES
  0
POLYLINE
  8
M57LXLIFT
 62
11
 66
     1
 70
     9
  0
VERTEX
  8
M57LXLIFT
 62
11
 10
6598.580
 20
-7821.856
 30
-456.000
 70
    32
  0
VERTEX
  8
M57LXLIFT
 62
11
 10
6621.259
 20
-7807.249
 30
-456.000
 70
    32
  0
VERTEX
  8
M57LXLIFT
 62
11
 10
6620.628
 20
-7798.250
 30
-456.000
 70
    32
  0
VERTEX
  8
M57LXLIFT
 62
11
 10
6614.816
 20
-7790.852
 30
-456.000
 70
    32
  0
VERTEX
  8
M57LXLIFT
 62
11
 10
6610.988
 20
-7782.726
 30
-456.000
 70
    32
  0
VERTEX
  8
M57LXLIFT
 62
11
 10
6606.511
 20
-7779.718
 30
-456.000
 70
    32
  0
VERTEX
  8
M57LXLIFT
 62
11
 10
6597.665
 20
-7788.718
 30
-456.000
 70
    32
  0
VERTEX
  8
M57LXLIFT
 62
11
 10
6597.707
 20
-7795.188
 30
-456.000
 70
    32
  0
VERTEX
  8
M57LXLIFT
 62
11
 10
6593.321
 20
-7807.318
 30
-456.000
 70
    32
  0
VERTEX
  8
M57LXLIFT
 62
11
 10
6591.901
 20
-7813.019
 30
-456.000
 70
    32
  0
SEQEND
  8
M57LXLIFT
  0
POLYLINE
  8
M57LXLIFT
 62
1
 66
     1
 70
     9
  0
VERTEX
  8
M57LXLIFT
 62
1
 10
6567.650
 20
-7778.406
 30
-427.000
 70
    32
  0
VERTEX
  8
M57LXLIFT
 62
1
 10
6599.359
 20
-7797.127
 30
-427.000
 70
    32
  0
VERTEX
  8
M57LXLIFT
 62
1
 10
6609.917
 20
-7811.316
 30
-427.000
 70
    32
  0
VERTEX
  8
M57LXLIFT
 62
1
 10
6580.850
 20
-7828.679
 30
-427.000
 70
    32
  0
VERTEX
  8
M57LXLIFT
 62
1
 10
6571.391
 20
-7813.461
 30
-427.000
 70
    32
  0
VERTEX
  8
M57LXLIFT
 62
1
 10
6574.663
 20
-7805.588
 30
-427.000
 70
    32
  0
VERTEX
  8
M57LXLIFT
 62
1
 10
6573.923
 20
-7799.685
 30
-427.000
 70
    32
  0
VERTEX
  8
M57LXLIFT
 62
1
 10
6565.793
 20
-7795.619
 30
-427.000
 70
    32
  0
VERTEX
  8
M57LXLIFT
 62
1
 10
6557.958
 20
-7787.948
 30
-427.000
 70
    32
  0
SEQEND
  8
M57LXLIFT
  0
POLYLINE
  8
M57LXLIFT
 62
11
 66
     1
 70
     9
  0
VERTEX
  8
M57LXLIFT
 62
11
 10
6556.958
 20
-7788.948
 30
-437.000
 70
    32
  0
VERTEX
  8
M57LXLIFT
 62
11
 10
6564.793
 20
-7796.619
 30
-437.000
 70
    32
  0
VERTEX
  8
M57LXLIFT
 62
11
 10
6572.923
 20
-7800.685
 30
-437.000
 70
    32
  0
VERTEX
  8
M57LXLIFT
 62
11
 10
6573.663
 20
-7806.588
 30
-437.000
 70
    32
  0
VERTEX
  8
M57LXLIFT
 62
11
 10
6570.391
 20
-7814.461
 30
-437.000
 70
    32
  0
VERTEX
  8
M57LXLIFT
 62
11
 10
6579.850
 20
-7829.679
 30
-437.000
 70
    32
  0
VERTEX
  8
M57LXLIFT
 62
11
 10
6608.917
 20
-7812.316
 30
-437.000
 70
    32
  0
VERTEX
  8
M57LXLIFT
 62
11
 10
6598.359
 20
-7798.127
 30
-437.000
 70
    32
  0
VERTEX
  8
M57LXLIFT
 62
11
 10
6566.650
 20
-7779.406
 30
-437.000
 70
    32
  0
SEQEND
  8
M57LXLIFT
  0
POLYLINE
  8
M57LXLIFT
 62
11
 66
     1
 70
     9
  0
VERTEX
  8
M57LXLIFT
 62
11
 10
6615.171
 20
-7806.956
 30
-447.000
 70
    32
  0
VERTEX
  8
M57LXLIFT
 62
11
 10
6608.315
 20
-7797.371
 30
-447.000
 70
    32
  0
VERTEX
  8
M57LXLIFT
 62
11
 10
6601.123
 20
-7794.960
 30
-447.000
 70
    32
  0
VERTEX
  8
M57LXLIFT
 62
11
 10
6594.932
 20
-7797.843
 30
-447.000
 70
    32
  0
VERTEX
  8
M57LXLIFT
 62
11
 10
6592.838
 20
-7804.578
 30
-447.000
 70
    32
  0
VERTEX
  8
M57LXLIFT
 62
11
 10
6592.449
 20
-7816.518
 30
-447.000
 70
    32
  0
VERTEX
  8
M57LXLIFT
 62
11
 10
6595.191
 20
-7821.056
 30
-447.000
 70
    32
  0
SEQEND
  8
M57LXLIFT
  0
POLYLINE
  8
M57LXLIFT
 62
11
 66
     1
 70
     9
  0
VERTEX
  8
M57LXLIFT
 62
11
 10
6614.871
 20
-7775.713
 30
-469.000
 70
    32
  0
VERTEX
  8
M57LXLIFT
 62
11
 10
6624.497
 20
-7779.348
 30
-469.000
 70
    32
  0
VERTEX
  8
M57LXLIFT
 62
11
 10
6627.976
 20
-7782.467
 30
-469.000
 70
    32
  0
VERTEX
  8
M57LXLIFT
 62
11
 10
6622.453
 20
-7799.790
 30
-469.000
 70
    32
  0
VERTEX
  8
M57LXLIFT
 62
11
 10
6621.048
 20
-7803.975
 30
-469.000
 70
    32
  0
VERTEX
  8
M57LXLIFT
 62
11
 10
6615.471
 20
-7807.072
 30
-469.000
 70
    32
  0
VERTEX
  8
M57LXLIFT
 62
11
 10
6607.618
 20
-7812.268
 30
-469.000
 70
    32
  0
VERTEX
  8
M57LXLIFT
 62
11
 10
6600.134
 20
-7804.563
 30
-469.000
 70
    32
  0
VERTEX
  8
M57LXLIFT
 62
11
 10
6600.666
 20
-7799.927
 30
-469.000
 70
    32
  0
VERTEX
  8
M57LXLIFT
 62
11
 10
6604.836
 20
-7795.354
 30
-469.000
 70
    32
  0
VERTEX
  8
M57LXLIFT
 62
11
 10
6602.143
 20
-7785.562
 30
-469.000
 70
    32
  0
VERTEX
  8
M57LXLIFT
 62
11
 10
6601.443
 20
-7782.371
 30
-469.000
 70
    32
  0
VERTEX
  8
M57LXLIFT
 62
11
 10
6607.200
 20
-7778.925
 30
-469.000
 70
    32
  0
SEQEND
  8
M57LXLIFT
  0
POLYLINE
  8
M57LXLIFT
 62
11
 66
     1
 70
     9
  0
VERTEX
  8
M57LXLIFT
 62
11
 10
6602.075
 20
-7805.265
 30
-482.000
 70
    32
  0
VERTEX
  8
M57LXLIFT
 62
11
 10
6604.926
 20
-7809.717
 30
-482.000
 70
    32
  0
VERTEX
  8
M57LXLIFT
 62
11
 10
6612.770
 20
-7809.388
 30
-482.000
 70
    32
  0
VERTEX
  8
M57LXLIFT
 62
11
 10
6622.245
 20
-7812.007
 30
-482.000
 70
    32
  0
VERTEX
  8
M57LXLIFT
 62
11
 10
6626.898
 20
-7815.347
 30
-482.000
 70
    32
  0
VERTEX
  8
M57LXLIFT
 62
11
 10
6632.054
 20
-7812.413
 30
-482.000
 70
    32
  0
VERTEX
  8
M57LXLIFT
 62
11
 10
6625.292
 20
-7801.779
 30
-482.000
 70
    32
  0
VERTEX
  8
M57LXLIFT
 62
11
 10
6623.250
 20
-7797.386
 30
-482.000
 70
    32
  0
VERTEX
  8
M57LXLIFT
 62
11
 10
6615.744
 20
-7794.623
 30
-482.000
 70
    32
  0
VERTEX
  8
M57LXLIFT
 62
11
 10
6609.711
 20
-7792.521
 30
-482.000
 70
    32
  0
VERTEX
  8
M57LXLIFT
 62
11
 10
6606.169
 20
-7788.908
 30
-482.000
 70
    32
  0
SEQEND
  8
M57LXLIFT
  0
POLYLINE
  8
M57LXLIFT
 62
11
 66
     1
 70
     9
  0
VERTEX
  8
M57LXLIFT
 62
11
 10
6606.894
 20
-7808.319
 30
-492.000
 70
    32
  0
VERTEX
  8
M57LXLIFT
 62
11
 10
6601.397
 20
-7805.588
 30
-492.000
 70
    32
  0
VERTEX
  8
M57LXLIFT
 62
11
 10
6606.594
 20
-7797.952
 30
-492.000
 70
    32
  0
VERTEX
  8
M57LXLIFT
 62
11
 10
6618.961
 20
-7789.525
 30
-492.000
 70
    32
  0
VERTEX
  8
M57LXLIFT
 62
11
 10
6627.633
 20
-7800.293
 30
-492.000
 70
    32
  0
VERTEX
  8
M57LXLIFT
 62
11
 10
6613.060
 20
-7812.850
 30
-492.000
 70
    32
  0
VERTEX
  8
M57LXLIFT
 62
11
 10
6609.082
 20
-7812.933
 30
-492.000
 70
    32
  0
SEQEND
  8
M57LXLIFT
  0
POLYLINE
  8
M57LXLIFT
 62
7
 66
     1
 70
     9
  0
VERTEX
  8
M57LXLIFT
 62
7
 10
6513.152
 20
-7850.513
 30
-393.000
 70
    32
  0
VERTEX
  8
M57LXLIFT
 62
7
 10
6526.173
 20
-7848.377
 30
-393.000
 70
    32
  0
VERTEX
  8
M57LXLIFT
 62
7
 10
6527.935
 20
-7863.546
 30
-393.000
 70
    32
  0
VERTEX
  8
M57LXLIFT
 62
7
 10
6525.097
 20
-7886.982
 30
-393.000
 70
    32
  0
VERTEX
  8
M57LXLIFT
 62
7
 10
6518.943
 20
-7905.092
 30
-393.000
 70
    32
  0
VERTEX
  8
M57LXLIFT
 62
7
 10
6523.430
 20
-7922.293
 30
-393.000
 70
    32
  0
VERTEX
  8
M57LXLIFT
 62
7
 10
6515.309
 20
-7930.552
 30
-393.000
 70
    32
  0
VERTEX
  8
M57LXLIFT
 62
7
 10
6502.983
 20
-7936.565
 30
-393.000
 70
    32
  0
VERTEX
  8
M57LXLIFT
 62
7
 10
6485.026
 20
-7933.264
 30
-393.000
 70
    32
  0
VERTEX
  8
M57LXLIFT
 62
7
 10
6482.466
 20
-7927.922
 30
-393.000
 70
    32
  0
VERTEX
  8
M57LXLIFT
 62
7
 10
6481.263
 20
-7922.776
 30
-393.000
 70
    32
  0
VERTEX
  8
M57LXLIFT
 62
7
 10
6478.328
 20
-7912.659
 30
-393.000
 70
    32
  0
VERTEX
  8
M57LXLIFT
 62
7
 10
6480.680
 20
-7900.793
 30
-393.000
 70
    32
  0
VERTEX
  8
M57LXLIFT
 62
7
 10
6479.916
 20
-7880.924
 30
-393.000
 70
    32
  0
VERTEX
  8
M57LXLIFT
 62
7
 10
6479.609
 20
-7869.176
 30
-393.000
 70
    32
  0
VERTEX
  8
M57LXLIFT
 62
7
 10
6490.660
 20
-7865.872
 30
-393.000
 70
    32
  0
VERTEX
  8
M57LXLIFT
 62
7
 10
6504.351
 20
-7863.456
 30
-393.000
 70
    32
  0
VERTEX
  8
M57LXLIFT
 62
7
 10
6520.565
 20
-7866.629
 30
-393.000
 70
    32
  0
SEQEND
  8
M57LXLIFT
  0
POLYLINE
  8
M57LXLIFT
 62
7
 66
     1
 70
     9
  0
VERTEX
  8
M57LXLIFT
 62
7
 10
6512.990
 20
-7942.083
 30
-405.000
 70
    32
  0
VERTEX
  8
M57LXLIFT
 62
7
 10
6519.482
 20
-7912.085
 30
-405.000
 70
    32
  0
VERTEX
  8
M57LXLIFT
 62
7
 10
6521.373
 20
-7899.842
 30
-405.000
 70
    32
  0
VERTEX
  8
M57LXLIFT
 62
7
 10
6533.176
 20
-7870.953
 30
-405.000
 70
    32
  0
VERTEX
  8
M57LXLIFT
 62
7
 10
6532.074
 20
-7844.605
 30
-405.000
 70
    32
  0
VERTEX
  8
M57LXLIFT
 62
7
 10
6531.846
 20
-7830.535
 30
-405.000
 70
    32
  0
VERTEX
  8
M57LXLIFT
 62
7
 10
6524.096
 20
-7831.014
 30
-405.000
 70
    32
  0
VERTEX
  8
M57LXLIFT
 62
7
 10
6522.517
 20
-7849.598
 30
-405.000
 70
    32
  0
VERTEX
  8
M57LXLIFT
 62
7
 10
6519.409
 20
-7859.456
 30
-405.000
 70
    32
  0
VERTEX
  8
M57LXLIFT
 62
7
 10
6509.450
 20
-7866.718
 30
-405.000
 70
    32
  0
VERTEX
  8
M57LXLIFT
 62
7
 10
6493.116
 20
-7877.056
 30
-405.000
 70
    32
  0
VERTEX
  8
M57LXLIFT
 62
7
 10
6487.310
 20
-7884.749
 30
-405.000
 70
    32
  0
VERTEX
  8
M57LXLIFT
 62
7
 10
6485.888
 20
-7903.545
 30
-405.000
 70
    32
  0
VERTEX
  8
M57LXLIFT
 62
7
 10
6485.939
 20
-7915.008
 30
-405.000
 70
    32
  0
VERTEX
  8
M57LXLIFT
 62
7
 10
6483.398
 20
-7929.923
 30
-405.000
 70
    32
  0
VERTEX
  8
M57LXLIFT
 62
7
 10
6502.599
 20
-7939.587
 30
-405.000
 70
    32
  0
SEQEND
  8
M57LXLIFT
  0
POLYLINE
  8
M57LXLIFT
 62
7
 66
     1
 70
     9
  0
VERTEX
  8
M57LXLIFT
 62
7
 10
6495.087
 20
-7924.718
 30
-383.000
 70
    32
  0
VERTEX
  8
M57LXLIFT
 62
7
 10
6478.091
 20
-7912.736
 30
-383.000
 70
    32
  0
VERTEX
  8
M57LXLIFT
 62
7
 10
6476.691
 20
-7895.258
 30
-383.000
 70
    32
  0
VERTEX
  8
M57LXLIFT
 62
7
 10
6474.151
 20
-7878.753
 30
-383.000
 70
    32
  0
VERTEX
  8
M57LXLIFT
 62
7
 10
6471.445
 20
-7865.241
 30
-383.000
 70
    32
  0
VERTEX
  8
M57LXLIFT
 62
7
 10
6477.903
 20
-7849.550
 30
-383.000
 70
    32
  0
VERTEX
  8
M57LXLIFT
 62
7
 10
6479.274
 20
-7833.841
 30
-383.000
 70
    32
  0
VERTEX
  8
M57LXLIFT
 62
7
 10
6483.635
 20
-7827.346
 30
-383.000
 70
    32
  0
VERTEX
  8
M57LXLIFT
 62
7
 10
6501.582
 20
-7824.378
 30
-383.000
 70
    32
  0
VERTEX
  8
M57LXLIFT
 62
7
 10
6521.842
 20
-7848.127
 30
-383.000
 70
    32
  0
VERTEX
  8
M57LXLIFT
 62
7
 10
6518.868
 20
-7863.613
 30
-383.000
 70
    32
  0
VERTEX
  8
M57LXLIFT
 62
7
 10
6521.528
 20
-7878.815
 30
-383.000
 70
    32
  0
VERTEX
  8
M57LXLIFT
 62
7
 10
6521.248
 20
-7884.432
 30
-383.000
 70
    32
  0
VERTEX
  8
M57LXLIFT
 62
7
 10
6513.580
 20
-7891.660
 30
-383.000
 70
    32
  0
VERTEX
  8
M57LXLIFT
 62
7
 10
6510.174
 20
-7904.383
 30
-383.000
 70
    32
  0
VERTEX
  8
M57LXLIFT
 62
7
 10
6508.280
 20
-7916.626
 30
-383.000
 70
    32
  0
SEQEND
  8
M57LXLIFT
  0
POLYLINE
  8
M57LXLIFT
 62
7
 66
     1
 70
     9
  0
VERTEX
  8
M57LXLIFT
 62
7
 10
6471.595
 20
-7809.123
 30
-372.000
 70
    32
  0
VERTEX
  8
M57LXLIFT
 62
7
 10
6479.729
 20
-7818.355
 30
-372.000
 70
    32
  0
VERTEX
  8
M57LXLIFT
 62
7
 10
6484.582
 20
-7825.278
 30
-372.000
 70
    32
  0
VERTEX
  8
M57LXLIFT
 62
7
 10
6511.981
 20
-7839.013
 30
-372.000
 70
    32
  0
VERTEX
  8
M57LXLIFT
 62
7
 10
6518.685
 20
-7844.284
 30
-372.000
 70
    32
  0
VERTEX
  8
M57LXLIFT
 62
7
 10
6514.673
 20
-7851.386
 30
-372.000
 70
    32
  0
VERTEX
  8
M57LXLIFT
 62
7
 10
6515.397
 20
-7861.919
 30
-372.000
 70
    32
  0
VERTEX
  8
M57LXLIFT
 62
7
 10
6513.687
 20
-7868.454
 30
-372.000
 70
    32
  0
VERTEX
  8
M57LXLIFT
 62
7
 10
6522.017
 20
-7878.411
 30
-372.000
 70
    32
  0
VERTEX
  8
M57LXLIFT
 62
7
 10
6514.454
 20
-7886.757
 30
-372.000
 70
    32
  0
VERTEX
  8
M57LXLIFT
 62
7
 10
6510.441
 20
-7898.844
 30
-372.000
 70
    32
  0
VERTEX
  8
M57LXLIFT
 62
7
 10
6500.289
 20
-7907.962
 30
-372.000
 70
    32
  0
VERTEX
  8
M57LXLIFT
 62
7
 10
6485.540
 20
-7909.758
 30
-372.000
 70
    32
  0
VERTEX
  8
M57LXLIFT
 62
7
 10
6483.362
 20
-7905.359
 30
-372.000
 70
    32
  0
VERTEX
  8
M57LXLIFT
 62
7
 10
6483.134
 20
-7903.680
 30
-372.000
 70
    32
  0
VERTEX
  8
M57LXLIFT
 62
7
 10
6481.155
 20
-7901.524
 30
-372.000
 70
    32
  0
VERTEX
  8
M57LXLIFT
 62
7
 10
6473.787
 20
-7903.337
 30
-372.000
 70
    32
  0
VERTEX
  8
M57LXLIFT
 62
7
 10
6473.588
 20
-7888.094
 30
-372.000
 70
    32
  0
VERTEX
  8
M57LXLIFT
 62
7
 10
6470.702
 20
-7870.008
 30
-372.000
 70
    32
  0
VERTEX
  8
M57LXLIFT
 62
7
 10
6469.546
 20
-7851.767
 30
-372.000
 70
    32
  0
VERTEX
  8
M57LXLIFT
 62
7
 10
6470.650
 20
-7838.190
 30
-372.000
 70
    32
  0
VERTEX
  8
M57LXLIFT
 62
7
 10
6472.643
 20
-7824.191
 30
-372.000
 70
    32
  0
VERTEX
  8
M57LXLIFT
 62
7
 10
6465.674
 20
-7813.259
 30
-372.000
 70
    32
  0
SEQEND
  8
M57LXLIFT
  0
POLYLINE
  8
M57LXLIFT
 62
7
 66
     1
 70
     9
  0
VERTEX
  8
M57LXLIFT
 62
7
 10
6516.286
 20
-7931.638
 30
-416.000
 70
    32
  0
VERTEX
  8
M57LXLIFT
 62
7
 10
6511.552
 20
-7915.083
 30
-416.000
 70
    32
  0
VERTEX
  8
M57LXLIFT
 62
7
 10
6517.928
 20
-7896.769
 30
-416.000
 70
    32
  0
VERTEX
  8
M57LXLIFT
 62
7
 10
6528.614
 20
-7872.720
 30
-416.000
 70
    32
  0
VERTEX
  8
M57LXLIFT
 62
7
 10
6530.658
 20
-7865.805
 30
-416.000
 70
    32
  0
VERTEX
  8
M57LXLIFT
 62
7
 10
6524.195
 20
-7847.464
 30
-416.000
 70
    32
  0
VERTEX
  8
M57LXLIFT
 62
7
 10
6502.906
 20
-7865.735
 30
-416.000
 70
    32
  0
VERTEX
  8
M57LXLIFT
 62
7
 10
6488.069
 20
-7871.938
 30
-416.000
 70
    32
  0
VERTEX
  8
M57LXLIFT
 62
7
 10
6480.738
 20
-7895.073
 30
-416.000
 70
    32
  0
VERTEX
  8
M57LXLIFT
 62
7
 10
6477.089
 20
-7921.187
 30
-416.000
 70
    32
  0
VERTEX
  8
M57LXLIFT
 62
7
 10
6475.374
 20
-7928.406
 30
-416.000
 70
    32
  0
VERTEX
  8
M57LXLIFT
 62
7
 10
6490.766
 20
-7940.486
 30
-416.000
 70
    32
  0
VERTEX
  8
M57LXLIFT
 62
7
 10
6500.486
 20
-7937.562
 30
-416.000
 70
    32
  0
SEQEND
  8
M57LXLIFT
  0
POLYLINE
  8
M57LXLIFT
 62
7
 66
     1
 70
     9
  0
VERTEX
  8
M57LXLIFT
 62
7
 10
6514.835
 20
-7837.660
 30
-426.000
 70
    32
  0
VERTEX
  8
M57LXLIFT
 62
7
 10
6502.937
 20
-7862.465
 30
-426.000
 70
    32
  0
VERTEX
  8
M57LXLIFT
 62
7
 10
6494.010
 20
-7872.541
 30
-426.000
 70
    32
  0
VERTEX
  8
M57LXLIFT
 62
7
 10
6491.390
 20
-7876.514
 30
-426.000
 70
    32
  0
VERTEX
  8
M57LXLIFT
 62
7
 10
6489.248
 20
-7898.895
 30
-426.000
 70
    32
  0
VERTEX
  8
M57LXLIFT
 62
7
 10
6482.556
 20
-7916.001
 30
-426.000
 70
    32
  0
VERTEX
  8
M57LXLIFT
 62
7
 10
6488.836
 20
-7940.170
 30
-426.000
 70
    32
  0
VERTEX
  8
M57LXLIFT
 62
7
 10
6494.904
 20
-7939.436
 30
-426.000
 70
    32
  0
VERTEX
  8
M57LXLIFT
 62
7
 10
6500.752
 20
-7922.528
 30
-426.000
 70
    32
  0
VERTEX
  8
M57LXLIFT
 62
7
 10
6509.272
 20
-7904.921
 30
-426.000
 70
    32
  0
VERTEX
  8
M57LXLIFT
 62
7
 10
6528.092
 20
-7874.098
 30
-426.000
 70
    32
  0
VERTEX
  8
M57LXLIFT
 62
7
 10
6530.792
 20
-7857.698
 30
-426.000
 70
    32
  0
VERTEX
  8
M57LXLIFT
 62
7
 10
6539.892
 20
-7843.626
 30
-426.000
 70
    32
  0
VERTEX
  8
M57LXLIFT
 62
7
 10
6540.710
 20
-7838.148
 30
-426.000
 70
    32
  0
VERTEX
  8
M57LXLIFT
 62
7
 10
6537.657
 20
-7832.953
 30
-426.000
 70
    32
  0
VERTEX
  8
M57LXLIFT
 62
7
 10
6532.855
 20
-7833.611
 30
-426.000
 70
    32
  0
SEQEND
  8
M57LXLIFT
  0
POLYLINE
  8
M57LXLIFT
 62
7
 66
     1
 70
     9
  0
VERTEX
  8
M57LXLIFT
 62
7
 10
6486.515
 20
-7904.175
 30
-447.000
 70
    32
  0
VERTEX
  8
M57LXLIFT
 62
7
 10
6498.067
 20
-7912.109
 30
-447.000
 70
    32
  0
VERTEX
  8
M57LXLIFT
 62
7
 10
6501.600
 20
-7918.581
 30
-447.000
 70
    32
  0
VERTEX
  8
M57LXLIFT
 62
7
 10
6496.743
 20
-7932.771
 30
-447.000
 70
    32
  0
VERTEX
  8
M57LXLIFT
 62
7
 10
6495.523
 20
-7964.125
 30
-447.000
 70
    32
  0
VERTEX
  8
M57LXLIFT
 62
7
 10
6500.834
 20
-7966.078
 30
-447.000
 70
    32
  0
VERTEX
  8
M57LXLIFT
 62
7
 10
6506.130
 20
-7953.207
 30
-447.000
 70
    32
  0
VERTEX
  8
M57LXLIFT
 62
7
 10
6509.300
 20
-7928.852
 30
-447.000
 70
    32
  0
VERTEX
  8
M57LXLIFT
 62
7
 10
6512.150
 20
-7924.298
 30
-447.000
 70
    32
  0
VERTEX
  8
M57LXLIFT
 62
7
 10
6511.676
 20
-7920.148
 30
-447.000
 70
    32
  0
VERTEX
  8
M57LXLIFT
 62
7
 10
6522.388
 20
-7907.172
 30
-447.000
 70
    32
  0
VERTEX
  8
M57LXLIFT
 62
7
 10
6521.951
 20
-7896.182
 30
-447.000
 70
    32
  0
VERTEX
  8
M57LXLIFT
 62
7
 10
6520.582
 20
-7881.164
 30
-447.000
 70
    32
  0
VERTEX
  8
M57LXLIFT
 62
7
 10
6527.601
 20
-7871.177
 30
-447.000
 70
    32
  0
VERTEX
  8
M57LXLIFT
 62
7
 10
6541.266
 20
-7863.020
 30
-447.000
 70
    32
  0
VERTEX
  8
M57LXLIFT
 62
7
 10
6543.923
 20
-7857.622
 30
-447.000
 70
    32
  0
VERTEX
  8
M57LXLIFT
 62
7
 10
6541.919
 20
-7852.750
 30
-447.000
 70
    32
  0
VERTEX
  8
M57LXLIFT
 62
7
 10
6528.289
 20
-7859.342
 30
-447.000
 70
    32
  0
VERTEX
  8
M57LXLIFT
 62
7
 10
6520.853
 20
-7848.983
 30
-447.000
 70
    32
  0
VERTEX
  8
M57LXLIFT
 62
7
 10
6515.225
 20
-7851.443
 30
-447.000
 70
    32
  0
VERTEX
  8
M57LXLIFT
 62
7
 10
6510.316
 20
-7865.124
 30
-447.000
 70
    32
  0
VERTEX
  8
M57LXLIFT
 62
7
 10
6499.446
 20
-7875.250
 30
-447.000
 70
    32
  0
VERTEX
  8
M57LXLIFT
 62
7
 10
6483.143
 20
-7881.648
 30
-447.000
 70
    32
  0
VERTEX
  8
M57LXLIFT
 62
7
 10
6484.249
 20
-7893.237
 30
-447.000
 70
    32
  0
SEQEND
  8
M57LXLIFT
  0
POLYLINE
  8
M57LXLIFT
 62
7
 66
     1
 70
     9
  0
VERTEX
  8
M57LXLIFT
 62
7
 10
6506.207
 20
-7953.302
 30
-436.000
 70
    32
  0
VERTEX
  8
M57LXLIFT
 62
7
 10
6508.298
 20
-7929.579
 30
-436.000
 70
    32
  0
VERTEX
  8
M57LXLIFT
 62
7
 10
6512.325
 20
-7915.905
 30
-436.000
 70
    32
  0
VERTEX
  8
M57LXLIFT
 62
7
 10
6516.188
 20
-7898.744
 30
-436.000
 70
    32
  0
VERTEX
  8
M57LXLIFT
 62
7
 10
6520.821
 20
-7890.196
 30
-436.000
 70
    32
  0
VERTEX
  8
M57LXLIFT
 62
7
 10
6522.761
 20
-7873.688
 30
-436.000
 70
    32
  0
VERTEX
  8
M57LXLIFT
 62
7
 10
6532.934
 20
-7865.540
 30
-436.000
 70
    32
  0
VERTEX
  8
M57LXLIFT
 62
7
 10
6531.274
 20
-7842.066
 30
-436.000
 70
    32
  0
VERTEX
  8
M57LXLIFT
 62
7
 10
6522.888
 20
-7845.073
 30
-436.000
 70
    32
  0
VERTEX
  8
M57LXLIFT
 62
7
 10
6512.820
 20
-7861.229
 30
-436.000
 70
    32
  0
VERTEX
  8
M57LXLIFT
 62
7
 10
6501.235
 20
-7867.903
 30
-436.000
 70
    32
  0
VERTEX
  8
M57LXLIFT
 62
7
 10
6490.007
 20
-7871.800
 30
-436.000
 70
    32
  0
VERTEX
  8
M57LXLIFT
 62
7
 10
6481.781
 20
-7904.849
 30
-436.000
 70
    32
  0
VERTEX
  8
M57LXLIFT
 62
7
 10
6482.356
 20
-7917.649
 30
-436.000
 70
    32
  0
VERTEX
  8
M57LXLIFT
 62
7
 10
6487.685
 20
-7923.996
 30
-436.000
 70
    32
  0
VERTEX
  8
M57LXLIFT
 62
7
 10
6486.862
 20
-7935.639
 30
-436.000
 70
    32
  0
VERTEX
  8
M57LXLIFT
 62
7
 10
6496.054
 20
-7943.076
 30
-436.000
 70
    32
  0
VERTEX
  8
M57LXLIFT
 62
7
 10
6496.370
 20
-7959.235
 30
-436.000
 70
    32
  0
SEQEND
  8
M57LXLIFT
  0
POLYLINE
  8
M57LXLIFT
 62
7
 66
     1
 70
     9
  0
VERTEX
  8
M57LXLIFT
 62
7
 10
6515.211
 20
-7917.705
 30
-457.000
 70
    32
  0
VERTEX
  8
M57LXLIFT
 62
7
 10
6489.271
 20
-7887.613
 30
-457.000
 70
    32
  0
VERTEX
  8
M57LXLIFT
 62
7
 10
6501.465
 20
-7871.234
 30
-457.000
 70
    32
  0
VERTEX
  8
M57LXLIFT
 62
7
 10
6514.242
 20
-7865.104
 30
-457.000
 70
    32
  0
VERTEX
  8
M57LXLIFT
 62
7
 10
6517.116
 20
-7853.014
 30
-457.000
 70
    32
  0
VERTEX
  8
M57LXLIFT
 62
7
 10
6515.236
 20
-7843.967
 30
-457.000
 70
    32
  0
VERTEX
  8
M57LXLIFT
 62
7
 10
6520.215
 20
-7840.203
 30
-457.000
 70
    32
  0
VERTEX
  8
M57LXLIFT
 62
7
 10
6525.003
 20
-7846.392
 30
-457.000
 70
    32
  0
VERTEX
  8
M57LXLIFT
 62
7
 10
6527.615
 20
-7853.784
 30
-457.000
 70
    32
  0
VERTEX
  8
M57LXLIFT
 62
7
 10
6540.568
 20
-7847.741
 30
-457.000
 70
    32
  0
VERTEX
  8
M57LXLIFT
 62
7
 10
6544.281
 20
-7853.529
 30
-457.000
 70
    32
  0
VERTEX
  8
M57LXLIFT
 62
7
 10
6531.960
 20
-7868.572
 30
-457.000
 70
    32
  0
VERTEX
  8
M57LXLIFT
 62
7
 10
6518.743
 20
-7874.704
 30
-457.000
 70
    32
  0
VERTEX
  8
M57LXLIFT
 62
7
 10
6510.227
 20
-7882.243
 30
-457.000
 70
    32
  0
VERTEX
  8
M57LXLIFT
 62
7
 10
6518.018
 20
-7892.552
 30
-457.000
 70
    32
  0
VERTEX
  8
M57LXLIFT
 62
7
 10
6525.236
 20
-7909.246
 30
-457.000
 70
    32
  0
SEQEND
  8
M57LXLIFT
  0
POLYLINE
  8
M57LXLIFT
 62
3
 66
     1
 70
     9
  0
VERTEX
  8
M57LXLIFT
 62
3
 10
6394.564
 20
-8298.786
 30
-425.000
 70
    32
  0
VERTEX
  8
M57LXLIFT
 62
3
 10
6397.454
 20
-8267.338
 30
-425.000
 70
    32
  0
VERTEX
  8
M57LXLIFT
 62
3
 10
6397.387
 20
-8225.431
 30
-425.000
 70
    32
  0
VERTEX
  8
M57LXLIFT
 62
3
 10
6399.224
 20
-8191.137
 30
-425.000
 70
    32
  0
VERTEX
  8
M57LXLIFT
 62
3
 10
6396.655
 20
-8180.607
 30
-425.000
 70
    32
  0
VERTEX
  8
M57LXLIFT
 62
3
 10
6388.818
 20
-8179.590
 30
-425.000
 70
    32
  0
VERTEX
  8
M57LXLIFT
 62
3
 10
6379.384
 20
-8176.028
 30
-425.000
 70
    32
  0
VERTEX
  8
M57LXLIFT
 62
3
 10
6377.462
 20
-8171.743
 30
-425.000
 70
    32
  0
VERTEX
  8
M57LXLIFT
 62
3
 10
6364.484
 20
-8177.492
 30
-425.000
 70
    32
  0
VERTEX
  8
M57LXLIFT
 62
3
 10
6370.388
 20
-8186.158
 30
-425.000
 70
    32
  0
VERTEX
  8
M57LXLIFT
 62
3
 10
6367.019
 20
-8191.912
 30
-425.000
 70
    32
  0
VERTEX
  8
M57LXLIFT
 62
3
 10
6365.120
 20
-8202.957
 30
-425.000
 70
    32
  0
VERTEX
  8
M57LXLIFT
 62
3
 10
6370.248
 20
-8225.460
 30
-425.000
 70
    32
  0
VERTEX
  8
M57LXLIFT
 62
3
 10
6368.846
 20
-8237.453
 30
-425.000
 70
    32
  0
VERTEX
  8
M57LXLIFT
 62
3
 10
6370.783
 20
-8241.174
 30
-425.000
 70
    32
  0
VERTEX
  8
M57LXLIFT
 62
3
 10
6370.387
 20
-8253.620
 30
-425.000
 70
    32
  0
VERTEX
  8
M57LXLIFT
 62
3
 10
6371.757
 20
-8267.377
 30
-425.000
 70
    32
  0
VERTEX
  8
M57LXLIFT
 62
3
 10
6376.258
 20
-8291.238
 30
-425.000
 70
    32
  0
VERTEX
  8
M57LXLIFT
 62
3
 10
6378.816
 20
-8299.568
 30
-425.000
 70
    32
  0
VERTEX
  8
M57LXLIFT
 62
3
 10
6382.253
 20
-8300.607
 30
-425.000
 70
    32
  0
SEQEND
  8
M57LXLIFT
  0
POLYLINE
  8
M57LXLIFT
 62
3
 66
     1
 70
     9
  0
VERTEX
  8
M57LXLIFT
 62
3
 10
6365.208
 20
-8233.979
 30
-415.000
 70
    32
  0
VERTEX
  8
M57LXLIFT
 62
3
 10
6369.539
 20
-8240.396
 30
-415.000
 70
    32
  0
VERTEX
  8
M57LXLIFT
 62
3
 10
6376.076
 20
-8239.673
 30
-415.000
 70
    32
  0
VERTEX
  8
M57LXLIFT
 62
3
 10
6380.023
 20
-8235.831
 30
-415.000
 70
    32
  0
VERTEX
  8
M57LXLIFT
 62
3
 10
6383.767
 20
-8234.852
 30
-415.000
 70
    32
  0
VERTEX
  8
M57LXLIFT
 62
3
 10
6391.292
 20
-8229.502
 30
-415.000
 70
    32
  0
VERTEX
  8
M57LXLIFT
 62
3
 10
6393.538
 20
-8215.379
 30
-415.000
 70
    32
  0
VERTEX
  8
M57LXLIFT
 62
3
 10
6392.714
 20
-8206.308
 30
-415.000
 70
    32
  0
VERTEX
  8
M57LXLIFT
 62
3
 10
6388.277
 20
-8178.783
 30
-415.000
 70
    32
  0
VERTEX
  8
M57LXLIFT
 62
3
 10
6384.749
 20
-8171.674
 30
-415.000
 70
    32
  0
VERTEX
  8
M57LXLIFT
 62
3
 10
6373.376
 20
-8179.057
 30
-415.000
 70
    32
  0
VERTEX
  8
M57LXLIFT
 62
3
 10
6363.672
 20
-8190.987
 30
-415.000
 70
    32
  0
VERTEX
  8
M57LXLIFT
 62
3
 10
6364.337
 20
-8208.972
 30
-415.000
 70
    32
  0
VERTEX
  8
M57LXLIFT
 62
3
 10
6366.031
 20
-8220.889
 30
-415.000
 70
    32
  0
VERTEX
  8
M57LXLIFT
 62
3
 10
6366.252
 20
-8225.834
 30
-415.000
 70
    32
  0
SEQEND
  8
M57LXLIFT
  0
POLYLINE
  8
M57LXLIFT
 62
3
 66
     1
 70
     9
  0
VERTEX
  8
M57LXLIFT
 62
3
 10
6404.173
 20
-8194.907
 30
-458.000
 70
    32
  0
VERTEX
  8
M57LXLIFT
 62
3
 10
6395.699
 20
-8199.879
 30
-458.000
 70
    32
  0
VERTEX
  8
M57LXLIFT
 62
3
 10
6381.323
 20
-8215.703
 30
-458.000
 70
    32
  0
VERTEX
  8
M57LXLIFT
 62
3
 10
6390.545
 20
-8232.424
 30
-458.000
 70
    32
  0
VERTEX
  8
M57LXLIFT
 62
3
 10
6404.674
 20
-8221.084
 30
-458.000
 70
    32
  0
VERTEX
  8
M57LXLIFT
 62
3
 10
6409.459
 20
-8202.922
 30
-458.000
 70
    32
  0
SEQEND
  8
M57LXLIFT
  0
POLYLINE
  8
M57LXLIFT
 62
3
 66
     1
 70
     9
  0
VERTEX
  8
M57LXLIFT
 62
3
 10
6395.247
 20
-8190.436
 30
-490.000
 70
    32
  0
VERTEX
  8
M57LXLIFT
 62
3
 10
6398.166
 20
-8199.316
 30
-490.000
 70
    32
  0
VERTEX
  8
M57LXLIFT
 62
3
 10
6387.624
 20
-8213.498
 30
-490.000
 70
    32
  0
VERTEX
  8
M57LXLIFT
 62
3
 10
6391.282
 20
-8224.127
 30
-490.000
 70
    32
  0
VERTEX
  8
M57LXLIFT
 62
3
 10
6400.586
 20
-8233.230
 30
-490.000
 70
    32
  0
VERTEX
  8
M57LXLIFT
 62
3
 10
6407.311
 20
-8246.847
 30
-490.000
 70
    32
  0
VERTEX
  8
M57LXLIFT
 62
3
 10
6417.691
 20
-8245.227
 30
-490.000
 70
    32
  0
VERTEX
  8
M57LXLIFT
 62
3
 10
6423.239
 20
-8251.741
 30
-490.000
 70
    32
  0
VERTEX
  8
M57LXLIFT
 62
3
 10
6437.848
 20
-8251.273
 30
-490.000
 70
    32
  0
VERTEX
  8
M57LXLIFT
 62
3
 10
6443.187
 20
-8243.532
 30
-490.000
 70
    32
  0
VERTEX
  8
M57LXLIFT
 62
3
 10
6450.691
 20
-8240.968
 30
-490.000
 70
    32
  0
VERTEX
  8
M57LXLIFT
 62
3
 10
6453.162
 20
-8229.767
 30
-490.000
 70
    32
  0
VERTEX
  8
M57LXLIFT
 62
3
 10
6450.189
 20
-8224.529
 30
-490.000
 70
    32
  0
VERTEX
  8
M57LXLIFT
 62
3
 10
6439.092
 20
-8215.214
 30
-490.000
 70
    32
  0
VERTEX
  8
M57LXLIFT
 62
3
 10
6429.819
 20
-8203.032
 30
-490.000
 70
    32
  0
VERTEX
  8
M57LXLIFT
 62
3
 10
6422.209
 20
-8188.210
 30
-490.000
 70
    32
  0
VERTEX
  8
M57LXLIFT
 62
3
 10
6415.805
 20
-8188.110
 30
-490.000
 70
    32
  0
VERTEX
  8
M57LXLIFT
 62
3
 10
6408.732
 20
-8184.572
 30
-490.000
 70
    32
  0
VERTEX
  8
M57LXLIFT
 62
3
 10
6400.415
 20
-8187.515
 30
-490.000
 70
    32
  0
SEQEND
  8
M57LXLIFT
  0
POLYLINE
  8
M57LXLIFT
 62
3
 66
     1
 70
     9
  0
VERTEX
  8
M57LXLIFT
 62
3
 10
6385.339
 20
-8220.105
 30
-468.000
 70
    32
  0
VERTEX
  8
M57LXLIFT
 62
3
 10
6386.757
 20
-8232.026
 30
-468.000
 70
    32
  0
VERTEX
  8
M57LXLIFT
 62
3
 10
6389.818
 20
-8236.214
 30
-468.000
 70
    32
  0
VERTEX
  8
M57LXLIFT
 62
3
 10
6396.771
 20
-8235.595
 30
-468.000
 70
    32
  0
VERTEX
  8
M57LXLIFT
 62
3
 10
6407.772
 20
-8230.385
 30
-468.000
 70
    32
  0
VERTEX
  8
M57LXLIFT
 62
3
 10
6413.386
 20
-8221.380
 30
-468.000
 70
    32
  0
VERTEX
  8
M57LXLIFT
 62
3
 10
6415.527
 20
-8205.986
 30
-468.000
 70
    32
  0
VERTEX
  8
M57LXLIFT
 62
3
 10
6414.946
 20
-8195.956
 30
-468.000
 70
    32
  0
VERTEX
  8
M57LXLIFT
 62
3
 10
6412.789
 20
-8194.048
 30
-468.000
 70
    32
  0
VERTEX
  8
M57LXLIFT
 62
3
 10
6401.065
 20
-8196.630
 30
-468.000
 70
    32
  0
VERTEX
  8
M57LXLIFT
 62
3
 10
6390.973
 20
-8200.849
 30
-468.000
 70
    32
  0
VERTEX
  8
M57LXLIFT
 62
3
 10
6385.571
 20
-8204.036
 30
-468.000
 70
    32
  0
VERTEX
  8
M57LXLIFT
 62
3
 10
6381.103
 20
-8214.162
 30
-468.000
 70
    32
  0
SEQEND
  8
M57LXLIFT
  0
POLYLINE
  8
M57LXLIFT
 62
3
 66
     1
 70
     9
  0
VERTEX
  8
M57LXLIFT
 62
3
 10
6434.059
 20
-8216.135
 30
-478.000
 70
    32
  0
VERTEX
  8
M57LXLIFT
 62
3
 10
6434.060
 20
-8220.724
 30
-478.000
 70
    32
  0
VERTEX
  8
M57LXLIFT
 62
3
 10
6423.920
 20
-8236.737
 30
-478.000
 70
    32
  0
VERTEX
  8
M57LXLIFT
 62
3
 10
6419.338
 20
-8242.963
 30
-478.000
 70
    32
  0
VERTEX
  8
M57LXLIFT
 62
3
 10
6406.699
 20
-8242.571
 30
-478.000
 70
    32
  0
VERTEX
  8
M57LXLIFT
 62
3
 10
6398.524
 20
-8240.085
 30
-478.000
 70
    32
  0
VERTEX
  8
M57LXLIFT
 62
3
 10
6392.906
 20
-8219.753
 30
-478.000
 70
    32
  0
VERTEX
  8
M57LXLIFT
 62
3
 10
6389.890
 20
-8204.276
 30
-478.000
 70
    32
  0
VERTEX
  8
M57LXLIFT
 62
3
 10
6396.237
 20
-8197.184
 30
-478.000
 70
    32
  0
VERTEX
  8
M57LXLIFT
 62
3
 10
6409.502
 20
-8191.321
 30
-478.000
 70
    32
  0
VERTEX
  8
M57LXLIFT
 62
3
 10
6416.460
 20
-8194.378
 30
-478.000
 70
    32
  0
VERTEX
  8
M57LXLIFT
 62
3
 10
6422.833
 20
-8200.491
 30
-478.000
 70
    32
  0
SEQEND
  8
M57LXLIFT
  0
POLYLINE
  8
M57LXLIFT
 62
3
 66
     1
 70
     9
  0
VERTEX
  8
M57LXLIFT
 62
3
 10
6419.167
 20
-8228.728
 30
-499.000
 70
    32
  0
VERTEX
  8
M57LXLIFT
 62
3
 10
6441.351
 20
-8242.305
 30
-499.000
 70
    32
  0
VERTEX
  8
M57LXLIFT
 62
3
 10
6448.604
 20
-8237.461
 30
-499.000
 70
    32
  0
VERTEX
  8
M57LXLIFT
 62
3
 10
6449.172
 20
-8232.258
 30
-499.000
 70
    32
  0
VERTEX
  8
M57LXLIFT
 62
3
 10
6440.159
 20
-8221.071
 30
-499.000
 70
    32
  0
VERTEX
  8
M57LXLIFT
 62
3
 10
6436.610
 20
-8213.203
 30
-499.000
 70
    32
  0
VERTEX
  8
M57LXLIFT
 62
3
 10
6420.517
 20
-8202.161
 30
-499.000
 70
    32
  0
VERTEX
  8
M57LXLIFT
 62
3
 10
6416.637
 20
-8192.791
 30
-499.000
 70
    32
  0
VERTEX
  8
M57LXLIFT
 62
3
 10
6409.788
 20
-8189.066
 30
-499.000
 70
    32
  0
VERTEX
  8
M57LXLIFT
 62
3
 10
6400.593
 20
-8191.839
 30
-499.000
 70
    32
  0
VERTEX
  8
M57LXLIFT
 62
3
 10
6409.963
 20
-8207.556
 30
-499.000
 70
    32
  0
VERTEX
  8
M57LXLIFT
 62
3
 10
6414.548
 20
-8215.650
 30
-499.000
 70
    32
  0
SEQEND
  8
M57LXLIFT
  0
POLYLINE
  8
M57LXLIFT
 62
6
 66
     1
 70
     9
  0
VERTEX
  8
M57LXLIFT
 62
6
 10
6413.592
 20
-8424.105
 30
-469.000
 70
    32
  0
VERTEX
  8
M57LXLIFT
 62
6
 10
6414.529
 20
-8410.788
 30
-469.000
 70
    32
  0
VERTEX
  8
M57LXLIFT
 62
6
 10
6417.251
 20
-8398.126
 30
-469.000
 70
    32
  0
VERTEX
  8
M57LXLIFT
 62
6
 10
6420.242
 20
-8392.237
 30
-469.000
 70
    32
  0
VERTEX
  8
M57LXLIFT
 62
6
 10
6423.901
 20
-8376.386
 30
-469.000
 70
    32
  0
VERTEX
  8
M57LXLIFT
 62
6
 10
6427.568
 20
-8366.954
 30
-469.000
 70
    32
  0
VERTEX
  8
M57LXLIFT
 62
6
 10
6428.696
 20
-8352.408
 30
-469.000
 70
    32
  0
VERTEX
  8
M57LXLIFT
 62
6
 10
6431.181
 20
-8340.464
 30
-469.000
 70
    32
  0
VERTEX
  8
M57LXLIFT
 62
6
 10
6432.775
 20
-8336.686
 30
-469.000
 70
    32
  0
VERTEX
  8
M57LXLIFT
 62
6
 10
6433.085
 20
-8331.449
 30
-469.000
 70
    32
  0
VERTEX
  8
M57LXLIFT
 62
6
 10
6436.142
 20
-8325.948
 30
-469.000
 70
    32
  0
VERTEX
  8
M57LXLIFT
 62
6
 10
6435.992
 20
-8315.167
 30
-469.000
 70
    32
  0
VERTEX
  8
M57LXLIFT
 62
6
 10
6432.753
 20
-8306.863
 30
-469.000
 70
    32
  0
VERTEX
  8
M57LXLIFT
 62
6
 10
6414.390
 20
-8298.726
 30
-469.000
 70
    32
  0
VERTEX
  8
M57LXLIFT
 62
6
 10
6406.011
 20
-8276.538
 30
-469.000
 70
    32
  0
VERTEX
  8
M57LXLIFT
 62
6
 10
6406.618
 20
-8265.749
 30
-469.000
 70
    32
  0
VERTEX
  8
M57LXLIFT
 62
6
 10
6404.040
 20
-8245.092
 30
-469.000
 70
    32
  0
VERTEX
  8
M57LXLIFT
 62
6
 10
6400.598
 20
-8249.024
 30
-469.000
 70
    32
  0
VERTEX
  8
M57LXLIFT
 62
6
 10
6398.544
 20
-8254.555
 30
-469.000
 70
    32
  0
VERTEX
  8
M57LXLIFT
 62
6
 10
6393.401
 20
-8258.096
 30
-469.000
 70
    32
  0
VERTEX
  8
M57LXLIFT
 62
6
 10
6394.962
 20
-8269.914
 30
-469.000
 70
    32
  0
VERTEX
  8
M57LXLIFT
 62
6
 10
6398.290
 20
-8275.212
 30
-469.000
 70
    32
  0
VERTEX
  8
M57LXLIFT
 62
6
 10
6398.019
 20
-8285.865
 30
-469.000
 70
    32
  0
VERTEX
  8
M57LXLIFT
 62
6
 10
6401.121
 20
-8303.961
 30
-469.000
 70
    32
  0
VERTEX
  8
M57LXLIFT
 62
6
 10
6403.085
 20
-8311.564
 30
-469.000
 70
    32
  0
VERTEX
  8
M57LXLIFT
 62
6
 10
6400.712
 20
-8324.406
 30
-469.000
 70
    32
  0
VERTEX
  8
M57LXLIFT
 62
6
 10
6396.165
 20
-8330.997
 30
-469.000
 70
    32
  0
VERTEX
  8
M57LXLIFT
 62
6
 10
6397.038
 20
-8360.197
 30
-469.000
 70
    32
  0
VERTEX
  8
M57LXLIFT
 62
6
 10
6407.465
 20
-8365.969
 30
-469.000
 70
    32
  0
VERTEX
  8
M57LXLIFT
 62
6
 10
6405.967
 20
-8374.795
 30
-469.000
 70
    32
  0
VERTEX
  8
M57LXLIFT
 62
6
 10
6401.052
 20
-8381.328
 30
-469.000
 70
    32
  0
VERTEX
  8
M57LXLIFT
 62
6
 10
6398.500
 20
-8384.392
 30
-469.000
 70
    32
  0
VERTEX
  8
M57LXLIFT
 62
6
 10
6398.316
 20
-8396.505
 30
-469.000
 70
    32
  0
VERTEX
  8
M57LXLIFT
 62
6
 10
6403.705
 20
-8398.663
 30
-469.000
 70
    32
  0
VERTEX
  8
M57LXLIFT
 62
6
 10
6405.006
 20
-8423.085
 30
-469.000
 70
    32
  0
SEQEND
  8
M57LXLIFT
  0
POLYLINE
  8
M57LXLIFT
 62
6
 66
     1
 70
     9
  0
VERTEX
  8
M57LXLIFT
 62
6
 10
6418.247
 20
-8407.981
 30
-443.000
 70
    32
  0
VERTEX
  8
M57LXLIFT
 62
6
 10
6419.588
 20
-8399.562
 30
-443.000
 70
    32
  0
VERTEX
  8
M57LXLIFT
 62
6
 10
6420.024
 20
-8387.986
 30
-443.000
 70
    32
  0
VERTEX
  8
M57LXLIFT
 62
6
 10
6414.969
 20
-8372.367
 30
-443.000
 70
    32
  0
VERTEX
  8
M57LXLIFT
 62
6
 10
6415.576
 20
-8361.320
 30
-443.000
 70
    32
  0
VERTEX
  8
M57LXLIFT
 62
6
 10
6414.453
 20
-8348.814
 30
-443.000
 70
    32
  0
VERTEX
  8
M57LXLIFT
 62
6
 10
6420.322
 20
-8333.783
 30
-443.000
 70
    32
  0
VERTEX
  8
M57LXLIFT
 62
6
 10
6424.058
 20
-8333.218
 30
-443.000
 70
    32
  0
VERTEX
  8
M57LXLIFT
 62
6
 10
6416.213
 20
-8322.713
 30
-443.000
 70
    32
  0
VERTEX
  8
M57LXLIFT
 62
6
 10
6399.897
 20
-8308.719
 30
-443.000
 70
    32
  0
VERTEX
  8
M57LXLIFT
 62
6
 10
6387.383
 20
-8302.855
 30
-443.000
 70
    32
  0
VERTEX
  8
M57LXLIFT
 62
6
 10
6375.818
 20
-8301.100
 30
-443.000
 70
    32
  0
VERTEX
  8
M57LXLIFT
 62
6
 10
6364.271
 20
-8301.298
 30
-443.000
 70
    32
  0
VERTEX
  8
M57LXLIFT
 62
6
 10
6360.944
 20
-8305.387
 30
-443.000
 70
    32
  0
VERTEX
  8
M57LXLIFT
 62
6
 10
6359.188
 20
-8321.105
 30
-443.000
 70
    32
  0
VERTEX
  8
M57LXLIFT
 62
6
 10
6357.085
 20
-8334.128
 30
-443.000
 70
    32
  0
VERTEX
  8
M57LXLIFT
 62
6
 10
6358.499
 20
-8345.544
 30
-443.000
 70
    32
  0
VERTEX
  8
M57LXLIFT
 62
6
 10
6362.382
 20
-8364.321
 30
-443.000
 70
    32
  0
VERTEX
  8
M57LXLIFT
 62
6
 10
6368.137
 20
-8384.452
 30
-443.000
 70
    32
  0
VERTEX
  8
M57LXLIFT
 62
6
 10
6367.765
 20
-8396.856
 30
-443.000
 70
    32
  0
VERTEX
  8
M57LXLIFT
 62
6
 10
6375.206
 20
-8411.265
 30
-443.000
 70
    32
  0
VERTEX
  8
M57LXLIFT
 62
6
 10
6376.924
 20
-8428.140
 30
-443.000
 70
    32
  0
VERTEX
  8
M57LXLIFT
 62
6
 10
6383.851
 20
-8431.016
 30
-443.000
 70
    32
  0
VERTEX
  8
M57LXLIFT
 62
6
 10
6390.881
 20
-8424.091
 30
-443.000
 70
    32
  0
VERTEX
  8
M57LXLIFT
 62
6
 10
6392.449
 20
-8413.756
 30
-443.000
 70
    32
  0
VERTEX
  8
M57LXLIFT
 62
6
 10
6396.601
 20
-8405.891
 30
-443.000
 70
    32
  0
VERTEX
  8
M57LXLIFT
 62
6
 10
6388.937
 20
-8388.805
 30
-443.000
 70
    32
  0
VERTEX
  8
M57LXLIFT
 62
6
 10
6384.508
 20
-8374.036
 30
-443.000
 70
    32
  0
VERTEX
  8
M57LXLIFT
 62
6
 10
6382.511
 20
-8354.853
 30
-443.000
 70
    32
  0
VERTEX
  8
M57LXLIFT
 62
6
 10
6390.932
 20
-8343.734
 30
-443.000
 70
    32
  0
VERTEX
  8
M57LXLIFT
 62
6
 10
6399.301
 20
-8350.794
 30
-443.000
 70
    32
  0
VERTEX
  8
M57LXLIFT
 62
6
 10
6397.470
 20
-8362.851
 30
-443.000
 70
    32
  0
VERTEX
  8
M57LXLIFT
 62
6
 10
6400.702
 20
-8379.704
 30
-443.000
 70
    32
  0
VERTEX
  8
M57LXLIFT
 62
6
 10
6402.826
 20
-8398.465
 30
-443.000
 70
    32
  0
VERTEX
  8
M57LXLIFT
 62
6
 10
6404.746
 20
-8410.274
 30
-443.000
 70
    32
  0
SEQEND
  8
M57LXLIFT
  0
POLYLINE
  8
M57LXLIFT
 62
6
 66
     1
 70
     9
  0
VERTEX
  8
M57LXLIFT
 62
6
 10
6393.385
 20
-8476.435
 30
-416.000
 70
    32
  0
VERTEX
  8
M57LXLIFT
 62
6
 10
6389.153
 20
-8468.207
 30
-416.000
 70
    32
  0
VERTEX
  8
M57LXLIFT
 62
6
 10
6384.211
 20
-8464.840
 30
-416.000
 70
    32
  0
VERTEX
  8
M57LXLIFT
 62
6
 10
6376.960
 20
-8462.931
 30
-416.000
 70
    32
  0
VERTEX
  8
M57LXLIFT
 62
6
 10
6368.971
 20
-8449.825
 30
-416.000
 70
    32
  0
VERTEX
  8
M57LXLIFT
 62
6
 10
6368.569
 20
-8445.228
 30
-416.000
 70
    32
  0
VERTEX
  8
M57LXLIFT
 62
6
 10
6384.695
 20
-8413.104
 30
-416.000
 70
    32
  0
VERTEX
  8
M57LXLIFT
 62
6
 10
6396.778
 20
-8413.137
 30
-416.000
 70
    32
  0
VERTEX
  8
M57LXLIFT
 62
6
 10
6399.394
 20
-8403.417
 30
-416.000
 70
    32
  0
VERTEX
  8
M57LXLIFT
 62
6
 10
6394.883
 20
-8396.152
 30
-416.000
 70
    32
  0
VERTEX
  8
M57LXLIFT
 62
6
 10
6395.163
 20
-8382.912
 30
-416.000
 70
    32
  0
VERTEX
  8
M57LXLIFT
 62
6
 10
6400.332
 20
-8367.429
 30
-416.000
 70
    32
  0
VERTEX
  8
M57LXLIFT
 62
6
 10
6403.823
 20
-8350.230
 30
-416.000
 70
    32
  0
VERTEX
  8
M57LXLIFT
 62
6
 10
6406.074
 20
-8336.864
 30
-416.000
 70
    32
  0
VERTEX
  8
M57LXLIFT
 62
6
 10
6403.261
 20
-8332.387
 30
-416.000
 70
    32
  0
VERTEX
  8
M57LXLIFT
 62
6
 10
6389.791
 20
-8335.533
 30
-416.000
 70
    32
  0
VERTEX
  8
M57LXLIFT
 62
6
 10
6376.262
 20
-8334.704
 30
-416.000
 70
    32
  0
VERTEX
  8
M57LXLIFT
 62
6
 10
6367.043
 20
-8345.955
 30
-416.000
 70
    32
  0
VERTEX
  8
M57LXLIFT
 62
6
 10
6360.315
 20
-8362.135
 30
-416.000
 70
    32
  0
VERTEX
  8
M57LXLIFT
 62
6
 10
6354.279
 20
-8377.922
 30
-416.000
 70
    32
  0
VERTEX
  8
M57LXLIFT
 62
6
 10
6351.116
 20
-8403.357
 30
-416.000
 70
    32
  0
VERTEX
  8
M57LXLIFT
 62
6
 10
6349.427
 20
-8410.013
 30
-416.000
 70
    32
  0
VERTEX
  8
M57LXLIFT
 62
6
 10
6340.273
 20
-8410.572
 30
-416.000
 70
    32
  0
VERTEX
  8
M57LXLIFT
 62
6
 10
6330.831
 20
-8431.546
 30
-416.000
 70
    32
  0
VERTEX
  8
M57LXLIFT
 62
6
 10
6332.378
 20
-8447.154
 30
-416.000
 70
    32
  0
VERTEX
  8
M57LXLIFT
 62
6
 10
6342.971
 20
-8461.303
 30
-416.000
 70
    32
  0
VERTEX
  8
M57LXLIFT
 62
6
 10
6350.034
 20
-8475.081
 30
-416.000
 70
    32
  0
VERTEX
  8
M57LXLIFT
 62
6
 10
6363.312
 20
-8481.851
 30
-416.000
 70
    32
  0
VERTEX
  8
M57LXLIFT
 62
6
 10
6366.475
 20
-8479.773
 30
-416.000
 70
    32
  0
VERTEX
  8
M57LXLIFT
 62
6
 10
6378.343
 20
-8486.697
 30
-416.000
 70
    32
  0
SEQEND
  8
M57LXLIFT
  0
POLYLINE
  8
M57LXLIFT
 62
6
 66
     1
 70
     9
  0
VERTEX
  8
M57LXLIFT
 62
6
 10
6353.164
 20
-8358.743
 30
-408.000
 70
    32
  0
VERTEX
  8
M57LXLIFT
 62
6
 10
6363.979
 20
-8352.490
 30
-408.000
 70
    32
  0
VERTEX
  8
M57LXLIFT
 62
6
 10
6379.932
 20
-8352.291
 30
-408.000
 70
    32
  0
VERTEX
  8
M57LXLIFT
 62
6
 10
6391.039
 20
-8358.418
 30
-408.000
 70
    32
  0
VERTEX
  8
M57LXLIFT
 62
6
 10
6397.618
 20
-8367.897
 30
-408.000
 70
    32
  0
VERTEX
  8
M57LXLIFT
 62
6
 10
6403.414
 20
-8372.917
 30
-408.000
 70
    32
  0
VERTEX
  8
M57LXLIFT
 62
6
 10
6405.462
 20
-8383.230
 30
-408.000
 70
    32
  0
VERTEX
  8
M57LXLIFT
 62
6
 10
6396.149
 20
-8408.086
 30
-408.000
 70
    32
  0
VERTEX
  8
M57LXLIFT
 62
6
 10
6392.256
 20
-8413.924
 30
-408.000
 70
    32
  0
VERTEX
  8
M57LXLIFT
 62
6
 10
6381.928
 20
-8421.131
 30
-408.000
 70
    32
  0
VERTEX
  8
M57LXLIFT
 62
6
 10
6375.138
 20
-8425.719
 30
-408.000
 70
    32
  0
VERTEX
  8
M57LXLIFT
 62
6
 10
6373.922
 20
-8442.720
 30
-408.000
 70
    32
  0
VERTEX
  8
M57LXLIFT
 62
6
 10
6373.910
 20
-8452.915
 30
-408.000
 70
    32
  0
VERTEX
  8
M57LXLIFT
 62
6
 10
6380.883
 20
-8458.488
 30
-408.000
 70
    32
  0
VERTEX
  8
M57LXLIFT
 62
6
 10
6388.235
 20
-8473.747
 30
-408.000
 70
    32
  0
VERTEX
  8
M57LXLIFT
 62
6
 10
6383.229
 20
-8477.343
 30
-408.000
 70
    32
  0
VERTEX
  8
M57LXLIFT
 62
6
 10
6377.917
 20
-8482.151
 30
-408.000
 70
    32
  0
VERTEX
  8
M57LXLIFT
 62
6
 10
6363.573
 20
-8478.310
 30
-408.000
 70
    32
  0
VERTEX
  8
M57LXLIFT
 62
6
 10
6351.800
 20
-8474.539
 30
-408.000
 70
    32
  0
VERTEX
  8
M57LXLIFT
 62
6
 10
6339.501
 20
-8453.631
 30
-408.000
 70
    32
  0
VERTEX
  8
M57LXLIFT
 62
6
 10
6332.417
 20
-8434.888
 30
-408.000
 70
    32
  0
VERTEX
  8
M57LXLIFT
 62
6
 10
6333.736
 20
-8423.944
 30
-408.000
 70
    32
  0
VERTEX
  8
M57LXLIFT
 62
6
 10
6339.262
 20
-8416.020
 30
-408.000
 70
    32
  0
VERTEX
  8
M57LXLIFT
 62
6
 10
6343.405
 20
-8406.820
 30
-408.000
 70
    32
  0
VERTEX
  8
M57LXLIFT
 62
6
 10
6350.464
 20
-8367.970
 30
-408.000
 70
    32
  0
SEQEND
  8
M57LXLIFT
  0
POLYLINE
  8
M57LXLIFT
 62
6
 66
     1
 70
     9
  0
VERTEX
  8
M57LXLIFT
 62
6
 10
6422.541
 20
-8314.442
 30
-449.000
 70
    32
  0
VERTEX
  8
M57LXLIFT
 62
6
 10
6416.070
 20
-8315.338
 30
-449.000
 70
    32
  0
VERTEX
  8
M57LXLIFT
 62
6
 10
6411.110
 20
-8318.836
 30
-449.000
 70
    32
  0
VERTEX
  8
M57LXLIFT
 62
6
 10
6403.824
 20
-8343.858
 30
-449.000
 70
    32
  0
VERTEX
  8
M57LXLIFT
 62
6
 10
6399.212
 20
-8368.195
 30
-449.000
 70
    32
  0
VERTEX
  8
M57LXLIFT
 62
6
 10
6401.738
 20
-8396.191
 30
-449.000
 70
    32
  0
VERTEX
  8
M57LXLIFT
 62
6
 10
6407.644
 20
-8411.105
 30
-449.000
 70
    32
  0
VERTEX
  8
M57LXLIFT
 62
6
 10
6413.534
 20
-8412.513
 30
-449.000
 70
    32
  0
VERTEX
  8
M57LXLIFT
 62
6
 10
6418.688
 20
-8407.661
 30
-449.000
 70
    32
  0
VERTEX
  8
M57LXLIFT
 62
6
 10
6417.111
 20
-8382.689
 30
-449.000
 70
    32
  0
VERTEX
  8
M57LXLIFT
 62
6
 10
6416.883
 20
-8377.255
 30
-449.000
 70
    32
  0
VERTEX
  8
M57LXLIFT
 62
6
 10
6415.935
 20
-8368.515
 30
-449.000
 70
    32
  0
VERTEX
  8
M57LXLIFT
 62
6
 10
6422.289
 20
-8342.983
 30
-449.000
 70
    32
  0
VERTEX
  8
M57LXLIFT
 62
6
 10
6426.143
 20
-8331.413
 30
-449.000
 70
    32
  0
VERTEX
  8
M57LXLIFT
 62
6
 10
6429.292
 20
-8324.766
 30
-449.000
 70
    32
  0
SEQEND
  8
M57LXLIFT
  0
POLYLINE
  8
M57LXLIFT
 62
6
 66
     1
 70
     9
  0
VERTEX
  8
M57LXLIFT
 62
6
 10
6374.201
 20
-8302.512
 30
-425.000
 70
    32
  0
VERTEX
  8
M57LXLIFT
 62
6
 10
6364.335
 20
-8307.560
 30
-425.000
 70
    32
  0
VERTEX
  8
M57LXLIFT
 62
6
 10
6359.489
 20
-8313.550
 30
-425.000
 70
    32
  0
VERTEX
  8
M57LXLIFT
 62
6
 10
6360.325
 20
-8318.879
 30
-425.000
 70
    32
  0
VERTEX
  8
M57LXLIFT
 62
6
 10
6362.294
 20
-8321.914
 30
-425.000
 70
    32
  0
VERTEX
  8
M57LXLIFT
 62
6
 10
6365.288
 20
-8354.425
 30
-425.000
 70
    32
  0
VERTEX
  8
M57LXLIFT
 62
6
 10
6363.134
 20
-8381.452
 30
-425.000
 70
    32
  0
VERTEX
  8
M57LXLIFT
 62
6
 10
6365.268
 20
-8400.151
 30
-425.000
 70
    32
  0
VERTEX
  8
M57LXLIFT
 62
6
 10
6375.985
 20
-8414.002
 30
-425.000
 70
    32
  0
VERTEX
  8
M57LXLIFT
 62
6
 10
6389.544
 20
-8415.431
 30
-425.000
 70
    32
  0
VERTEX
  8
M57LXLIFT
 62
6
 10
6399.825
 20
-8412.388
 30
-425.000
 70
    32
  0
VERTEX
  8
M57LXLIFT
 62
6
 10
6404.410
 20
-8406.927
 30
-425.000
 70
    32
  0
VERTEX
  8
M57LXLIFT
 62
6
 10
6406.221
 20
-8392.415
 30
-425.000
 70
    32
  0
VERTEX
  8
M57LXLIFT
 62
6
 10
6405.177
 20
-8369.909
 30
-425.000
 70
    32
  0
VERTEX
  8
M57LXLIFT
 62
6
 10
6406.647
 20
-8357.424
 30
-425.000
 70
    32
  0
VERTEX
  8
M57LXLIFT
 62
6
 10
6402.878
 20
-8342.834
 30
-425.000
 70
    32
  0
VERTEX
  8
M57LXLIFT
 62
6
 10
6411.250
 20
-8334.503
 30
-425.000
 70
    32
  0
VERTEX
  8
M57LXLIFT
 62
6
 10
6407.793
 20
-8329.504
 30
-425.000
 70
    32
  0
VERTEX
  8
M57LXLIFT
 62
6
 10
6395.672
 20
-8334.052
 30
-425.000
 70
    32
  0
VERTEX
  8
M57LXLIFT
 62
6
 10
6390.530
 20
-8333.532
 30
-425.000
 70
    32
  0
VERTEX
  8
M57LXLIFT
 62
6
 10
6387.648
 20
-8323.901
 30
-425.000
 70
    32
  0
VERTEX
  8
M57LXLIFT
 62
6
 10
6390.416
 20
-8310.652
 30
-425.000
 70
    32
  0
VERTEX
  8
M57LXLIFT
 62
6
 10
6387.113
 20
-8308.186
 30
-425.000
 70
    32
  0
SEQEND
  8
M57LXLIFT
  0
POLYLINE
  8
M57LXLIFT
 62
13
 66
     1
 70
     9
  0
VERTEX
  8
M57LXLIFT
 62
13
 10
6398.022
 20
-8474.702
 30
-427.000
 70
    32
  0
VERTEX
  8
M57LXLIFT
 62
13
 10
6391.997
 20
-8470.103
 30
-427.000
 70
    32
  0
VERTEX
  8
M57LXLIFT
 62
13
 10
6385.522
 20
-8449.173
 30
-427.000
 70
    32
  0
VERTEX
  8
M57LXLIFT
 62
13
 10
6382.497
 20
-8446.055
 30
-427.000
 70
    32
  0
VERTEX
  8
M57LXLIFT
 62
13
 10
6381.935
 20
-8435.551
 30
-427.000
 70
    32
  0
VERTEX
  8
M57LXLIFT
 62
13
 10
6374.302
 20
-8418.921
 30
-427.000
 70
    32
  0
VERTEX
  8
M57LXLIFT
 62
13
 10
6362.643
 20
-8413.734
 30
-427.000
 70
    32
  0
VERTEX
  8
M57LXLIFT
 62
13
 10
6353.524
 20
-8413.356
 30
-427.000
 70
    32
  0
VERTEX
  8
M57LXLIFT
 62
13
 10
6338.966
 20
-8420.081
 30
-427.000
 70
    32
  0
VERTEX
  8
M57LXLIFT
 62
13
 10
6337.590
 20
-8430.067
 30
-427.000
 70
    32
  0
VERTEX
  8
M57LXLIFT
 62
13
 10
6334.467
 20
-8442.702
 30
-427.000
 70
    32
  0
VERTEX
  8
M57LXLIFT
 62
13
 10
6335.243
 20
-8450.284
 30
-427.000
 70
    32
  0
VERTEX
  8
M57LXLIFT
 62
13
 10
6343.475
 20
-8459.836
 30
-427.000
 70
    32
  0
VERTEX
  8
M57LXLIFT
 62
13
 10
6350.947
 20
-8465.325
 30
-427.000
 70
    32
  0
VERTEX
  8
M57LXLIFT
 62
13
 10
6357.102
 20
-8474.905
 30
-427.000
 70
    32
  0
VERTEX
  8
M57LXLIFT
 62
13
 10
6378.805
 20
-8482.418
 30
-427.000
 70
    32
  0
VERTEX
  8
M57LXLIFT
 62
13
 10
6382.923
 20
-8485.812
 30
-427.000
 70
    32
  0
VERTEX
  8
M57LXLIFT
 62
13
 10
6389.546
 20
-8483.333
 30
-427.000
 70
    32
  0
SEQEND
  8
M57LXLIFT
  0
POLYLINE
  8
M57LXLIFT
 62
1
 66
     1
 70
     9
  0
VERTEX
  8
M57LXLIFT
 62
1
 10
6368.002
 20
-8432.472
 30
-378.000
 70
    32
  0
VERTEX
  8
M57LXLIFT
 62
1
 10
6364.696
 20
-8433.645
 30
-378.000
 70
    32
  0
VERTEX
  8
M57LXLIFT
 62
1
 10
6364.699
 20
-8439.490
 30
-378.000
 70
    32
  0
VERTEX
  8
M57LXLIFT
 62
1
 10
6373.067
 20
-8456.116
 30
-378.000
 70
    32
  0
VERTEX
  8
M57LXLIFT
 62
1
 10
6383.591
 20
-8464.935
 30
-378.000
 70
    32
  0
VERTEX
  8
M57LXLIFT
 62
1
 10
6381.998
 20
-8467.352
 30
-378.000
 70
    32
  0
VERTEX
  8
M57LXLIFT
 62
1
 10
6388.771
 20
-8480.990
 30
-378.000
 70
    32
  0
VERTEX
  8
M57LXLIFT
 62
1
 10
6383.875
 20
-8480.497
 30
-378.000
 70
    32
  0
VERTEX
  8
M57LXLIFT
 62
1
 10
6377.800
 20
-8485.307
 30
-378.000
 70
    32
  0
VERTEX
  8
M57LXLIFT
 62
1
 10
6365.477
 20
-8480.386
 30
-378.000
 70
    32
  0
VERTEX
  8
M57LXLIFT
 62
1
 10
6344.243
 20
-8464.985
 30
-378.000
 70
    32
  0
VERTEX
  8
M57LXLIFT
 62
1
 10
6336.672
 20
-8459.783
 30
-378.000
 70
    32
  0
VERTEX
  8
M57LXLIFT
 62
1
 10
6329.358
 20
-8442.802
 30
-378.000
 70
    32
  0
VERTEX
  8
M57LXLIFT
 62
1
 10
6324.570
 20
-8427.994
 30
-378.000
 70
    32
  0
VERTEX
  8
M57LXLIFT
 62
1
 10
6327.346
 20
-8411.224
 30
-378.000
 70
    32
  0
VERTEX
  8
M57LXLIFT
 62
1
 10
6339.497
 20
-8402.044
 30
-378.000
 70
    32
  0
VERTEX
  8
M57LXLIFT
 62
1
 10
6353.344
 20
-8404.601
 30
-378.000
 70
    32
  0
VERTEX
  8
M57LXLIFT
 62
1
 10
6366.619
 20
-8414.871
 30
-378.000
 70
    32
  0
VERTEX
  8
M57LXLIFT
 62
1
 10
6372.252
 20
-8424.517
 30
-378.000
 70
    32
  0
SEQEND
  8
M57LXLIFT
  0
POLYLINE
  8
M57LXLIFT
 62
6
 66
     1
 70
     9
  0
VERTEX
  8
M57LXLIFT
 62
6
 10
6372.252
 20
-8424.517
 30
-388.000
 70
    32
  0
VERTEX
  8
M57LXLIFT
 62
6
 10
6366.619
 20
-8414.871
 30
-388.000
 70
    32
  0
VERTEX
  8
M57LXLIFT
 62
6
 10
6353.344
 20
-8404.601
 30
-388.000
 70
    32
  0
VERTEX
  8
M57LXLIFT
 62
6
 10
6339.497
 20
-8402.044
 30
-388.000
 70
    32
  0
VERTEX
  8
M57LXLIFT
 62
6
 10
6327.346
 20
-8411.224
 30
-388.000
 70
    32
  0
VERTEX
  8
M57LXLIFT
 62
6
 10
6324.570
 20
-8427.994
 30
-388.000
 70
    32
  0
VERTEX
  8
M57LXLIFT
 62
6
 10
6329.358
 20
-8442.802
 30
-388.000
 70
    32
  0
VERTEX
  8
M57LXLIFT
 62
6
 10
6336.672
 20
-8459.783
 30
-388.000
 70
    32
  0
VERTEX
  8
M57LXLIFT
 62
6
 10
6344.243
 20
-8464.985
 30
-388.000
 70
    32
  0
VERTEX
  8
M57LXLIFT
 62
6
 10
6365.477
 20
-8480.386
 30
-388.000
 70
    32
  0
VERTEX
  8
M57LXLIFT
 62
6
 10
6377.800
 20
-8485.307
 30
-388.000
 70
    32
  0
VERTEX
  8
M57LXLIFT
 62
6
 10
6383.875
 20
-8480.497
 30
-388.000
 70
    32
  0
VERTEX
  8
M57LXLIFT
 62
6
 10
6388.771
 20
-8480.990
 30
-388.000
 70
    32
  0
VERTEX
  8
M57LXLIFT
 62
6
 10
6381.998
 20
-8467.352
 30
-388.000
 70
    32
  0
VERTEX
  8
M57LXLIFT
 62
6
 10
6383.591
 20
-8464.935
 30
-388.000
 70
    32
  0
VERTEX
  8
M57LXLIFT
 62
6
 10
6373.067
 20
-8456.116
 30
-388.000
 70
    32
  0
VERTEX
  8
M57LXLIFT
 62
6
 10
6364.699
 20
-8439.490
 30
-388.000
 70
    32
  0
VERTEX
  8
M57LXLIFT
 62
6
 10
6364.696
 20
-8433.645
 30
-388.000
 70
    32
  0
VERTEX
  8
M57LXLIFT
 62
6
 10
6368.002
 20
-8432.472
 30
-388.000
 70
    32
  0
SEQEND
  8
M57LXLIFT
  0
POLYLINE
  8
M57LXLIFT
 62
6
 66
     1
 70
     9
  0
VERTEX
  8
M57LXLIFT
 62
6
 10
6385.453
 20
-8473.737
 30
-397.000
 70
    32
  0
VERTEX
  8
M57LXLIFT
 62
6
 10
6378.078
 20
-8479.021
 30
-397.000
 70
    32
  0
VERTEX
  8
M57LXLIFT
 62
6
 10
6372.792
 20
-8479.890
 30
-397.000
 70
    32
  0
VERTEX
  8
M57LXLIFT
 62
6
 10
6355.566
 20
-8472.417
 30
-397.000
 70
    32
  0
VERTEX
  8
M57LXLIFT
 62
6
 10
6340.472
 20
-8465.002
 30
-397.000
 70
    32
  0
VERTEX
  8
M57LXLIFT
 62
6
 10
6331.749
 20
-8459.204
 30
-397.000
 70
    32
  0
VERTEX
  8
M57LXLIFT
 62
6
 10
6321.816
 20
-8443.541
 30
-397.000
 70
    32
  0
VERTEX
  8
M57LXLIFT
 62
6
 10
6320.010
 20
-8425.219
 30
-397.000
 70
    32
  0
VERTEX
  8
M57LXLIFT
 62
6
 10
6324.973
 20
-8411.404
 30
-397.000
 70
    32
  0
VERTEX
  8
M57LXLIFT
 62
6
 10
6334.412
 20
-8397.107
 30
-397.000
 70
    32
  0
VERTEX
  8
M57LXLIFT
 62
6
 10
6342.342
 20
-8388.002
 30
-397.000
 70
    32
  0
VERTEX
  8
M57LXLIFT
 62
6
 10
6340.911
 20
-8382.257
 30
-397.000
 70
    32
  0
VERTEX
  8
M57LXLIFT
 62
6
 10
6347.711
 20
-8373.994
 30
-397.000
 70
    32
  0
VERTEX
  8
M57LXLIFT
 62
6
 10
6355.993
 20
-8364.626
 30
-397.000
 70
    32
  0
VERTEX
  8
M57LXLIFT
 62
6
 10
6362.249
 20
-8363.143
 30
-397.000
 70
    32
  0
VERTEX
  8
M57LXLIFT
 62
6
 10
6379.687
 20
-8362.655
 30
-397.000
 70
    32
  0
VERTEX
  8
M57LXLIFT
 62
6
 10
6386.576
 20
-8362.020
 30
-397.000
 70
    32
  0
VERTEX
  8
M57LXLIFT
 62
6
 10
6392.265
 20
-8369.201
 30
-397.000
 70
    32
  0
VERTEX
  8
M57LXLIFT
 62
6
 10
6393.532
 20
-8377.377
 30
-397.000
 70
    32
  0
VERTEX
  8
M57LXLIFT
 62
6
 10
6392.412
 20
-8389.422
 30
-397.000
 70
    32
  0
VERTEX
  8
M57LXLIFT
 62
6
 10
6386.645
 20
-8400.540
 30
-397.000
 70
    32
  0
VERTEX
  8
M57LXLIFT
 62
6
 10
6381.916
 20
-8411.431
 30
-397.000
 70
    32
  0
VERTEX
  8
M57LXLIFT
 62
6
 10
6376.136
 20
-8420.471
 30
-397.000
 70
    32
  0
VERTEX
  8
M57LXLIFT
 62
6
 10
6367.699
 20
-8428.307
 30
-397.000
 70
    32
  0
VERTEX
  8
M57LXLIFT
 62
6
 10
6363.348
 20
-8436.170
 30
-397.000
 70
    32
  0
VERTEX
  8
M57LXLIFT
 62
6
 10
6363.095
 20
-8446.138
 30
-397.000
 70
    32
  0
VERTEX
  8
M57LXLIFT
 62
6
 10
6370.923
 20
-8458.098
 30
-397.000
 70
    32
  0
SEQEND
  8
M57LXLIFT
  0
POLYLINE
  8
M57LXLIFT
 62
13
 66
     1
 70
     9
  0
VERTEX
  8
M57LXLIFT
 62
13
 10
6429.054
 20
-8459.284
 30
-478.000
 70
    32
  0
VERTEX
  8
M57LXLIFT
 62
13
 10
6423.957
 20
-8451.792
 30
-478.000
 70
    32
  0
VERTEX
  8
M57LXLIFT
 62
13
 10
6424.983
 20
-8446.226
 30
-478.000
 70
    32
  0
VERTEX
  8
M57LXLIFT
 62
13
 10
6421.247
 20
-8440.132
 30
-478.000
 70
    32
  0
VERTEX
  8
M57LXLIFT
 62
13
 10
6403.868
 20
-8450.783
 30
-478.000
 70
    32
  0
VERTEX
  8
M57LXLIFT
 62
13
 10
6393.502
 20
-8461.608
 30
-478.000
 70
    32
  0
VERTEX
  8
M57LXLIFT
 62
13
 10
6395.055
 20
-8487.237
 30
-478.000
 70
    32
  0
VERTEX
  8
M57LXLIFT
 62
13
 10
6396.058
 20
-8501.469
 30
-478.000
 70
    32
  0
VERTEX
  8
M57LXLIFT
 62
13
 10
6406.635
 20
-8509.723
 30
-478.000
 70
    32
  0
VERTEX
  8
M57LXLIFT
 62
13
 10
6413.870
 20
-8494.215
 30
-478.000
 70
    32
  0
VERTEX
  8
M57LXLIFT
 62
13
 10
6426.057
 20
-8477.126
 30
-478.000
 70
    32
  0
VERTEX
  8
M57LXLIFT
 62
13
 10
6428.856
 20
-8471.890
 30
-478.000
 70
    32
  0
SEQEND
  8
M57LXLIFT
  0
POLYLINE
  8
M57LXLIFT
 62
13
 66
     1
 70
     9
  0
VERTEX
  8
M57LXLIFT
 62
13
 10
6456.642
 20
-8509.808
 30
-467.000
 70
    32
  0
VERTEX
  8
M57LXLIFT
 62
13
 10
6455.744
 20
-8496.961
 30
-467.000
 70
    32
  0
VERTEX
  8
M57LXLIFT
 62
13
 10
6458.418
 20
-8488.254
 30
-467.000
 70
    32
  0
VERTEX
  8
M57LXLIFT
 62
13
 10
6458.610
 20
-8476.898
 30
-467.000
 70
    32
  0
VERTEX
  8
M57LXLIFT
 62
13
 10
6464.558
 20
-8456.433
 30
-467.000
 70
    32
  0
VERTEX
  8
M57LXLIFT
 62
13
 10
6466.716
 20
-8448.213
 30
-467.000
 70
    32
  0
VERTEX
  8
M57LXLIFT
 62
13
 10
6461.282
 20
-8443.908
 30
-467.000
 70
    32
  0
VERTEX
  8
M57LXLIFT
 62
13
 10
6455.127
 20
-8445.468
 30
-467.000
 70
    32
  0
VERTEX
  8
M57LXLIFT
 62
13
 10
6449.374
 20
-8442.813
 30
-467.000
 70
    32
  0
VERTEX
  8
M57LXLIFT
 62
13
 10
6440.123
 20
-8428.668
 30
-467.000
 70
    32
  0
VERTEX
  8
M57LXLIFT
 62
13
 10
6433.857
 20
-8424.863
 30
-467.000
 70
    32
  0
VERTEX
  8
M57LXLIFT
 62
13
 10
6426.595
 20
-8426.251
 30
-467.000
 70
    32
  0
VERTEX
  8
M57LXLIFT
 62
13
 10
6424.981
 20
-8437.450
 30
-467.000
 70
    32
  0
VERTEX
  8
M57LXLIFT
 62
13
 10
6426.331
 20
-8447.788
 30
-467.000
 70
    32
  0
VERTEX
  8
M57LXLIFT
 62
13
 10
6424.451
 20
-8453.409
 30
-467.000
 70
    32
  0
VERTEX
  8
M57LXLIFT
 62
13
 10
6427.382
 20
-8459.652
 30
-467.000
 70
    32
  0
VERTEX
  8
M57LXLIFT
 62
13
 10
6427.597
 20
-8473.652
 30
-467.000
 70
    32
  0
VERTEX
  8
M57LXLIFT
 62
13
 10
6431.129
 20
-8485.335
 30
-467.000
 70
    32
  0
VERTEX
  8
M57LXLIFT
 62
13
 10
6433.283
 20
-8501.837
 30
-467.000
 70
    32
  0
VERTEX
  8
M57LXLIFT
 62
13
 10
6433.780
 20
-8507.136
 30
-467.000
 70
    32
  0
VERTEX
  8
M57LXLIFT
 62
13
 10
6444.677
 20
-8514.743
 30
-467.000
 70
    32
  0
SEQEND
  8
M57LXLIFT
  0
POLYLINE
  8
M57LXLIFT
 62
13
 66
     1
 70
     9
  0
VERTEX
  8
M57LXLIFT
 62
13
 10
6423.204
 20
-8438.079
 30
-488.000
 70
    32
  0
VERTEX
  8
M57LXLIFT
 62
13
 10
6427.603
 20
-8445.109
 30
-488.000
 70
    32
  0
VERTEX
  8
M57LXLIFT
 62
13
 10
6437.953
 20
-8448.205
 30
-488.000
 70
    32
  0
VERTEX
  8
M57LXLIFT
 62
13
 10
6438.960
 20
-8454.778
 30
-488.000
 70
    32
  0
VERTEX
  8
M57LXLIFT
 62
13
 10
6435.500
 20
-8466.269
 30
-488.000
 70
    32
  0
VERTEX
  8
M57LXLIFT
 62
13
 10
6432.210
 20
-8475.016
 30
-488.000
 70
    32
  0
VERTEX
  8
M57LXLIFT
 62
13
 10
6418.279
 20
-8486.664
 30
-488.000
 70
    32
  0
VERTEX
  8
M57LXLIFT
 62
13
 10
6411.037
 20
-8491.219
 30
-488.000
 70
    32
  0
VERTEX
  8
M57LXLIFT
 62
13
 10
6408.965
 20
-8497.761
 30
-488.000
 70
    32
  0
VERTEX
  8
M57LXLIFT
 62
13
 10
6406.189
 20
-8499.035
 30
-488.000
 70
    32
  0
VERTEX
  8
M57LXLIFT
 62
13
 10
6398.534
 20
-8493.960
 30
-488.000
 70
    32
  0
VERTEX
  8
M57LXLIFT
 62
13
 10
6395.521
 20
-8487.332
 30
-488.000
 70
    32
  0
VERTEX
  8
M57LXLIFT
 62
13
 10
6403.136
 20
-8465.150
 30
-488.000
 70
    32
  0
VERTEX
  8
M57LXLIFT
 62
13
 10
6403.840
 20
-8449.462
 30
-488.000
 70
    32
  0
VERTEX
  8
M57LXLIFT
 62
13
 10
6409.342
 20
-8444.766
 30
-488.000
 70
    32
  0
SEQEND
  8
M57LXLIFT
  0
POLYLINE
  8
M57LXLIFT
 62
13
 66
     1
 70
     9
  0
VERTEX
  8
M57LXLIFT
 62
13
 10
6340.006
 20
-8429.647
 30
-436.000
 70
    32
  0
VERTEX
  8
M57LXLIFT
 62
13
 10
6348.486
 20
-8421.872
 30
-436.000
 70
    32
  0
VERTEX
  8
M57LXLIFT
 62
13
 10
6357.624
 20
-8421.371
 30
-436.000
 70
    32
  0
VERTEX
  8
M57LXLIFT
 62
13
 10
6368.384
 20
-8436.724
 30
-436.000
 70
    32
  0
VERTEX
  8
M57LXLIFT
 62
13
 10
6388.318
 20
-8455.483
 30
-436.000
 70
    32
  0
VERTEX
  8
M57LXLIFT
 62
13
 10
6397.355
 20
-8458.554
 30
-436.000
 70
    32
  0
VERTEX
  8
M57LXLIFT
 62
13
 10
6403.498
 20
-8464.521
 30
-436.000
 70
    32
  0
VERTEX
  8
M57LXLIFT
 62
13
 10
6402.093
 20
-8474.188
 30
-436.000
 70
    32
  0
VERTEX
  8
M57LXLIFT
 62
13
 10
6391.141
 20
-8480.833
 30
-436.000
 70
    32
  0
VERTEX
  8
M57LXLIFT
 62
13
 10
6381.690
 20
-8480.908
 30
-436.000
 70
    32
  0
VERTEX
  8
M57LXLIFT
 62
13
 10
6369.506
 20
-8477.423
 30
-436.000
 70
    32
  0
VERTEX
  8
M57LXLIFT
 62
13
 10
6363.800
 20
-8471.900
 30
-436.000
 70
    32
  0
VERTEX
  8
M57LXLIFT
 62
13
 10
6351.412
 20
-8453.594
 30
-436.000
 70
    32
  0
VERTEX
  8
M57LXLIFT
 62
13
 10
6343.991
 20
-8442.776
 30
-436.000
 70
    32
  0
SEQEND
  8
M57LXLIFT
  0
POLYLINE
  8
M57LXLIFT
 62
13
 66
     1
 70
     9
  0
VERTEX
  8
M57LXLIFT
 62
13
 10
6404.254
 20
-8475.624
 30
-449.000
 70
    32
  0
VERTEX
  8
M57LXLIFT
 62
13
 10
6394.211
 20
-8483.483
 30
-449.000
 70
    32
  0
VERTEX
  8
M57LXLIFT
 62
13
 10
6385.876
 20
-8482.479
 30
-449.000
 70
    32
  0
VERTEX
  8
M57LXLIFT
 62
13
 10
6380.811
 20
-8481.440
 30
-449.000
 70
    32
  0
VERTEX
  8
M57LXLIFT
 62
13
 10
6371.035
 20
-8474.703
 30
-449.000
 70
    32
  0
VERTEX
  8
M57LXLIFT
 62
13
 10
6358.885
 20
-8469.196
 30
-449.000
 70
    32
  0
VERTEX
  8
M57LXLIFT
 62
13
 10
6357.779
 20
-8462.443
 30
-449.000
 70
    32
  0
VERTEX
  8
M57LXLIFT
 62
13
 10
6351.995
 20
-8455.900
 30
-449.000
 70
    32
  0
VERTEX
  8
M57LXLIFT
 62
13
 10
6351.363
 20
-8447.143
 30
-449.000
 70
    32
  0
VERTEX
  8
M57LXLIFT
 62
13
 10
6358.206
 20
-8438.826
 30
-449.000
 70
    32
  0
VERTEX
  8
M57LXLIFT
 62
13
 10
6373.223
 20
-8443.613
 30
-449.000
 70
    32
  0
VERTEX
  8
M57LXLIFT
 62
13
 10
6397.911
 20
-8450.160
 30
-449.000
 70
    32
  0
VERTEX
  8
M57LXLIFT
 62
13
 10
6407.369
 20
-8460.871
 30
-449.000
 70
    32
  0
SEQEND
  8
M57LXLIFT
  0
POLYLINE
  8
M57LXLIFT
 62
13
 66
     1
 70
     9
  0
VERTEX
  8
M57LXLIFT
 62
13
 10
6398.381
 20
-8510.469
 30
-457.000
 70
    32
  0
VERTEX
  8
M57LXLIFT
 62
13
 10
6402.542
 20
-8490.023
 30
-457.000
 70
    32
  0
VERTEX
  8
M57LXLIFT
 62
13
 10
6413.138
 20
-8464.825
 30
-457.000
 70
    32
  0
VERTEX
  8
M57LXLIFT
 62
13
 10
6413.889
 20
-8458.528
 30
-457.000
 70
    32
  0
VERTEX
  8
M57LXLIFT
 62
13
 10
6408.219
 20
-8451.463
 30
-457.000
 70
    32
  0
VERTEX
  8
M57LXLIFT
 62
13
 10
6396.499
 20
-8448.641
 30
-457.000
 70
    32
  0
VERTEX
  8
M57LXLIFT
 62
13
 10
6391.139
 20
-8439.799
 30
-457.000
 70
    32
  0
VERTEX
  8
M57LXLIFT
 62
13
 10
6377.343
 20
-8432.044
 30
-457.000
 70
    32
  0
VERTEX
  8
M57LXLIFT
 62
13
 10
6370.838
 20
-8436.851
 30
-457.000
 70
    32
  0
VERTEX
  8
M57LXLIFT
 62
13
 10
6371.978
 20
-8454.833
 30
-457.000
 70
    32
  0
VERTEX
  8
M57LXLIFT
 62
13
 10
6368.675
 20
-8465.042
 30
-457.000
 70
    32
  0
VERTEX
  8
M57LXLIFT
 62
13
 10
6373.147
 20
-8476.208
 30
-457.000
 70
    32
  0
VERTEX
  8
M57LXLIFT
 62
13
 10
6377.200
 20
-8488.131
 30
-457.000
 70
    32
  0
VERTEX
  8
M57LXLIFT
 62
13
 10
6380.973
 20
-8495.747
 30
-457.000
 70
    32
  0
VERTEX
  8
M57LXLIFT
 62
13
 10
6385.486
 20
-8508.425
 30
-457.000
 70
    32
  0
VERTEX
  8
M57LXLIFT
 62
13
 10
6386.352
 20
-8514.382
 30
-457.000
 70
    32
  0
SEQEND
  8
M57LXLIFT
  0
POLYLINE
  8
M57LXLIFT
 62
6
 66
     1
 70
     9
  0
VERTEX
  8
M57LXLIFT
 62
6
 10
6432.022
 20
-8412.976
 30
-458.000
 70
    32
  0
VERTEX
  8
M57LXLIFT
 62
6
 10
6429.373
 20
-8395.474
 30
-458.000
 70
    32
  0
VERTEX
  8
M57LXLIFT
 62
6
 10
6428.081
 20
-8379.040
 30
-458.000
 70
    32
  0
VERTEX
  8
M57LXLIFT
 62
6
 10
6428.465
 20
-8359.136
 30
-458.000
 70
    32
  0
VERTEX
  8
M57LXLIFT
 62
6
 10
6428.407
 20
-8348.271
 30
-458.000
 70
    32
  0
VERTEX
  8
M57LXLIFT
 62
6
 10
6426.870
 20
-8341.719
 30
-458.000
 70
    32
  0
VERTEX
  8
M57LXLIFT
 62
6
 10
6430.931
 20
-8317.933
 30
-458.000
 70
    32
  0
VERTEX
  8
M57LXLIFT
 62
6
 10
6431.106
 20
-8308.104
 30
-458.000
 70
    32
  0
VERTEX
  8
M57LXLIFT
 62
6
 10
6425.831
 20
-8303.166
 30
-458.000
 70
    32
  0
VERTEX
  8
M57LXLIFT
 62
6
 10
6406.303
 20
-8304.592
 30
-458.000
 70
    32
  0
VERTEX
  8
M57LXLIFT
 62
6
 10
6406.524
 20
-8312.028
 30
-458.000
 70
    32
  0
VERTEX
  8
M57LXLIFT
 62
6
 10
6409.568
 20
-8317.661
 30
-458.000
 70
    32
  0
VERTEX
  8
M57LXLIFT
 62
6
 10
6400.374
 20
-8336.841
 30
-458.000
 70
    32
  0
VERTEX
  8
M57LXLIFT
 62
6
 10
6397.937
 20
-8357.527
 30
-458.000
 70
    32
  0
VERTEX
  8
M57LXLIFT
 62
6
 10
6412.267
 20
-8405.208
 30
-458.000
 70
    32
  0
VERTEX
  8
M57LXLIFT
 62
6
 10
6415.503
 20
-8414.884
 30
-458.000
 70
    32
  0
SEQEND
  8
M57LXLIFT
  0
POLYLINE
  8
M57LXLIFT
 62
6
 66
     1
 70
     9
  0
VERTEX
  8
M57LXLIFT
 62
6
 10
6404.016
 20
-8344.443
 30
-478.000
 70
    32
  0
VERTEX
  8
M57LXLIFT
 62
6
 10
6414.799
 20
-8336.698
 30
-478.000
 70
    32
  0
VERTEX
  8
M57LXLIFT
 62
6
 10
6425.042
 20
-8332.958
 30
-478.000
 70
    32
  0
VERTEX
  8
M57LXLIFT
 62
6
 10
6434.410
 20
-8326.258
 30
-478.000
 70
    32
  0
VERTEX
  8
M57LXLIFT
 62
6
 10
6441.759
 20
-8319.191
 30
-478.000
 70
    32
  0
VERTEX
  8
M57LXLIFT
 62
6
 10
6441.973
 20
-8311.491
 30
-478.000
 70
    32
  0
VERTEX
  8
M57LXLIFT
 62
6
 10
6439.021
 20
-8306.458
 30
-478.000
 70
    32
  0
VERTEX
  8
M57LXLIFT
 62
6
 10
6425.144
 20
-8304.686
 30
-478.000
 70
    32
  0
VERTEX
  8
M57LXLIFT
 62
6
 10
6411.247
 20
-8315.169
 30
-478.000
 70
    32
  0
VERTEX
  8
M57LXLIFT
 62
6
 10
6410.415
 20
-8320.701
 30
-478.000
 70
    32
  0
VERTEX
  8
M57LXLIFT
 62
6
 10
6408.288
 20
-8330.250
 30
-478.000
 70
    32
  0
VERTEX
  8
M57LXLIFT
 62
6
 10
6400.188
 20
-8338.965
 30
-478.000
 70
    32
  0
SEQEND
  8
M57LXLIFT
  0
POLYLINE
  8
M57LXLIFT
 62
6
 66
     1
 70
     9
  0
VERTEX
  8
M57LXLIFT
 62
6
 10
6401.951
 20
-8331.551
 30
-488.000
 70
    32
  0
VERTEX
  8
M57LXLIFT
 62
6
 10
6406.232
 20
-8325.788
 30
-488.000
 70
    32
  0
VERTEX
  8
M57LXLIFT
 62
6
 10
6407.258
 20
-8318.267
 30
-488.000
 70
    32
  0
VERTEX
  8
M57LXLIFT
 62
6
 10
6429.812
 20
-8301.269
 30
-488.000
 70
    32
  0
VERTEX
  8
M57LXLIFT
 62
6
 10
6438.179
 20
-8302.110
 30
-488.000
 70
    32
  0
VERTEX
  8
M57LXLIFT
 62
6
 10
6445.365
 20
-8311.895
 30
-488.000
 70
    32
  0
VERTEX
  8
M57LXLIFT
 62
6
 10
6442.853
 20
-8318.433
 30
-488.000
 70
    32
  0
VERTEX
  8
M57LXLIFT
 62
6
 10
6430.120
 20
-8331.713
 30
-488.000
 70
    32
  0
VERTEX
  8
M57LXLIFT
 62
6
 10
6408.806
 20
-8341.034
 30
-488.000
 70
    32
  0
SEQEND
  8
M57LXLIFT
  0
POLYLINE
  8
M57LXLIFT
 62
3
 66
     1
 70
     9
  0
VERTEX
  8
M57LXLIFT
 62
3
 10
6377.378
 20
-8173.788
 30
-405.000
 70
    32
  0
VERTEX
  8
M57LXLIFT
 62
3
 10
6369.518
 20
-8172.048
 30
-405.000
 70
    32
  0
VERTEX
  8
M57LXLIFT
 62
3
 10
6359.103
 20
-8173.514
 30
-405.000
 70
    32
  0
VERTEX
  8
M57LXLIFT
 62
3
 10
6356.008
 20
-8175.696
 30
-405.000
 70
    32
  0
VERTEX
  8
M57LXLIFT
 62
3
 10
6357.175
 20
-8186.003
 30
-405.000
 70
    32
  0
VERTEX
  8
M57LXLIFT
 62
3
 10
6362.461
 20
-8196.548
 30
-405.000
 70
    32
  0
VERTEX
  8
M57LXLIFT
 62
3
 10
6361.251
 20
-8212.669
 30
-405.000
 70
    32
  0
VERTEX
  8
M57LXLIFT
 62
3
 10
6354.782
 20
-8227.753
 30
-405.000
 70
    32
  0
VERTEX
  8
M57LXLIFT
 62
3
 10
6348.408
 20
-8238.823
 30
-405.000
 70
    32
  0
VERTEX
  8
M57LXLIFT
 62
3
 10
6348.580
 20
-8250.745
 30
-405.000
 70
    32
  0
VERTEX
  8
M57LXLIFT
 62
3
 10
6337.776
 20
-8283.057
 30
-405.000
 70
    32
  0
VERTEX
  8
M57LXLIFT
 62
3
 10
6329.304
 20
-8303.129
 30
-405.000
 70
    32
  0
VERTEX
  8
M57LXLIFT
 62
3
 10
6331.701
 20
-8319.536
 30
-405.000
 70
    32
  0
VERTEX
  8
M57LXLIFT
 62
3
 10
6339.897
 20
-8332.089
 30
-405.000
 70
    32
  0
VERTEX
  8
M57LXLIFT
 62
3
 10
6347.003
 20
-8330.444
 30
-405.000
 70
    32
  0
VERTEX
  8
M57LXLIFT
 62
3
 10
6350.663
 20
-8325.326
 30
-405.000
 70
    32
  0
VERTEX
  8
M57LXLIFT
 62
3
 10
6348.332
 20
-8315.222
 30
-405.000
 70
    32
  0
VERTEX
  8
M57LXLIFT
 62
3
 10
6352.408
 20
-8302.676
 30
-405.000
 70
    32
  0
VERTEX
  8
M57LXLIFT
 62
3
 10
6357.786
 20
-8290.261
 30
-405.000
 70
    32
  0
VERTEX
  8
M57LXLIFT
 62
3
 10
6359.560
 20
-8282.595
 30
-405.000
 70
    32
  0
VERTEX
  8
M57LXLIFT
 62
3
 10
6369.314
 20
-8268.694
 30
-405.000
 70
    32
  0
VERTEX
  8
M57LXLIFT
 62
3
 10
6367.300
 20
-8244.665
 30
-405.000
 70
    32
  0
VERTEX
  8
M57LXLIFT
 62
3
 10
6376.595
 20
-8230.884
 30
-405.000
 70
    32
  0
VERTEX
  8
M57LXLIFT
 62
3
 10
6384.817
 20
-8222.607
 30
-405.000
 70
    32
  0
VERTEX
  8
M57LXLIFT
 62
3
 10
6385.937
 20
-8212.578
 30
-405.000
 70
    32
  0
VERTEX
  8
M57LXLIFT
 62
3
 10
6382.473
 20
-8197.836
 30
-405.000
 70
    32
  0
VERTEX
  8
M57LXLIFT
 62
3
 10
6381.859
 20
-8186.353
 30
-405.000
 70
    32
  0
SEQEND
  8
M57LXLIFT
  0
POLYLINE
  8
M57LXLIFT
 62
1
 66
     1
 70
     9
  0
VERTEX
  8
M57LXLIFT
 62
1
 10
6376.155
 20
-8227.785
 30
-385.000
 70
    32
  0
VERTEX
  8
M57LXLIFT
 62
1
 10
6370.413
 20
-8235.258
 30
-385.000
 70
    32
  0
VERTEX
  8
M57LXLIFT
 62
1
 10
6350.599
 20
-8250.376
 30
-385.000
 70
    32
  0
VERTEX
  8
M57LXLIFT
 62
1
 10
6346.939
 20
-8256.515
 30
-385.000
 70
    32
  0
VERTEX
  8
M57LXLIFT
 62
1
 10
6349.513
 20
-8277.780
 30
-385.000
 70
    32
  0
VERTEX
  8
M57LXLIFT
 62
1
 10
6352.353
 20
-8298.957
 30
-385.000
 70
    32
  0
VERTEX
  8
M57LXLIFT
 62
1
 10
6350.452
 20
-8313.343
 30
-385.000
 70
    32
  0
VERTEX
  8
M57LXLIFT
 62
1
 10
6352.223
 20
-8324.549
 30
-385.000
 70
    32
  0
VERTEX
  8
M57LXLIFT
 62
1
 10
6348.300
 20
-8329.894
 30
-385.000
 70
    32
  0
VERTEX
  8
M57LXLIFT
 62
1
 10
6342.629
 20
-8329.951
 30
-385.000
 70
    32
  0
VERTEX
  8
M57LXLIFT
 62
1
 10
6337.220
 20
-8322.999
 30
-385.000
 70
    32
  0
VERTEX
  8
M57LXLIFT
 62
1
 10
6331.956
 20
-8299.456
 30
-385.000
 70
    32
  0
VERTEX
  8
M57LXLIFT
 62
1
 10
6334.607
 20
-8287.697
 30
-385.000
 70
    32
  0
VERTEX
  8
M57LXLIFT
 62
1
 10
6334.080
 20
-8272.266
 30
-385.000
 70
    32
  0
VERTEX
  8
M57LXLIFT
 62
1
 10
6338.441
 20
-8267.362
 30
-385.000
 70
    32
  0
VERTEX
  8
M57LXLIFT
 62
1
 10
6336.645
 20
-8259.802
 30
-385.000
 70
    32
  0
VERTEX
  8
M57LXLIFT
 62
1
 10
6346.816
 20
-8240.892
 30
-385.000
 70
    32
  0
VERTEX
  8
M57LXLIFT
 62
1
 10
6358.074
 20
-8224.467
 30
-385.000
 70
    32
  0
VERTEX
  8
M57LXLIFT
 62
1
 10
6359.752
 20
-8215.083
 30
-385.000
 70
    32
  0
VERTEX
  8
M57LXLIFT
 62
1
 10
6364.306
 20
-8210.585
 30
-385.000
 70
    32
  0
VERTEX
  8
M57LXLIFT
 62
1
 10
6375.038
 20
-8208.179
 30
-385.000
 70
    32
  0
SEQEND
  8
M57LXLIFT
  0
POLYLINE
  8
M57LXLIFT
 62
3
 66
     1
 70
     9
  0
VERTEX
  8
M57LXLIFT
 62
3
 10
6374.038
 20
-8209.179
 30
-395.000
 70
    32
  0
VERTEX
  8
M57LXLIFT
 62
3
 10
6363.306
 20
-8211.585
 30
-395.000
 70
    32
  0
VERTEX
  8
M57LXLIFT
 62
3
 10
6358.752
 20
-8216.083
 30
-395.000
 70
    32
  0
VERTEX
  8
M57LXLIFT
 62
3
 10
6357.074
 20
-8225.467
 30
-395.000
 70
    32
  0
VERTEX
  8
M57LXLIFT
 62
3
 10
6345.816
 20
-8241.892
 30
-395.000
 70
    32
  0
VERTEX
  8
M57LXLIFT
 62
3
 10
6335.645
 20
-8260.802
 30
-395.000
 70
    32
  0
VERTEX
  8
M57LXLIFT
 62
3
 10
6337.441
 20
-8268.362
 30
-395.000
 70
    32
  0
VERTEX
  8
M57LXLIFT
 62
3
 10
6333.080
 20
-8273.266
 30
-395.000
 70
    32
  0
VERTEX
  8
M57LXLIFT
 62
3
 10
6333.607
 20
-8288.697
 30
-395.000
 70
    32
  0
VERTEX
  8
M57LXLIFT
 62
3
 10
6330.956
 20
-8300.456
 30
-395.000
 70
    32
  0
VERTEX
  8
M57LXLIFT
 62
3
 10
6336.220
 20
-8323.999
 30
-395.000
 70
    32
  0
VERTEX
  8
M57LXLIFT
 62
3
 10
6341.629
 20
-8330.951
 30
-395.000
 70
    32
  0
VERTEX
  8
M57LXLIFT
 62
3
 10
6347.300
 20
-8330.894
 30
-395.000
 70
    32
  0
VERTEX
  8
M57LXLIFT
 62
3
 10
6351.223
 20
-8325.549
 30
-395.000
 70
    32
  0
VERTEX
  8
M57LXLIFT
 62
3
 10
6349.452
 20
-8314.343
 30
-395.000
 70
    32
  0
VERTEX
  8
M57LXLIFT
 62
3
 10
6351.353
 20
-8299.957
 30
-395.000
 70
    32
  0
VERTEX
  8
M57LXLIFT
 62
3
 10
6348.513
 20
-8278.780
 30
-395.000
 70
    32
  0
VERTEX
  8
M57LXLIFT
 62
3
 10
6345.939
 20
-8257.515
 30
-395.000
 70
    32
  0
VERTEX
  8
M57LXLIFT
 62
3
 10
6349.599
 20
-8251.376
 30
-395.000
 70
    32
  0
VERTEX
  8
M57LXLIFT
 62
3
 10
6369.413
 20
-8236.258
 30
-395.000
 70
    32
  0
VERTEX
  8
M57LXLIFT
 62
3
 10
6375.155
 20
-8228.785
 30
-395.000
 70
    32
  0
SEQEND
  8
M57LXLIFT
  0
POLYLINE
  8
M57LXLIFT
 62
3
 66
     1
 70
     9
  0
VERTEX
  8
M57LXLIFT
 62
3
 10
6389.404
 20
-8303.225
 30
-438.000
 70
    32
  0
VERTEX
  8
M57LXLIFT
 62
3
 10
6398.865
 20
-8291.886
 30
-438.000
 70
    32
  0
VERTEX
  8
M57LXLIFT
 62
3
 10
6398.578
 20
-8278.437
 30
-438.000
 70
    32
  0
VERTEX
  8
M57LXLIFT
 62
3
 10
6403.239
 20
-8262.657
 30
-438.000
 70
    32
  0
VERTEX
  8
M57LXLIFT
 62
3
 10
6401.608
 20
-8241.893
 30
-438.000
 70
    32
  0
VERTEX
  8
M57LXLIFT
 62
3
 10
6401.884
 20
-8216.447
 30
-438.000
 70
    32
  0
VERTEX
  8
M57LXLIFT
 62
3
 10
6407.647
 20
-8203.351
 30
-438.000
 70
    32
  0
VERTEX
  8
M57LXLIFT
 62
3
 10
6397.234
 20
-8188.617
 30
-438.000
 70
    32
  0
VERTEX
  8
M57LXLIFT
 62
3
 10
6390.549
 20
-8176.275
 30
-438.000
 70
    32
  0
VERTEX
  8
M57LXLIFT
 62
3
 10
6379.564
 20
-8180.649
 30
-438.000
 70
    32
  0
VERTEX
  8
M57LXLIFT
 62
3
 10
6371.490
 20
-8188.234
 30
-438.000
 70
    32
  0
VERTEX
  8
M57LXLIFT
 62
3
 10
6367.245
 20
-8198.791
 30
-438.000
 70
    32
  0
VERTEX
  8
M57LXLIFT
 62
3
 10
6363.270
 20
-8200.516
 30
-438.000
 70
    32
  0
VERTEX
  8
M57LXLIFT
 62
3
 10
6365.667
 20
-8214.159
 30
-438.000
 70
    32
  0
VERTEX
  8
M57LXLIFT
 62
3
 10
6369.698
 20
-8224.085
 30
-438.000
 70
    32
  0
VERTEX
  8
M57LXLIFT
 62
3
 10
6370.706
 20
-8233.615
 30
-438.000
 70
    32
  0
VERTEX
  8
M57LXLIFT
 62
3
 10
6366.678
 20
-8251.443
 30
-438.000
 70
    32
  0
VERTEX
  8
M57LXLIFT
 62
3
 10
6368.976
 20
-8262.427
 30
-438.000
 70
    32
  0
VERTEX
  8
M57LXLIFT
 62
3
 10
6369.874
 20
-8278.486
 30
-438.000
 70
    32
  0
VERTEX
  8
M57LXLIFT
 62
3
 10
6373.651
 20
-8289.254
 30
-438.000
 70
    32
  0
VERTEX
  8
M57LXLIFT
 62
3
 10
6378.254
 20
-8296.246
 30
-438.000
 70
    32
  0
VERTEX
  8
M57LXLIFT
 62
3
 10
6378.338
 20
-8300.664
 30
-438.000
 70
    32
  0
SEQEND
  8
M57LXLIFT
  0
POLYLINE
  8
M57LXLIFT
 62
3
 66
     1
 70
     9
  0
VERTEX
  8
M57LXLIFT
 62
3
 10
6395.873
 20
-8189.599
 30
-447.000
 70
    32
  0
VERTEX
  8
M57LXLIFT
 62
3
 10
6409.500
 20
-8196.197
 30
-447.000
 70
    32
  0
VERTEX
  8
M57LXLIFT
 62
3
 10
6411.521
 20
-8202.704
 30
-447.000
 70
    32
  0
VERTEX
  8
M57LXLIFT
 62
3
 10
6408.214
 20
-8210.898
 30
-447.000
 70
    32
  0
VERTEX
  8
M57LXLIFT
 62
3
 10
6405.169
 20
-8220.762
 30
-447.000
 70
    32
  0
VERTEX
  8
M57LXLIFT
 62
3
 10
6405.078
 20
-8236.765
 30
-447.000
 70
    32
  0
VERTEX
  8
M57LXLIFT
 62
3
 10
6409.014
 20
-8250.517
 30
-447.000
 70
    32
  0
VERTEX
  8
M57LXLIFT
 62
3
 10
6407.904
 20
-8261.349
 30
-447.000
 70
    32
  0
VERTEX
  8
M57LXLIFT
 62
3
 10
6405.106
 20
-8271.249
 30
-447.000
 70
    32
  0
VERTEX
  8
M57LXLIFT
 62
3
 10
6394.147
 20
-8288.146
 30
-447.000
 70
    32
  0
VERTEX
  8
M57LXLIFT
 62
3
 10
6391.665
 20
-8295.831
 30
-447.000
 70
    32
  0
VERTEX
  8
M57LXLIFT
 62
3
 10
6388.147
 20
-8301.105
 30
-447.000
 70
    32
  0
VERTEX
  8
M57LXLIFT
 62
3
 10
6375.943
 20
-8300.364
 30
-447.000
 70
    32
  0
VERTEX
  8
M57LXLIFT
 62
3
 10
6376.299
 20
-8281.196
 30
-447.000
 70
    32
  0
VERTEX
  8
M57LXLIFT
 62
3
 10
6379.414
 20
-8268.202
 30
-447.000
 70
    32
  0
VERTEX
  8
M57LXLIFT
 62
3
 10
6381.967
 20
-8255.629
 30
-447.000
 70
    32
  0
VERTEX
  8
M57LXLIFT
 62
3
 10
6381.072
 20
-8247.399
 30
-447.000
 70
    32
  0
VERTEX
  8
M57LXLIFT
 62
3
 10
6376.205
 20
-8225.662
 30
-447.000
 70
    32
  0
VERTEX
  8
M57LXLIFT
 62
3
 10
6372.672
 20
-8219.190
 30
-447.000
 70
    32
  0
VERTEX
  8
M57LXLIFT
 62
3
 10
6379.163
 20
-8212.017
 30
-447.000
 70
    32
  0
VERTEX
  8
M57LXLIFT
 62
3
 10
6378.268
 20
-8200.270
 30
-447.000
 70
    32
  0
VERTEX
  8
M57LXLIFT
 62
3
 10
6384.037
 20
-8195.945
 30
-447.000
 70
    32
  0
SEQEND
  8
M57LXLIFT
  0
POLYLINE
  8
M57LXLIFT
 62
3
 66
     1
 70
     9
  0
VERTEX
  8
M57LXLIFT
 62
3
 10
6415.548
 20
-8199.767
 30
-508.000
 70
    32
  0
VERTEX
  8
M57LXLIFT
 62
3
 10
6411.270
 20
-8203.001
 30
-508.000
 70
    32
  0
VERTEX
  8
M57LXLIFT
 62
3
 10
6411.496
 20
-8205.992
 30
-508.000
 70
    32
  0
VERTEX
  8
M57LXLIFT
 62
3
 10
6417.308
 20
-8213.502
 30
-508.000
 70
    32
  0
VERTEX
  8
M57LXLIFT
 62
3
 10
6420.029
 20
-8216.631
 30
-508.000
 70
    32
  0
VERTEX
  8
M57LXLIFT
 62
3
 10
6420.462
 20
-8219.906
 30
-508.000
 70
    32
  0
VERTEX
  8
M57LXLIFT
 62
3
 10
6415.118
 20
-8219.891
 30
-508.000
 70
    32
  0
VERTEX
  8
M57LXLIFT
 62
3
 10
6412.759
 20
-8222.921
 30
-508.000
 70
    32
  0
VERTEX
  8
M57LXLIFT
 62
3
 10
6417.395
 20
-8230.310
 30
-508.000
 70
    32
  0
VERTEX
  8
M57LXLIFT
 62
3
 10
6425.127
 20
-8234.785
 30
-508.000
 70
    32
  0
VERTEX
  8
M57LXLIFT
 62
3
 10
6438.405
 20
-8239.998
 30
-508.000
 70
    32
  0
VERTEX
  8
M57LXLIFT
 62
3
 10
6448.688
 20
-8249.903
 30
-508.000
 70
    32
  0
VERTEX
  8
M57LXLIFT
 62
3
 10
6455.564
 20
-8249.778
 30
-508.000
 70
    32
  0
VERTEX
  8
M57LXLIFT
 62
3
 10
6462.364
 20
-8241.654
 30
-508.000
 70
    32
  0
VERTEX
  8
M57LXLIFT
 62
3
 10
6450.627
 20
-8231.397
 30
-508.000
 70
    32
  0
VERTEX
  8
M57LXLIFT
 62
3
 10
6437.518
 20
-8223.883
 30
-508.000
 70
    32
  0
VERTEX
  8
M57LXLIFT
 62
3
 10
6428.027
 20
-8215.360
 30
-508.000
 70
    32
  0
VERTEX
  8
M57LXLIFT
 62
3
 10
6428.510
 20
-8211.850
 30
-508.000
 70
    32
  0
SEQEND
  8
M57LXLIFT
  0
POLYLINE
  8
M57LXLIFT
 62
3
 66
     1
 70
     9
  0
VERTEX
  8
M57LXLIFT
 62
3
 10
6396.576
 20
-8225.295
 30
-519.283
 70
    32
  0
VERTEX
  8
M57LXLIFT
 62
3
 10
6404.664
 20
-8221.200
 30
-519.293
 70
    32
  0
VERTEX
  8
M57LXLIFT
 62
3
 10
6410.961
 20
-8222.464
 30
-519.304
 70
    32
  0
VERTEX
  8
M57LXLIFT
 62
3
 10
6418.517
 20
-8220.391
 30
-519.315
 70
    32
  0
VERTEX
  8
M57LXLIFT
 62
3
 10
6436.028
 20
-8229.582
 30
-519.352
 70
    32
  0
VERTEX
  8
M57LXLIFT
 62
3
 10
6445.207
 20
-8231.785
 30
-519.369
 70
    32
  0
VERTEX
  8
M57LXLIFT
 62
3
 10
6458.375
 20
-8228.417
 30
-519.388
 70
    32
  0
VERTEX
  8
M57LXLIFT
 62
3
 10
6462.915
 20
-8224.630
 30
-519.392
 70
    32
  0
VERTEX
  8
M57LXLIFT
 62
3
 10
6470.760
 20
-8235.261
 30
-519.414
 70
    32
  0
VERTEX
  8
M57LXLIFT
 62
3
 10
6461.481
 20
-8239.152
 30
-519.402
 70
    32
  0
VERTEX
  8
M57LXLIFT
 62
3
 10
6454.219
 20
-8250.970
 30
-519.400
 70
    32
  0
VERTEX
  8
M57LXLIFT
 62
3
 10
6446.459
 20
-8249.800
 30
-519.386
 70
    32
  0
VERTEX
  8
M57LXLIFT
 62
3
 10
6439.351
 20
-8253.074
 30
-519.377
 70
    32
  0
VERTEX
  8
M57LXLIFT
 62
3
 10
6434.529
 20
-8247.875
 30
-519.365
 70
    32
  0
VERTEX
  8
M57LXLIFT
 62
3
 10
6431.447
 20
-8247.851
 30
-519.360
 70
    32
  0
VERTEX
  8
M57LXLIFT
 62
3
 10
6417.265
 20
-8254.093
 30
-519.342
 70
    32
  0
SEQEND
  8
M57LXLIFT
  0
POLYLINE
  8
M57LXLIFT
 62
1
 66
     1
 70
     9
  0
VERTEX
  8
M57LXLIFT
 62
1
 10
6390.546
 20
-8482.333
 30
-417.000
 70
    32
  0
VERTEX
  8
M57LXLIFT
 62
1
 10
6383.923
 20
-8484.812
 30
-417.000
 70
    32
  0
VERTEX
  8
M57LXLIFT
 62
1
 10
6379.805
 20
-8481.418
 30
-417.000
 70
    32
  0
VERTEX
  8
M57LXLIFT
 62
1
 10
6358.102
 20
-8473.905
 30
-417.000
 70
    32
  0
VERTEX
  8
M57LXLIFT
 62
1
 10
6351.947
 20
-8464.325
 30
-417.000
 70
    32
  0
VERTEX
  8
M57LXLIFT
 62
1
 10
6344.475
 20
-8458.836
 30
-417.000
 70
    32
  0
VERTEX
  8
M57LXLIFT
 62
1
 10
6336.243
 20
-8449.284
 30
-417.000
 70
    32
  0
VERTEX
  8
M57LXLIFT
 62
1
 10
6335.467
 20
-8441.702
 30
-417.000
 70
    32
  0
VERTEX
  8
M57LXLIFT
 62
1
 10
6338.590
 20
-8429.067
 30
-417.000
 70
    32
  0
VERTEX
  8
M57LXLIFT
 62
1
 10
6339.966
 20
-8419.081
 30
-417.000
 70
    32
  0
VERTEX
  8
M57LXLIFT
 62
1
 10
6354.524
 20
-8412.356
 30
-417.000
 70
    32
  0
VERTEX
  8
M57LXLIFT
 62
1
 10
6363.643
 20
-8412.734
 30
-417.000
 70
    32
  0
VERTEX
  8
M57LXLIFT
 62
1
 10
6375.302
 20
-8417.921
 30
-417.000
 70
    32
  0
VERTEX
  8
M57LXLIFT
 62
1
 10
6382.935
 20
-8434.551
 30
-417.000
 70
    32
  0
VERTEX
  8
M57LXLIFT
 62
1
 10
6383.497
 20
-8445.055
 30
-417.000
 70
    32
  0
VERTEX
  8
M57LXLIFT
 62
1
 10
6386.522
 20
-8448.173
 30
-417.000
 70
    32
  0
VERTEX
  8
M57LXLIFT
 62
1
 10
6392.997
 20
-8469.103
 30
-417.000
 70
    32
  0
VERTEX
  8
M57LXLIFT
 62
1
 10
6399.022
 20
-8473.702
 30
-417.000
 70
    32
  0
SEQEND
  8
M57LXLIFT
  0
POLYLINE
  8
M57LXLIFT
 62
13
 66
     1
 70
     9
  0
VERTEX
  8
M57LXLIFT
 62
13
 10
6435.254
 20
-8433.294
 30
-519.523
 70
    32
  0
VERTEX
  8
M57LXLIFT
 62
13
 10
6430.466
 20
-8442.946
 30
-519.523
 70
    32
  0
VERTEX
  8
M57LXLIFT
 62
13
 10
6432.284
 20
-8443.225
 30
-519.526
 70
    32
  0
VERTEX
  8
M57LXLIFT
 62
13
 10
6438.119
 20
-8455.177
 30
-519.546
 70
    32
  0
VERTEX
  8
M57LXLIFT
 62
13
 10
6441.891
 20
-8473.516
 30
-519.568
 70
    32
  0
VERTEX
  8
M57LXLIFT
 62
13
 10
6450.593
 20
-8488.493
 30
-519.595
 70
    32
  0
VERTEX
  8
M57LXLIFT
 62
13
 10
6447.523
 20
-8496.933
 30
-519.597
 70
    32
  0
VERTEX
  8
M57LXLIFT
 62
13
 10
6437.995
 20
-8500.774
 30
-519.585
 70
    32
  0
VERTEX
  8
M57LXLIFT
 62
13
 10
6425.434
 20
-8487.782
 30
-519.553
 70
    32
  0
VERTEX
  8
M57LXLIFT
 62
13
 10
6416.854
 20
-8463.886
 30
-519.518
 70
    32
  0
VERTEX
  8
M57LXLIFT
 62
13
 10
6416.939
 20
-8457.653
 30
-519.513
 70
    32
  0
VERTEX
  8
M57LXLIFT
 62
13
 10
6413.366
 20
-8452.717
 30
-519.503
 70
    32
  0
VERTEX
  8
M57LXLIFT
 62
13
 10
6413.287
 20
-8448.983
 30
-519.500
 70
    32
  0
VERTEX
  8
M57LXLIFT
 62
13
 10
6413.186
 20
-8438.185
 30
-519.491
 70
    32
  0
VERTEX
  8
M57LXLIFT
 62
13
 10
6413.526
 20
-8429.460
 30
-519.484
 70
    32
  0
VERTEX
  8
M57LXLIFT
 62
13
 10
6414.825
 20
-8425.295
 30
-519.482
 70
    32
  0
VERTEX
  8
M57LXLIFT
 62
13
 10
6418.348
 20
-8421.453
 30
-519.485
 70
    32
  0
VERTEX
  8
M57LXLIFT
 62
13
 10
6422.941
 20
-8420.669
 30
-519.492
 70
    32
  0
VERTEX
  8
M57LXLIFT
 62
13
 10
6430.020
 20
-8426.344
 30
-519.508
 70
    32
  0
SEQEND
  8
M57LXLIFT
  0
POLYLINE
  8
M57LXLIFT
 62
1
 66
     1
 70
     9
  0
VERTEX
  8
M57LXLIFT
 62
1
 10
6472.595
 20
-7808.123
 30
-362.000
 70
    32
  0
VERTEX
  8
M57LXLIFT
 62
1
 10
6480.729
 20
-7817.355
 30
-362.000
 70
    32
  0
VERTEX
  8
M57LXLIFT
 62
1
 10
6485.582
 20
-7824.278
 30
-362.000
 70
    32
  0
VERTEX
  8
M57LXLIFT
 62
1
 10
6512.981
 20
-7838.013
 30
-362.000
 70
    32
  0
VERTEX
  8
M57LXLIFT
 62
1
 10
6519.685
 20
-7843.284
 30
-362.000
 70
    32
  0
VERTEX
  8
M57LXLIFT
 62
1
 10
6515.673
 20
-7850.386
 30
-362.000
 70
    32
  0
VERTEX
  8
M57LXLIFT
 62
1
 10
6516.397
 20
-7860.919
 30
-362.000
 70
    32
  0
VERTEX
  8
M57LXLIFT
 62
1
 10
6514.687
 20
-7867.454
 30
-362.000
 70
    32
  0
VERTEX
  8
M57LXLIFT
 62
1
 10
6523.017
 20
-7877.411
 30
-362.000
 70
    32
  0
VERTEX
  8
M57LXLIFT
 62
1
 10
6515.454
 20
-7885.757
 30
-362.000
 70
    32
  0
VERTEX
  8
M57LXLIFT
 62
1
 10
6511.441
 20
-7897.844
 30
-362.000
 70
    32
  0
VERTEX
  8
M57LXLIFT
 62
1
 10
6501.289
 20
-7906.962
 30
-362.000
 70
    32
  0
VERTEX
  8
M57LXLIFT
 62
1
 10
6486.540
 20
-7908.758
 30
-362.000
 70
    32
  0
VERTEX
  8
M57LXLIFT
 62
1
 10
6484.362
 20
-7904.359
 30
-362.000
 70
    32
  0
VERTEX
  8
M57LXLIFT
 62
1
 10
6484.134
 20
-7902.680
 30
-362.000
 70
    32
  0
VERTEX
  8
M57LXLIFT
 62
1
 10
6482.155
 20
-7900.524
 30
-362.000
 70
    32
  0
VERTEX
  8
M57LXLIFT
 62
1
 10
6474.787
 20
-7902.337
 30
-362.000
 70
    32
  0
VERTEX
  8
M57LXLIFT
 62
1
 10
6474.588
 20
-7887.094
 30
-362.000
 70
    32
  0
VERTEX
  8
M57LXLIFT
 62
1
 10
6471.702
 20
-7869.008
 30
-362.000
 70
    32
  0
VERTEX
  8
M57LXLIFT
 62
1
 10
6470.546
 20
-7850.767
 30
-362.000
 70
    32
  0
VERTEX
  8
M57LXLIFT
 62
1
 10
6471.650
 20
-7837.190
 30
-362.000
 70
    32
  0
VERTEX
  8
M57LXLIFT
 62
1
 10
6473.643
 20
-7823.191
 30
-362.000
 70
    32
  0
VERTEX
  8
M57LXLIFT
 62
1
 10
6466.674
 20
-7812.259
 30
-362.000
 70
    32
  0
SEQEND
  8
M57LXLIFT
  0
ENDSEC
  0
EOF
