999
********************************
999
*   DXF File - Entities Only   *
999
*        3D Data Format        *
999
*     Output from ENVISAGE     *
999
*     31-Dec-2007 15:30:22     *
999
********************************
  0
SECTION 
  2
HEADER
  9
$ACADVER
  1
AC1009
  9
$EXTMIN
 10
-290000.000
 20
-250000.000
 30
-4000.000
  9
$EXTMAX
 10
320000.000
 20
160000.000
 30
6000.000
  0
ENDSEC
  0
SECTION
  2
ENTITIES
  0
POLYLINE
  8
M59LXLIFT
 62
6
 66
     1
 70
     9
  0
VERTEX
  8
M59LXLIFT
 62
6
 10
6829.531
 20
-7994.490
 30
-647.000
 70
    32
  0
VERTEX
  8
M59LXLIFT
 62
6
 10
6806.453
 20
-7992.701
 30
-647.000
 70
    32
  0
VERTEX
  8
M59LXLIFT
 62
6
 10
6801.940
 20
-7990.306
 30
-647.000
 70
    32
  0
VERTEX
  8
M59LXLIFT
 62
6
 10
6794.951
 20
-7979.746
 30
-647.000
 70
    32
  0
VERTEX
  8
M59LXLIFT
 62
6
 10
6783.451
 20
-7976.180
 30
-647.000
 70
    32
  0
VERTEX
  8
M59LXLIFT
 62
6
 10
6770.278
 20
-7979.958
 30
-647.000
 70
    32
  0
VERTEX
  8
M59LXLIFT
 62
6
 10
6764.760
 20
-7992.203
 30
-647.000
 70
    32
  0
VERTEX
  8
M59LXLIFT
 62
6
 10
6762.419
 20
-8004.665
 30
-647.000
 70
    32
  0
VERTEX
  8
M59LXLIFT
 62
6
 10
6762.491
 20
-8015.515
 30
-647.000
 70
    32
  0
VERTEX
  8
M59LXLIFT
 62
6
 10
6762.196
 20
-8025.548
 30
-647.000
 70
    32
  0
VERTEX
  8
M59LXLIFT
 62
6
 10
6775.566
 20
-8040.517
 30
-647.000
 70
    32
  0
VERTEX
  8
M59LXLIFT
 62
6
 10
6785.325
 20
-8049.210
 30
-647.000
 70
    32
  0
VERTEX
  8
M59LXLIFT
 62
6
 10
6790.289
 20
-8061.321
 30
-647.000
 70
    32
  0
VERTEX
  8
M59LXLIFT
 62
6
 10
6796.800
 20
-8057.435
 30
-647.000
 70
    32
  0
VERTEX
  8
M59LXLIFT
 62
6
 10
6795.122
 20
-8049.025
 30
-647.000
 70
    32
  0
VERTEX
  8
M59LXLIFT
 62
6
 10
6809.724
 20
-8035.593
 30
-647.000
 70
    32
  0
VERTEX
  8
M59LXLIFT
 62
6
 10
6815.906
 20
-8023.523
 30
-647.000
 70
    32
  0
VERTEX
  8
M59LXLIFT
 62
6
 10
6821.239
 20
-8012.382
 30
-647.000
 70
    32
  0
VERTEX
  8
M59LXLIFT
 62
6
 10
6825.210
 20
-8005.234
 30
-647.000
 70
    32
  0
SEQEND
  8
M59LXLIFT
  0
POLYLINE
  8
M59LXLIFT
 62
6
 66
     1
 70
     9
  0
VERTEX
  8
M59LXLIFT
 62
6
 10
6792.525
 20
-8072.200
 30
-636.000
 70
    32
  0
VERTEX
  8
M59LXLIFT
 62
6
 10
6796.626
 20
-8052.279
 30
-636.000
 70
    32
  0
VERTEX
  8
M59LXLIFT
 62
6
 10
6799.112
 20
-8037.193
 30
-636.000
 70
    32
  0
VERTEX
  8
M59LXLIFT
 62
6
 10
6822.694
 20
-8026.340
 30
-636.000
 70
    32
  0
VERTEX
  8
M59LXLIFT
 62
6
 10
6827.796
 20
-8005.701
 30
-636.000
 70
    32
  0
VERTEX
  8
M59LXLIFT
 62
6
 10
6826.306
 20
-7995.630
 30
-636.000
 70
    32
  0
VERTEX
  8
M59LXLIFT
 62
6
 10
6815.916
 20
-7984.910
 30
-636.000
 70
    32
  0
VERTEX
  8
M59LXLIFT
 62
6
 10
6814.477
 20
-7974.910
 30
-636.000
 70
    32
  0
VERTEX
  8
M59LXLIFT
 62
6
 10
6794.563
 20
-7974.589
 30
-636.000
 70
    32
  0
VERTEX
  8
M59LXLIFT
 62
6
 10
6782.118
 20
-7969.452
 30
-636.000
 70
    32
  0
VERTEX
  8
M59LXLIFT
 62
6
 10
6764.210
 20
-7982.185
 30
-636.000
 70
    32
  0
VERTEX
  8
M59LXLIFT
 62
6
 10
6761.195
 20
-7998.191
 30
-636.000
 70
    32
  0
VERTEX
  8
M59LXLIFT
 62
6
 10
6765.803
 20
-8014.572
 30
-636.000
 70
    32
  0
VERTEX
  8
M59LXLIFT
 62
6
 10
6775.167
 20
-8039.546
 30
-636.000
 70
    32
  0
VERTEX
  8
M59LXLIFT
 62
6
 10
6777.622
 20
-8057.902
 30
-636.000
 70
    32
  0
VERTEX
  8
M59LXLIFT
 62
6
 10
6785.978
 20
-8073.326
 30
-636.000
 70
    32
  0
SEQEND
  8
M59LXLIFT
  0
POLYLINE
  8
M59LXLIFT
 62
6
 66
     1
 70
     9
  0
VERTEX
  8
M59LXLIFT
 62
6
 10
6754.841
 20
-8014.392
 30
-615.000
 70
    32
  0
VERTEX
  8
M59LXLIFT
 62
6
 10
6771.420
 20
-8022.882
 30
-615.000
 70
    32
  0
VERTEX
  8
M59LXLIFT
 62
6
 10
6780.631
 20
-8048.009
 30
-615.000
 70
    32
  0
VERTEX
  8
M59LXLIFT
 62
6
 10
6777.940
 20
-8054.479
 30
-615.000
 70
    32
  0
VERTEX
  8
M59LXLIFT
 62
6
 10
6778.942
 20
-8058.726
 30
-615.000
 70
    32
  0
VERTEX
  8
M59LXLIFT
 62
6
 10
6778.297
 20
-8061.134
 30
-615.000
 70
    32
  0
VERTEX
  8
M59LXLIFT
 62
6
 10
6783.977
 20
-8062.125
 30
-615.000
 70
    32
  0
VERTEX
  8
M59LXLIFT
 62
6
 10
6790.411
 20
-8056.204
 30
-615.000
 70
    32
  0
VERTEX
  8
M59LXLIFT
 62
6
 10
6794.450
 20
-8037.640
 30
-615.000
 70
    32
  0
VERTEX
  8
M59LXLIFT
 62
6
 10
6810.543
 20
-8024.126
 30
-615.000
 70
    32
  0
VERTEX
  8
M59LXLIFT
 62
6
 10
6820.930
 20
-8004.778
 30
-615.000
 70
    32
  0
VERTEX
  8
M59LXLIFT
 62
6
 10
6809.909
 20
-7987.648
 30
-615.000
 70
    32
  0
VERTEX
  8
M59LXLIFT
 62
6
 10
6785.272
 20
-7983.872
 30
-615.000
 70
    32
  0
VERTEX
  8
M59LXLIFT
 62
6
 10
6777.279
 20
-7986.272
 30
-615.000
 70
    32
  0
VERTEX
  8
M59LXLIFT
 62
6
 10
6763.668
 20
-7981.911
 30
-615.000
 70
    32
  0
VERTEX
  8
M59LXLIFT
 62
6
 10
6751.519
 20
-7975.528
 30
-615.000
 70
    32
  0
VERTEX
  8
M59LXLIFT
 62
6
 10
6745.698
 20
-7962.326
 30
-615.000
 70
    32
  0
VERTEX
  8
M59LXLIFT
 62
6
 10
6739.467
 20
-7967.778
 30
-615.000
 70
    32
  0
VERTEX
  8
M59LXLIFT
 62
6
 10
6742.566
 20
-7977.645
 30
-615.000
 70
    32
  0
VERTEX
  8
M59LXLIFT
 62
6
 10
6749.050
 20
-7981.406
 30
-615.000
 70
    32
  0
VERTEX
  8
M59LXLIFT
 62
6
 10
6753.261
 20
-8004.836
 30
-615.000
 70
    32
  0
SEQEND
  8
M59LXLIFT
  0
POLYLINE
  8
M59LXLIFT
 62
6
 66
     1
 70
     9
  0
VERTEX
  8
M59LXLIFT
 62
6
 10
6791.674
 20
-8048.769
 30
-626.000
 70
    32
  0
VERTEX
  8
M59LXLIFT
 62
6
 10
6791.913
 20
-8041.703
 30
-626.000
 70
    32
  0
VERTEX
  8
M59LXLIFT
 62
6
 10
6802.677
 20
-8029.799
 30
-626.000
 70
    32
  0
VERTEX
  8
M59LXLIFT
 62
6
 10
6811.790
 20
-8020.539
 30
-626.000
 70
    32
  0
VERTEX
  8
M59LXLIFT
 62
6
 10
6815.418
 20
-8013.916
 30
-626.000
 70
    32
  0
VERTEX
  8
M59LXLIFT
 62
6
 10
6817.544
 20
-7989.158
 30
-626.000
 70
    32
  0
VERTEX
  8
M59LXLIFT
 62
6
 10
6815.251
 20
-7979.263
 30
-626.000
 70
    32
  0
VERTEX
  8
M59LXLIFT
 62
6
 10
6804.843
 20
-7968.157
 30
-626.000
 70
    32
  0
VERTEX
  8
M59LXLIFT
 62
6
 10
6794.829
 20
-7967.038
 30
-626.000
 70
    32
  0
VERTEX
  8
M59LXLIFT
 62
6
 10
6778.642
 20
-7968.958
 30
-626.000
 70
    32
  0
VERTEX
  8
M59LXLIFT
 62
6
 10
6765.513
 20
-7973.973
 30
-626.000
 70
    32
  0
VERTEX
  8
M59LXLIFT
 62
6
 10
6759.226
 20
-7989.563
 30
-626.000
 70
    32
  0
VERTEX
  8
M59LXLIFT
 62
6
 10
6768.185
 20
-8004.475
 30
-626.000
 70
    32
  0
VERTEX
  8
M59LXLIFT
 62
6
 10
6770.458
 20
-8014.933
 30
-626.000
 70
    32
  0
VERTEX
  8
M59LXLIFT
 62
6
 10
6775.022
 20
-8038.239
 30
-626.000
 70
    32
  0
VERTEX
  8
M59LXLIFT
 62
6
 10
6776.660
 20
-8051.681
 30
-626.000
 70
    32
  0
VERTEX
  8
M59LXLIFT
 62
6
 10
6779.508
 20
-8059.962
 30
-626.000
 70
    32
  0
VERTEX
  8
M59LXLIFT
 62
6
 10
6786.954
 20
-8058.497
 30
-626.000
 70
    32
  0
SEQEND
  8
M59LXLIFT
  0
POLYLINE
  8
M59LXLIFT
 62
6
 66
     1
 70
     9
  0
VERTEX
  8
M59LXLIFT
 62
6
 10
6745.306
 20
-7984.306
 30
-610.000
 70
    32
  0
VERTEX
  8
M59LXLIFT
 62
6
 10
6760.488
 20
-8005.535
 30
-610.000
 70
    32
  0
VERTEX
  8
M59LXLIFT
 62
6
 10
6784.461
 20
-8033.898
 30
-610.000
 70
    32
  0
VERTEX
  8
M59LXLIFT
 62
6
 10
6783.763
 20
-8049.227
 30
-610.000
 70
    32
  0
VERTEX
  8
M59LXLIFT
 62
6
 10
6782.700
 20
-8062.664
 30
-610.000
 70
    32
  0
VERTEX
  8
M59LXLIFT
 62
6
 10
6788.397
 20
-8061.443
 30
-610.000
 70
    32
  0
VERTEX
  8
M59LXLIFT
 62
6
 10
6790.293
 20
-8047.204
 30
-610.000
 70
    32
  0
VERTEX
  8
M59LXLIFT
 62
6
 10
6792.747
 20
-8033.756
 30
-610.000
 70
    32
  0
VERTEX
  8
M59LXLIFT
 62
6
 10
6800.452
 20
-8021.657
 30
-610.000
 70
    32
  0
VERTEX
  8
M59LXLIFT
 62
6
 10
6808.134
 20
-8015.167
 30
-610.000
 70
    32
  0
VERTEX
  8
M59LXLIFT
 62
6
 10
6803.949
 20
-7993.066
 30
-610.000
 70
    32
  0
VERTEX
  8
M59LXLIFT
 62
6
 10
6791.729
 20
-7991.897
 30
-610.000
 70
    32
  0
VERTEX
  8
M59LXLIFT
 62
6
 10
6778.302
 20
-7987.493
 30
-610.000
 70
    32
  0
VERTEX
  8
M59LXLIFT
 62
6
 10
6767.875
 20
-7982.157
 30
-610.000
 70
    32
  0
VERTEX
  8
M59LXLIFT
 62
6
 10
6760.803
 20
-7972.736
 30
-610.000
 70
    32
  0
VERTEX
  8
M59LXLIFT
 62
6
 10
6756.269
 20
-7970.879
 30
-610.000
 70
    32
  0
SEQEND
  8
M59LXLIFT
  0
POLYLINE
  8
M59LXLIFT
 62
1
 66
     1
 70
     9
  0
VERTEX
  8
M59LXLIFT
 62
1
 10
6780.403
 20
-8010.998
 30
-563.000
 70
    32
  0
VERTEX
  8
M59LXLIFT
 62
1
 10
6784.887
 20
-8018.582
 30
-563.000
 70
    32
  0
VERTEX
  8
M59LXLIFT
 62
1
 10
6791.327
 20
-8023.606
 30
-563.000
 70
    32
  0
VERTEX
  8
M59LXLIFT
 62
1
 10
6793.959
 20
-8030.239
 30
-563.000
 70
    32
  0
VERTEX
  8
M59LXLIFT
 62
1
 10
6792.475
 20
-8043.533
 30
-563.000
 70
    32
  0
VERTEX
  8
M59LXLIFT
 62
1
 10
6788.369
 20
-8056.309
 30
-563.000
 70
    32
  0
VERTEX
  8
M59LXLIFT
 62
1
 10
6782.117
 20
-8068.020
 30
-563.000
 70
    32
  0
VERTEX
  8
M59LXLIFT
 62
1
 10
6777.737
 20
-8066.378
 30
-563.000
 70
    32
  0
VERTEX
  8
M59LXLIFT
 62
1
 10
6779.891
 20
-8045.953
 30
-563.000
 70
    32
  0
VERTEX
  8
M59LXLIFT
 62
1
 10
6768.963
 20
-8032.272
 30
-563.000
 70
    32
  0
VERTEX
  8
M59LXLIFT
 62
1
 10
6767.418
 20
-8023.370
 30
-563.000
 70
    32
  0
VERTEX
  8
M59LXLIFT
 62
1
 10
6758.308
 20
-8011.202
 30
-563.000
 70
    32
  0
VERTEX
  8
M59LXLIFT
 62
1
 10
6748.974
 20
-8008.324
 30
-563.000
 70
    32
  0
VERTEX
  8
M59LXLIFT
 62
1
 10
6746.977
 20
-8004.574
 30
-563.000
 70
    32
  0
VERTEX
  8
M59LXLIFT
 62
1
 10
6759.941
 20
-7992.325
 30
-563.000
 70
    32
  0
VERTEX
  8
M59LXLIFT
 62
1
 10
6773.639
 20
-7994.384
 30
-563.000
 70
    32
  0
SEQEND
  8
M59LXLIFT
  0
POLYLINE
  8
M59LXLIFT
 62
6
 66
     1
 70
     9
  0
VERTEX
  8
M59LXLIFT
 62
6
 10
6772.639
 20
-7995.384
 30
-573.000
 70
    32
  0
VERTEX
  8
M59LXLIFT
 62
6
 10
6758.941
 20
-7993.325
 30
-573.000
 70
    32
  0
VERTEX
  8
M59LXLIFT
 62
6
 10
6745.977
 20
-8005.574
 30
-573.000
 70
    32
  0
VERTEX
  8
M59LXLIFT
 62
6
 10
6747.974
 20
-8009.324
 30
-573.000
 70
    32
  0
VERTEX
  8
M59LXLIFT
 62
6
 10
6757.308
 20
-8012.202
 30
-573.000
 70
    32
  0
VERTEX
  8
M59LXLIFT
 62
6
 10
6766.418
 20
-8024.370
 30
-573.000
 70
    32
  0
VERTEX
  8
M59LXLIFT
 62
6
 10
6767.963
 20
-8033.272
 30
-573.000
 70
    32
  0
VERTEX
  8
M59LXLIFT
 62
6
 10
6778.891
 20
-8046.953
 30
-573.000
 70
    32
  0
VERTEX
  8
M59LXLIFT
 62
6
 10
6776.737
 20
-8067.378
 30
-573.000
 70
    32
  0
VERTEX
  8
M59LXLIFT
 62
6
 10
6781.117
 20
-8069.020
 30
-573.000
 70
    32
  0
VERTEX
  8
M59LXLIFT
 62
6
 10
6787.369
 20
-8057.309
 30
-573.000
 70
    32
  0
VERTEX
  8
M59LXLIFT
 62
6
 10
6791.475
 20
-8044.533
 30
-573.000
 70
    32
  0
VERTEX
  8
M59LXLIFT
 62
6
 10
6792.959
 20
-8031.239
 30
-573.000
 70
    32
  0
VERTEX
  8
M59LXLIFT
 62
6
 10
6790.327
 20
-8024.606
 30
-573.000
 70
    32
  0
VERTEX
  8
M59LXLIFT
 62
6
 10
6783.887
 20
-8019.582
 30
-573.000
 70
    32
  0
VERTEX
  8
M59LXLIFT
 62
6
 10
6779.403
 20
-8011.998
 30
-573.000
 70
    32
  0
SEQEND
  8
M59LXLIFT
  0
POLYLINE
  8
M59LXLIFT
 62
6
 66
     1
 70
     9
  0
VERTEX
  8
M59LXLIFT
 62
6
 10
6750.688
 20
-7995.232
 30
-584.000
 70
    32
  0
VERTEX
  8
M59LXLIFT
 62
6
 10
6750.521
 20
-8005.424
 30
-584.000
 70
    32
  0
VERTEX
  8
M59LXLIFT
 62
6
 10
6748.926
 20
-8011.576
 30
-584.000
 70
    32
  0
VERTEX
  8
M59LXLIFT
 62
6
 10
6755.596
 20
-8022.349
 30
-584.000
 70
    32
  0
VERTEX
  8
M59LXLIFT
 62
6
 10
6758.495
 20
-8033.399
 30
-584.000
 70
    32
  0
VERTEX
  8
M59LXLIFT
 62
6
 10
6768.413
 20
-8033.328
 30
-584.000
 70
    32
  0
VERTEX
  8
M59LXLIFT
 62
6
 10
6773.602
 20
-8043.206
 30
-584.000
 70
    32
  0
VERTEX
  8
M59LXLIFT
 62
6
 10
6774.209
 20
-8067.541
 30
-584.000
 70
    32
  0
VERTEX
  8
M59LXLIFT
 62
6
 10
6781.451
 20
-8065.481
 30
-584.000
 70
    32
  0
VERTEX
  8
M59LXLIFT
 62
6
 10
6780.395
 20
-8054.001
 30
-584.000
 70
    32
  0
VERTEX
  8
M59LXLIFT
 62
6
 10
6785.749
 20
-8045.865
 30
-584.000
 70
    32
  0
VERTEX
  8
M59LXLIFT
 62
6
 10
6787.126
 20
-8043.080
 30
-584.000
 70
    32
  0
VERTEX
  8
M59LXLIFT
 62
6
 10
6784.736
 20
-8034.139
 30
-584.000
 70
    32
  0
VERTEX
  8
M59LXLIFT
 62
6
 10
6785.592
 20
-8026.468
 30
-584.000
 70
    32
  0
VERTEX
  8
M59LXLIFT
 62
6
 10
6776.972
 20
-8013.520
 30
-584.000
 70
    32
  0
VERTEX
  8
M59LXLIFT
 62
6
 10
6765.185
 20
-7992.818
 30
-584.000
 70
    32
  0
SEQEND
  8
M59LXLIFT
  0
POLYLINE
  8
M59LXLIFT
 62
6
 66
     1
 70
     9
  0
VERTEX
  8
M59LXLIFT
 62
6
 10
6777.099
 20
-8067.676
 30
-605.000
 70
    32
  0
VERTEX
  8
M59LXLIFT
 62
6
 10
6792.325
 20
-8037.046
 30
-605.000
 70
    32
  0
VERTEX
  8
M59LXLIFT
 62
6
 10
6799.699
 20
-8016.275
 30
-605.000
 70
    32
  0
VERTEX
  8
M59LXLIFT
 62
6
 10
6801.429
 20
-8005.726
 30
-605.000
 70
    32
  0
VERTEX
  8
M59LXLIFT
 62
6
 10
6797.289
 20
-7993.333
 30
-605.000
 70
    32
  0
VERTEX
  8
M59LXLIFT
 62
6
 10
6773.355
 20
-7975.678
 30
-605.000
 70
    32
  0
VERTEX
  8
M59LXLIFT
 62
6
 10
6762.279
 20
-7971.405
 30
-605.000
 70
    32
  0
VERTEX
  8
M59LXLIFT
 62
6
 10
6744.088
 20
-7977.869
 30
-605.000
 70
    32
  0
VERTEX
  8
M59LXLIFT
 62
6
 10
6739.768
 20
-7990.386
 30
-605.000
 70
    32
  0
VERTEX
  8
M59LXLIFT
 62
6
 10
6740.368
 20
-8001.318
 30
-605.000
 70
    32
  0
VERTEX
  8
M59LXLIFT
 62
6
 10
6750.965
 20
-8005.827
 30
-605.000
 70
    32
  0
VERTEX
  8
M59LXLIFT
 62
6
 10
6761.735
 20
-8013.891
 30
-605.000
 70
    32
  0
VERTEX
  8
M59LXLIFT
 62
6
 10
6762.040
 20
-8028.930
 30
-605.000
 70
    32
  0
VERTEX
  8
M59LXLIFT
 62
6
 10
6762.810
 20
-8038.440
 30
-605.000
 70
    32
  0
VERTEX
  8
M59LXLIFT
 62
6
 10
6760.366
 20
-8049.502
 30
-605.000
 70
    32
  0
VERTEX
  8
M59LXLIFT
 62
6
 10
6770.055
 20
-8062.238
 30
-605.000
 70
    32
  0
SEQEND
  8
M59LXLIFT
  0
POLYLINE
  8
M59LXLIFT
 62
6
 66
     1
 70
     9
  0
VERTEX
  8
M59LXLIFT
 62
6
 10
6791.935
 20
-8054.785
 30
-657.000
 70
    32
  0
VERTEX
  8
M59LXLIFT
 62
6
 10
6809.520
 20
-8054.744
 30
-657.000
 70
    32
  0
VERTEX
  8
M59LXLIFT
 62
6
 10
6817.791
 20
-8045.155
 30
-657.000
 70
    32
  0
VERTEX
  8
M59LXLIFT
 62
6
 10
6818.074
 20
-8040.413
 30
-657.000
 70
    32
  0
VERTEX
  8
M59LXLIFT
 62
6
 10
6822.700
 20
-8034.944
 30
-657.000
 70
    32
  0
VERTEX
  8
M59LXLIFT
 62
6
 10
6821.843
 20
-8019.996
 30
-657.000
 70
    32
  0
VERTEX
  8
M59LXLIFT
 62
6
 10
6834.271
 20
-8008.514
 30
-657.000
 70
    32
  0
VERTEX
  8
M59LXLIFT
 62
6
 10
6830.249
 20
-7995.938
 30
-657.000
 70
    32
  0
VERTEX
  8
M59LXLIFT
 62
6
 10
6812.249
 20
-7985.578
 30
-657.000
 70
    32
  0
VERTEX
  8
M59LXLIFT
 62
6
 10
6788.426
 20
-7976.140
 30
-657.000
 70
    32
  0
VERTEX
  8
M59LXLIFT
 62
6
 10
6771.528
 20
-7998.598
 30
-657.000
 70
    32
  0
VERTEX
  8
M59LXLIFT
 62
6
 10
6770.781
 20
-8014.477
 30
-657.000
 70
    32
  0
VERTEX
  8
M59LXLIFT
 62
6
 10
6777.122
 20
-8024.855
 30
-657.000
 70
    32
  0
VERTEX
  8
M59LXLIFT
 62
6
 10
6769.999
 20
-8039.675
 30
-657.000
 70
    32
  0
VERTEX
  8
M59LXLIFT
 62
6
 10
6781.137
 20
-8041.651
 30
-657.000
 70
    32
  0
SEQEND
  8
M59LXLIFT
  0
POLYLINE
  8
M59LXLIFT
 62
2
 66
     1
 70
     9
  0
VERTEX
  8
M59LXLIFT
 62
2
 10
6846.732
 20
-8089.402
 30
-654.000
 70
    32
  0
VERTEX
  8
M59LXLIFT
 62
2
 10
6858.451
 20
-8068.919
 30
-654.000
 70
    32
  0
VERTEX
  8
M59LXLIFT
 62
2
 10
6872.866
 20
-8047.371
 30
-654.000
 70
    32
  0
VERTEX
  8
M59LXLIFT
 62
2
 10
6867.939
 20
-8043.655
 30
-654.000
 70
    32
  0
VERTEX
  8
M59LXLIFT
 62
2
 10
6878.815
 20
-8033.175
 30
-654.000
 70
    32
  0
VERTEX
  8
M59LXLIFT
 62
2
 10
6886.391
 20
-8023.975
 30
-654.000
 70
    32
  0
VERTEX
  8
M59LXLIFT
 62
2
 10
6890.170
 20
-8003.118
 30
-654.000
 70
    32
  0
VERTEX
  8
M59LXLIFT
 62
2
 10
6870.373
 20
-7994.475
 30
-654.000
 70
    32
  0
VERTEX
  8
M59LXLIFT
 62
2
 10
6863.087
 20
-7993.202
 30
-654.000
 70
    32
  0
VERTEX
  8
M59LXLIFT
 62
2
 10
6851.200
 20
-8004.836
 30
-654.000
 70
    32
  0
VERTEX
  8
M59LXLIFT
 62
2
 10
6845.053
 20
-8011.502
 30
-654.000
 70
    32
  0
VERTEX
  8
M59LXLIFT
 62
2
 10
6842.099
 20
-8027.014
 30
-654.000
 70
    32
  0
VERTEX
  8
M59LXLIFT
 62
2
 10
6835.212
 20
-8044.583
 30
-654.000
 70
    32
  0
VERTEX
  8
M59LXLIFT
 62
2
 10
6830.720
 20
-8052.657
 30
-654.000
 70
    32
  0
VERTEX
  8
M59LXLIFT
 62
2
 10
6830.873
 20
-8069.946
 30
-654.000
 70
    32
  0
VERTEX
  8
M59LXLIFT
 62
2
 10
6823.989
 20
-8074.977
 30
-654.000
 70
    32
  0
VERTEX
  8
M59LXLIFT
 62
2
 10
6829.409
 20
-8081.799
 30
-654.000
 70
    32
  0
SEQEND
  8
M59LXLIFT
  0
POLYLINE
  8
M59LXLIFT
 62
3
 66
     1
 70
     9
  0
VERTEX
  8
M59LXLIFT
 62
3
 10
6736.633
 20
-8115.655
 30
-646.000
 70
    32
  0
VERTEX
  8
M59LXLIFT
 62
3
 10
6738.635
 20
-8126.640
 30
-646.000
 70
    32
  0
VERTEX
  8
M59LXLIFT
 62
3
 10
6731.711
 20
-8135.246
 30
-646.000
 70
    32
  0
VERTEX
  8
M59LXLIFT
 62
3
 10
6734.948
 20
-8136.608
 30
-646.000
 70
    32
  0
VERTEX
  8
M59LXLIFT
 62
3
 10
6746.421
 20
-8136.955
 30
-646.000
 70
    32
  0
VERTEX
  8
M59LXLIFT
 62
3
 10
6748.911
 20
-8139.389
 30
-646.000
 70
    32
  0
VERTEX
  8
M59LXLIFT
 62
3
 10
6759.032
 20
-8132.390
 30
-646.000
 70
    32
  0
VERTEX
  8
M59LXLIFT
 62
3
 10
6755.942
 20
-8126.390
 30
-646.000
 70
    32
  0
VERTEX
  8
M59LXLIFT
 62
3
 10
6754.914
 20
-8111.473
 30
-646.000
 70
    32
  0
VERTEX
  8
M59LXLIFT
 62
3
 10
6756.623
 20
-8108.419
 30
-646.000
 70
    32
  0
VERTEX
  8
M59LXLIFT
 62
3
 10
6755.174
 20
-8105.782
 30
-646.000
 70
    32
  0
VERTEX
  8
M59LXLIFT
 62
3
 10
6748.817
 20
-8109.127
 30
-646.000
 70
    32
  0
SEQEND
  8
M59LXLIFT
  0
POLYLINE
  8
M59LXLIFT
 62
3
 66
     1
 70
     9
  0
VERTEX
  8
M59LXLIFT
 62
3
 10
6750.266
 20
-8107.277
 30
-655.000
 70
    32
  0
VERTEX
  8
M59LXLIFT
 62
3
 10
6754.929
 20
-8114.100
 30
-655.000
 70
    32
  0
VERTEX
  8
M59LXLIFT
 62
3
 10
6755.539
 20
-8127.495
 30
-655.000
 70
    32
  0
VERTEX
  8
M59LXLIFT
 62
3
 10
6756.075
 20
-8134.136
 30
-655.000
 70
    32
  0
VERTEX
  8
M59LXLIFT
 62
3
 10
6751.857
 20
-8137.909
 30
-655.000
 70
    32
  0
VERTEX
  8
M59LXLIFT
 62
3
 10
6745.010
 20
-8136.646
 30
-655.000
 70
    32
  0
VERTEX
  8
M59LXLIFT
 62
3
 10
6739.541
 20
-8132.021
 30
-655.000
 70
    32
  0
VERTEX
  8
M59LXLIFT
 62
3
 10
6737.637
 20
-8126.034
 30
-655.000
 70
    32
  0
VERTEX
  8
M59LXLIFT
 62
3
 10
6738.166
 20
-8121.333
 30
-655.000
 70
    32
  0
VERTEX
  8
M59LXLIFT
 62
3
 10
6735.455
 20
-8116.032
 30
-655.000
 70
    32
  0
SEQEND
  8
M59LXLIFT
  0
POLYLINE
  8
M59LXLIFT
 62
1
 66
     1
 70
     9
  0
VERTEX
  8
M59LXLIFT
 62
1
 10
6732.189
 20
-8168.843
 30
-606.000
 70
    32
  0
VERTEX
  8
M59LXLIFT
 62
1
 10
6718.397
 20
-8168.284
 30
-606.000
 70
    32
  0
VERTEX
  8
M59LXLIFT
 62
1
 10
6707.476
 20
-8160.154
 30
-606.000
 70
    32
  0
VERTEX
  8
M59LXLIFT
 62
1
 10
6706.324
 20
-8153.746
 30
-606.000
 70
    32
  0
VERTEX
  8
M59LXLIFT
 62
1
 10
6714.942
 20
-8142.151
 30
-606.000
 70
    32
  0
VERTEX
  8
M59LXLIFT
 62
1
 10
6724.667
 20
-8132.998
 30
-606.000
 70
    32
  0
VERTEX
  8
M59LXLIFT
 62
1
 10
6725.280
 20
-8126.942
 30
-606.000
 70
    32
  0
VERTEX
  8
M59LXLIFT
 62
1
 10
6731.950
 20
-8121.499
 30
-606.000
 70
    32
  0
VERTEX
  8
M59LXLIFT
 62
1
 10
6740.019
 20
-8117.101
 30
-606.000
 70
    32
  0
VERTEX
  8
M59LXLIFT
 62
1
 10
6747.783
 20
-8122.642
 30
-606.000
 70
    32
  0
VERTEX
  8
M59LXLIFT
 62
1
 10
6744.686
 20
-8136.208
 30
-606.000
 70
    32
  0
VERTEX
  8
M59LXLIFT
 62
1
 10
6750.216
 20
-8144.650
 30
-606.000
 70
    32
  0
VERTEX
  8
M59LXLIFT
 62
1
 10
6755.969
 20
-8155.956
 30
-606.000
 70
    32
  0
SEQEND
  8
M59LXLIFT
  0
POLYLINE
  8
M59LXLIFT
 62
3
 66
     1
 70
     9
  0
VERTEX
  8
M59LXLIFT
 62
3
 10
6754.969
 20
-8156.956
 30
-616.000
 70
    32
  0
VERTEX
  8
M59LXLIFT
 62
3
 10
6749.216
 20
-8145.650
 30
-616.000
 70
    32
  0
VERTEX
  8
M59LXLIFT
 62
3
 10
6743.686
 20
-8137.208
 30
-616.000
 70
    32
  0
VERTEX
  8
M59LXLIFT
 62
3
 10
6746.783
 20
-8123.642
 30
-616.000
 70
    32
  0
VERTEX
  8
M59LXLIFT
 62
3
 10
6739.019
 20
-8118.101
 30
-616.000
 70
    32
  0
VERTEX
  8
M59LXLIFT
 62
3
 10
6730.950
 20
-8122.499
 30
-616.000
 70
    32
  0
VERTEX
  8
M59LXLIFT
 62
3
 10
6724.280
 20
-8127.942
 30
-616.000
 70
    32
  0
VERTEX
  8
M59LXLIFT
 62
3
 10
6723.667
 20
-8133.998
 30
-616.000
 70
    32
  0
VERTEX
  8
M59LXLIFT
 62
3
 10
6713.942
 20
-8143.151
 30
-616.000
 70
    32
  0
VERTEX
  8
M59LXLIFT
 62
3
 10
6705.324
 20
-8154.746
 30
-616.000
 70
    32
  0
VERTEX
  8
M59LXLIFT
 62
3
 10
6706.476
 20
-8161.154
 30
-616.000
 70
    32
  0
VERTEX
  8
M59LXLIFT
 62
3
 10
6717.397
 20
-8169.284
 30
-616.000
 70
    32
  0
VERTEX
  8
M59LXLIFT
 62
3
 10
6731.189
 20
-8169.843
 30
-616.000
 70
    32
  0
SEQEND
  8
M59LXLIFT
  0
POLYLINE
  8
M59LXLIFT
 62
3
 66
     1
 70
     9
  0
VERTEX
  8
M59LXLIFT
 62
3
 10
6698.261
 20
-8202.556
 30
-626.000
 70
    32
  0
VERTEX
  8
M59LXLIFT
 62
3
 10
6705.530
 20
-8198.488
 30
-626.000
 70
    32
  0
VERTEX
  8
M59LXLIFT
 62
3
 10
6711.413
 20
-8194.024
 30
-626.000
 70
    32
  0
VERTEX
  8
M59LXLIFT
 62
3
 10
6720.693
 20
-8191.639
 30
-626.000
 70
    32
  0
VERTEX
  8
M59LXLIFT
 62
3
 10
6729.742
 20
-8184.067
 30
-626.000
 70
    32
  0
VERTEX
  8
M59LXLIFT
 62
3
 10
6732.926
 20
-8178.320
 30
-626.000
 70
    32
  0
VERTEX
  8
M59LXLIFT
 62
3
 10
6744.593
 20
-8165.419
 30
-626.000
 70
    32
  0
VERTEX
  8
M59LXLIFT
 62
3
 10
6739.820
 20
-8147.298
 30
-626.000
 70
    32
  0
VERTEX
  8
M59LXLIFT
 62
3
 10
6739.871
 20
-8136.434
 30
-626.000
 70
    32
  0
VERTEX
  8
M59LXLIFT
 62
3
 10
6749.222
 20
-8128.529
 30
-626.000
 70
    32
  0
VERTEX
  8
M59LXLIFT
 62
3
 10
6751.009
 20
-8121.191
 30
-626.000
 70
    32
  0
VERTEX
  8
M59LXLIFT
 62
3
 10
6748.577
 20
-8110.961
 30
-626.000
 70
    32
  0
VERTEX
  8
M59LXLIFT
 62
3
 10
6745.854
 20
-8096.792
 30
-626.000
 70
    32
  0
VERTEX
  8
M59LXLIFT
 62
3
 10
6738.793
 20
-8095.675
 30
-626.000
 70
    32
  0
VERTEX
  8
M59LXLIFT
 62
3
 10
6735.501
 20
-8085.316
 30
-626.000
 70
    32
  0
VERTEX
  8
M59LXLIFT
 62
3
 10
6730.956
 20
-8081.244
 30
-626.000
 70
    32
  0
VERTEX
  8
M59LXLIFT
 62
3
 10
6721.992
 20
-8089.081
 30
-626.000
 70
    32
  0
VERTEX
  8
M59LXLIFT
 62
3
 10
6723.192
 20
-8105.034
 30
-626.000
 70
    32
  0
VERTEX
  8
M59LXLIFT
 62
3
 10
6724.027
 20
-8112.072
 30
-626.000
 70
    32
  0
VERTEX
  8
M59LXLIFT
 62
3
 10
6713.248
 20
-8134.595
 30
-626.000
 70
    32
  0
VERTEX
  8
M59LXLIFT
 62
3
 10
6708.611
 20
-8145.026
 30
-626.000
 70
    32
  0
VERTEX
  8
M59LXLIFT
 62
3
 10
6699.799
 20
-8153.954
 30
-626.000
 70
    32
  0
VERTEX
  8
M59LXLIFT
 62
3
 10
6699.455
 20
-8158.365
 30
-626.000
 70
    32
  0
VERTEX
  8
M59LXLIFT
 62
3
 10
6699.351
 20
-8163.691
 30
-626.000
 70
    32
  0
VERTEX
  8
M59LXLIFT
 62
3
 10
6691.268
 20
-8174.048
 30
-626.000
 70
    32
  0
VERTEX
  8
M59LXLIFT
 62
3
 10
6690.160
 20
-8179.790
 30
-626.000
 70
    32
  0
VERTEX
  8
M59LXLIFT
 62
3
 10
6687.239
 20
-8188.404
 30
-626.000
 70
    32
  0
VERTEX
  8
M59LXLIFT
 62
3
 10
6689.944
 20
-8197.229
 30
-626.000
 70
    32
  0
SEQEND
  8
M59LXLIFT
  0
POLYLINE
  8
M59LXLIFT
 62
3
 66
     1
 70
     9
  0
VERTEX
  8
M59LXLIFT
 62
3
 10
6756.466
 20
-8121.310
 30
-636.000
 70
    32
  0
VERTEX
  8
M59LXLIFT
 62
3
 10
6746.960
 20
-8107.902
 30
-636.000
 70
    32
  0
VERTEX
  8
M59LXLIFT
 62
3
 10
6746.455
 20
-8100.260
 30
-636.000
 70
    32
  0
VERTEX
  8
M59LXLIFT
 62
3
 10
6731.078
 20
-8089.223
 30
-636.000
 70
    32
  0
VERTEX
  8
M59LXLIFT
 62
3
 10
6726.912
 20
-8096.536
 30
-636.000
 70
    32
  0
VERTEX
  8
M59LXLIFT
 62
3
 10
6727.648
 20
-8107.365
 30
-636.000
 70
    32
  0
VERTEX
  8
M59LXLIFT
 62
3
 10
6719.710
 20
-8124.954
 30
-636.000
 70
    32
  0
VERTEX
  8
M59LXLIFT
 62
3
 10
6715.115
 20
-8137.550
 30
-636.000
 70
    32
  0
VERTEX
  8
M59LXLIFT
 62
3
 10
6699.959
 20
-8163.019
 30
-636.000
 70
    32
  0
VERTEX
  8
M59LXLIFT
 62
3
 10
6689.028
 20
-8180.807
 30
-636.000
 70
    32
  0
VERTEX
  8
M59LXLIFT
 62
3
 10
6689.734
 20
-8197.930
 30
-636.000
 70
    32
  0
VERTEX
  8
M59LXLIFT
 62
3
 10
6703.814
 20
-8198.109
 30
-636.000
 70
    32
  0
VERTEX
  8
M59LXLIFT
 62
3
 10
6710.702
 20
-8193.386
 30
-636.000
 70
    32
  0
VERTEX
  8
M59LXLIFT
 62
3
 10
6728.784
 20
-8186.476
 30
-636.000
 70
    32
  0
VERTEX
  8
M59LXLIFT
 62
3
 10
6735.889
 20
-8177.380
 30
-636.000
 70
    32
  0
VERTEX
  8
M59LXLIFT
 62
3
 10
6743.129
 20
-8169.377
 30
-636.000
 70
    32
  0
VERTEX
  8
M59LXLIFT
 62
3
 10
6741.363
 20
-8148.363
 30
-636.000
 70
    32
  0
VERTEX
  8
M59LXLIFT
 62
3
 10
6743.591
 20
-8142.872
 30
-636.000
 70
    32
  0
SEQEND
  8
M59LXLIFT
  0
POLYLINE
  8
M59LXLIFT
 62
1
 66
     1
 70
     9
  0
VERTEX
  8
M59LXLIFT
 62
1
 10
6704.733
 20
-8495.296
 30
-618.000
 70
    32
  0
VERTEX
  8
M59LXLIFT
 62
1
 10
6705.467
 20
-8484.911
 30
-618.000
 70
    32
  0
VERTEX
  8
M59LXLIFT
 62
1
 10
6709.608
 20
-8472.332
 30
-618.000
 70
    32
  0
VERTEX
  8
M59LXLIFT
 62
1
 10
6716.063
 20
-8469.085
 30
-618.000
 70
    32
  0
VERTEX
  8
M59LXLIFT
 62
1
 10
6724.616
 20
-8464.832
 30
-618.000
 70
    32
  0
VERTEX
  8
M59LXLIFT
 62
1
 10
6728.577
 20
-8458.510
 30
-618.000
 70
    32
  0
VERTEX
  8
M59LXLIFT
 62
1
 10
6733.485
 20
-8444.160
 30
-618.000
 70
    32
  0
VERTEX
  8
M59LXLIFT
 62
1
 10
6740.057
 20
-8436.343
 30
-618.000
 70
    32
  0
VERTEX
  8
M59LXLIFT
 62
1
 10
6750.336
 20
-8420.532
 30
-618.000
 70
    32
  0
VERTEX
  8
M59LXLIFT
 62
1
 10
6755.422
 20
-8400.364
 30
-618.000
 70
    32
  0
VERTEX
  8
M59LXLIFT
 62
1
 10
6751.289
 20
-8397.736
 30
-618.000
 70
    32
  0
VERTEX
  8
M59LXLIFT
 62
1
 10
6743.851
 20
-8386.947
 30
-618.000
 70
    32
  0
VERTEX
  8
M59LXLIFT
 62
1
 10
6754.048
 20
-8381.368
 30
-618.000
 70
    32
  0
VERTEX
  8
M59LXLIFT
 62
1
 10
6766.046
 20
-8399.500
 30
-618.000
 70
    32
  0
VERTEX
  8
M59LXLIFT
 62
1
 10
6772.806
 20
-8406.416
 30
-618.000
 70
    32
  0
VERTEX
  8
M59LXLIFT
 62
1
 10
6780.964
 20
-8431.327
 30
-618.000
 70
    32
  0
VERTEX
  8
M59LXLIFT
 62
1
 10
6783.425
 20
-8448.098
 30
-618.000
 70
    32
  0
VERTEX
  8
M59LXLIFT
 62
1
 10
6778.181
 20
-8451.651
 30
-618.000
 70
    32
  0
VERTEX
  8
M59LXLIFT
 62
1
 10
6768.509
 20
-8465.918
 30
-618.000
 70
    32
  0
VERTEX
  8
M59LXLIFT
 62
1
 10
6752.275
 20
-8483.730
 30
-618.000
 70
    32
  0
VERTEX
  8
M59LXLIFT
 62
1
 10
6740.198
 20
-8491.794
 30
-618.000
 70
    32
  0
VERTEX
  8
M59LXLIFT
 62
1
 10
6726.324
 20
-8495.064
 30
-618.000
 70
    32
  0
VERTEX
  8
M59LXLIFT
 62
1
 10
6713.826
 20
-8503.002
 30
-618.000
 70
    32
  0
SEQEND
  8
M59LXLIFT
  0
POLYLINE
  8
M59LXLIFT
 62
13
 66
     1
 70
     9
  0
VERTEX
  8
M59LXLIFT
 62
13
 10
6712.826
 20
-8504.002
 30
-628.000
 70
    32
  0
VERTEX
  8
M59LXLIFT
 62
13
 10
6725.324
 20
-8496.064
 30
-628.000
 70
    32
  0
VERTEX
  8
M59LXLIFT
 62
13
 10
6739.198
 20
-8492.794
 30
-628.000
 70
    32
  0
VERTEX
  8
M59LXLIFT
 62
13
 10
6751.275
 20
-8484.730
 30
-628.000
 70
    32
  0
VERTEX
  8
M59LXLIFT
 62
13
 10
6767.509
 20
-8466.918
 30
-628.000
 70
    32
  0
VERTEX
  8
M59LXLIFT
 62
13
 10
6777.181
 20
-8452.651
 30
-628.000
 70
    32
  0
VERTEX
  8
M59LXLIFT
 62
13
 10
6782.425
 20
-8449.098
 30
-628.000
 70
    32
  0
VERTEX
  8
M59LXLIFT
 62
13
 10
6779.964
 20
-8432.327
 30
-628.000
 70
    32
  0
VERTEX
  8
M59LXLIFT
 62
13
 10
6771.806
 20
-8407.416
 30
-628.000
 70
    32
  0
VERTEX
  8
M59LXLIFT
 62
13
 10
6765.046
 20
-8400.500
 30
-628.000
 70
    32
  0
VERTEX
  8
M59LXLIFT
 62
13
 10
6753.048
 20
-8382.368
 30
-628.000
 70
    32
  0
VERTEX
  8
M59LXLIFT
 62
13
 10
6742.851
 20
-8387.947
 30
-628.000
 70
    32
  0
VERTEX
  8
M59LXLIFT
 62
13
 10
6750.289
 20
-8398.736
 30
-628.000
 70
    32
  0
VERTEX
  8
M59LXLIFT
 62
13
 10
6754.422
 20
-8401.364
 30
-628.000
 70
    32
  0
VERTEX
  8
M59LXLIFT
 62
13
 10
6749.336
 20
-8421.532
 30
-628.000
 70
    32
  0
VERTEX
  8
M59LXLIFT
 62
13
 10
6739.057
 20
-8437.343
 30
-628.000
 70
    32
  0
VERTEX
  8
M59LXLIFT
 62
13
 10
6732.485
 20
-8445.160
 30
-628.000
 70
    32
  0
VERTEX
  8
M59LXLIFT
 62
13
 10
6727.577
 20
-8459.510
 30
-628.000
 70
    32
  0
VERTEX
  8
M59LXLIFT
 62
13
 10
6723.616
 20
-8465.832
 30
-628.000
 70
    32
  0
VERTEX
  8
M59LXLIFT
 62
13
 10
6715.063
 20
-8470.085
 30
-628.000
 70
    32
  0
VERTEX
  8
M59LXLIFT
 62
13
 10
6708.608
 20
-8473.332
 30
-628.000
 70
    32
  0
VERTEX
  8
M59LXLIFT
 62
13
 10
6704.467
 20
-8485.911
 30
-628.000
 70
    32
  0
VERTEX
  8
M59LXLIFT
 62
13
 10
6703.733
 20
-8496.296
 30
-628.000
 70
    32
  0
SEQEND
  8
M59LXLIFT
  0
POLYLINE
  8
M59LXLIFT
 62
13
 66
     1
 70
     9
  0
VERTEX
  8
M59LXLIFT
 62
13
 10
6794.157
 20
-8443.885
 30
-643.000
 70
    32
  0
VERTEX
  8
M59LXLIFT
 62
13
 10
6783.075
 20
-8429.551
 30
-643.000
 70
    32
  0
VERTEX
  8
M59LXLIFT
 62
13
 10
6776.358
 20
-8434.664
 30
-643.000
 70
    32
  0
VERTEX
  8
M59LXLIFT
 62
13
 10
6779.083
 20
-8437.578
 30
-643.000
 70
    32
  0
VERTEX
  8
M59LXLIFT
 62
13
 10
6775.770
 20
-8440.047
 30
-643.000
 70
    32
  0
VERTEX
  8
M59LXLIFT
 62
13
 10
6761.256
 20
-8436.795
 30
-643.000
 70
    32
  0
VERTEX
  8
M59LXLIFT
 62
13
 10
6755.940
 20
-8439.937
 30
-643.000
 70
    32
  0
VERTEX
  8
M59LXLIFT
 62
13
 10
6764.285
 20
-8464.209
 30
-643.000
 70
    32
  0
VERTEX
  8
M59LXLIFT
 62
13
 10
6746.368
 20
-8472.233
 30
-643.000
 70
    32
  0
VERTEX
  8
M59LXLIFT
 62
13
 10
6732.919
 20
-8476.532
 30
-643.000
 70
    32
  0
VERTEX
  8
M59LXLIFT
 62
13
 10
6722.992
 20
-8483.501
 30
-643.000
 70
    32
  0
VERTEX
  8
M59LXLIFT
 62
13
 10
6716.251
 20
-8481.615
 30
-643.000
 70
    32
  0
VERTEX
  8
M59LXLIFT
 62
13
 10
6714.821
 20
-8492.024
 30
-643.000
 70
    32
  0
VERTEX
  8
M59LXLIFT
 62
13
 10
6744.554
 20
-8511.627
 30
-643.000
 70
    32
  0
VERTEX
  8
M59LXLIFT
 62
13
 10
6756.714
 20
-8509.002
 30
-643.000
 70
    32
  0
VERTEX
  8
M59LXLIFT
 62
13
 10
6792.223
 20
-8480.234
 30
-643.000
 70
    32
  0
SEQEND
  8
M59LXLIFT
  0
POLYLINE
  8
M59LXLIFT
 62
13
 66
     1
 70
     9
  0
VERTEX
  8
M59LXLIFT
 62
13
 10
6762.764
 20
-8521.399
 30
-654.000
 70
    32
  0
VERTEX
  8
M59LXLIFT
 62
13
 10
6782.474
 20
-8502.117
 30
-654.000
 70
    32
  0
VERTEX
  8
M59LXLIFT
 62
13
 10
6803.886
 20
-8477.510
 30
-654.000
 70
    32
  0
VERTEX
  8
M59LXLIFT
 62
13
 10
6805.275
 20
-8457.391
 30
-654.000
 70
    32
  0
VERTEX
  8
M59LXLIFT
 62
13
 10
6801.556
 20
-8441.463
 30
-654.000
 70
    32
  0
VERTEX
  8
M59LXLIFT
 62
13
 10
6798.038
 20
-8434.578
 30
-654.000
 70
    32
  0
VERTEX
  8
M59LXLIFT
 62
13
 10
6785.277
 20
-8437.436
 30
-654.000
 70
    32
  0
VERTEX
  8
M59LXLIFT
 62
13
 10
6780.078
 20
-8440.290
 30
-654.000
 70
    32
  0
VERTEX
  8
M59LXLIFT
 62
13
 10
6774.605
 20
-8447.446
 30
-654.000
 70
    32
  0
VERTEX
  8
M59LXLIFT
 62
13
 10
6770.234
 20
-8450.248
 30
-654.000
 70
    32
  0
VERTEX
  8
M59LXLIFT
 62
13
 10
6773.326
 20
-8461.220
 30
-654.000
 70
    32
  0
VERTEX
  8
M59LXLIFT
 62
13
 10
6783.194
 20
-8457.189
 30
-654.000
 70
    32
  0
VERTEX
  8
M59LXLIFT
 62
13
 10
6786.427
 20
-8465.790
 30
-654.000
 70
    32
  0
VERTEX
  8
M59LXLIFT
 62
13
 10
6787.168
 20
-8474.230
 30
-654.000
 70
    32
  0
VERTEX
  8
M59LXLIFT
 62
13
 10
6782.347
 20
-8478.217
 30
-654.000
 70
    32
  0
VERTEX
  8
M59LXLIFT
 62
13
 10
6763.890
 20
-8489.580
 30
-654.000
 70
    32
  0
VERTEX
  8
M59LXLIFT
 62
13
 10
6748.322
 20
-8496.067
 30
-654.000
 70
    32
  0
VERTEX
  8
M59LXLIFT
 62
13
 10
6740.644
 20
-8488.807
 30
-654.000
 70
    32
  0
VERTEX
  8
M59LXLIFT
 62
13
 10
6732.197
 20
-8475.181
 30
-654.000
 70
    32
  0
VERTEX
  8
M59LXLIFT
 62
13
 10
6720.356
 20
-8477.814
 30
-654.000
 70
    32
  0
VERTEX
  8
M59LXLIFT
 62
13
 10
6720.035
 20
-8489.605
 30
-654.000
 70
    32
  0
VERTEX
  8
M59LXLIFT
 62
13
 10
6728.808
 20
-8499.001
 30
-654.000
 70
    32
  0
VERTEX
  8
M59LXLIFT
 62
13
 10
6746.000
 20
-8510.046
 30
-654.000
 70
    32
  0
SEQEND
  8
M59LXLIFT
  0
POLYLINE
  8
M59LXLIFT
 62
13
 66
     1
 70
     9
  0
VERTEX
  8
M59LXLIFT
 62
13
 10
6756.167
 20
-8436.579
 30
-635.000
 70
    32
  0
VERTEX
  8
M59LXLIFT
 62
13
 10
6764.169
 20
-8448.795
 30
-635.000
 70
    32
  0
VERTEX
  8
M59LXLIFT
 62
13
 10
6758.101
 20
-8460.393
 30
-635.000
 70
    32
  0
VERTEX
  8
M59LXLIFT
 62
13
 10
6751.520
 20
-8465.544
 30
-635.000
 70
    32
  0
VERTEX
  8
M59LXLIFT
 62
13
 10
6726.939
 20
-8477.871
 30
-635.000
 70
    32
  0
VERTEX
  8
M59LXLIFT
 62
13
 10
6717.753
 20
-8483.160
 30
-635.000
 70
    32
  0
VERTEX
  8
M59LXLIFT
 62
13
 10
6707.131
 20
-8484.937
 30
-635.000
 70
    32
  0
VERTEX
  8
M59LXLIFT
 62
13
 10
6705.964
 20
-8489.342
 30
-635.000
 70
    32
  0
VERTEX
  8
M59LXLIFT
 62
13
 10
6711.771
 20
-8502.267
 30
-635.000
 70
    32
  0
VERTEX
  8
M59LXLIFT
 62
13
 10
6737.038
 20
-8507.942
 30
-635.000
 70
    32
  0
VERTEX
  8
M59LXLIFT
 62
13
 10
6758.419
 20
-8511.213
 30
-635.000
 70
    32
  0
VERTEX
  8
M59LXLIFT
 62
13
 10
6759.136
 20
-8506.481
 30
-635.000
 70
    32
  0
VERTEX
  8
M59LXLIFT
 62
13
 10
6778.070
 20
-8490.201
 30
-635.000
 70
    32
  0
VERTEX
  8
M59LXLIFT
 62
13
 10
6785.207
 20
-8476.323
 30
-635.000
 70
    32
  0
VERTEX
  8
M59LXLIFT
 62
13
 10
6792.310
 20
-8450.030
 30
-635.000
 70
    32
  0
VERTEX
  8
M59LXLIFT
 62
13
 10
6777.739
 20
-8426.843
 30
-635.000
 70
    32
  0
SEQEND
  8
M59LXLIFT
  0
POLYLINE
  8
M59LXLIFT
 62
7
 66
     1
 70
     9
  0
VERTEX
  8
M59LXLIFT
 62
7
 10
6473.794
 20
-8430.826
 30
-559.000
 70
    32
  0
VERTEX
  8
M59LXLIFT
 62
7
 10
6458.062
 20
-8440.880
 30
-559.000
 70
    32
  0
VERTEX
  8
M59LXLIFT
 62
7
 10
6439.091
 20
-8457.320
 30
-559.000
 70
    32
  0
VERTEX
  8
M59LXLIFT
 62
7
 10
6432.613
 20
-8467.507
 30
-559.000
 70
    32
  0
VERTEX
  8
M59LXLIFT
 62
7
 10
6437.282
 20
-8484.462
 30
-559.000
 70
    32
  0
VERTEX
  8
M59LXLIFT
 62
7
 10
6442.830
 20
-8508.446
 30
-559.000
 70
    32
  0
VERTEX
  8
M59LXLIFT
 62
7
 10
6454.548
 20
-8531.405
 30
-559.000
 70
    32
  0
VERTEX
  8
M59LXLIFT
 62
7
 10
6456.469
 20
-8540.821
 30
-559.000
 70
    32
  0
VERTEX
  8
M59LXLIFT
 62
7
 10
6458.839
 20
-8550.567
 30
-559.000
 70
    32
  0
VERTEX
  8
M59LXLIFT
 62
7
 10
6465.628
 20
-8557.725
 30
-559.000
 70
    32
  0
VERTEX
  8
M59LXLIFT
 62
7
 10
6472.620
 20
-8558.166
 30
-559.000
 70
    32
  0
VERTEX
  8
M59LXLIFT
 62
7
 10
6478.055
 20
-8541.174
 30
-559.000
 70
    32
  0
VERTEX
  8
M59LXLIFT
 62
7
 10
6478.570
 20
-8528.956
 30
-559.000
 70
    32
  0
VERTEX
  8
M59LXLIFT
 62
7
 10
6486.413
 20
-8503.794
 30
-559.000
 70
    32
  0
VERTEX
  8
M59LXLIFT
 62
7
 10
6487.424
 20
-8492.734
 30
-559.000
 70
    32
  0
VERTEX
  8
M59LXLIFT
 62
7
 10
6484.571
 20
-8474.386
 30
-559.000
 70
    32
  0
VERTEX
  8
M59LXLIFT
 62
7
 10
6485.316
 20
-8467.825
 30
-559.000
 70
    32
  0
VERTEX
  8
M59LXLIFT
 62
7
 10
6479.587
 20
-8454.853
 30
-559.000
 70
    32
  0
VERTEX
  8
M59LXLIFT
 62
7
 10
6478.047
 20
-8446.890
 30
-559.000
 70
    32
  0
VERTEX
  8
M59LXLIFT
 62
7
 10
6478.319
 20
-8436.461
 30
-559.000
 70
    32
  0
SEQEND
  8
M59LXLIFT
  0
POLYLINE
  8
M59LXLIFT
 62
7
 66
     1
 70
     9
  0
VERTEX
  8
M59LXLIFT
 62
7
 10
6482.904
 20
-8559.961
 30
-569.000
 70
    32
  0
VERTEX
  8
M59LXLIFT
 62
7
 10
6488.355
 20
-8529.099
 30
-569.000
 70
    32
  0
VERTEX
  8
M59LXLIFT
 62
7
 10
6489.083
 20
-8508.781
 30
-569.000
 70
    32
  0
VERTEX
  8
M59LXLIFT
 62
7
 10
6492.148
 20
-8501.990
 30
-569.000
 70
    32
  0
VERTEX
  8
M59LXLIFT
 62
7
 10
6490.492
 20
-8491.103
 30
-569.000
 70
    32
  0
VERTEX
  8
M59LXLIFT
 62
7
 10
6491.191
 20
-8481.570
 30
-569.000
 70
    32
  0
VERTEX
  8
M59LXLIFT
 62
7
 10
6488.175
 20
-8459.911
 30
-569.000
 70
    32
  0
VERTEX
  8
M59LXLIFT
 62
7
 10
6487.893
 20
-8452.038
 30
-569.000
 70
    32
  0
VERTEX
  8
M59LXLIFT
 62
7
 10
6482.439
 20
-8436.837
 30
-569.000
 70
    32
  0
VERTEX
  8
M59LXLIFT
 62
7
 10
6462.805
 20
-8437.993
 30
-569.000
 70
    32
  0
VERTEX
  8
M59LXLIFT
 62
7
 10
6454.120
 20
-8438.955
 30
-569.000
 70
    32
  0
VERTEX
  8
M59LXLIFT
 62
7
 10
6438.491
 20
-8454.937
 30
-569.000
 70
    32
  0
VERTEX
  8
M59LXLIFT
 62
7
 10
6438.903
 20
-8472.297
 30
-569.000
 70
    32
  0
VERTEX
  8
M59LXLIFT
 62
7
 10
6446.483
 20
-8493.102
 30
-569.000
 70
    32
  0
VERTEX
  8
M59LXLIFT
 62
7
 10
6453.707
 20
-8518.894
 30
-569.000
 70
    32
  0
VERTEX
  8
M59LXLIFT
 62
7
 10
6454.268
 20
-8529.907
 30
-569.000
 70
    32
  0
VERTEX
  8
M59LXLIFT
 62
7
 10
6452.184
 20
-8533.207
 30
-569.000
 70
    32
  0
VERTEX
  8
M59LXLIFT
 62
7
 10
6461.227
 20
-8542.970
 30
-569.000
 70
    32
  0
VERTEX
  8
M59LXLIFT
 62
7
 10
6470.552
 20
-8558.776
 30
-569.000
 70
    32
  0
SEQEND
  8
M59LXLIFT
  0
POLYLINE
  8
M59LXLIFT
 62
1
 66
     1
 70
     9
  0
VERTEX
  8
M59LXLIFT
 62
1
 10
6475.957
 20
-8446.939
 30
-540.000
 70
    32
  0
VERTEX
  8
M59LXLIFT
 62
1
 10
6480.459
 20
-8464.817
 30
-540.000
 70
    32
  0
VERTEX
  8
M59LXLIFT
 62
1
 10
6483.642
 20
-8482.667
 30
-540.000
 70
    32
  0
VERTEX
  8
M59LXLIFT
 62
1
 10
6475.625
 20
-8501.957
 30
-540.000
 70
    32
  0
VERTEX
  8
M59LXLIFT
 62
1
 10
6475.609
 20
-8507.814
 30
-540.000
 70
    32
  0
VERTEX
  8
M59LXLIFT
 62
1
 10
6476.602
 20
-8512.514
 30
-540.000
 70
    32
  0
VERTEX
  8
M59LXLIFT
 62
1
 10
6469.851
 20
-8526.781
 30
-540.000
 70
    32
  0
VERTEX
  8
M59LXLIFT
 62
1
 10
6453.990
 20
-8536.655
 30
-540.000
 70
    32
  0
VERTEX
  8
M59LXLIFT
 62
1
 10
6446.967
 20
-8532.604
 30
-540.000
 70
    32
  0
VERTEX
  8
M59LXLIFT
 62
1
 10
6441.649
 20
-8527.762
 30
-540.000
 70
    32
  0
VERTEX
  8
M59LXLIFT
 62
1
 10
6438.062
 20
-8515.831
 30
-540.000
 70
    32
  0
VERTEX
  8
M59LXLIFT
 62
1
 10
6434.098
 20
-8492.370
 30
-540.000
 70
    32
  0
VERTEX
  8
M59LXLIFT
 62
1
 10
6424.775
 20
-8467.778
 30
-540.000
 70
    32
  0
VERTEX
  8
M59LXLIFT
 62
1
 10
6418.637
 20
-8445.662
 30
-540.000
 70
    32
  0
VERTEX
  8
M59LXLIFT
 62
1
 10
6412.571
 20
-8436.160
 30
-540.000
 70
    32
  0
VERTEX
  8
M59LXLIFT
 62
1
 10
6416.970
 20
-8433.542
 30
-540.000
 70
    32
  0
VERTEX
  8
M59LXLIFT
 62
1
 10
6441.257
 20
-8444.900
 30
-540.000
 70
    32
  0
VERTEX
  8
M59LXLIFT
 62
1
 10
6453.333
 20
-8450.410
 30
-540.000
 70
    32
  0
VERTEX
  8
M59LXLIFT
 62
1
 10
6460.916
 20
-8449.512
 30
-540.000
 70
    32
  0
SEQEND
  8
M59LXLIFT
  0
POLYLINE
  8
M59LXLIFT
 62
7
 66
     1
 70
     9
  0
VERTEX
  8
M59LXLIFT
 62
7
 10
6474.957
 20
-8447.939
 30
-549.000
 70
    32
  0
VERTEX
  8
M59LXLIFT
 62
7
 10
6479.459
 20
-8465.817
 30
-549.000
 70
    32
  0
VERTEX
  8
M59LXLIFT
 62
7
 10
6482.642
 20
-8483.667
 30
-549.000
 70
    32
  0
VERTEX
  8
M59LXLIFT
 62
7
 10
6474.625
 20
-8502.957
 30
-549.000
 70
    32
  0
VERTEX
  8
M59LXLIFT
 62
7
 10
6474.609
 20
-8508.814
 30
-549.000
 70
    32
  0
VERTEX
  8
M59LXLIFT
 62
7
 10
6475.602
 20
-8513.514
 30
-549.000
 70
    32
  0
VERTEX
  8
M59LXLIFT
 62
7
 10
6468.851
 20
-8527.781
 30
-549.000
 70
    32
  0
VERTEX
  8
M59LXLIFT
 62
7
 10
6452.990
 20
-8537.655
 30
-549.000
 70
    32
  0
VERTEX
  8
M59LXLIFT
 62
7
 10
6445.967
 20
-8533.604
 30
-549.000
 70
    32
  0
VERTEX
  8
M59LXLIFT
 62
7
 10
6440.649
 20
-8528.762
 30
-549.000
 70
    32
  0
VERTEX
  8
M59LXLIFT
 62
7
 10
6437.062
 20
-8516.831
 30
-549.000
 70
    32
  0
VERTEX
  8
M59LXLIFT
 62
7
 10
6433.098
 20
-8493.370
 30
-549.000
 70
    32
  0
VERTEX
  8
M59LXLIFT
 62
7
 10
6423.775
 20
-8468.778
 30
-549.000
 70
    32
  0
VERTEX
  8
M59LXLIFT
 62
7
 10
6417.637
 20
-8446.662
 30
-549.000
 70
    32
  0
VERTEX
  8
M59LXLIFT
 62
7
 10
6411.571
 20
-8437.160
 30
-549.000
 70
    32
  0
VERTEX
  8
M59LXLIFT
 62
7
 10
6415.970
 20
-8434.542
 30
-549.000
 70
    32
  0
VERTEX
  8
M59LXLIFT
 62
7
 10
6440.257
 20
-8445.900
 30
-549.000
 70
    32
  0
VERTEX
  8
M59LXLIFT
 62
7
 10
6452.333
 20
-8451.410
 30
-549.000
 70
    32
  0
VERTEX
  8
M59LXLIFT
 62
7
 10
6459.916
 20
-8450.512
 30
-549.000
 70
    32
  0
SEQEND
  8
M59LXLIFT
  0
POLYLINE
  8
M59LXLIFT
 62
7
 66
     1
 70
     9
  0
VERTEX
  8
M59LXLIFT
 62
7
 10
6480.093
 20
-8569.032
 30
-580.000
 70
    32
  0
VERTEX
  8
M59LXLIFT
 62
7
 10
6484.633
 20
-8557.024
 30
-580.000
 70
    32
  0
VERTEX
  8
M59LXLIFT
 62
7
 10
6489.456
 20
-8548.469
 30
-580.000
 70
    32
  0
VERTEX
  8
M59LXLIFT
 62
7
 10
6494.116
 20
-8543.037
 30
-580.000
 70
    32
  0
VERTEX
  8
M59LXLIFT
 62
7
 10
6493.818
 20
-8522.942
 30
-580.000
 70
    32
  0
VERTEX
  8
M59LXLIFT
 62
7
 10
6493.702
 20
-8510.884
 30
-580.000
 70
    32
  0
VERTEX
  8
M59LXLIFT
 62
7
 10
6492.597
 20
-8504.894
 30
-580.000
 70
    32
  0
VERTEX
  8
M59LXLIFT
 62
7
 10
6496.384
 20
-8484.499
 30
-580.000
 70
    32
  0
VERTEX
  8
M59LXLIFT
 62
7
 10
6496.123
 20
-8469.642
 30
-580.000
 70
    32
  0
VERTEX
  8
M59LXLIFT
 62
7
 10
6488.171
 20
-8450.427
 30
-580.000
 70
    32
  0
VERTEX
  8
M59LXLIFT
 62
7
 10
6478.755
 20
-8432.029
 30
-580.000
 70
    32
  0
VERTEX
  8
M59LXLIFT
 62
7
 10
6469.922
 20
-8416.443
 30
-580.000
 70
    32
  0
VERTEX
  8
M59LXLIFT
 62
7
 10
6462.591
 20
-8407.105
 30
-580.000
 70
    32
  0
VERTEX
  8
M59LXLIFT
 62
7
 10
6456.209
 20
-8407.196
 30
-580.000
 70
    32
  0
VERTEX
  8
M59LXLIFT
 62
7
 10
6454.106
 20
-8413.513
 30
-580.000
 70
    32
  0
VERTEX
  8
M59LXLIFT
 62
7
 10
6455.708
 20
-8419.904
 30
-580.000
 70
    32
  0
VERTEX
  8
M59LXLIFT
 62
7
 10
6453.846
 20
-8425.191
 30
-580.000
 70
    32
  0
VERTEX
  8
M59LXLIFT
 62
7
 10
6442.718
 20
-8437.758
 30
-580.000
 70
    32
  0
VERTEX
  8
M59LXLIFT
 62
7
 10
6429.983
 20
-8454.144
 30
-580.000
 70
    32
  0
VERTEX
  8
M59LXLIFT
 62
7
 10
6440.330
 20
-8484.993
 30
-580.000
 70
    32
  0
VERTEX
  8
M59LXLIFT
 62
7
 10
6448.619
 20
-8508.805
 30
-580.000
 70
    32
  0
VERTEX
  8
M59LXLIFT
 62
7
 10
6454.472
 20
-8519.400
 30
-580.000
 70
    32
  0
VERTEX
  8
M59LXLIFT
 62
7
 10
6457.634
 20
-8527.700
 30
-580.000
 70
    32
  0
VERTEX
  8
M59LXLIFT
 62
7
 10
6455.272
 20
-8545.695
 30
-580.000
 70
    32
  0
VERTEX
  8
M59LXLIFT
 62
7
 10
6459.093
 20
-8562.556
 30
-580.000
 70
    32
  0
SEQEND
  8
M59LXLIFT
  0
POLYLINE
  8
M59LXLIFT
 62
7
 66
     1
 70
     9
  0
VERTEX
  8
M59LXLIFT
 62
7
 10
6482.187
 20
-8576.307
 30
-611.000
 70
    32
  0
VERTEX
  8
M59LXLIFT
 62
7
 10
6491.458
 20
-8565.321
 30
-611.000
 70
    32
  0
VERTEX
  8
M59LXLIFT
 62
7
 10
6503.330
 20
-8548.038
 30
-611.000
 70
    32
  0
VERTEX
  8
M59LXLIFT
 62
7
 10
6509.563
 20
-8526.818
 30
-611.000
 70
    32
  0
VERTEX
  8
M59LXLIFT
 62
7
 10
6507.574
 20
-8490.558
 30
-611.000
 70
    32
  0
VERTEX
  8
M59LXLIFT
 62
7
 10
6510.677
 20
-8481.956
 30
-611.000
 70
    32
  0
VERTEX
  8
M59LXLIFT
 62
7
 10
6497.572
 20
-8430.687
 30
-611.000
 70
    32
  0
VERTEX
  8
M59LXLIFT
 62
7
 10
6496.565
 20
-8424.932
 30
-611.000
 70
    32
  0
VERTEX
  8
M59LXLIFT
 62
7
 10
6481.360
 20
-8422.258
 30
-611.000
 70
    32
  0
VERTEX
  8
M59LXLIFT
 62
7
 10
6464.270
 20
-8423.422
 30
-611.000
 70
    32
  0
VERTEX
  8
M59LXLIFT
 62
7
 10
6444.443
 20
-8432.494
 30
-611.000
 70
    32
  0
VERTEX
  8
M59LXLIFT
 62
7
 10
6443.571
 20
-8443.597
 30
-611.000
 70
    32
  0
VERTEX
  8
M59LXLIFT
 62
7
 10
6446.983
 20
-8449.243
 30
-611.000
 70
    32
  0
VERTEX
  8
M59LXLIFT
 62
7
 10
6450.654
 20
-8453.298
 30
-611.000
 70
    32
  0
VERTEX
  8
M59LXLIFT
 62
7
 10
6449.297
 20
-8475.441
 30
-611.000
 70
    32
  0
VERTEX
  8
M59LXLIFT
 62
7
 10
6452.940
 20
-8496.579
 30
-611.000
 70
    32
  0
VERTEX
  8
M59LXLIFT
 62
7
 10
6459.424
 20
-8513.408
 30
-611.000
 70
    32
  0
VERTEX
  8
M59LXLIFT
 62
7
 10
6459.159
 20
-8536.169
 30
-611.000
 70
    32
  0
VERTEX
  8
M59LXLIFT
 62
7
 10
6457.784
 20
-8549.576
 30
-611.000
 70
    32
  0
VERTEX
  8
M59LXLIFT
 62
7
 10
6462.721
 20
-8577.020
 30
-611.000
 70
    32
  0
SEQEND
  8
M59LXLIFT
  0
POLYLINE
  8
M59LXLIFT
 62
7
 66
     1
 70
     9
  0
VERTEX
  8
M59LXLIFT
 62
7
 10
6492.555
 20
-8581.845
 30
-622.000
 70
    32
  0
VERTEX
  8
M59LXLIFT
 62
7
 10
6499.367
 20
-8574.943
 30
-622.000
 70
    32
  0
VERTEX
  8
M59LXLIFT
 62
7
 10
6502.700
 20
-8567.774
 30
-622.000
 70
    32
  0
VERTEX
  8
M59LXLIFT
 62
7
 10
6512.546
 20
-8537.193
 30
-622.000
 70
    32
  0
VERTEX
  8
M59LXLIFT
 62
7
 10
6514.724
 20
-8512.505
 30
-622.000
 70
    32
  0
VERTEX
  8
M59LXLIFT
 62
7
 10
6513.265
 20
-8476.403
 30
-622.000
 70
    32
  0
VERTEX
  8
M59LXLIFT
 62
7
 10
6503.276
 20
-8443.551
 30
-622.000
 70
    32
  0
VERTEX
  8
M59LXLIFT
 62
7
 10
6493.401
 20
-8439.814
 30
-622.000
 70
    32
  0
VERTEX
  8
M59LXLIFT
 62
7
 10
6480.100
 20
-8435.880
 30
-622.000
 70
    32
  0
VERTEX
  8
M59LXLIFT
 62
7
 10
6468.215
 20
-8435.928
 30
-622.000
 70
    32
  0
VERTEX
  8
M59LXLIFT
 62
7
 10
6458.696
 20
-8439.911
 30
-622.000
 70
    32
  0
VERTEX
  8
M59LXLIFT
 62
7
 10
6454.361
 20
-8447.056
 30
-622.000
 70
    32
  0
VERTEX
  8
M59LXLIFT
 62
7
 10
6458.339
 20
-8462.922
 30
-622.000
 70
    32
  0
VERTEX
  8
M59LXLIFT
 62
7
 10
6458.547
 20
-8474.579
 30
-622.000
 70
    32
  0
VERTEX
  8
M59LXLIFT
 62
7
 10
6466.476
 20
-8496.817
 30
-622.000
 70
    32
  0
VERTEX
  8
M59LXLIFT
 62
7
 10
6470.663
 20
-8540.743
 30
-622.000
 70
    32
  0
VERTEX
  8
M59LXLIFT
 62
7
 10
6473.396
 20
-8564.529
 30
-622.000
 70
    32
  0
VERTEX
  8
M59LXLIFT
 62
7
 10
6477.846
 20
-8578.077
 30
-622.000
 70
    32
  0
SEQEND
  8
M59LXLIFT
  0
POLYLINE
  8
M59LXLIFT
 62
8
 66
     1
 70
     9
  0
VERTEX
  8
M59LXLIFT
 62
8
 10
6472.186
 20
-8337.925
 30
-577.000
 70
    32
  0
VERTEX
  8
M59LXLIFT
 62
8
 10
6466.927
 20
-8338.085
 30
-577.000
 70
    32
  0
VERTEX
  8
M59LXLIFT
 62
8
 10
6465.126
 20
-8341.932
 30
-577.000
 70
    32
  0
VERTEX
  8
M59LXLIFT
 62
8
 10
6463.336
 20
-8351.895
 30
-577.000
 70
    32
  0
VERTEX
  8
M59LXLIFT
 62
8
 10
6453.998
 20
-8359.227
 30
-577.000
 70
    32
  0
VERTEX
  8
M59LXLIFT
 62
8
 10
6455.510
 20
-8366.863
 30
-577.000
 70
    32
  0
VERTEX
  8
M59LXLIFT
 62
8
 10
6460.526
 20
-8393.196
 30
-577.000
 70
    32
  0
VERTEX
  8
M59LXLIFT
 62
8
 10
6459.691
 20
-8397.652
 30
-577.000
 70
    32
  0
VERTEX
  8
M59LXLIFT
 62
8
 10
6454.737
 20
-8401.142
 30
-577.000
 70
    32
  0
VERTEX
  8
M59LXLIFT
 62
8
 10
6434.967
 20
-8406.477
 30
-577.000
 70
    32
  0
VERTEX
  8
M59LXLIFT
 62
8
 10
6432.376
 20
-8410.881
 30
-577.000
 70
    32
  0
VERTEX
  8
M59LXLIFT
 62
8
 10
6434.639
 20
-8414.550
 30
-577.000
 70
    32
  0
VERTEX
  8
M59LXLIFT
 62
8
 10
6437.986
 20
-8414.878
 30
-577.000
 70
    32
  0
VERTEX
  8
M59LXLIFT
 62
8
 10
6447.714
 20
-8410.388
 30
-577.000
 70
    32
  0
VERTEX
  8
M59LXLIFT
 62
8
 10
6456.361
 20
-8407.412
 30
-577.000
 70
    32
  0
VERTEX
  8
M59LXLIFT
 62
8
 10
6460.991
 20
-8406.512
 30
-577.000
 70
    32
  0
VERTEX
  8
M59LXLIFT
 62
8
 10
6466.419
 20
-8411.928
 30
-577.000
 70
    32
  0
VERTEX
  8
M59LXLIFT
 62
8
 10
6470.947
 20
-8417.440
 30
-577.000
 70
    32
  0
VERTEX
  8
M59LXLIFT
 62
8
 10
6477.245
 20
-8420.738
 30
-577.000
 70
    32
  0
VERTEX
  8
M59LXLIFT
 62
8
 10
6483.777
 20
-8413.235
 30
-577.000
 70
    32
  0
VERTEX
  8
M59LXLIFT
 62
8
 10
6480.158
 20
-8406.116
 30
-577.000
 70
    32
  0
VERTEX
  8
M59LXLIFT
 62
8
 10
6479.175
 20
-8395.420
 30
-577.000
 70
    32
  0
VERTEX
  8
M59LXLIFT
 62
8
 10
6479.968
 20
-8386.481
 30
-577.000
 70
    32
  0
VERTEX
  8
M59LXLIFT
 62
8
 10
6474.871
 20
-8371.164
 30
-577.000
 70
    32
  0
VERTEX
  8
M59LXLIFT
 62
8
 10
6471.434
 20
-8348.446
 30
-577.000
 70
    32
  0
SEQEND
  8
M59LXLIFT
  0
POLYLINE
  8
M59LXLIFT
 62
8
 66
     1
 70
     9
  0
VERTEX
  8
M59LXLIFT
 62
8
 10
6428.794
 20
-8412.676
 30
-588.000
 70
    32
  0
VERTEX
  8
M59LXLIFT
 62
8
 10
6462.861
 20
-8401.302
 30
-588.000
 70
    32
  0
VERTEX
  8
M59LXLIFT
 62
8
 10
6465.753
 20
-8403.140
 30
-588.000
 70
    32
  0
VERTEX
  8
M59LXLIFT
 62
8
 10
6469.459
 20
-8412.125
 30
-588.000
 70
    32
  0
VERTEX
  8
M59LXLIFT
 62
8
 10
6473.552
 20
-8415.374
 30
-588.000
 70
    32
  0
VERTEX
  8
M59LXLIFT
 62
8
 10
6477.598
 20
-8414.262
 30
-588.000
 70
    32
  0
VERTEX
  8
M59LXLIFT
 62
8
 10
6485.923
 20
-8398.261
 30
-588.000
 70
    32
  0
VERTEX
  8
M59LXLIFT
 62
8
 10
6488.079
 20
-8384.322
 30
-588.000
 70
    32
  0
VERTEX
  8
M59LXLIFT
 62
8
 10
6489.695
 20
-8371.296
 30
-588.000
 70
    32
  0
VERTEX
  8
M59LXLIFT
 62
8
 10
6480.771
 20
-8352.238
 30
-588.000
 70
    32
  0
VERTEX
  8
M59LXLIFT
 62
8
 10
6476.808
 20
-8348.254
 30
-588.000
 70
    32
  0
VERTEX
  8
M59LXLIFT
 62
8
 10
6476.683
 20
-8342.554
 30
-588.000
 70
    32
  0
VERTEX
  8
M59LXLIFT
 62
8
 10
6468.721
 20
-8345.117
 30
-588.000
 70
    32
  0
VERTEX
  8
M59LXLIFT
 62
8
 10
6465.502
 20
-8365.051
 30
-588.000
 70
    32
  0
VERTEX
  8
M59LXLIFT
 62
8
 10
6463.937
 20
-8378.149
 30
-588.000
 70
    32
  0
VERTEX
  8
M59LXLIFT
 62
8
 10
6464.397
 20
-8388.010
 30
-588.000
 70
    32
  0
VERTEX
  8
M59LXLIFT
 62
8
 10
6465.028
 20
-8391.213
 30
-588.000
 70
    32
  0
VERTEX
  8
M59LXLIFT
 62
8
 10
6463.435
 20
-8394.148
 30
-588.000
 70
    32
  0
VERTEX
  8
M59LXLIFT
 62
8
 10
6445.688
 20
-8400.655
 30
-588.000
 70
    32
  0
VERTEX
  8
M59LXLIFT
 62
8
 10
6427.677
 20
-8405.096
 30
-588.000
 70
    32
  0
SEQEND
  8
M59LXLIFT
  0
POLYLINE
  8
M59LXLIFT
 62
8
 66
     1
 70
     9
  0
VERTEX
  8
M59LXLIFT
 62
8
 10
6489.827
 20
-8414.568
 30
-596.000
 70
    32
  0
VERTEX
  8
M59LXLIFT
 62
8
 10
6490.730
 20
-8400.608
 30
-596.000
 70
    32
  0
VERTEX
  8
M59LXLIFT
 62
8
 10
6496.100
 20
-8390.908
 30
-596.000
 70
    32
  0
VERTEX
  8
M59LXLIFT
 62
8
 10
6496.748
 20
-8368.909
 30
-596.000
 70
    32
  0
VERTEX
  8
M59LXLIFT
 62
8
 10
6498.007
 20
-8358.157
 30
-596.000
 70
    32
  0
VERTEX
  8
M59LXLIFT
 62
8
 10
6486.248
 20
-8335.004
 30
-596.000
 70
    32
  0
VERTEX
  8
M59LXLIFT
 62
8
 10
6480.216
 20
-8333.385
 30
-596.000
 70
    32
  0
VERTEX
  8
M59LXLIFT
 62
8
 10
6467.547
 20
-8353.413
 30
-596.000
 70
    32
  0
VERTEX
  8
M59LXLIFT
 62
8
 10
6470.265
 20
-8373.320
 30
-596.000
 70
    32
  0
VERTEX
  8
M59LXLIFT
 62
8
 10
6468.454
 20
-8387.823
 30
-596.000
 70
    32
  0
VERTEX
  8
M59LXLIFT
 62
8
 10
6468.505
 20
-8395.578
 30
-596.000
 70
    32
  0
VERTEX
  8
M59LXLIFT
 62
8
 10
6480.365
 20
-8414.654
 30
-596.000
 70
    32
  0
SEQEND
  8
M59LXLIFT
  0
POLYLINE
  8
M59LXLIFT
 62
8
 66
     1
 70
     9
  0
VERTEX
  8
M59LXLIFT
 62
8
 10
6473.923
 20
-8437.532
 30
-646.000
 70
    32
  0
VERTEX
  8
M59LXLIFT
 62
8
 10
6475.454
 20
-8428.778
 30
-646.000
 70
    32
  0
VERTEX
  8
M59LXLIFT
 62
8
 10
6474.735
 20
-8410.510
 30
-646.000
 70
    32
  0
VERTEX
  8
M59LXLIFT
 62
8
 10
6480.273
 20
-8387.998
 30
-646.000
 70
    32
  0
VERTEX
  8
M59LXLIFT
 62
8
 10
6505.575
 20
-8403.203
 30
-646.000
 70
    32
  0
VERTEX
  8
M59LXLIFT
 62
8
 10
6516.890
 20
-8409.384
 30
-646.000
 70
    32
  0
VERTEX
  8
M59LXLIFT
 62
8
 10
6523.225
 20
-8397.529
 30
-646.000
 70
    32
  0
VERTEX
  8
M59LXLIFT
 62
8
 10
6516.553
 20
-8386.202
 30
-646.000
 70
    32
  0
VERTEX
  8
M59LXLIFT
 62
8
 10
6513.991
 20
-8361.261
 30
-646.000
 70
    32
  0
VERTEX
  8
M59LXLIFT
 62
8
 10
6511.651
 20
-8351.165
 30
-646.000
 70
    32
  0
VERTEX
  8
M59LXLIFT
 62
8
 10
6497.468
 20
-8342.172
 30
-646.000
 70
    32
  0
VERTEX
  8
M59LXLIFT
 62
8
 10
6489.587
 20
-8335.810
 30
-646.000
 70
    32
  0
VERTEX
  8
M59LXLIFT
 62
8
 10
6478.496
 20
-8342.205
 30
-646.000
 70
    32
  0
VERTEX
  8
M59LXLIFT
 62
8
 10
6474.393
 20
-8349.016
 30
-646.000
 70
    32
  0
VERTEX
  8
M59LXLIFT
 62
8
 10
6474.649
 20
-8359.519
 30
-646.000
 70
    32
  0
VERTEX
  8
M59LXLIFT
 62
8
 10
6473.130
 20
-8367.078
 30
-646.000
 70
    32
  0
VERTEX
  8
M59LXLIFT
 62
8
 10
6463.869
 20
-8382.854
 30
-646.000
 70
    32
  0
VERTEX
  8
M59LXLIFT
 62
8
 10
6464.046
 20
-8402.480
 30
-646.000
 70
    32
  0
VERTEX
  8
M59LXLIFT
 62
8
 10
6463.443
 20
-8412.839
 30
-646.000
 70
    32
  0
VERTEX
  8
M59LXLIFT
 62
8
 10
6461.936
 20
-8419.203
 30
-646.000
 70
    32
  0
VERTEX
  8
M59LXLIFT
 62
8
 10
6464.703
 20
-8432.017
 30
-646.000
 70
    32
  0
SEQEND
  8
M59LXLIFT
  0
POLYLINE
  8
M59LXLIFT
 62
7
 66
     1
 70
     9
  0
VERTEX
  8
M59LXLIFT
 62
7
 10
6482.052
 20
-8419.146
 30
-652.000
 70
    32
  0
VERTEX
  8
M59LXLIFT
 62
7
 10
6476.004
 20
-8439.248
 30
-652.000
 70
    32
  0
VERTEX
  8
M59LXLIFT
 62
7
 10
6466.716
 20
-8456.481
 30
-652.000
 70
    32
  0
VERTEX
  8
M59LXLIFT
 62
7
 10
6464.424
 20
-8469.142
 30
-652.000
 70
    32
  0
VERTEX
  8
M59LXLIFT
 62
7
 10
6470.960
 20
-8481.001
 30
-652.000
 70
    32
  0
VERTEX
  8
M59LXLIFT
 62
7
 10
6485.121
 20
-8514.855
 30
-652.000
 70
    32
  0
VERTEX
  8
M59LXLIFT
 62
7
 10
6489.135
 20
-8529.383
 30
-652.000
 70
    32
  0
VERTEX
  8
M59LXLIFT
 62
7
 10
6495.252
 20
-8541.865
 30
-652.000
 70
    32
  0
VERTEX
  8
M59LXLIFT
 62
7
 10
6507.525
 20
-8543.462
 30
-652.000
 70
    32
  0
VERTEX
  8
M59LXLIFT
 62
7
 10
6518.213
 20
-8543.599
 30
-652.000
 70
    32
  0
VERTEX
  8
M59LXLIFT
 62
7
 10
6532.708
 20
-8536.367
 30
-652.000
 70
    32
  0
VERTEX
  8
M59LXLIFT
 62
7
 10
6535.207
 20
-8530.041
 30
-652.000
 70
    32
  0
VERTEX
  8
M59LXLIFT
 62
7
 10
6525.051
 20
-8512.666
 30
-652.000
 70
    32
  0
VERTEX
  8
M59LXLIFT
 62
7
 10
6522.041
 20
-8501.203
 30
-652.000
 70
    32
  0
VERTEX
  8
M59LXLIFT
 62
7
 10
6521.671
 20
-8481.044
 30
-652.000
 70
    32
  0
VERTEX
  8
M59LXLIFT
 62
7
 10
6504.729
 20
-8443.452
 30
-652.000
 70
    32
  0
VERTEX
  8
M59LXLIFT
 62
7
 10
6495.262
 20
-8416.615
 30
-652.000
 70
    32
  0
SEQEND
  8
M59LXLIFT
  0
POLYLINE
  8
M59LXLIFT
 62
8
 66
     1
 70
     9
  0
VERTEX
  8
M59LXLIFT
 62
8
 10
6524.368
 20
-8390.073
 30
-658.000
 70
    32
  0
VERTEX
  8
M59LXLIFT
 62
8
 10
6519.056
 20
-8373.880
 30
-658.000
 70
    32
  0
VERTEX
  8
M59LXLIFT
 62
8
 10
6520.632
 20
-8360.218
 30
-658.000
 70
    32
  0
VERTEX
  8
M59LXLIFT
 62
8
 10
6518.956
 20
-8343.370
 30
-658.000
 70
    32
  0
VERTEX
  8
M59LXLIFT
 62
8
 10
6511.937
 20
-8343.527
 30
-658.000
 70
    32
  0
VERTEX
  8
M59LXLIFT
 62
8
 10
6505.326
 20
-8343.500
 30
-658.000
 70
    32
  0
VERTEX
  8
M59LXLIFT
 62
8
 10
6497.400
 20
-8349.493
 30
-658.000
 70
    32
  0
VERTEX
  8
M59LXLIFT
 62
8
 10
6487.328
 20
-8353.238
 30
-658.000
 70
    32
  0
VERTEX
  8
M59LXLIFT
 62
8
 10
6478.062
 20
-8357.055
 30
-658.000
 70
    32
  0
VERTEX
  8
M59LXLIFT
 62
8
 10
6469.425
 20
-8369.607
 30
-658.000
 70
    32
  0
VERTEX
  8
M59LXLIFT
 62
8
 10
6464.748
 20
-8374.249
 30
-658.000
 70
    32
  0
VERTEX
  8
M59LXLIFT
 62
8
 10
6462.003
 20
-8381.290
 30
-658.000
 70
    32
  0
VERTEX
  8
M59LXLIFT
 62
8
 10
6462.307
 20
-8394.257
 30
-658.000
 70
    32
  0
VERTEX
  8
M59LXLIFT
 62
8
 10
6462.388
 20
-8410.840
 30
-658.000
 70
    32
  0
VERTEX
  8
M59LXLIFT
 62
8
 10
6460.304
 20
-8428.324
 30
-658.000
 70
    32
  0
VERTEX
  8
M59LXLIFT
 62
8
 10
6461.590
 20
-8444.478
 30
-658.000
 70
    32
  0
VERTEX
  8
M59LXLIFT
 62
8
 10
6461.532
 20
-8450.138
 30
-658.000
 70
    32
  0
VERTEX
  8
M59LXLIFT
 62
8
 10
6463.822
 20
-8451.527
 30
-658.000
 70
    32
  0
VERTEX
  8
M59LXLIFT
 62
8
 10
6469.828
 20
-8448.744
 30
-658.000
 70
    32
  0
VERTEX
  8
M59LXLIFT
 62
8
 10
6474.339
 20
-8439.791
 30
-658.000
 70
    32
  0
VERTEX
  8
M59LXLIFT
 62
8
 10
6479.525
 20
-8412.741
 30
-658.000
 70
    32
  0
VERTEX
  8
M59LXLIFT
 62
8
 10
6480.165
 20
-8389.158
 30
-658.000
 70
    32
  0
VERTEX
  8
M59LXLIFT
 62
8
 10
6485.233
 20
-8388.235
 30
-658.000
 70
    32
  0
VERTEX
  8
M59LXLIFT
 62
8
 10
6494.931
 20
-8391.673
 30
-658.000
 70
    32
  0
VERTEX
  8
M59LXLIFT
 62
8
 10
6502.132
 20
-8404.462
 30
-658.000
 70
    32
  0
VERTEX
  8
M59LXLIFT
 62
8
 10
6509.267
 20
-8409.301
 30
-658.000
 70
    32
  0
VERTEX
  8
M59LXLIFT
 62
8
 10
6515.735
 20
-8410.186
 30
-658.000
 70
    32
  0
VERTEX
  8
M59LXLIFT
 62
8
 10
6519.153
 20
-8401.366
 30
-658.000
 70
    32
  0
SEQEND
  8
M59LXLIFT
  0
POLYLINE
  8
M59LXLIFT
 62
7
 66
     1
 70
     9
  0
VERTEX
  8
M59LXLIFT
 62
7
 10
6485.532
 20
-8573.776
 30
-590.000
 70
    32
  0
VERTEX
  8
M59LXLIFT
 62
7
 10
6495.998
 20
-8545.347
 30
-590.000
 70
    32
  0
VERTEX
  8
M59LXLIFT
 62
7
 10
6499.188
 20
-8516.323
 30
-590.000
 70
    32
  0
VERTEX
  8
M59LXLIFT
 62
7
 10
6497.870
 20
-8490.663
 30
-590.000
 70
    32
  0
VERTEX
  8
M59LXLIFT
 62
7
 10
6488.899
 20
-8458.347
 30
-590.000
 70
    32
  0
VERTEX
  8
M59LXLIFT
 62
7
 10
6477.822
 20
-8431.147
 30
-590.000
 70
    32
  0
VERTEX
  8
M59LXLIFT
 62
7
 10
6463.998
 20
-8419.800
 30
-590.000
 70
    32
  0
VERTEX
  8
M59LXLIFT
 62
7
 10
6456.931
 20
-8418.737
 30
-590.000
 70
    32
  0
VERTEX
  8
M59LXLIFT
 62
7
 10
6436.983
 20
-8432.676
 30
-590.000
 70
    32
  0
VERTEX
  8
M59LXLIFT
 62
7
 10
6428.620
 20
-8441.415
 30
-590.000
 70
    32
  0
VERTEX
  8
M59LXLIFT
 62
7
 10
6433.998
 20
-8457.699
 30
-590.000
 70
    32
  0
VERTEX
  8
M59LXLIFT
 62
7
 10
6440.686
 20
-8482.607
 30
-590.000
 70
    32
  0
VERTEX
  8
M59LXLIFT
 62
7
 10
6451.119
 20
-8504.899
 30
-590.000
 70
    32
  0
VERTEX
  8
M59LXLIFT
 62
7
 10
6458.490
 20
-8522.041
 30
-590.000
 70
    32
  0
VERTEX
  8
M59LXLIFT
 62
7
 10
6466.724
 20
-8557.445
 30
-590.000
 70
    32
  0
VERTEX
  8
M59LXLIFT
 62
7
 10
6468.148
 20
-8567.918
 30
-590.000
 70
    32
  0
VERTEX
  8
M59LXLIFT
 62
7
 10
6474.759
 20
-8572.623
 30
-590.000
 70
    32
  0
SEQEND
  8
M59LXLIFT
  0
POLYLINE
  8
M59LXLIFT
 62
7
 66
     1
 70
     9
  0
VERTEX
  8
M59LXLIFT
 62
7
 10
6479.443
 20
-8575.039
 30
-601.000
 70
    32
  0
VERTEX
  8
M59LXLIFT
 62
7
 10
6494.358
 20
-8566.275
 30
-601.000
 70
    32
  0
VERTEX
  8
M59LXLIFT
 62
7
 10
6500.725
 20
-8555.101
 30
-601.000
 70
    32
  0
VERTEX
  8
M59LXLIFT
 62
7
 10
6503.890
 20
-8530.428
 30
-601.000
 70
    32
  0
VERTEX
  8
M59LXLIFT
 62
7
 10
6501.314
 20
-8498.515
 30
-601.000
 70
    32
  0
VERTEX
  8
M59LXLIFT
 62
7
 10
6503.383
 20
-8480.905
 30
-601.000
 70
    32
  0
VERTEX
  8
M59LXLIFT
 62
7
 10
6500.779
 20
-8465.678
 30
-601.000
 70
    32
  0
VERTEX
  8
M59LXLIFT
 62
7
 10
6493.536
 20
-8446.099
 30
-601.000
 70
    32
  0
VERTEX
  8
M59LXLIFT
 62
7
 10
6489.381
 20
-8431.877
 30
-601.000
 70
    32
  0
VERTEX
  8
M59LXLIFT
 62
7
 10
6468.366
 20
-8432.903
 30
-601.000
 70
    32
  0
VERTEX
  8
M59LXLIFT
 62
7
 10
6460.195
 20
-8437.797
 30
-601.000
 70
    32
  0
VERTEX
  8
M59LXLIFT
 62
7
 10
6450.781
 20
-8448.346
 30
-601.000
 70
    32
  0
VERTEX
  8
M59LXLIFT
 62
7
 10
6445.292
 20
-8455.318
 30
-601.000
 70
    32
  0
VERTEX
  8
M59LXLIFT
 62
7
 10
6448.032
 20
-8471.638
 30
-601.000
 70
    32
  0
VERTEX
  8
M59LXLIFT
 62
7
 10
6446.675
 20
-8492.199
 30
-601.000
 70
    32
  0
VERTEX
  8
M59LXLIFT
 62
7
 10
6454.997
 20
-8505.593
 30
-601.000
 70
    32
  0
VERTEX
  8
M59LXLIFT
 62
7
 10
6457.922
 20
-8514.638
 30
-601.000
 70
    32
  0
VERTEX
  8
M59LXLIFT
 62
7
 10
6458.572
 20
-8524.885
 30
-601.000
 70
    32
  0
VERTEX
  8
M59LXLIFT
 62
7
 10
6461.043
 20
-8536.312
 30
-601.000
 70
    32
  0
VERTEX
  8
M59LXLIFT
 62
7
 10
6461.543
 20
-8547.856
 30
-601.000
 70
    32
  0
VERTEX
  8
M59LXLIFT
 62
7
 10
6458.381
 20
-8557.918
 30
-601.000
 70
    32
  0
VERTEX
  8
M59LXLIFT
 62
7
 10
6462.867
 20
-8569.738
 30
-601.000
 70
    32
  0
SEQEND
  8
M59LXLIFT
  0
POLYLINE
  8
M59LXLIFT
 62
7
 66
     1
 70
     9
  0
VERTEX
  8
M59LXLIFT
 62
7
 10
6484.313
 20
-8420.507
 30
-632.000
 70
    32
  0
VERTEX
  8
M59LXLIFT
 62
7
 10
6473.753
 20
-8434.136
 30
-632.000
 70
    32
  0
VERTEX
  8
M59LXLIFT
 62
7
 10
6460.256
 20
-8417.424
 30
-632.000
 70
    32
  0
VERTEX
  8
M59LXLIFT
 62
7
 10
6450.885
 20
-8416.573
 30
-632.000
 70
    32
  0
VERTEX
  8
M59LXLIFT
 62
7
 10
6446.639
 20
-8419.401
 30
-632.000
 70
    32
  0
VERTEX
  8
M59LXLIFT
 62
7
 10
6450.194
 20
-8424.207
 30
-632.000
 70
    32
  0
VERTEX
  8
M59LXLIFT
 62
7
 10
6446.607
 20
-8434.891
 30
-632.000
 70
    32
  0
VERTEX
  8
M59LXLIFT
 62
7
 10
6451.930
 20
-8451.515
 30
-632.000
 70
    32
  0
VERTEX
  8
M59LXLIFT
 62
7
 10
6461.300
 20
-8468.806
 30
-632.000
 70
    32
  0
VERTEX
  8
M59LXLIFT
 62
7
 10
6463.173
 20
-8487.255
 30
-632.000
 70
    32
  0
VERTEX
  8
M59LXLIFT
 62
7
 10
6471.307
 20
-8531.931
 30
-632.000
 70
    32
  0
VERTEX
  8
M59LXLIFT
 62
7
 10
6477.847
 20
-8554.929
 30
-632.000
 70
    32
  0
VERTEX
  8
M59LXLIFT
 62
7
 10
6483.963
 20
-8569.038
 30
-632.000
 70
    32
  0
VERTEX
  8
M59LXLIFT
 62
7
 10
6488.805
 20
-8585.142
 30
-632.000
 70
    32
  0
VERTEX
  8
M59LXLIFT
 62
7
 10
6505.344
 20
-8594.481
 30
-632.000
 70
    32
  0
VERTEX
  8
M59LXLIFT
 62
7
 10
6516.726
 20
-8583.507
 30
-632.000
 70
    32
  0
VERTEX
  8
M59LXLIFT
 62
7
 10
6518.091
 20
-8559.166
 30
-632.000
 70
    32
  0
VERTEX
  8
M59LXLIFT
 62
7
 10
6523.499
 20
-8543.933
 30
-632.000
 70
    32
  0
VERTEX
  8
M59LXLIFT
 62
7
 10
6522.560
 20
-8522.110
 30
-632.000
 70
    32
  0
VERTEX
  8
M59LXLIFT
 62
7
 10
6515.407
 20
-8494.035
 30
-632.000
 70
    32
  0
VERTEX
  8
M59LXLIFT
 62
7
 10
6519.060
 20
-8480.276
 30
-632.000
 70
    32
  0
VERTEX
  8
M59LXLIFT
 62
7
 10
6506.663
 20
-8450.770
 30
-632.000
 70
    32
  0
VERTEX
  8
M59LXLIFT
 62
7
 10
6497.963
 20
-8420.236
 30
-632.000
 70
    32
  0
SEQEND
  8
M59LXLIFT
  0
POLYLINE
  8
M59LXLIFT
 62
7
 66
     1
 70
     9
  0
VERTEX
  8
M59LXLIFT
 62
7
 10
6527.849
 20
-8534.977
 30
-642.000
 70
    32
  0
VERTEX
  8
M59LXLIFT
 62
7
 10
6521.647
 20
-8513.710
 30
-642.000
 70
    32
  0
VERTEX
  8
M59LXLIFT
 62
7
 10
6520.846
 20
-8484.275
 30
-642.000
 70
    32
  0
VERTEX
  8
M59LXLIFT
 62
7
 10
6514.802
 20
-8457.931
 30
-642.000
 70
    32
  0
VERTEX
  8
M59LXLIFT
 62
7
 10
6500.916
 20
-8425.736
 30
-642.000
 70
    32
  0
VERTEX
  8
M59LXLIFT
 62
7
 10
6493.384
 20
-8428.192
 30
-642.000
 70
    32
  0
VERTEX
  8
M59LXLIFT
 62
7
 10
6485.358
 20
-8435.101
 30
-642.000
 70
    32
  0
VERTEX
  8
M59LXLIFT
 62
7
 10
6469.825
 20
-8439.051
 30
-642.000
 70
    32
  0
VERTEX
  8
M59LXLIFT
 62
7
 10
6459.505
 20
-8451.373
 30
-642.000
 70
    32
  0
VERTEX
  8
M59LXLIFT
 62
7
 10
6470.688
 20
-8467.362
 30
-642.000
 70
    32
  0
VERTEX
  8
M59LXLIFT
 62
7
 10
6475.890
 20
-8476.929
 30
-642.000
 70
    32
  0
VERTEX
  8
M59LXLIFT
 62
7
 10
6482.362
 20
-8504.479
 30
-642.000
 70
    32
  0
VERTEX
  8
M59LXLIFT
 62
7
 10
6484.477
 20
-8515.924
 30
-642.000
 70
    32
  0
VERTEX
  8
M59LXLIFT
 62
7
 10
6483.150
 20
-8525.720
 30
-642.000
 70
    32
  0
VERTEX
  8
M59LXLIFT
 62
7
 10
6487.429
 20
-8538.536
 30
-642.000
 70
    32
  0
VERTEX
  8
M59LXLIFT
 62
7
 10
6496.182
 20
-8541.578
 30
-642.000
 70
    32
  0
VERTEX
  8
M59LXLIFT
 62
7
 10
6510.319
 20
-8543.696
 30
-642.000
 70
    32
  0
VERTEX
  8
M59LXLIFT
 62
7
 10
6516.942
 20
-8541.025
 30
-642.000
 70
    32
  0
SEQEND
  8
M59LXLIFT
  0
POLYLINE
  8
M59LXLIFT
 62
8
 66
     1
 70
     9
  0
VERTEX
  8
M59LXLIFT
 62
8
 10
6468.524
 20
-8417.273
 30
-568.000
 70
    32
  0
VERTEX
  8
M59LXLIFT
 62
8
 10
6471.471
 20
-8406.045
 30
-568.000
 70
    32
  0
VERTEX
  8
M59LXLIFT
 62
8
 10
6470.897
 20
-8397.301
 30
-568.000
 70
    32
  0
VERTEX
  8
M59LXLIFT
 62
8
 10
6473.011
 20
-8390.536
 30
-568.000
 70
    32
  0
VERTEX
  8
M59LXLIFT
 62
8
 10
6465.899
 20
-8380.917
 30
-568.000
 70
    32
  0
VERTEX
  8
M59LXLIFT
 62
8
 10
6463.213
 20
-8364.300
 30
-568.000
 70
    32
  0
VERTEX
  8
M59LXLIFT
 62
8
 10
6463.117
 20
-8357.910
 30
-568.000
 70
    32
  0
VERTEX
  8
M59LXLIFT
 62
8
 10
6459.593
 20
-8353.832
 30
-568.000
 70
    32
  0
VERTEX
  8
M59LXLIFT
 62
8
 10
6451.703
 20
-8355.310
 30
-568.000
 70
    32
  0
VERTEX
  8
M59LXLIFT
 62
8
 10
6455.315
 20
-8361.802
 30
-568.000
 70
    32
  0
VERTEX
  8
M59LXLIFT
 62
8
 10
6453.404
 20
-8376.174
 30
-568.000
 70
    32
  0
VERTEX
  8
M59LXLIFT
 62
8
 10
6448.745
 20
-8395.499
 30
-568.000
 70
    32
  0
VERTEX
  8
M59LXLIFT
 62
8
 10
6448.693
 20
-8402.747
 30
-568.000
 70
    32
  0
VERTEX
  8
M59LXLIFT
 62
8
 10
6447.112
 20
-8405.692
 30
-568.000
 70
    32
  0
VERTEX
  8
M59LXLIFT
 62
8
 10
6449.479
 20
-8408.435
 30
-568.000
 70
    32
  0
VERTEX
  8
M59LXLIFT
 62
8
 10
6454.520
 20
-8409.936
 30
-568.000
 70
    32
  0
VERTEX
  8
M59LXLIFT
 62
8
 10
6459.355
 20
-8411.905
 30
-568.000
 70
    32
  0
VERTEX
  8
M59LXLIFT
 62
8
 10
6462.946
 20
-8416.689
 30
-568.000
 70
    32
  0
SEQEND
  8
M59LXLIFT
  0
POLYLINE
  8
M59LXLIFT
 62
8
 66
     1
 70
     9
  0
VERTEX
  8
M59LXLIFT
 62
8
 10
6478.557
 20
-8323.632
 30
-607.000
 70
    32
  0
VERTEX
  8
M59LXLIFT
 62
8
 10
6471.171
 20
-8336.795
 30
-607.000
 70
    32
  0
VERTEX
  8
M59LXLIFT
 62
8
 10
6470.970
 20
-8347.796
 30
-607.000
 70
    32
  0
VERTEX
  8
M59LXLIFT
 62
8
 10
6470.599
 20
-8368.163
 30
-607.000
 70
    32
  0
VERTEX
  8
M59LXLIFT
 62
8
 10
6467.457
 20
-8388.870
 30
-607.000
 70
    32
  0
VERTEX
  8
M59LXLIFT
 62
8
 10
6468.711
 20
-8397.663
 30
-607.000
 70
    32
  0
VERTEX
  8
M59LXLIFT
 62
8
 10
6472.179
 20
-8401.669
 30
-607.000
 70
    32
  0
VERTEX
  8
M59LXLIFT
 62
8
 10
6475.478
 20
-8408.482
 30
-607.000
 70
    32
  0
VERTEX
  8
M59LXLIFT
 62
8
 10
6503.399
 20
-8403.098
 30
-607.000
 70
    32
  0
VERTEX
  8
M59LXLIFT
 62
8
 10
6509.331
 20
-8398.701
 30
-607.000
 70
    32
  0
VERTEX
  8
M59LXLIFT
 62
8
 10
6508.848
 20
-8385.817
 30
-607.000
 70
    32
  0
VERTEX
  8
M59LXLIFT
 62
8
 10
6497.411
 20
-8353.884
 30
-607.000
 70
    32
  0
VERTEX
  8
M59LXLIFT
 62
8
 10
6495.351
 20
-8345.015
 30
-607.000
 70
    32
  0
VERTEX
  8
M59LXLIFT
 62
8
 10
6494.894
 20
-8333.080
 30
-607.000
 70
    32
  0
SEQEND
  8
M59LXLIFT
  0
POLYLINE
  8
M59LXLIFT
 62
8
 66
     1
 70
     9
  0
VERTEX
  8
M59LXLIFT
 62
8
 10
6501.976
 20
-8394.908
 30
-616.000
 70
    32
  0
VERTEX
  8
M59LXLIFT
 62
8
 10
6500.361
 20
-8383.650
 30
-616.000
 70
    32
  0
VERTEX
  8
M59LXLIFT
 62
8
 10
6502.902
 20
-8358.497
 30
-616.000
 70
    32
  0
VERTEX
  8
M59LXLIFT
 62
8
 10
6499.811
 20
-8341.281
 30
-616.000
 70
    32
  0
VERTEX
  8
M59LXLIFT
 62
8
 10
6504.058
 20
-8327.212
 30
-616.000
 70
    32
  0
VERTEX
  8
M59LXLIFT
 62
8
 10
6494.683
 20
-8321.533
 30
-616.000
 70
    32
  0
VERTEX
  8
M59LXLIFT
 62
8
 10
6490.636
 20
-8321.311
 30
-616.000
 70
    32
  0
VERTEX
  8
M59LXLIFT
 62
8
 10
6479.108
 20
-8327.657
 30
-616.000
 70
    32
  0
VERTEX
  8
M59LXLIFT
 62
8
 10
6474.269
 20
-8344.958
 30
-616.000
 70
    32
  0
VERTEX
  8
M59LXLIFT
 62
8
 10
6470.482
 20
-8356.213
 30
-616.000
 70
    32
  0
VERTEX
  8
M59LXLIFT
 62
8
 10
6475.133
 20
-8376.950
 30
-616.000
 70
    32
  0
VERTEX
  8
M59LXLIFT
 62
8
 10
6470.193
 20
-8394.110
 30
-616.000
 70
    32
  0
VERTEX
  8
M59LXLIFT
 62
8
 10
6488.386
 20
-8406.947
 30
-616.000
 70
    32
  0
SEQEND
  8
M59LXLIFT
  0
POLYLINE
  8
M59LXLIFT
 62
8
 66
     1
 70
     9
  0
VERTEX
  8
M59LXLIFT
 62
8
 10
6468.961
 20
-8407.091
 30
-558.000
 70
    32
  0
VERTEX
  8
M59LXLIFT
 62
8
 10
6465.672
 20
-8399.396
 30
-558.000
 70
    32
  0
VERTEX
  8
M59LXLIFT
 62
8
 10
6472.814
 20
-8389.386
 30
-558.000
 70
    32
  0
VERTEX
  8
M59LXLIFT
 62
8
 10
6465.038
 20
-8376.569
 30
-558.000
 70
    32
  0
VERTEX
  8
M59LXLIFT
 62
8
 10
6463.094
 20
-8369.862
 30
-558.000
 70
    32
  0
VERTEX
  8
M59LXLIFT
 62
8
 10
6458.699
 20
-8367.153
 30
-558.000
 70
    32
  0
VERTEX
  8
M59LXLIFT
 62
8
 10
6453.772
 20
-8369.023
 30
-558.000
 70
    32
  0
VERTEX
  8
M59LXLIFT
 62
8
 10
6451.715
 20
-8385.457
 30
-558.000
 70
    32
  0
VERTEX
  8
M59LXLIFT
 62
8
 10
6450.912
 20
-8393.460
 30
-558.000
 70
    32
  0
VERTEX
  8
M59LXLIFT
 62
8
 10
6447.364
 20
-8400.173
 30
-558.000
 70
    32
  0
VERTEX
  8
M59LXLIFT
 62
8
 10
6444.290
 20
-8403.749
 30
-558.000
 70
    32
  0
VERTEX
  8
M59LXLIFT
 62
8
 10
6434.340
 20
-8408.418
 30
-558.000
 70
    32
  0
VERTEX
  8
M59LXLIFT
 62
8
 10
6426.427
 20
-8412.617
 30
-558.000
 70
    32
  0
VERTEX
  8
M59LXLIFT
 62
8
 10
6424.098
 20
-8416.635
 30
-558.000
 70
    32
  0
VERTEX
  8
M59LXLIFT
 62
8
 10
6427.080
 20
-8422.068
 30
-558.000
 70
    32
  0
VERTEX
  8
M59LXLIFT
 62
8
 10
6438.881
 20
-8412.856
 30
-558.000
 70
    32
  0
VERTEX
  8
M59LXLIFT
 62
8
 10
6448.167
 20
-8408.010
 30
-558.000
 70
    32
  0
VERTEX
  8
M59LXLIFT
 62
8
 10
6458.669
 20
-8408.231
 30
-558.000
 70
    32
  0
VERTEX
  8
M59LXLIFT
 62
8
 10
6465.886
 20
-8413.253
 30
-558.000
 70
    32
  0
SEQEND
  8
M59LXLIFT
  0
POLYLINE
  8
M59LXLIFT
 62
8
 66
     1
 70
     9
  0
VERTEX
  8
M59LXLIFT
 62
8
 10
6484.815
 20
-8326.485
 30
-631.000
 70
    32
  0
VERTEX
  8
M59LXLIFT
 62
8
 10
6479.027
 20
-8329.878
 30
-631.000
 70
    32
  0
VERTEX
  8
M59LXLIFT
 62
8
 10
6477.451
 20
-8333.712
 30
-631.000
 70
    32
  0
VERTEX
  8
M59LXLIFT
 62
8
 10
6478.287
 20
-8349.660
 30
-631.000
 70
    32
  0
VERTEX
  8
M59LXLIFT
 62
8
 10
6475.503
 20
-8352.413
 30
-631.000
 70
    32
  0
VERTEX
  8
M59LXLIFT
 62
8
 10
6467.971
 20
-8362.573
 30
-631.000
 70
    32
  0
VERTEX
  8
M59LXLIFT
 62
8
 10
6471.256
 20
-8370.925
 30
-631.000
 70
    32
  0
VERTEX
  8
M59LXLIFT
 62
8
 10
6469.454
 20
-8391.036
 30
-631.000
 70
    32
  0
VERTEX
  8
M59LXLIFT
 62
8
 10
6470.248
 20
-8400.741
 30
-631.000
 70
    32
  0
VERTEX
  8
M59LXLIFT
 62
8
 10
6496.871
 20
-8415.395
 30
-631.000
 70
    32
  0
VERTEX
  8
M59LXLIFT
 62
8
 10
6500.794
 20
-8409.554
 30
-631.000
 70
    32
  0
VERTEX
  8
M59LXLIFT
 62
8
 10
6509.387
 20
-8409.773
 30
-631.000
 70
    32
  0
VERTEX
  8
M59LXLIFT
 62
8
 10
6514.147
 20
-8403.440
 30
-631.000
 70
    32
  0
VERTEX
  8
M59LXLIFT
 62
8
 10
6514.772
 20
-8387.418
 30
-631.000
 70
    32
  0
VERTEX
  8
M59LXLIFT
 62
8
 10
6509.627
 20
-8378.885
 30
-631.000
 70
    32
  0
VERTEX
  8
M59LXLIFT
 62
8
 10
6508.219
 20
-8369.079
 30
-631.000
 70
    32
  0
VERTEX
  8
M59LXLIFT
 62
8
 10
6509.562
 20
-8360.545
 30
-631.000
 70
    32
  0
VERTEX
  8
M59LXLIFT
 62
8
 10
6498.754
 20
-8344.718
 30
-631.000
 70
    32
  0
SEQEND
  8
M59LXLIFT
  0
POLYLINE
  8
M59LXLIFT
 62
1
 66
     1
 70
     9
  0
VERTEX
  8
M59LXLIFT
 62
1
 10
6454.808
 20
-8425.320
 30
-524.000
 70
    32
  0
VERTEX
  8
M59LXLIFT
 62
1
 10
6437.903
 20
-8422.331
 30
-524.000
 70
    32
  0
VERTEX
  8
M59LXLIFT
 62
1
 10
6427.721
 20
-8417.264
 30
-524.000
 70
    32
  0
VERTEX
  8
M59LXLIFT
 62
1
 10
6420.632
 20
-8414.423
 30
-524.000
 70
    32
  0
VERTEX
  8
M59LXLIFT
 62
1
 10
6420.472
 20
-8409.034
 30
-524.000
 70
    32
  0
VERTEX
  8
M59LXLIFT
 62
1
 10
6425.764
 20
-8399.017
 30
-524.000
 70
    32
  0
VERTEX
  8
M59LXLIFT
 62
1
 10
6435.356
 20
-8386.699
 30
-524.000
 70
    32
  0
VERTEX
  8
M59LXLIFT
 62
1
 10
6442.580
 20
-8376.820
 30
-524.000
 70
    32
  0
VERTEX
  8
M59LXLIFT
 62
1
 10
6447.566
 20
-8378.673
 30
-524.000
 70
    32
  0
VERTEX
  8
M59LXLIFT
 62
1
 10
6453.536
 20
-8379.180
 30
-524.000
 70
    32
  0
VERTEX
  8
M59LXLIFT
 62
1
 10
6459.583
 20
-8385.566
 30
-524.000
 70
    32
  0
VERTEX
  8
M59LXLIFT
 62
1
 10
6461.554
 20
-8394.416
 30
-524.000
 70
    32
  0
VERTEX
  8
M59LXLIFT
 62
1
 10
6459.788
 20
-8413.042
 30
-524.000
 70
    32
  0
VERTEX
  8
M59LXLIFT
 62
1
 10
6461.593
 20
-8422.873
 30
-524.000
 70
    32
  0
SEQEND
  8
M59LXLIFT
  0
POLYLINE
  8
M59LXLIFT
 62
8
 66
     1
 70
     9
  0
VERTEX
  8
M59LXLIFT
 62
8
 10
6460.593
 20
-8423.873
 30
-534.000
 70
    32
  0
VERTEX
  8
M59LXLIFT
 62
8
 10
6458.788
 20
-8414.042
 30
-534.000
 70
    32
  0
VERTEX
  8
M59LXLIFT
 62
8
 10
6460.554
 20
-8395.416
 30
-534.000
 70
    32
  0
VERTEX
  8
M59LXLIFT
 62
8
 10
6458.583
 20
-8386.566
 30
-534.000
 70
    32
  0
VERTEX
  8
M59LXLIFT
 62
8
 10
6452.536
 20
-8380.180
 30
-534.000
 70
    32
  0
VERTEX
  8
M59LXLIFT
 62
8
 10
6446.566
 20
-8379.673
 30
-534.000
 70
    32
  0
VERTEX
  8
M59LXLIFT
 62
8
 10
6441.580
 20
-8377.820
 30
-534.000
 70
    32
  0
VERTEX
  8
M59LXLIFT
 62
8
 10
6434.356
 20
-8387.699
 30
-534.000
 70
    32
  0
VERTEX
  8
M59LXLIFT
 62
8
 10
6424.764
 20
-8400.017
 30
-534.000
 70
    32
  0
VERTEX
  8
M59LXLIFT
 62
8
 10
6419.472
 20
-8410.034
 30
-534.000
 70
    32
  0
VERTEX
  8
M59LXLIFT
 62
8
 10
6419.632
 20
-8415.423
 30
-534.000
 70
    32
  0
VERTEX
  8
M59LXLIFT
 62
8
 10
6426.721
 20
-8418.264
 30
-534.000
 70
    32
  0
VERTEX
  8
M59LXLIFT
 62
8
 10
6436.903
 20
-8423.331
 30
-534.000
 70
    32
  0
VERTEX
  8
M59LXLIFT
 62
8
 10
6453.808
 20
-8426.320
 30
-534.000
 70
    32
  0
SEQEND
  8
M59LXLIFT
  0
POLYLINE
  8
M59LXLIFT
 62
8
 66
     1
 70
     9
  0
VERTEX
  8
M59LXLIFT
 62
8
 10
6450.959
 20
-8343.812
 30
-548.000
 70
    32
  0
VERTEX
  8
M59LXLIFT
 62
8
 10
6447.284
 20
-8362.365
 30
-548.000
 70
    32
  0
VERTEX
  8
M59LXLIFT
 62
8
 10
6447.031
 20
-8371.208
 30
-548.000
 70
    32
  0
VERTEX
  8
M59LXLIFT
 62
8
 10
6447.114
 20
-8379.917
 30
-548.000
 70
    32
  0
VERTEX
  8
M59LXLIFT
 62
8
 10
6448.602
 20
-8386.210
 30
-548.000
 70
    32
  0
VERTEX
  8
M59LXLIFT
 62
8
 10
6443.207
 20
-8399.503
 30
-548.000
 70
    32
  0
VERTEX
  8
M59LXLIFT
 62
8
 10
6437.368
 20
-8407.052
 30
-548.000
 70
    32
  0
VERTEX
  8
M59LXLIFT
 62
8
 10
6433.288
 20
-8410.415
 30
-548.000
 70
    32
  0
VERTEX
  8
M59LXLIFT
 62
8
 10
6437.327
 20
-8414.984
 30
-548.000
 70
    32
  0
VERTEX
  8
M59LXLIFT
 62
8
 10
6445.838
 20
-8409.197
 30
-548.000
 70
    32
  0
VERTEX
  8
M59LXLIFT
 62
8
 10
6450.289
 20
-8415.095
 30
-548.000
 70
    32
  0
VERTEX
  8
M59LXLIFT
 62
8
 10
6454.015
 20
-8416.966
 30
-548.000
 70
    32
  0
VERTEX
  8
M59LXLIFT
 62
8
 10
6460.431
 20
-8411.277
 30
-548.000
 70
    32
  0
VERTEX
  8
M59LXLIFT
 62
8
 10
6463.989
 20
-8403.417
 30
-548.000
 70
    32
  0
VERTEX
  8
M59LXLIFT
 62
8
 10
6460.271
 20
-8388.440
 30
-548.000
 70
    32
  0
VERTEX
  8
M59LXLIFT
 62
8
 10
6460.796
 20
-8377.562
 30
-548.000
 70
    32
  0
VERTEX
  8
M59LXLIFT
 62
8
 10
6460.174
 20
-8365.992
 30
-548.000
 70
    32
  0
VERTEX
  8
M59LXLIFT
 62
8
 10
6462.756
 20
-8360.240
 30
-548.000
 70
    32
  0
VERTEX
  8
M59LXLIFT
 62
8
 10
6459.620
 20
-8345.170
 30
-548.000
 70
    32
  0
SEQEND
  8
M59LXLIFT
  0
POLYLINE
  8
M59LXLIFT
 62
8
 66
     1
 70
     9
  0
VERTEX
  8
M59LXLIFT
 62
8
 10
6477.077
 20
-8313.445
 30
-625.000
 70
    32
  0
VERTEX
  8
M59LXLIFT
 62
8
 10
6475.969
 20
-8333.076
 30
-625.000
 70
    32
  0
VERTEX
  8
M59LXLIFT
 62
8
 10
6472.325
 20
-8353.271
 30
-625.000
 70
    32
  0
VERTEX
  8
M59LXLIFT
 62
8
 10
6471.235
 20
-8364.357
 30
-625.000
 70
    32
  0
VERTEX
  8
M59LXLIFT
 62
8
 10
6476.843
 20
-8372.673
 30
-625.000
 70
    32
  0
VERTEX
  8
M59LXLIFT
 62
8
 10
6477.093
 20
-8397.095
 30
-625.000
 70
    32
  0
VERTEX
  8
M59LXLIFT
 62
8
 10
6482.438
 20
-8410.965
 30
-625.000
 70
    32
  0
VERTEX
  8
M59LXLIFT
 62
8
 10
6489.001
 20
-8412.887
 30
-625.000
 70
    32
  0
VERTEX
  8
M59LXLIFT
 62
8
 10
6500.275
 20
-8400.934
 30
-625.000
 70
    32
  0
VERTEX
  8
M59LXLIFT
 62
8
 10
6510.870
 20
-8388.061
 30
-625.000
 70
    32
  0
VERTEX
  8
M59LXLIFT
 62
8
 10
6508.455
 20
-8369.727
 30
-625.000
 70
    32
  0
VERTEX
  8
M59LXLIFT
 62
8
 10
6502.469
 20
-8348.785
 30
-625.000
 70
    32
  0
VERTEX
  8
M59LXLIFT
 62
8
 10
6494.289
 20
-8327.390
 30
-625.000
 70
    32
  0
VERTEX
  8
M59LXLIFT
 62
8
 10
6490.493
 20
-8318.716
 30
-625.000
 70
    32
  0
VERTEX
  8
M59LXLIFT
 62
8
 10
6485.329
 20
-8312.477
 30
-625.000
 70
    32
  0
SEQEND
  8
M59LXLIFT
  0
POLYLINE
  8
M59LXLIFT
 62
1
 66
     1
 70
     9
  0
VERTEX
  8
M59LXLIFT
 62
1
 10
6830.409
 20
-8080.799
 30
-644.000
 70
    32
  0
VERTEX
  8
M59LXLIFT
 62
1
 10
6824.989
 20
-8073.977
 30
-644.000
 70
    32
  0
VERTEX
  8
M59LXLIFT
 62
1
 10
6831.873
 20
-8068.946
 30
-644.000
 70
    32
  0
VERTEX
  8
M59LXLIFT
 62
1
 10
6831.720
 20
-8051.657
 30
-644.000
 70
    32
  0
VERTEX
  8
M59LXLIFT
 62
1
 10
6836.212
 20
-8043.583
 30
-644.000
 70
    32
  0
VERTEX
  8
M59LXLIFT
 62
1
 10
6843.099
 20
-8026.014
 30
-644.000
 70
    32
  0
VERTEX
  8
M59LXLIFT
 62
1
 10
6846.053
 20
-8010.502
 30
-644.000
 70
    32
  0
VERTEX
  8
M59LXLIFT
 62
1
 10
6852.200
 20
-8003.836
 30
-644.000
 70
    32
  0
VERTEX
  8
M59LXLIFT
 62
1
 10
6864.087
 20
-7992.202
 30
-644.000
 70
    32
  0
VERTEX
  8
M59LXLIFT
 62
1
 10
6871.373
 20
-7993.475
 30
-644.000
 70
    32
  0
VERTEX
  8
M59LXLIFT
 62
1
 10
6891.170
 20
-8002.118
 30
-644.000
 70
    32
  0
VERTEX
  8
M59LXLIFT
 62
1
 10
6887.391
 20
-8022.975
 30
-644.000
 70
    32
  0
VERTEX
  8
M59LXLIFT
 62
1
 10
6879.815
 20
-8032.175
 30
-644.000
 70
    32
  0
VERTEX
  8
M59LXLIFT
 62
1
 10
6868.939
 20
-8042.655
 30
-644.000
 70
    32
  0
VERTEX
  8
M59LXLIFT
 62
1
 10
6873.866
 20
-8046.371
 30
-644.000
 70
    32
  0
VERTEX
  8
M59LXLIFT
 62
1
 10
6859.451
 20
-8067.919
 30
-644.000
 70
    32
  0
VERTEX
  8
M59LXLIFT
 62
1
 10
6847.732
 20
-8088.402
 30
-644.000
 70
    32
  0
SEQEND
  8
M59LXLIFT
  0
POLYLINE
  8
M59LXLIFT
 62
2
 66
     1
 70
     9
  0
VERTEX
  8
M59LXLIFT
 62
2
 10
6833.976
 20
-8066.494
 30
-668.501
 70
    32
  0
VERTEX
  8
M59LXLIFT
 62
2
 10
6832.268
 20
-8060.511
 30
-668.491
 70
    32
  0
VERTEX
  8
M59LXLIFT
 62
2
 10
6833.092
 20
-8049.664
 30
-668.476
 70
    32
  0
VERTEX
  8
M59LXLIFT
 62
2
 10
6830.791
 20
-8043.466
 30
-668.465
 70
    32
  0
VERTEX
  8
M59LXLIFT
 62
2
 10
6840.641
 20
-8032.935
 30
-668.459
 70
    32
  0
VERTEX
  8
M59LXLIFT
 62
2
 10
6859.998
 20
-8057.252
 30
-668.513
 70
    32
  0
VERTEX
  8
M59LXLIFT
 62
2
 10
6856.071
 20
-8060.589
 30
-668.514
 70
    32
  0
VERTEX
  8
M59LXLIFT
 62
2
 10
6853.433
 20
-8072.272
 30
-668.556
 70
    32
  0
VERTEX
  8
M59LXLIFT
 62
2
 10
6843.741
 20
-8092.956
 30
-668.646
 70
    32
  0
VERTEX
  8
M59LXLIFT
 62
2
 10
6841.610
 20
-8093.731
 30
-668.642
 70
    32
  0
VERTEX
  8
M59LXLIFT
 62
2
 10
6833.723
 20
-8089.640
 30
-668.583
 70
    32
  0
VERTEX
  8
M59LXLIFT
 62
2
 10
6833.604
 20
-8075.867
 30
-668.514
 70
    32
  0
SEQEND
  8
M59LXLIFT
  0
POLYLINE
  8
M59LXLIFT
 62
6
 66
     1
 70
     9
  0
VERTEX
  8
M59LXLIFT
 62
6
 10
6798.625
 20
-8054.742
 30
-668.451
 70
    32
  0
VERTEX
  8
M59LXLIFT
 62
6
 10
6791.362
 20
-8052.202
 30
-668.440
 70
    32
  0
VERTEX
  8
M59LXLIFT
 62
6
 10
6773.594
 20
-8038.875
 30
-668.404
 70
    32
  0
VERTEX
  8
M59LXLIFT
 62
6
 10
6770.422
 20
-8033.564
 30
-668.393
 70
    32
  0
VERTEX
  8
M59LXLIFT
 62
6
 10
6768.526
 20
-8022.272
 30
-668.375
 70
    32
  0
VERTEX
  8
M59LXLIFT
 62
6
 10
6770.026
 20
-8000.260
 30
-668.345
 70
    32
  0
VERTEX
  8
M59LXLIFT
 62
6
 10
6781.292
 20
-7988.258
 30
-668.338
 70
    32
  0
VERTEX
  8
M59LXLIFT
 62
6
 10
6784.124
 20
-7982.929
 30
-668.333
 70
    32
  0
VERTEX
  8
M59LXLIFT
 62
6
 10
6793.109
 20
-7981.024
 30
-668.339
 70
    32
  0
VERTEX
  8
M59LXLIFT
 62
6
 10
6805.308
 20
-7981.337
 30
-668.351
 70
    32
  0
VERTEX
  8
M59LXLIFT
 62
6
 10
6818.125
 20
-7983.831
 30
-668.367
 70
    32
  0
VERTEX
  8
M59LXLIFT
 62
6
 10
6834.645
 20
-7989.134
 30
-668.390
 70
    32
  0
VERTEX
  8
M59LXLIFT
 62
6
 10
6836.384
 20
-8013.279
 30
-668.427
 70
    32
  0
VERTEX
  8
M59LXLIFT
 62
6
 10
6824.991
 20
-8021.254
 30
-668.427
 70
    32
  0
VERTEX
  8
M59LXLIFT
 62
6
 10
6822.561
 20
-8025.765
 30
-668.432
 70
    32
  0
VERTEX
  8
M59LXLIFT
 62
6
 10
6817.370
 20
-8048.179
 30
-668.459
 70
    32
  0
VERTEX
  8
M59LXLIFT
 62
6
 10
6808.268
 20
-8064.728
 30
-668.474
 70
    32
  0
SEQEND
  8
M59LXLIFT
  0
POLYLINE
  8
M59LXLIFT
 62
13
 66
     1
 70
     9
  0
VERTEX
  8
M59LXLIFT
 62
13
 10
6720.544
 20
-8465.843
 30
-670.490
 70
    32
  0
VERTEX
  8
M59LXLIFT
 62
13
 10
6729.840
 20
-8465.406
 30
-670.526
 70
    32
  0
VERTEX
  8
M59LXLIFT
 62
13
 10
6735.413
 20
-8461.204
 30
-670.523
 70
    32
  0
VERTEX
  8
M59LXLIFT
 62
13
 10
6747.128
 20
-8496.430
 30
-670.777
 70
    32
  0
VERTEX
  8
M59LXLIFT
 62
13
 10
6764.773
 20
-8486.608
 30
-670.707
 70
    32
  0
VERTEX
  8
M59LXLIFT
 62
13
 10
6778.404
 20
-8476.839
 30
-670.645
 70
    32
  0
VERTEX
  8
M59LXLIFT
 62
13
 10
6784.427
 20
-8470.627
 30
-670.610
 70
    32
  0
VERTEX
  8
M59LXLIFT
 62
13
 10
6780.374
 20
-8465.274
 30
-670.596
 70
    32
  0
VERTEX
  8
M59LXLIFT
 62
13
 10
6762.368
 20
-8466.069
 30
-670.631
 70
    32
  0
VERTEX
  8
M59LXLIFT
 62
13
 10
6756.220
 20
-8462.028
 30
-670.615
 70
    32
  0
VERTEX
  8
M59LXLIFT
 62
13
 10
6754.521
 20
-8457.318
 30
-670.578
 70
    32
  0
VERTEX
  8
M59LXLIFT
 62
13
 10
6755.421
 20
-8453.298
 30
-670.557
 70
    32
  0
VERTEX
  8
M59LXLIFT
 62
13
 10
6772.554
 20
-8443.821
 30
-670.525
 70
    32
  0
VERTEX
  8
M59LXLIFT
 62
13
 10
6780.233
 20
-8436.594
 30
-670.484
 70
    32
  0
VERTEX
  8
M59LXLIFT
 62
13
 10
6784.472
 20
-8427.434
 30
-670.440
 70
    32
  0
VERTEX
  8
M59LXLIFT
 62
13
 10
6793.808
 20
-8425.798
 30
-670.417
 70
    32
  0
VERTEX
  8
M59LXLIFT
 62
13
 10
6800.917
 20
-8430.786
 30
-670.424
 70
    32
  0
VERTEX
  8
M59LXLIFT
 62
13
 10
6808.067
 20
-8437.879
 30
-670.439
 70
    32
  0
VERTEX
  8
M59LXLIFT
 62
13
 10
6821.415
 20
-8462.300
 30
-670.512
 70
    32
  0
VERTEX
  8
M59LXLIFT
 62
13
 10
6822.536
 20
-8474.650
 30
-670.558
 70
    32
  0
VERTEX
  8
M59LXLIFT
 62
13
 10
6816.589
 20
-8491.042
 30
-670.633
 70
    32
  0
VERTEX
  8
M59LXLIFT
 62
13
 10
6812.670
 20
-8498.736
 30
-670.670
 70
    32
  0
VERTEX
  8
M59LXLIFT
 62
13
 10
6800.836
 20
-8504.639
 30
-670.714
 70
    32
  0
VERTEX
  8
M59LXLIFT
 62
13
 10
6785.008
 20
-8517.643
 30
-670.793
 70
    32
  0
VERTEX
  8
M59LXLIFT
 62
13
 10
6776.991
 20
-8528.547
 30
-670.850
 70
    32
  0
VERTEX
  8
M59LXLIFT
 62
13
 10
6772.521
 20
-8539.857
 30
-670.902
 70
    32
  0
VERTEX
  8
M59LXLIFT
 62
13
 10
6764.232
 20
-8545.271
 30
-670.938
 70
    32
  0
VERTEX
  8
M59LXLIFT
 62
13
 10
6756.303
 20
-8535.562
 30
-670.905
 70
    32
  0
VERTEX
  8
M59LXLIFT
 62
13
 10
6733.582
 20
-8507.739
 30
-670.810
 70
    32
  0
VERTEX
  8
M59LXLIFT
 62
13
 10
6718.771
 20
-8493.901
 30
-670.660
 70
    32
  0
VERTEX
  8
M59LXLIFT
 62
13
 10
6719.961
 20
-8486.061
 30
-670.615
 70
    32
  0
VERTEX
  8
M59LXLIFT
 62
13
 10
6718.254
 20
-8477.093
 30
-670.551
 70
    32
  0
VERTEX
  8
M59LXLIFT
 62
13
 10
6714.962
 20
-8468.772
 30
-670.485
 70
    32
  0
SEQEND
  8
M59LXLIFT
  0
POLYLINE
  8
M59LXLIFT
 62
7
 66
     1
 70
     9
  0
VERTEX
  8
M59LXLIFT
 62
7
 10
6525.619
 20
-8406.069
 30
-669.844
 70
    32
  0
VERTEX
  8
M59LXLIFT
 62
7
 10
6530.292
 20
-8412.494
 30
-669.889
 70
    32
  0
VERTEX
  8
M59LXLIFT
 62
7
 10
6539.722
 20
-8413.672
 30
-669.906
 70
    32
  0
VERTEX
  8
M59LXLIFT
 62
7
 10
6553.218
 20
-8418.490
 30
-669.950
 70
    32
  0
VERTEX
  8
M59LXLIFT
 62
7
 10
6562.931
 20
-8424.805
 30
-669.999
 70
    32
  0
VERTEX
  8
M59LXLIFT
 62
7
 10
6573.086
 20
-8434.445
 30
-670.069
 70
    32
  0
VERTEX
  8
M59LXLIFT
 62
7
 10
6581.376
 20
-8446.839
 30
-670.154
 70
    32
  0
VERTEX
  8
M59LXLIFT
 62
7
 10
6582.843
 20
-8453.093
 30
-670.194
 70
    32
  0
VERTEX
  8
M59LXLIFT
 62
7
 10
6580.607
 20
-8468.356
 30
-670.285
 70
    32
  0
VERTEX
  8
M59LXLIFT
 62
7
 10
6573.797
 20
-8474.035
 30
-670.312
 70
    32
  0
VERTEX
  8
M59LXLIFT
 62
7
 10
6565.088
 20
-8474.394
 30
-670.305
 70
    32
  0
VERTEX
  8
M59LXLIFT
 62
7
 10
6552.689
 20
-8478.744
 30
-670.319
 70
    32
  0
VERTEX
  8
M59LXLIFT
 62
7
 10
6542.269
 20
-8486.017
 30
-670.353
 70
    32
  0
VERTEX
  8
M59LXLIFT
 62
7
 10
6532.594
 20
-8498.007
 30
-670.416
 70
    32
  0
VERTEX
  8
M59LXLIFT
 62
7
 10
6530.698
 20
-8509.523
 30
-670.485
 70
    32
  0
VERTEX
  8
M59LXLIFT
 62
7
 10
6531.983
 20
-8534.230
 30
-670.637
 70
    32
  0
VERTEX
  8
M59LXLIFT
 62
7
 10
6527.658
 20
-8548.138
 30
-670.718
 70
    32
  0
VERTEX
  8
M59LXLIFT
 62
7
 10
6515.631
 20
-8553.196
 30
-670.737
 70
    32
  0
VERTEX
  8
M59LXLIFT
 62
7
 10
6505.745
 20
-8550.088
 30
-670.707
 70
    32
  0
VERTEX
  8
M59LXLIFT
 62
7
 10
6498.633
 20
-8541.478
 30
-670.647
 70
    32
  0
VERTEX
  8
M59LXLIFT
 62
7
 10
6485.794
 20
-8519.696
 30
-670.499
 70
    32
  0
VERTEX
  8
M59LXLIFT
 62
7
 10
6482.946
 20
-8511.008
 30
-670.443
 70
    32
  0
VERTEX
  8
M59LXLIFT
 62
7
 10
6484.891
 20
-8506.879
 30
-670.420
 70
    32
  0
VERTEX
  8
M59LXLIFT
 62
7
 10
6485.204
 20
-8499.633
 30
-670.376
 70
    32
  0
VERTEX
  8
M59LXLIFT
 62
7
 10
6475.970
 20
-8469.014
 30
-670.178
 70
    32
  0
VERTEX
  8
M59LXLIFT
 62
7
 10
6474.557
 20
-8453.558
 30
-670.082
 70
    32
  0
VERTEX
  8
M59LXLIFT
 62
7
 10
6475.474
 20
-8448.461
 30
-670.051
 70
    32
  0
VERTEX
  8
M59LXLIFT
 62
7
 10
6478.874
 20
-8444.986
 30
-670.034
 70
    32
  0
VERTEX
  8
M59LXLIFT
 62
7
 10
6486.855
 20
-8442.136
 30
-670.025
 70
    32
  0
VERTEX
  8
M59LXLIFT
 62
7
 10
6496.971
 20
-8443.382
 30
-670.043
 70
    32
  0
VERTEX
  8
M59LXLIFT
 62
7
 10
6505.544
 20
-8447.699
 30
-670.079
 70
    32
  0
VERTEX
  8
M59LXLIFT
 62
7
 10
6511.322
 20
-8448.047
 30
-670.087
 70
    32
  0
VERTEX
  8
M59LXLIFT
 62
7
 10
6518.908
 20
-8411.894
 30
-669.873
 70
    32
  0
SEQEND
  8
M59LXLIFT
  0
POLYLINE
  8
M59LXLIFT
 62
8
 66
     1
 70
     9
  0
VERTEX
  8
M59LXLIFT
 62
8
 10
6483.697
 20
-8346.866
 30
-669.437
 70
    32
  0
VERTEX
  8
M59LXLIFT
 62
8
 10
6495.382
 20
-8348.540
 30
-669.459
 70
    32
  0
VERTEX
  8
M59LXLIFT
 62
8
 10
6514.875
 20
-8346.951
 30
-669.470
 70
    32
  0
VERTEX
  8
M59LXLIFT
 62
8
 10
6521.230
 20
-8355.860
 30
-669.532
 70
    32
  0
VERTEX
  8
M59LXLIFT
 62
8
 10
6523.275
 20
-8380.586
 30
-669.686
 70
    32
  0
VERTEX
  8
M59LXLIFT
 62
8
 10
6527.206
 20
-8395.828
 30
-669.783
 70
    32
  0
VERTEX
  8
M59LXLIFT
 62
8
 10
6525.619
 20
-8406.069
 30
-669.844
 70
    32
  0
VERTEX
  8
M59LXLIFT
 62
8
 10
6518.908
 20
-8411.894
 30
-669.873
 70
    32
  0
VERTEX
  8
M59LXLIFT
 62
8
 10
6514.675
 20
-8408.793
 30
-669.850
 70
    32
  0
VERTEX
  8
M59LXLIFT
 62
8
 10
6509.265
 20
-8411.819
 30
-669.862
 70
    32
  0
VERTEX
  8
M59LXLIFT
 62
8
 10
6495.552
 20
-8394.253
 30
-669.740
 70
    32
  0
VERTEX
  8
M59LXLIFT
 62
8
 10
6483.059
 20
-8399.094
 30
-669.757
 70
    32
  0
VERTEX
  8
M59LXLIFT
 62
8
 10
6474.459
 20
-8387.974
 30
-669.679
 70
    32
  0
VERTEX
  8
M59LXLIFT
 62
8
 10
6471.344
 20
-8380.387
 30
-669.629
 70
    32
  0
VERTEX
  8
M59LXLIFT
 62
8
 10
6473.907
 20
-8369.698
 30
-669.567
 70
    32
  0
VERTEX
  8
M59LXLIFT
 62
8
 10
6478.155
 20
-8361.811
 30
-669.523
 70
    32
  0
VERTEX
  8
M59LXLIFT
 62
8
 10
6478.397
 20
-8354.932
 30
-669.481
 70
    32
  0
SEQEND
  8
M59LXLIFT
  0
ENDSEC
  0
EOF
