999
********************************
999
*   DXF File - Entities Only   *
999
*        3D Data Format        *
999
*     Output from ENVISAGE     *
999
*     31-Dec-2007 15:30:49     *
999
********************************
  0
SECTION 
  2
HEADER
  9
$ACADVER
  1
AC1009
  9
$EXTMIN
 10
-290000.000
 20
-250000.000
 30
-4000.000
  9
$EXTMAX
 10
320000.000
 20
160000.000
 30
6000.000
  0
ENDSEC
  0
SECTION
  2
ENTITIES
  0
POLYLINE
  8
M60LXLIFT
 62
3
 66
     1
 70
     9
  0
VERTEX
  8
M60LXLIFT
 62
3
 10
6803.605
 20
-8121.170
 30
-693.000
 70
    32
  0
VERTEX
  8
M60LXLIFT
 62
3
 10
6804.995
 20
-8110.879
 30
-693.000
 70
    32
  0
VERTEX
  8
M60LXLIFT
 62
3
 10
6814.148
 20
-8094.085
 30
-693.000
 70
    32
  0
VERTEX
  8
M60LXLIFT
 62
3
 10
6814.572
 20
-8084.411
 30
-693.000
 70
    32
  0
VERTEX
  8
M60LXLIFT
 62
3
 10
6808.188
 20
-8074.027
 30
-693.000
 70
    32
  0
VERTEX
  8
M60LXLIFT
 62
3
 10
6813.400
 20
-8056.237
 30
-693.000
 70
    32
  0
VERTEX
  8
M60LXLIFT
 62
3
 10
6814.031
 20
-8044.206
 30
-693.000
 70
    32
  0
VERTEX
  8
M60LXLIFT
 62
3
 10
6820.555
 20
-8033.133
 30
-693.000
 70
    32
  0
VERTEX
  8
M60LXLIFT
 62
3
 10
6822.746
 20
-8018.057
 30
-693.000
 70
    32
  0
VERTEX
  8
M60LXLIFT
 62
3
 10
6838.102
 20
-7997.805
 30
-693.000
 70
    32
  0
VERTEX
  8
M60LXLIFT
 62
3
 10
6854.910
 20
-7983.725
 30
-693.000
 70
    32
  0
VERTEX
  8
M60LXLIFT
 62
3
 10
6881.457
 20
-7988.289
 30
-693.000
 70
    32
  0
VERTEX
  8
M60LXLIFT
 62
3
 10
6894.411
 20
-7993.949
 30
-693.000
 70
    32
  0
VERTEX
  8
M60LXLIFT
 62
3
 10
6900.325
 20
-8007.217
 30
-693.000
 70
    32
  0
VERTEX
  8
M60LXLIFT
 62
3
 10
6894.230
 20
-8022.371
 30
-693.000
 70
    32
  0
VERTEX
  8
M60LXLIFT
 62
3
 10
6885.172
 20
-8033.149
 30
-693.000
 70
    32
  0
VERTEX
  8
M60LXLIFT
 62
3
 10
6877.421
 20
-8036.011
 30
-693.000
 70
    32
  0
VERTEX
  8
M60LXLIFT
 62
3
 10
6861.659
 20
-8055.137
 30
-693.000
 70
    32
  0
VERTEX
  8
M60LXLIFT
 62
3
 10
6850.453
 20
-8074.907
 30
-693.000
 70
    32
  0
VERTEX
  8
M60LXLIFT
 62
3
 10
6844.557
 20
-8093.982
 30
-693.000
 70
    32
  0
VERTEX
  8
M60LXLIFT
 62
3
 10
6838.395
 20
-8111.386
 30
-693.000
 70
    32
  0
VERTEX
  8
M60LXLIFT
 62
3
 10
6830.843
 20
-8117.730
 30
-693.000
 70
    32
  0
VERTEX
  8
M60LXLIFT
 62
3
 10
6823.637
 20
-8120.732
 30
-693.000
 70
    32
  0
VERTEX
  8
M60LXLIFT
 62
3
 10
6818.826
 20
-8125.893
 30
-693.000
 70
    32
  0
SEQEND
  8
M60LXLIFT
  0
POLYLINE
  8
M60LXLIFT
 62
3
 66
     1
 70
     9
  0
VERTEX
  8
M60LXLIFT
 62
3
 10
6799.035
 20
-8153.926
 30
-701.000
 70
    32
  0
VERTEX
  8
M60LXLIFT
 62
3
 10
6822.868
 20
-8129.578
 30
-701.000
 70
    32
  0
VERTEX
  8
M60LXLIFT
 62
3
 10
6838.383
 20
-8108.438
 30
-701.000
 70
    32
  0
VERTEX
  8
M60LXLIFT
 62
3
 10
6847.363
 20
-8081.285
 30
-701.000
 70
    32
  0
VERTEX
  8
M60LXLIFT
 62
3
 10
6866.221
 20
-8049.031
 30
-701.000
 70
    32
  0
VERTEX
  8
M60LXLIFT
 62
3
 10
6883.733
 20
-8028.398
 30
-701.000
 70
    32
  0
VERTEX
  8
M60LXLIFT
 62
3
 10
6875.655
 20
-8009.925
 30
-701.000
 70
    32
  0
VERTEX
  8
M60LXLIFT
 62
3
 10
6859.209
 20
-8000.131
 30
-701.000
 70
    32
  0
VERTEX
  8
M60LXLIFT
 62
3
 10
6849.537
 20
-7995.633
 30
-701.000
 70
    32
  0
VERTEX
  8
M60LXLIFT
 62
3
 10
6833.650
 20
-7998.141
 30
-701.000
 70
    32
  0
VERTEX
  8
M60LXLIFT
 62
3
 10
6815.379
 20
-8000.206
 30
-701.000
 70
    32
  0
VERTEX
  8
M60LXLIFT
 62
3
 10
6800.322
 20
-8011.346
 30
-701.000
 70
    32
  0
VERTEX
  8
M60LXLIFT
 62
3
 10
6787.518
 20
-8035.624
 30
-701.000
 70
    32
  0
VERTEX
  8
M60LXLIFT
 62
3
 10
6794.468
 20
-8050.895
 30
-701.000
 70
    32
  0
VERTEX
  8
M60LXLIFT
 62
3
 10
6814.194
 20
-8091.116
 30
-701.000
 70
    32
  0
VERTEX
  8
M60LXLIFT
 62
3
 10
6804.510
 20
-8107.265
 30
-701.000
 70
    32
  0
VERTEX
  8
M60LXLIFT
 62
3
 10
6800.401
 20
-8115.677
 30
-701.000
 70
    32
  0
VERTEX
  8
M60LXLIFT
 62
3
 10
6795.135
 20
-8129.382
 30
-701.000
 70
    32
  0
VERTEX
  8
M60LXLIFT
 62
3
 10
6785.824
 20
-8136.462
 30
-701.000
 70
    32
  0
VERTEX
  8
M60LXLIFT
 62
3
 10
6765.591
 20
-8145.707
 30
-701.000
 70
    32
  0
VERTEX
  8
M60LXLIFT
 62
3
 10
6763.884
 20
-8151.291
 30
-701.000
 70
    32
  0
VERTEX
  8
M60LXLIFT
 62
3
 10
6782.041
 20
-8153.110
 30
-701.000
 70
    32
  0
SEQEND
  8
M60LXLIFT
  0
POLYLINE
  8
M60LXLIFT
 62
3
 66
     1
 70
     9
  0
VERTEX
  8
M60LXLIFT
 62
3
 10
6883.111
 20
-8036.353
 30
-710.000
 70
    32
  0
VERTEX
  8
M60LXLIFT
 62
3
 10
6874.000
 20
-8023.195
 30
-710.000
 70
    32
  0
VERTEX
  8
M60LXLIFT
 62
3
 10
6859.499
 20
-8009.493
 30
-710.000
 70
    32
  0
VERTEX
  8
M60LXLIFT
 62
3
 10
6841.042
 20
-8022.231
 30
-710.000
 70
    32
  0
VERTEX
  8
M60LXLIFT
 62
3
 10
6828.217
 20
-8012.636
 30
-710.000
 70
    32
  0
VERTEX
  8
M60LXLIFT
 62
3
 10
6818.693
 20
-8009.987
 30
-710.000
 70
    32
  0
VERTEX
  8
M60LXLIFT
 62
3
 10
6809.780
 20
-8004.288
 30
-710.000
 70
    32
  0
VERTEX
  8
M60LXLIFT
 62
3
 10
6805.986
 20
-8009.539
 30
-710.000
 70
    32
  0
VERTEX
  8
M60LXLIFT
 62
3
 10
6812.688
 20
-8020.425
 30
-710.000
 70
    32
  0
VERTEX
  8
M60LXLIFT
 62
3
 10
6814.765
 20
-8034.667
 30
-710.000
 70
    32
  0
VERTEX
  8
M60LXLIFT
 62
3
 10
6813.421
 20
-8039.552
 30
-710.000
 70
    32
  0
VERTEX
  8
M60LXLIFT
 62
3
 10
6806.998
 20
-8059.744
 30
-710.000
 70
    32
  0
VERTEX
  8
M60LXLIFT
 62
3
 10
6804.548
 20
-8081.071
 30
-710.000
 70
    32
  0
VERTEX
  8
M60LXLIFT
 62
3
 10
6820.764
 20
-8098.633
 30
-710.000
 70
    32
  0
VERTEX
  8
M60LXLIFT
 62
3
 10
6821.889
 20
-8108.570
 30
-710.000
 70
    32
  0
VERTEX
  8
M60LXLIFT
 62
3
 10
6817.015
 20
-8114.278
 30
-710.000
 70
    32
  0
VERTEX
  8
M60LXLIFT
 62
3
 10
6808.178
 20
-8125.902
 30
-710.000
 70
    32
  0
VERTEX
  8
M60LXLIFT
 62
3
 10
6799.076
 20
-8143.149
 30
-710.000
 70
    32
  0
VERTEX
  8
M60LXLIFT
 62
3
 10
6790.232
 20
-8149.673
 30
-710.000
 70
    32
  0
VERTEX
  8
M60LXLIFT
 62
3
 10
6784.655
 20
-8154.262
 30
-710.000
 70
    32
  0
VERTEX
  8
M60LXLIFT
 62
3
 10
6783.439
 20
-8159.923
 30
-710.000
 70
    32
  0
VERTEX
  8
M60LXLIFT
 62
3
 10
6798.082
 20
-8158.098
 30
-710.000
 70
    32
  0
VERTEX
  8
M60LXLIFT
 62
3
 10
6807.326
 20
-8146.287
 30
-710.000
 70
    32
  0
VERTEX
  8
M60LXLIFT
 62
3
 10
6819.004
 20
-8131.842
 30
-710.000
 70
    32
  0
VERTEX
  8
M60LXLIFT
 62
3
 10
6832.497
 20
-8108.369
 30
-710.000
 70
    32
  0
VERTEX
  8
M60LXLIFT
 62
3
 10
6848.385
 20
-8081.312
 30
-710.000
 70
    32
  0
VERTEX
  8
M60LXLIFT
 62
3
 10
6859.053
 20
-8062.929
 30
-710.000
 70
    32
  0
VERTEX
  8
M60LXLIFT
 62
3
 10
6869.088
 20
-8044.571
 30
-710.000
 70
    32
  0
SEQEND
  8
M60LXLIFT
  0
POLYLINE
  8
M60LXLIFT
 62
3
 66
     1
 70
     9
  0
VERTEX
  8
M60LXLIFT
 62
3
 10
6869.988
 20
-8023.500
 30
-721.000
 70
    32
  0
VERTEX
  8
M60LXLIFT
 62
3
 10
6859.018
 20
-8018.459
 30
-721.000
 70
    32
  0
VERTEX
  8
M60LXLIFT
 62
3
 10
6846.397
 20
-8017.562
 30
-721.000
 70
    32
  0
VERTEX
  8
M60LXLIFT
 62
3
 10
6836.312
 20
-8021.774
 30
-721.000
 70
    32
  0
VERTEX
  8
M60LXLIFT
 62
3
 10
6824.888
 20
-8034.578
 30
-721.000
 70
    32
  0
VERTEX
  8
M60LXLIFT
 62
3
 10
6813.491
 20
-8048.016
 30
-721.000
 70
    32
  0
VERTEX
  8
M60LXLIFT
 62
3
 10
6806.732
 20
-8061.546
 30
-721.000
 70
    32
  0
VERTEX
  8
M60LXLIFT
 62
3
 10
6807.136
 20
-8085.182
 30
-721.000
 70
    32
  0
VERTEX
  8
M60LXLIFT
 62
3
 10
6810.226
 20
-8099.242
 30
-721.000
 70
    32
  0
VERTEX
  8
M60LXLIFT
 62
3
 10
6815.151
 20
-8107.175
 30
-721.000
 70
    32
  0
VERTEX
  8
M60LXLIFT
 62
3
 10
6813.713
 20
-8120.844
 30
-721.000
 70
    32
  0
VERTEX
  8
M60LXLIFT
 62
3
 10
6811.768
 20
-8132.924
 30
-721.000
 70
    32
  0
VERTEX
  8
M60LXLIFT
 62
3
 10
6800.366
 20
-8146.801
 30
-721.000
 70
    32
  0
VERTEX
  8
M60LXLIFT
 62
3
 10
6796.320
 20
-8163.898
 30
-721.000
 70
    32
  0
VERTEX
  8
M60LXLIFT
 62
3
 10
6800.581
 20
-8166.007
 30
-721.000
 70
    32
  0
VERTEX
  8
M60LXLIFT
 62
3
 10
6806.420
 20
-8154.344
 30
-721.000
 70
    32
  0
VERTEX
  8
M60LXLIFT
 62
3
 10
6820.404
 20
-8133.578
 30
-721.000
 70
    32
  0
VERTEX
  8
M60LXLIFT
 62
3
 10
6845.577
 20
-8104.748
 30
-721.000
 70
    32
  0
VERTEX
  8
M60LXLIFT
 62
3
 10
6858.135
 20
-8091.115
 30
-721.000
 70
    32
  0
VERTEX
  8
M60LXLIFT
 62
3
 10
6867.912
 20
-8062.653
 30
-721.000
 70
    32
  0
VERTEX
  8
M60LXLIFT
 62
3
 10
6869.792
 20
-8034.847
 30
-721.000
 70
    32
  0
SEQEND
  8
M60LXLIFT
  0
POLYLINE
  8
M60LXLIFT
 62
3
 66
     1
 70
     9
  0
VERTEX
  8
M60LXLIFT
 62
3
 10
6876.688
 20
-8017.487
 30
-732.000
 70
    32
  0
VERTEX
  8
M60LXLIFT
 62
3
 10
6865.350
 20
-8014.491
 30
-732.000
 70
    32
  0
VERTEX
  8
M60LXLIFT
 62
3
 10
6853.131
 20
-8014.182
 30
-732.000
 70
    32
  0
VERTEX
  8
M60LXLIFT
 62
3
 10
6838.428
 20
-8021.707
 30
-732.000
 70
    32
  0
VERTEX
  8
M60LXLIFT
 62
3
 10
6815.706
 20
-8053.903
 30
-732.000
 70
    32
  0
VERTEX
  8
M60LXLIFT
 62
3
 10
6804.777
 20
-8059.909
 30
-732.000
 70
    32
  0
VERTEX
  8
M60LXLIFT
 62
3
 10
6796.594
 20
-8061.459
 30
-732.000
 70
    32
  0
VERTEX
  8
M60LXLIFT
 62
3
 10
6792.082
 20
-8070.533
 30
-732.000
 70
    32
  0
VERTEX
  8
M60LXLIFT
 62
3
 10
6797.046
 20
-8080.914
 30
-732.000
 70
    32
  0
VERTEX
  8
M60LXLIFT
 62
3
 10
6826.835
 20
-8100.283
 30
-732.000
 70
    32
  0
VERTEX
  8
M60LXLIFT
 62
3
 10
6827.431
 20
-8111.204
 30
-732.000
 70
    32
  0
VERTEX
  8
M60LXLIFT
 62
3
 10
6822.544
 20
-8121.412
 30
-732.000
 70
    32
  0
VERTEX
  8
M60LXLIFT
 62
3
 10
6815.841
 20
-8131.952
 30
-732.000
 70
    32
  0
VERTEX
  8
M60LXLIFT
 62
3
 10
6795.035
 20
-8158.233
 30
-732.000
 70
    32
  0
VERTEX
  8
M60LXLIFT
 62
3
 10
6793.485
 20
-8163.452
 30
-732.000
 70
    32
  0
VERTEX
  8
M60LXLIFT
 62
3
 10
6798.432
 20
-8166.279
 30
-732.000
 70
    32
  0
VERTEX
  8
M60LXLIFT
 62
3
 10
6803.332
 20
-8162.113
 30
-732.000
 70
    32
  0
VERTEX
  8
M60LXLIFT
 62
3
 10
6807.502
 20
-8155.122
 30
-732.000
 70
    32
  0
VERTEX
  8
M60LXLIFT
 62
3
 10
6814.350
 20
-8154.422
 30
-732.000
 70
    32
  0
VERTEX
  8
M60LXLIFT
 62
3
 10
6819.973
 20
-8149.306
 30
-732.000
 70
    32
  0
VERTEX
  8
M60LXLIFT
 62
3
 10
6823.368
 20
-8138.223
 30
-732.000
 70
    32
  0
VERTEX
  8
M60LXLIFT
 62
3
 10
6830.489
 20
-8122.844
 30
-732.000
 70
    32
  0
VERTEX
  8
M60LXLIFT
 62
3
 10
6834.577
 20
-8120.559
 30
-732.000
 70
    32
  0
VERTEX
  8
M60LXLIFT
 62
3
 10
6843.292
 20
-8133.003
 30
-732.000
 70
    32
  0
VERTEX
  8
M60LXLIFT
 62
3
 10
6851.407
 20
-8137.231
 30
-732.000
 70
    32
  0
VERTEX
  8
M60LXLIFT
 62
3
 10
6858.269
 20
-8134.143
 30
-732.000
 70
    32
  0
VERTEX
  8
M60LXLIFT
 62
3
 10
6859.277
 20
-8123.800
 30
-732.000
 70
    32
  0
VERTEX
  8
M60LXLIFT
 62
3
 10
6861.171
 20
-8108.066
 30
-732.000
 70
    32
  0
VERTEX
  8
M60LXLIFT
 62
3
 10
6870.158
 20
-8091.672
 30
-732.000
 70
    32
  0
VERTEX
  8
M60LXLIFT
 62
3
 10
6874.114
 20
-8071.431
 30
-732.000
 70
    32
  0
VERTEX
  8
M60LXLIFT
 62
3
 10
6881.074
 20
-8057.033
 30
-732.000
 70
    32
  0
VERTEX
  8
M60LXLIFT
 62
3
 10
6878.422
 20
-8044.453
 30
-732.000
 70
    32
  0
VERTEX
  8
M60LXLIFT
 62
3
 10
6879.273
 20
-8036.601
 30
-732.000
 70
    32
  0
VERTEX
  8
M60LXLIFT
 62
3
 10
6879.786
 20
-8028.883
 30
-732.000
 70
    32
  0
SEQEND
  8
M60LXLIFT
  0
POLYLINE
  8
M60LXLIFT
 62
3
 66
     1
 70
     9
  0
VERTEX
  8
M60LXLIFT
 62
3
 10
6840.727
 20
-8214.381
 30
-785.000
 70
    32
  0
VERTEX
  8
M60LXLIFT
 62
3
 10
6850.939
 20
-8201.127
 30
-785.000
 70
    32
  0
VERTEX
  8
M60LXLIFT
 62
3
 10
6850.699
 20
-8188.390
 30
-785.000
 70
    32
  0
VERTEX
  8
M60LXLIFT
 62
3
 10
6855.184
 20
-8173.905
 30
-785.000
 70
    32
  0
VERTEX
  8
M60LXLIFT
 62
3
 10
6864.708
 20
-8161.051
 30
-785.000
 70
    32
  0
VERTEX
  8
M60LXLIFT
 62
3
 10
6883.686
 20
-8146.777
 30
-785.000
 70
    32
  0
VERTEX
  8
M60LXLIFT
 62
3
 10
6884.173
 20
-8141.819
 30
-785.000
 70
    32
  0
VERTEX
  8
M60LXLIFT
 62
3
 10
6885.041
 20
-8126.292
 30
-785.000
 70
    32
  0
VERTEX
  8
M60LXLIFT
 62
3
 10
6901.394
 20
-8109.803
 30
-785.000
 70
    32
  0
VERTEX
  8
M60LXLIFT
 62
3
 10
6898.451
 20
-8084.402
 30
-785.000
 70
    32
  0
VERTEX
  8
M60LXLIFT
 62
3
 10
6886.796
 20
-8071.473
 30
-785.000
 70
    32
  0
VERTEX
  8
M60LXLIFT
 62
3
 10
6875.808
 20
-8064.617
 30
-785.000
 70
    32
  0
VERTEX
  8
M60LXLIFT
 62
3
 10
6870.660
 20
-8066.679
 30
-785.000
 70
    32
  0
VERTEX
  8
M60LXLIFT
 62
3
 10
6859.900
 20
-8080.229
 30
-785.000
 70
    32
  0
VERTEX
  8
M60LXLIFT
 62
3
 10
6845.735
 20
-8110.311
 30
-785.000
 70
    32
  0
VERTEX
  8
M60LXLIFT
 62
3
 10
6830.457
 20
-8126.332
 30
-785.000
 70
    32
  0
VERTEX
  8
M60LXLIFT
 62
3
 10
6827.606
 20
-8132.383
 30
-785.000
 70
    32
  0
VERTEX
  8
M60LXLIFT
 62
3
 10
6830.851
 20
-8145.631
 30
-785.000
 70
    32
  0
VERTEX
  8
M60LXLIFT
 62
3
 10
6830.700
 20
-8161.831
 30
-785.000
 70
    32
  0
VERTEX
  8
M60LXLIFT
 62
3
 10
6827.917
 20
-8171.225
 30
-785.000
 70
    32
  0
VERTEX
  8
M60LXLIFT
 62
3
 10
6812.739
 20
-8188.267
 30
-785.000
 70
    32
  0
VERTEX
  8
M60LXLIFT
 62
3
 10
6813.999
 20
-8209.770
 30
-785.000
 70
    32
  0
VERTEX
  8
M60LXLIFT
 62
3
 10
6818.019
 20
-8216.971
 30
-785.000
 70
    32
  0
SEQEND
  8
M60LXLIFT
  0
POLYLINE
  8
M60LXLIFT
 62
3
 66
     1
 70
     9
  0
VERTEX
  8
M60LXLIFT
 62
3
 10
6838.300
 20
-8171.928
 30
-744.000
 70
    32
  0
VERTEX
  8
M60LXLIFT
 62
3
 10
6844.773
 20
-8153.639
 30
-744.000
 70
    32
  0
VERTEX
  8
M60LXLIFT
 62
3
 10
6864.269
 20
-8119.945
 30
-744.000
 70
    32
  0
VERTEX
  8
M60LXLIFT
 62
3
 10
6878.007
 20
-8095.749
 30
-744.000
 70
    32
  0
VERTEX
  8
M60LXLIFT
 62
3
 10
6891.043
 20
-8049.964
 30
-744.000
 70
    32
  0
VERTEX
  8
M60LXLIFT
 62
3
 10
6875.475
 20
-8037.169
 30
-744.000
 70
    32
  0
VERTEX
  8
M60LXLIFT
 62
3
 10
6841.937
 20
-8024.962
 30
-744.000
 70
    32
  0
VERTEX
  8
M60LXLIFT
 62
3
 10
6838.237
 20
-8038.959
 30
-744.000
 70
    32
  0
VERTEX
  8
M60LXLIFT
 62
3
 10
6839.317
 20
-8049.933
 30
-744.000
 70
    32
  0
VERTEX
  8
M60LXLIFT
 62
3
 10
6825.564
 20
-8069.895
 30
-744.000
 70
    32
  0
VERTEX
  8
M60LXLIFT
 62
3
 10
6818.164
 20
-8075.466
 30
-744.000
 70
    32
  0
VERTEX
  8
M60LXLIFT
 62
3
 10
6808.894
 20
-8076.946
 30
-744.000
 70
    32
  0
VERTEX
  8
M60LXLIFT
 62
3
 10
6807.592
 20
-8083.874
 30
-744.000
 70
    32
  0
VERTEX
  8
M60LXLIFT
 62
3
 10
6822.708
 20
-8098.302
 30
-744.000
 70
    32
  0
VERTEX
  8
M60LXLIFT
 62
3
 10
6829.768
 20
-8106.258
 30
-744.000
 70
    32
  0
VERTEX
  8
M60LXLIFT
 62
3
 10
6835.926
 20
-8129.669
 30
-744.000
 70
    32
  0
VERTEX
  8
M60LXLIFT
 62
3
 10
6831.695
 20
-8145.791
 30
-744.000
 70
    32
  0
VERTEX
  8
M60LXLIFT
 62
3
 10
6826.735
 20
-8158.196
 30
-744.000
 70
    32
  0
VERTEX
  8
M60LXLIFT
 62
3
 10
6818.353
 20
-8162.409
 30
-744.000
 70
    32
  0
VERTEX
  8
M60LXLIFT
 62
3
 10
6807.842
 20
-8162.174
 30
-744.000
 70
    32
  0
VERTEX
  8
M60LXLIFT
 62
3
 10
6804.465
 20
-8166.685
 30
-744.000
 70
    32
  0
VERTEX
  8
M60LXLIFT
 62
3
 10
6813.281
 20
-8169.995
 30
-744.000
 70
    32
  0
VERTEX
  8
M60LXLIFT
 62
3
 10
6815.563
 20
-8172.698
 30
-744.000
 70
    32
  0
VERTEX
  8
M60LXLIFT
 62
3
 10
6819.993
 20
-8179.726
 30
-744.000
 70
    32
  0
VERTEX
  8
M60LXLIFT
 62
3
 10
6823.382
 20
-8180.649
 30
-744.000
 70
    32
  0
SEQEND
  8
M60LXLIFT
  0
POLYLINE
  8
M60LXLIFT
 62
3
 66
     1
 70
     9
  0
VERTEX
  8
M60LXLIFT
 62
3
 10
6912.239
 20
-8115.048
 30
-794.000
 70
    32
  0
VERTEX
  8
M60LXLIFT
 62
3
 10
6894.139
 20
-8103.100
 30
-794.000
 70
    32
  0
VERTEX
  8
M60LXLIFT
 62
3
 10
6874.140
 20
-8102.700
 30
-794.000
 70
    32
  0
VERTEX
  8
M60LXLIFT
 62
3
 10
6864.140
 20
-8099.640
 30
-794.000
 70
    32
  0
VERTEX
  8
M60LXLIFT
 62
3
 10
6840.397
 20
-8118.007
 30
-794.000
 70
    32
  0
VERTEX
  8
M60LXLIFT
 62
3
 10
6835.100
 20
-8125.173
 30
-794.000
 70
    32
  0
VERTEX
  8
M60LXLIFT
 62
3
 10
6828.889
 20
-8137.868
 30
-794.000
 70
    32
  0
VERTEX
  8
M60LXLIFT
 62
3
 10
6826.708
 20
-8144.346
 30
-794.000
 70
    32
  0
VERTEX
  8
M60LXLIFT
 62
3
 10
6825.479
 20
-8157.374
 30
-794.000
 70
    32
  0
VERTEX
  8
M60LXLIFT
 62
3
 10
6823.742
 20
-8178.376
 30
-794.000
 70
    32
  0
VERTEX
  8
M60LXLIFT
 62
3
 10
6822.071
 20
-8183.482
 30
-794.000
 70
    32
  0
VERTEX
  8
M60LXLIFT
 62
3
 10
6814.012
 20
-8195.912
 30
-794.000
 70
    32
  0
VERTEX
  8
M60LXLIFT
 62
3
 10
6818.735
 20
-8217.458
 30
-794.000
 70
    32
  0
VERTEX
  8
M60LXLIFT
 62
3
 10
6821.940
 20
-8220.116
 30
-794.000
 70
    32
  0
VERTEX
  8
M60LXLIFT
 62
3
 10
6820.939
 20
-8229.340
 30
-794.000
 70
    32
  0
VERTEX
  8
M60LXLIFT
 62
3
 10
6827.911
 20
-8232.472
 30
-794.000
 70
    32
  0
VERTEX
  8
M60LXLIFT
 62
3
 10
6832.785
 20
-8225.183
 30
-794.000
 70
    32
  0
VERTEX
  8
M60LXLIFT
 62
3
 10
6842.679
 20
-8225.022
 30
-794.000
 70
    32
  0
VERTEX
  8
M60LXLIFT
 62
3
 10
6847.836
 20
-8219.722
 30
-794.000
 70
    32
  0
VERTEX
  8
M60LXLIFT
 62
3
 10
6849.524
 20
-8215.373
 30
-794.000
 70
    32
  0
VERTEX
  8
M60LXLIFT
 62
3
 10
6856.636
 20
-8214.878
 30
-794.000
 70
    32
  0
VERTEX
  8
M60LXLIFT
 62
3
 10
6857.600
 20
-8199.298
 30
-794.000
 70
    32
  0
VERTEX
  8
M60LXLIFT
 62
3
 10
6851.209
 20
-8196.941
 30
-794.000
 70
    32
  0
VERTEX
  8
M60LXLIFT
 62
3
 10
6857.103
 20
-8183.384
 30
-794.000
 70
    32
  0
VERTEX
  8
M60LXLIFT
 62
3
 10
6868.119
 20
-8165.214
 30
-794.000
 70
    32
  0
VERTEX
  8
M60LXLIFT
 62
3
 10
6879.453
 20
-8154.948
 30
-794.000
 70
    32
  0
VERTEX
  8
M60LXLIFT
 62
3
 10
6897.846
 20
-8143.676
 30
-794.000
 70
    32
  0
VERTEX
  8
M60LXLIFT
 62
3
 10
6901.965
 20
-8140.366
 30
-794.000
 70
    32
  0
VERTEX
  8
M60LXLIFT
 62
3
 10
6907.770
 20
-8125.665
 30
-794.000
 70
    32
  0
SEQEND
  8
M60LXLIFT
  0
POLYLINE
  8
M60LXLIFT
 62
3
 66
     1
 70
     9
  0
VERTEX
  8
M60LXLIFT
 62
3
 10
6823.625
 20
-8223.906
 30
-764.000
 70
    32
  0
VERTEX
  8
M60LXLIFT
 62
3
 10
6834.182
 20
-8208.908
 30
-764.000
 70
    32
  0
VERTEX
  8
M60LXLIFT
 62
3
 10
6840.206
 20
-8207.713
 30
-764.000
 70
    32
  0
VERTEX
  8
M60LXLIFT
 62
3
 10
6858.724
 20
-8158.470
 30
-764.000
 70
    32
  0
VERTEX
  8
M60LXLIFT
 62
3
 10
6880.697
 20
-8129.481
 30
-764.000
 70
    32
  0
VERTEX
  8
M60LXLIFT
 62
3
 10
6898.157
 20
-8113.731
 30
-764.000
 70
    32
  0
VERTEX
  8
M60LXLIFT
 62
3
 10
6895.001
 20
-8093.584
 30
-764.000
 70
    32
  0
VERTEX
  8
M60LXLIFT
 62
3
 10
6907.784
 20
-8075.830
 30
-764.000
 70
    32
  0
VERTEX
  8
M60LXLIFT
 62
3
 10
6914.100
 20
-8060.589
 30
-764.000
 70
    32
  0
VERTEX
  8
M60LXLIFT
 62
3
 10
6885.955
 20
-8049.620
 30
-764.000
 70
    32
  0
VERTEX
  8
M60LXLIFT
 62
3
 10
6883.037
 20
-8059.256
 30
-764.000
 70
    32
  0
VERTEX
  8
M60LXLIFT
 62
3
 10
6863.934
 20
-8060.867
 30
-764.000
 70
    32
  0
VERTEX
  8
M60LXLIFT
 62
3
 10
6841.985
 20
-8082.376
 30
-764.000
 70
    32
  0
VERTEX
  8
M60LXLIFT
 62
3
 10
6821.106
 20
-8099.576
 30
-764.000
 70
    32
  0
VERTEX
  8
M60LXLIFT
 62
3
 10
6832.658
 20
-8130.698
 30
-764.000
 70
    32
  0
VERTEX
  8
M60LXLIFT
 62
3
 10
6834.557
 20
-8147.391
 30
-764.000
 70
    32
  0
VERTEX
  8
M60LXLIFT
 62
3
 10
6828.604
 20
-8164.885
 30
-764.000
 70
    32
  0
VERTEX
  8
M60LXLIFT
 62
3
 10
6821.616
 20
-8181.285
 30
-764.000
 70
    32
  0
VERTEX
  8
M60LXLIFT
 62
3
 10
6813.570
 20
-8219.983
 30
-764.000
 70
    32
  0
SEQEND
  8
M60LXLIFT
  0
POLYLINE
  8
M60LXLIFT
 62
3
 66
     1
 70
     9
  0
VERTEX
  8
M60LXLIFT
 62
3
 10
6814.688
 20
-8227.820
 30
-775.000
 70
    32
  0
VERTEX
  8
M60LXLIFT
 62
3
 10
6830.018
 20
-8212.010
 30
-775.000
 70
    32
  0
VERTEX
  8
M60LXLIFT
 62
3
 10
6842.854
 20
-8194.327
 30
-775.000
 70
    32
  0
VERTEX
  8
M60LXLIFT
 62
3
 10
6850.986
 20
-8172.685
 30
-775.000
 70
    32
  0
VERTEX
  8
M60LXLIFT
 62
3
 10
6860.633
 20
-8156.170
 30
-775.000
 70
    32
  0
VERTEX
  8
M60LXLIFT
 62
3
 10
6873.661
 20
-8144.490
 30
-775.000
 70
    32
  0
VERTEX
  8
M60LXLIFT
 62
3
 10
6881.808
 20
-8134.360
 30
-775.000
 70
    32
  0
VERTEX
  8
M60LXLIFT
 62
3
 10
6897.822
 20
-8108.273
 30
-775.000
 70
    32
  0
VERTEX
  8
M60LXLIFT
 62
3
 10
6897.079
 20
-8093.133
 30
-775.000
 70
    32
  0
VERTEX
  8
M60LXLIFT
 62
3
 10
6892.152
 20
-8087.255
 30
-775.000
 70
    32
  0
VERTEX
  8
M60LXLIFT
 62
3
 10
6889.203
 20
-8079.466
 30
-775.000
 70
    32
  0
VERTEX
  8
M60LXLIFT
 62
3
 10
6885.530
 20
-8077.483
 30
-775.000
 70
    32
  0
VERTEX
  8
M60LXLIFT
 62
3
 10
6883.398
 20
-8072.706
 30
-775.000
 70
    32
  0
VERTEX
  8
M60LXLIFT
 62
3
 10
6874.177
 20
-8072.112
 30
-775.000
 70
    32
  0
VERTEX
  8
M60LXLIFT
 62
3
 10
6862.590
 20
-8079.098
 30
-775.000
 70
    32
  0
VERTEX
  8
M60LXLIFT
 62
3
 10
6857.724
 20
-8087.003
 30
-775.000
 70
    32
  0
VERTEX
  8
M60LXLIFT
 62
3
 10
6852.455
 20
-8094.220
 30
-775.000
 70
    32
  0
VERTEX
  8
M60LXLIFT
 62
3
 10
6834.633
 20
-8107.716
 30
-775.000
 70
    32
  0
VERTEX
  8
M60LXLIFT
 62
3
 10
6830.504
 20
-8127.364
 30
-775.000
 70
    32
  0
VERTEX
  8
M60LXLIFT
 62
3
 10
6835.399
 20
-8142.923
 30
-775.000
 70
    32
  0
VERTEX
  8
M60LXLIFT
 62
3
 10
6834.577
 20
-8157.582
 30
-775.000
 70
    32
  0
VERTEX
  8
M60LXLIFT
 62
3
 10
6818.201
 20
-8181.415
 30
-775.000
 70
    32
  0
VERTEX
  8
M60LXLIFT
 62
3
 10
6812.029
 20
-8201.268
 30
-775.000
 70
    32
  0
VERTEX
  8
M60LXLIFT
 62
3
 10
6804.518
 20
-8221.239
 30
-775.000
 70
    32
  0
SEQEND
  8
M60LXLIFT
  0
POLYLINE
  8
M60LXLIFT
 62
3
 66
     1
 70
     9
  0
VERTEX
  8
M60LXLIFT
 62
3
 10
6818.523
 20
-8223.977
 30
-752.000
 70
    32
  0
VERTEX
  8
M60LXLIFT
 62
3
 10
6826.714
 20
-8211.162
 30
-752.000
 70
    32
  0
VERTEX
  8
M60LXLIFT
 62
3
 10
6832.184
 20
-8193.016
 30
-752.000
 70
    32
  0
VERTEX
  8
M60LXLIFT
 62
3
 10
6841.114
 20
-8188.195
 30
-752.000
 70
    32
  0
VERTEX
  8
M60LXLIFT
 62
3
 10
6850.118
 20
-8157.597
 30
-752.000
 70
    32
  0
VERTEX
  8
M60LXLIFT
 62
3
 10
6874.375
 20
-8117.087
 30
-752.000
 70
    32
  0
VERTEX
  8
M60LXLIFT
 62
3
 10
6884.089
 20
-8105.449
 30
-752.000
 70
    32
  0
VERTEX
  8
M60LXLIFT
 62
3
 10
6886.428
 20
-8090.483
 30
-752.000
 70
    32
  0
VERTEX
  8
M60LXLIFT
 62
3
 10
6896.763
 20
-8064.817
 30
-752.000
 70
    32
  0
VERTEX
  8
M60LXLIFT
 62
3
 10
6904.808
 20
-8052.547
 30
-752.000
 70
    32
  0
VERTEX
  8
M60LXLIFT
 62
3
 10
6903.479
 20
-8037.654
 30
-752.000
 70
    32
  0
VERTEX
  8
M60LXLIFT
 62
3
 10
6892.373
 20
-8033.569
 30
-752.000
 70
    32
  0
VERTEX
  8
M60LXLIFT
 62
3
 10
6872.347
 20
-8042.945
 30
-752.000
 70
    32
  0
VERTEX
  8
M60LXLIFT
 62
3
 10
6866.809
 20
-8047.020
 30
-752.000
 70
    32
  0
VERTEX
  8
M60LXLIFT
 62
3
 10
6854.162
 20
-8059.284
 30
-752.000
 70
    32
  0
VERTEX
  8
M60LXLIFT
 62
3
 10
6845.140
 20
-8068.441
 30
-752.000
 70
    32
  0
VERTEX
  8
M60LXLIFT
 62
3
 10
6838.420
 20
-8082.362
 30
-752.000
 70
    32
  0
VERTEX
  8
M60LXLIFT
 62
3
 10
6835.278
 20
-8090.586
 30
-752.000
 70
    32
  0
VERTEX
  8
M60LXLIFT
 62
3
 10
6838.864
 20
-8117.171
 30
-752.000
 70
    32
  0
VERTEX
  8
M60LXLIFT
 62
3
 10
6841.162
 20
-8136.058
 30
-752.000
 70
    32
  0
VERTEX
  8
M60LXLIFT
 62
3
 10
6839.122
 20
-8151.132
 30
-752.000
 70
    32
  0
VERTEX
  8
M60LXLIFT
 62
3
 10
6836.987
 20
-8155.221
 30
-752.000
 70
    32
  0
VERTEX
  8
M60LXLIFT
 62
3
 10
6830.945
 20
-8158.464
 30
-752.000
 70
    32
  0
VERTEX
  8
M60LXLIFT
 62
3
 10
6821.923
 20
-8167.622
 30
-752.000
 70
    32
  0
VERTEX
  8
M60LXLIFT
 62
3
 10
6820.152
 20
-8174.288
 30
-752.000
 70
    32
  0
VERTEX
  8
M60LXLIFT
 62
3
 10
6811.296
 20
-8174.896
 30
-752.000
 70
    32
  0
VERTEX
  8
M60LXLIFT
 62
3
 10
6808.436
 20
-8179.190
 30
-752.000
 70
    32
  0
VERTEX
  8
M60LXLIFT
 62
3
 10
6818.833
 20
-8189.598
 30
-752.000
 70
    32
  0
VERTEX
  8
M60LXLIFT
 62
3
 10
6813.645
 20
-8209.616
 30
-752.000
 70
    32
  0
VERTEX
  8
M60LXLIFT
 62
3
 10
6810.755
 20
-8213.275
 30
-752.000
 70
    32
  0
VERTEX
  8
M60LXLIFT
 62
3
 10
6810.479
 20
-8220.484
 30
-752.000
 70
    32
  0
SEQEND
  8
M60LXLIFT
  0
POLYLINE
  8
M60LXLIFT
 62
3
 66
     1
 70
     9
  0
VERTEX
  8
M60LXLIFT
 62
3
 10
6827.598
 20
-8104.354
 30
-683.000
 70
    32
  0
VERTEX
  8
M60LXLIFT
 62
3
 10
6850.845
 20
-8065.729
 30
-683.000
 70
    32
  0
VERTEX
  8
M60LXLIFT
 62
3
 10
6869.796
 20
-8042.564
 30
-683.000
 70
    32
  0
VERTEX
  8
M60LXLIFT
 62
3
 10
6887.828
 20
-8027.750
 30
-683.000
 70
    32
  0
VERTEX
  8
M60LXLIFT
 62
3
 10
6894.241
 20
-8018.387
 30
-683.000
 70
    32
  0
VERTEX
  8
M60LXLIFT
 62
3
 10
6888.178
 20
-7998.568
 30
-683.000
 70
    32
  0
VERTEX
  8
M60LXLIFT
 62
3
 10
6873.679
 20
-7984.795
 30
-683.000
 70
    32
  0
VERTEX
  8
M60LXLIFT
 62
3
 10
6852.812
 20
-7981.775
 30
-683.000
 70
    32
  0
VERTEX
  8
M60LXLIFT
 62
3
 10
6837.969
 20
-7988.195
 30
-683.000
 70
    32
  0
VERTEX
  8
M60LXLIFT
 62
3
 10
6827.231
 20
-7989.815
 30
-683.000
 70
    32
  0
VERTEX
  8
M60LXLIFT
 62
3
 10
6817.029
 20
-8000.567
 30
-683.000
 70
    32
  0
VERTEX
  8
M60LXLIFT
 62
3
 10
6807.160
 20
-8015.455
 30
-683.000
 70
    32
  0
VERTEX
  8
M60LXLIFT
 62
3
 10
6800.951
 20
-8022.585
 30
-683.000
 70
    32
  0
VERTEX
  8
M60LXLIFT
 62
3
 10
6802.890
 20
-8040.098
 30
-683.000
 70
    32
  0
VERTEX
  8
M60LXLIFT
 62
3
 10
6800.021
 20
-8055.265
 30
-683.000
 70
    32
  0
VERTEX
  8
M60LXLIFT
 62
3
 10
6810.878
 20
-8072.838
 30
-683.000
 70
    32
  0
VERTEX
  8
M60LXLIFT
 62
3
 10
6814.138
 20
-8086.522
 30
-683.000
 70
    32
  0
VERTEX
  8
M60LXLIFT
 62
3
 10
6811.930
 20
-8099.336
 30
-683.000
 70
    32
  0
SEQEND
  8
M60LXLIFT
  0
POLYLINE
  8
M60LXLIFT
 62
1
 66
     1
 70
     9
  0
VERTEX
  8
M60LXLIFT
 62
1
 10
6842.557
 20
-8075.679
 30
-669.000
 70
    32
  0
VERTEX
  8
M60LXLIFT
 62
1
 10
6845.746
 20
-8067.286
 30
-669.000
 70
    32
  0
VERTEX
  8
M60LXLIFT
 62
1
 10
6847.871
 20
-8053.328
 30
-669.000
 70
    32
  0
VERTEX
  8
M60LXLIFT
 62
1
 10
6852.133
 20
-8044.905
 30
-669.000
 70
    32
  0
VERTEX
  8
M60LXLIFT
 62
1
 10
6860.668
 20
-8018.629
 30
-669.000
 70
    32
  0
VERTEX
  8
M60LXLIFT
 62
1
 10
6863.693
 20
-8011.343
 30
-669.000
 70
    32
  0
VERTEX
  8
M60LXLIFT
 62
1
 10
6876.840
 20
-7998.951
 30
-669.000
 70
    32
  0
VERTEX
  8
M60LXLIFT
 62
1
 10
6884.507
 20
-7995.997
 30
-669.000
 70
    32
  0
VERTEX
  8
M60LXLIFT
 62
1
 10
6888.948
 20
-7997.848
 30
-669.000
 70
    32
  0
VERTEX
  8
M60LXLIFT
 62
1
 10
6905.906
 20
-8009.029
 30
-669.000
 70
    32
  0
VERTEX
  8
M60LXLIFT
 62
1
 10
6903.484
 20
-8026.275
 30
-669.000
 70
    32
  0
VERTEX
  8
M60LXLIFT
 62
1
 10
6887.681
 20
-8042.172
 30
-669.000
 70
    32
  0
VERTEX
  8
M60LXLIFT
 62
1
 10
6884.206
 20
-8047.820
 30
-669.000
 70
    32
  0
VERTEX
  8
M60LXLIFT
 62
1
 10
6889.705
 20
-8049.324
 30
-669.000
 70
    32
  0
VERTEX
  8
M60LXLIFT
 62
1
 10
6887.355
 20
-8055.013
 30
-669.000
 70
    32
  0
VERTEX
  8
M60LXLIFT
 62
1
 10
6876.004
 20
-8067.167
 30
-669.000
 70
    32
  0
VERTEX
  8
M60LXLIFT
 62
1
 10
6868.202
 20
-8079.971
 30
-669.000
 70
    32
  0
VERTEX
  8
M60LXLIFT
 62
1
 10
6864.781
 20
-8089.085
 30
-669.000
 70
    32
  0
VERTEX
  8
M60LXLIFT
 62
1
 10
6860.013
 20
-8092.844
 30
-669.000
 70
    32
  0
VERTEX
  8
M60LXLIFT
 62
1
 10
6846.450
 20
-8085.496
 30
-669.000
 70
    32
  0
SEQEND
  8
M60LXLIFT
  0
POLYLINE
  8
M60LXLIFT
 62
3
 66
     1
 70
     9
  0
VERTEX
  8
M60LXLIFT
 62
3
 10
6845.450
 20
-8086.496
 30
-673.000
 70
    32
  0
VERTEX
  8
M60LXLIFT
 62
3
 10
6859.013
 20
-8093.844
 30
-673.000
 70
    32
  0
VERTEX
  8
M60LXLIFT
 62
3
 10
6863.781
 20
-8090.085
 30
-673.000
 70
    32
  0
VERTEX
  8
M60LXLIFT
 62
3
 10
6867.202
 20
-8080.971
 30
-673.000
 70
    32
  0
VERTEX
  8
M60LXLIFT
 62
3
 10
6875.004
 20
-8068.167
 30
-673.000
 70
    32
  0
VERTEX
  8
M60LXLIFT
 62
3
 10
6886.355
 20
-8056.013
 30
-673.000
 70
    32
  0
VERTEX
  8
M60LXLIFT
 62
3
 10
6888.705
 20
-8050.324
 30
-673.000
 70
    32
  0
VERTEX
  8
M60LXLIFT
 62
3
 10
6883.206
 20
-8048.820
 30
-673.000
 70
    32
  0
VERTEX
  8
M60LXLIFT
 62
3
 10
6886.681
 20
-8043.172
 30
-673.000
 70
    32
  0
VERTEX
  8
M60LXLIFT
 62
3
 10
6902.484
 20
-8027.275
 30
-673.000
 70
    32
  0
VERTEX
  8
M60LXLIFT
 62
3
 10
6904.906
 20
-8010.029
 30
-673.000
 70
    32
  0
VERTEX
  8
M60LXLIFT
 62
3
 10
6887.948
 20
-7998.848
 30
-673.000
 70
    32
  0
VERTEX
  8
M60LXLIFT
 62
3
 10
6883.507
 20
-7996.997
 30
-673.000
 70
    32
  0
VERTEX
  8
M60LXLIFT
 62
3
 10
6875.840
 20
-7999.951
 30
-673.000
 70
    32
  0
VERTEX
  8
M60LXLIFT
 62
3
 10
6862.693
 20
-8012.343
 30
-673.000
 70
    32
  0
VERTEX
  8
M60LXLIFT
 62
3
 10
6859.668
 20
-8019.629
 30
-673.000
 70
    32
  0
VERTEX
  8
M60LXLIFT
 62
3
 10
6851.133
 20
-8045.905
 30
-673.000
 70
    32
  0
VERTEX
  8
M60LXLIFT
 62
3
 10
6846.871
 20
-8054.328
 30
-673.000
 70
    32
  0
VERTEX
  8
M60LXLIFT
 62
3
 10
6844.746
 20
-8068.286
 30
-673.000
 70
    32
  0
VERTEX
  8
M60LXLIFT
 62
3
 10
6841.557
 20
-8076.679
 30
-673.000
 70
    32
  0
SEQEND
  8
M60LXLIFT
  0
POLYLINE
  8
M60LXLIFT
 62
3
 66
     1
 70
     9
  0
VERTEX
  8
M60LXLIFT
 62
3
 10
6884.637
 20
-8167.257
 30
-800.000
 70
    32
  0
VERTEX
  8
M60LXLIFT
 62
3
 10
6858.348
 20
-8226.475
 30
-800.000
 70
    32
  0
VERTEX
  8
M60LXLIFT
 62
3
 10
6854.104
 20
-8205.974
 30
-800.000
 70
    32
  0
VERTEX
  8
M60LXLIFT
 62
3
 10
6851.975
 20
-8184.782
 30
-800.000
 70
    32
  0
VERTEX
  8
M60LXLIFT
 62
3
 10
6862.990
 20
-8153.850
 30
-800.000
 70
    32
  0
VERTEX
  8
M60LXLIFT
 62
3
 10
6866.978
 20
-8145.641
 30
-800.000
 70
    32
  0
VERTEX
  8
M60LXLIFT
 62
3
 10
6865.673
 20
-8137.084
 30
-800.000
 70
    32
  0
VERTEX
  8
M60LXLIFT
 62
3
 10
6861.660
 20
-8137.430
 30
-800.000
 70
    32
  0
VERTEX
  8
M60LXLIFT
 62
3
 10
6856.720
 20
-8149.082
 30
-800.000
 70
    32
  0
VERTEX
  8
M60LXLIFT
 62
3
 10
6851.136
 20
-8159.569
 30
-800.000
 70
    32
  0
VERTEX
  8
M60LXLIFT
 62
3
 10
6845.538
 20
-8166.344
 30
-800.000
 70
    32
  0
VERTEX
  8
M60LXLIFT
 62
3
 10
6832.971
 20
-8173.466
 30
-800.000
 70
    32
  0
VERTEX
  8
M60LXLIFT
 62
3
 10
6829.968
 20
-8184.778
 30
-800.000
 70
    32
  0
VERTEX
  8
M60LXLIFT
 62
3
 10
6837.104
 20
-8198.100
 30
-800.000
 70
    32
  0
VERTEX
  8
M60LXLIFT
 62
3
 10
6845.688
 20
-8207.174
 30
-800.000
 70
    32
  0
VERTEX
  8
M60LXLIFT
 62
3
 10
6850.423
 20
-8234.098
 30
-800.000
 70
    32
  0
VERTEX
  8
M60LXLIFT
 62
3
 10
6849.631
 20
-8243.224
 30
-800.000
 70
    32
  0
VERTEX
  8
M60LXLIFT
 62
3
 10
6836.715
 20
-8253.123
 30
-800.000
 70
    32
  0
VERTEX
  8
M60LXLIFT
 62
3
 10
6839.262
 20
-8256.709
 30
-800.000
 70
    32
  0
VERTEX
  8
M60LXLIFT
 62
3
 10
6845.159
 20
-8252.996
 30
-800.000
 70
    32
  0
VERTEX
  8
M60LXLIFT
 62
3
 10
6858.717
 20
-8244.701
 30
-800.000
 70
    32
  0
VERTEX
  8
M60LXLIFT
 62
3
 10
6862.538
 20
-8238.039
 30
-800.000
 70
    32
  0
VERTEX
  8
M60LXLIFT
 62
3
 10
6864.942
 20
-8226.952
 30
-800.000
 70
    32
  0
VERTEX
  8
M60LXLIFT
 62
3
 10
6877.589
 20
-8202.803
 30
-800.000
 70
    32
  0
VERTEX
  8
M60LXLIFT
 62
3
 10
6883.680
 20
-8189.750
 30
-800.000
 70
    32
  0
VERTEX
  8
M60LXLIFT
 62
3
 10
6888.295
 20
-8170.567
 30
-800.000
 70
    32
  0
SEQEND
  8
M60LXLIFT
  0
POLYLINE
  8
M60LXLIFT
 62
3
 66
     1
 70
     9
  0
VERTEX
  8
M60LXLIFT
 62
3
 10
6840.664
 20
-8238.249
 30
-806.000
 70
    32
  0
VERTEX
  8
M60LXLIFT
 62
3
 10
6850.065
 20
-8221.160
 30
-806.000
 70
    32
  0
VERTEX
  8
M60LXLIFT
 62
3
 10
6859.701
 20
-8196.936
 30
-806.000
 70
    32
  0
VERTEX
  8
M60LXLIFT
 62
3
 10
6880.053
 20
-8161.302
 30
-806.000
 70
    32
  0
VERTEX
  8
M60LXLIFT
 62
3
 10
6891.612
 20
-8139.265
 30
-806.000
 70
    32
  0
VERTEX
  8
M60LXLIFT
 62
3
 10
6865.887
 20
-8120.714
 30
-806.000
 70
    32
  0
VERTEX
  8
M60LXLIFT
 62
3
 10
6853.444
 20
-8127.073
 30
-806.000
 70
    32
  0
VERTEX
  8
M60LXLIFT
 62
3
 10
6839.821
 20
-8142.999
 30
-806.000
 70
    32
  0
VERTEX
  8
M60LXLIFT
 62
3
 10
6834.489
 20
-8151.351
 30
-806.000
 70
    32
  0
VERTEX
  8
M60LXLIFT
 62
3
 10
6830.830
 20
-8162.291
 30
-806.000
 70
    32
  0
VERTEX
  8
M60LXLIFT
 62
3
 10
6829.379
 20
-8180.434
 30
-806.000
 70
    32
  0
VERTEX
  8
M60LXLIFT
 62
3
 10
6831.199
 20
-8215.884
 30
-806.000
 70
    32
  0
VERTEX
  8
M60LXLIFT
 62
3
 10
6828.391
 20
-8234.255
 30
-806.000
 70
    32
  0
SEQEND
  8
M60LXLIFT
  0
POLYLINE
  8
M60LXLIFT
 62
2
 66
     1
 70
     9
  0
VERTEX
  8
M60LXLIFT
 62
2
 10
6731.057
 20
-8560.504
 30
-742.000
 70
    32
  0
VERTEX
  8
M60LXLIFT
 62
2
 10
6736.128
 20
-8568.322
 30
-742.000
 70
    32
  0
VERTEX
  8
M60LXLIFT
 62
2
 10
6743.359
 20
-8574.481
 30
-742.000
 70
    32
  0
VERTEX
  8
M60LXLIFT
 62
2
 10
6750.717
 20
-8573.740
 30
-742.000
 70
    32
  0
VERTEX
  8
M60LXLIFT
 62
2
 10
6760.371
 20
-8581.619
 30
-742.000
 70
    32
  0
VERTEX
  8
M60LXLIFT
 62
2
 10
6769.785
 20
-8578.321
 30
-742.000
 70
    32
  0
VERTEX
  8
M60LXLIFT
 62
2
 10
6775.127
 20
-8570.704
 30
-742.000
 70
    32
  0
VERTEX
  8
M60LXLIFT
 62
2
 10
6785.332
 20
-8564.894
 30
-742.000
 70
    32
  0
VERTEX
  8
M60LXLIFT
 62
2
 10
6791.084
 20
-8567.034
 30
-742.000
 70
    32
  0
VERTEX
  8
M60LXLIFT
 62
2
 10
6806.796
 20
-8559.108
 30
-742.000
 70
    32
  0
VERTEX
  8
M60LXLIFT
 62
2
 10
6816.282
 20
-8546.572
 30
-742.000
 70
    32
  0
VERTEX
  8
M60LXLIFT
 62
2
 10
6825.019
 20
-8546.247
 30
-742.000
 70
    32
  0
VERTEX
  8
M60LXLIFT
 62
2
 10
6833.463
 20
-8538.133
 30
-742.000
 70
    32
  0
VERTEX
  8
M60LXLIFT
 62
2
 10
6827.766
 20
-8528.387
 30
-742.000
 70
    32
  0
VERTEX
  8
M60LXLIFT
 62
2
 10
6817.939
 20
-8525.387
 30
-742.000
 70
    32
  0
VERTEX
  8
M60LXLIFT
 62
2
 10
6817.104
 20
-8512.476
 30
-742.000
 70
    32
  0
VERTEX
  8
M60LXLIFT
 62
2
 10
6813.877
 20
-8503.011
 30
-742.000
 70
    32
  0
VERTEX
  8
M60LXLIFT
 62
2
 10
6788.600
 20
-8506.344
 30
-742.000
 70
    32
  0
VERTEX
  8
M60LXLIFT
 62
2
 10
6782.894
 20
-8511.196
 30
-742.000
 70
    32
  0
VERTEX
  8
M60LXLIFT
 62
2
 10
6781.433
 20
-8519.702
 30
-742.000
 70
    32
  0
VERTEX
  8
M60LXLIFT
 62
2
 10
6782.711
 20
-8543.320
 30
-742.000
 70
    32
  0
VERTEX
  8
M60LXLIFT
 62
2
 10
6771.242
 20
-8549.930
 30
-742.000
 70
    32
  0
VERTEX
  8
M60LXLIFT
 62
2
 10
6760.480
 20
-8553.006
 30
-742.000
 70
    32
  0
VERTEX
  8
M60LXLIFT
 62
2
 10
6741.901
 20
-8552.721
 30
-742.000
 70
    32
  0
SEQEND
  8
M60LXLIFT
  0
POLYLINE
  8
M60LXLIFT
 62
2
 66
     1
 70
     9
  0
VERTEX
  8
M60LXLIFT
 62
2
 10
6800.828
 20
-8508.234
 30
-768.000
 70
    32
  0
VERTEX
  8
M60LXLIFT
 62
2
 10
6804.161
 20
-8533.584
 30
-768.000
 70
    32
  0
VERTEX
  8
M60LXLIFT
 62
2
 10
6811.659
 20
-8544.812
 30
-768.000
 70
    32
  0
VERTEX
  8
M60LXLIFT
 62
2
 10
6813.251
 20
-8550.098
 30
-768.000
 70
    32
  0
VERTEX
  8
M60LXLIFT
 62
2
 10
6804.190
 20
-8569.464
 30
-768.000
 70
    32
  0
VERTEX
  8
M60LXLIFT
 62
2
 10
6801.227
 20
-8571.536
 30
-768.000
 70
    32
  0
VERTEX
  8
M60LXLIFT
 62
2
 10
6788.375
 20
-8575.193
 30
-768.000
 70
    32
  0
VERTEX
  8
M60LXLIFT
 62
2
 10
6762.129
 20
-8580.281
 30
-768.000
 70
    32
  0
VERTEX
  8
M60LXLIFT
 62
2
 10
6742.300
 20
-8597.064
 30
-768.000
 70
    32
  0
VERTEX
  8
M60LXLIFT
 62
2
 10
6758.935
 20
-8607.916
 30
-768.000
 70
    32
  0
VERTEX
  8
M60LXLIFT
 62
2
 10
6767.096
 20
-8608.149
 30
-768.000
 70
    32
  0
VERTEX
  8
M60LXLIFT
 62
2
 10
6778.174
 20
-8603.717
 30
-768.000
 70
    32
  0
VERTEX
  8
M60LXLIFT
 62
2
 10
6784.653
 20
-8598.839
 30
-768.000
 70
    32
  0
VERTEX
  8
M60LXLIFT
 62
2
 10
6801.767
 20
-8593.686
 30
-768.000
 70
    32
  0
VERTEX
  8
M60LXLIFT
 62
2
 10
6805.748
 20
-8588.239
 30
-768.000
 70
    32
  0
VERTEX
  8
M60LXLIFT
 62
2
 10
6810.684
 20
-8578.586
 30
-768.000
 70
    32
  0
VERTEX
  8
M60LXLIFT
 62
2
 10
6820.726
 20
-8569.772
 30
-768.000
 70
    32
  0
VERTEX
  8
M60LXLIFT
 62
2
 10
6836.920
 20
-8553.257
 30
-768.000
 70
    32
  0
VERTEX
  8
M60LXLIFT
 62
2
 10
6843.665
 20
-8540.411
 30
-768.000
 70
    32
  0
VERTEX
  8
M60LXLIFT
 62
2
 10
6840.421
 20
-8530.649
 30
-768.000
 70
    32
  0
VERTEX
  8
M60LXLIFT
 62
2
 10
6821.732
 20
-8518.791
 30
-768.000
 70
    32
  0
VERTEX
  8
M60LXLIFT
 62
2
 10
6812.642
 20
-8510.157
 30
-768.000
 70
    32
  0
VERTEX
  8
M60LXLIFT
 62
2
 10
6810.478
 20
-8505.730
 30
-768.000
 70
    32
  0
SEQEND
  8
M60LXLIFT
  0
POLYLINE
  8
M60LXLIFT
 62
2
 66
     1
 70
     9
  0
VERTEX
  8
M60LXLIFT
 62
2
 10
6759.590
 20
-8521.232
 30
-707.000
 70
    32
  0
VERTEX
  8
M60LXLIFT
 62
2
 10
6785.131
 20
-8516.609
 30
-707.000
 70
    32
  0
VERTEX
  8
M60LXLIFT
 62
2
 10
6802.379
 20
-8515.828
 30
-707.000
 70
    32
  0
VERTEX
  8
M60LXLIFT
 62
2
 10
6809.468
 20
-8517.964
 30
-707.000
 70
    32
  0
VERTEX
  8
M60LXLIFT
 62
2
 10
6813.138
 20
-8524.969
 30
-707.000
 70
    32
  0
VERTEX
  8
M60LXLIFT
 62
2
 10
6813.115
 20
-8533.024
 30
-707.000
 70
    32
  0
VERTEX
  8
M60LXLIFT
 62
2
 10
6818.934
 20
-8532.062
 30
-707.000
 70
    32
  0
VERTEX
  8
M60LXLIFT
 62
2
 10
6820.181
 20
-8522.250
 30
-707.000
 70
    32
  0
VERTEX
  8
M60LXLIFT
 62
2
 10
6817.877
 20
-8503.500
 30
-707.000
 70
    32
  0
VERTEX
  8
M60LXLIFT
 62
2
 10
6817.511
 20
-8495.509
 30
-707.000
 70
    32
  0
VERTEX
  8
M60LXLIFT
 62
2
 10
6822.780
 20
-8479.413
 30
-707.000
 70
    32
  0
VERTEX
  8
M60LXLIFT
 62
2
 10
6826.030
 20
-8465.324
 30
-707.000
 70
    32
  0
VERTEX
  8
M60LXLIFT
 62
2
 10
6830.186
 20
-8460.571
 30
-707.000
 70
    32
  0
VERTEX
  8
M60LXLIFT
 62
2
 10
6825.749
 20
-8457.598
 30
-707.000
 70
    32
  0
VERTEX
  8
M60LXLIFT
 62
2
 10
6817.660
 20
-8458.578
 30
-707.000
 70
    32
  0
VERTEX
  8
M60LXLIFT
 62
2
 10
6815.111
 20
-8460.753
 30
-707.000
 70
    32
  0
VERTEX
  8
M60LXLIFT
 62
2
 10
6817.799
 20
-8466.406
 30
-707.000
 70
    32
  0
VERTEX
  8
M60LXLIFT
 62
2
 10
6810.286
 20
-8473.269
 30
-707.000
 70
    32
  0
VERTEX
  8
M60LXLIFT
 62
2
 10
6807.501
 20
-8476.918
 30
-707.000
 70
    32
  0
VERTEX
  8
M60LXLIFT
 62
2
 10
6811.103
 20
-8481.583
 30
-707.000
 70
    32
  0
VERTEX
  8
M60LXLIFT
 62
2
 10
6803.649
 20
-8492.422
 30
-707.000
 70
    32
  0
VERTEX
  8
M60LXLIFT
 62
2
 10
6797.204
 20
-8497.314
 30
-707.000
 70
    32
  0
VERTEX
  8
M60LXLIFT
 62
2
 10
6788.976
 20
-8501.544
 30
-707.000
 70
    32
  0
VERTEX
  8
M60LXLIFT
 62
2
 10
6778.203
 20
-8504.363
 30
-707.000
 70
    32
  0
VERTEX
  8
M60LXLIFT
 62
2
 10
6765.522
 20
-8507.696
 30
-707.000
 70
    32
  0
VERTEX
  8
M60LXLIFT
 62
2
 10
6754.684
 20
-8510.126
 30
-707.000
 70
    32
  0
SEQEND
  8
M60LXLIFT
  0
POLYLINE
  8
M60LXLIFT
 62
2
 66
     1
 70
     9
  0
VERTEX
  8
M60LXLIFT
 62
2
 10
6771.613
 20
-8542.782
 30
-714.000
 70
    32
  0
VERTEX
  8
M60LXLIFT
 62
2
 10
6785.843
 20
-8534.849
 30
-714.000
 70
    32
  0
VERTEX
  8
M60LXLIFT
 62
2
 10
6802.454
 20
-8519.867
 30
-714.000
 70
    32
  0
VERTEX
  8
M60LXLIFT
 62
2
 10
6823.172
 20
-8507.552
 30
-714.000
 70
    32
  0
VERTEX
  8
M60LXLIFT
 62
2
 10
6829.543
 20
-8514.987
 30
-714.000
 70
    32
  0
VERTEX
  8
M60LXLIFT
 62
2
 10
6834.446
 20
-8511.864
 30
-714.000
 70
    32
  0
VERTEX
  8
M60LXLIFT
 62
2
 10
6828.868
 20
-8501.031
 30
-714.000
 70
    32
  0
VERTEX
  8
M60LXLIFT
 62
2
 10
6831.226
 20
-8490.957
 30
-714.000
 70
    32
  0
VERTEX
  8
M60LXLIFT
 62
2
 10
6823.331
 20
-8466.598
 30
-714.000
 70
    32
  0
VERTEX
  8
M60LXLIFT
 62
2
 10
6816.939
 20
-8466.022
 30
-714.000
 70
    32
  0
VERTEX
  8
M60LXLIFT
 62
2
 10
6808.345
 20
-8474.537
 30
-714.000
 70
    32
  0
VERTEX
  8
M60LXLIFT
 62
2
 10
6809.229
 20
-8480.847
 30
-714.000
 70
    32
  0
VERTEX
  8
M60LXLIFT
 62
2
 10
6807.588
 20
-8485.622
 30
-714.000
 70
    32
  0
VERTEX
  8
M60LXLIFT
 62
2
 10
6806.084
 20
-8495.076
 30
-714.000
 70
    32
  0
VERTEX
  8
M60LXLIFT
 62
2
 10
6799.592
 20
-8507.388
 30
-714.000
 70
    32
  0
VERTEX
  8
M60LXLIFT
 62
2
 10
6795.308
 20
-8511.365
 30
-714.000
 70
    32
  0
VERTEX
  8
M60LXLIFT
 62
2
 10
6782.024
 20
-8512.965
 30
-714.000
 70
    32
  0
VERTEX
  8
M60LXLIFT
 62
2
 10
6776.277
 20
-8518.219
 30
-714.000
 70
    32
  0
VERTEX
  8
M60LXLIFT
 62
2
 10
6767.463
 20
-8521.789
 30
-714.000
 70
    32
  0
VERTEX
  8
M60LXLIFT
 62
2
 10
6765.619
 20
-8533.771
 30
-714.000
 70
    32
  0
SEQEND
  8
M60LXLIFT
  0
POLYLINE
  8
M60LXLIFT
 62
2
 66
     1
 70
     9
  0
VERTEX
  8
M60LXLIFT
 62
2
 10
6814.334
 20
-8565.328
 30
-788.000
 70
    32
  0
VERTEX
  8
M60LXLIFT
 62
2
 10
6835.270
 20
-8561.971
 30
-788.000
 70
    32
  0
VERTEX
  8
M60LXLIFT
 62
2
 10
6851.805
 20
-8553.117
 30
-788.000
 70
    32
  0
VERTEX
  8
M60LXLIFT
 62
2
 10
6861.975
 20
-8543.944
 30
-788.000
 70
    32
  0
VERTEX
  8
M60LXLIFT
 62
2
 10
6861.188
 20
-8534.458
 30
-788.000
 70
    32
  0
VERTEX
  8
M60LXLIFT
 62
2
 10
6822.712
 20
-8509.106
 30
-788.000
 70
    32
  0
VERTEX
  8
M60LXLIFT
 62
2
 10
6803.351
 20
-8508.233
 30
-788.000
 70
    32
  0
VERTEX
  8
M60LXLIFT
 62
2
 10
6795.404
 20
-8510.507
 30
-788.000
 70
    32
  0
VERTEX
  8
M60LXLIFT
 62
2
 10
6796.960
 20
-8523.692
 30
-788.000
 70
    32
  0
VERTEX
  8
M60LXLIFT
 62
2
 10
6796.810
 20
-8536.937
 30
-788.000
 70
    32
  0
VERTEX
  8
M60LXLIFT
 62
2
 10
6804.860
 20
-8549.580
 30
-788.000
 70
    32
  0
SEQEND
  8
M60LXLIFT
  0
POLYLINE
  8
M60LXLIFT
 62
2
 66
     1
 70
     9
  0
VERTEX
  8
M60LXLIFT
 62
2
 10
6800.212
 20
-8540.324
 30
-797.000
 70
    32
  0
VERTEX
  8
M60LXLIFT
 62
2
 10
6808.828
 20
-8540.312
 30
-797.000
 70
    32
  0
VERTEX
  8
M60LXLIFT
 62
2
 10
6819.905
 20
-8544.384
 30
-797.000
 70
    32
  0
VERTEX
  8
M60LXLIFT
 62
2
 10
6834.359
 20
-8552.302
 30
-797.000
 70
    32
  0
VERTEX
  8
M60LXLIFT
 62
2
 10
6845.857
 20
-8554.426
 30
-797.000
 70
    32
  0
VERTEX
  8
M60LXLIFT
 62
2
 10
6856.915
 20
-8558.621
 30
-797.000
 70
    32
  0
VERTEX
  8
M60LXLIFT
 62
2
 10
6867.046
 20
-8560.223
 30
-797.000
 70
    32
  0
VERTEX
  8
M60LXLIFT
 62
2
 10
6875.062
 20
-8560.435
 30
-797.000
 70
    32
  0
VERTEX
  8
M60LXLIFT
 62
2
 10
6878.513
 20
-8558.003
 30
-797.000
 70
    32
  0
VERTEX
  8
M60LXLIFT
 62
2
 10
6874.638
 20
-8548.738
 30
-797.000
 70
    32
  0
VERTEX
  8
M60LXLIFT
 62
2
 10
6865.766
 20
-8538.021
 30
-797.000
 70
    32
  0
VERTEX
  8
M60LXLIFT
 62
2
 10
6854.739
 20
-8530.310
 30
-797.000
 70
    32
  0
VERTEX
  8
M60LXLIFT
 62
2
 10
6846.696
 20
-8523.241
 30
-797.000
 70
    32
  0
VERTEX
  8
M60LXLIFT
 62
2
 10
6837.210
 20
-8518.216
 30
-797.000
 70
    32
  0
VERTEX
  8
M60LXLIFT
 62
2
 10
6831.689
 20
-8510.272
 30
-797.000
 70
    32
  0
VERTEX
  8
M60LXLIFT
 62
2
 10
6823.259
 20
-8511.129
 30
-797.000
 70
    32
  0
VERTEX
  8
M60LXLIFT
 62
2
 10
6812.937
 20
-8511.196
 30
-797.000
 70
    32
  0
VERTEX
  8
M60LXLIFT
 62
2
 10
6805.875
 20
-8510.500
 30
-797.000
 70
    32
  0
VERTEX
  8
M60LXLIFT
 62
2
 10
6801.135
 20
-8515.628
 30
-797.000
 70
    32
  0
VERTEX
  8
M60LXLIFT
 62
2
 10
6797.123
 20
-8515.961
 30
-797.000
 70
    32
  0
VERTEX
  8
M60LXLIFT
 62
2
 10
6790.083
 20
-8514.703
 30
-797.000
 70
    32
  0
VERTEX
  8
M60LXLIFT
 62
2
 10
6784.255
 20
-8519.540
 30
-797.000
 70
    32
  0
VERTEX
  8
M60LXLIFT
 62
2
 10
6784.255
 20
-8519.540
 30
-797.000
 70
    32
  0
VERTEX
  8
M60LXLIFT
 62
2
 10
6783.890
 20
-8528.979
 30
-797.000
 70
    32
  0
VERTEX
  8
M60LXLIFT
 62
2
 10
6790.527
 20
-8532.062
 30
-797.000
 70
    32
  0
VERTEX
  8
M60LXLIFT
 62
2
 10
6795.004
 20
-8532.805
 30
-797.000
 70
    32
  0
SEQEND
  8
M60LXLIFT
  0
POLYLINE
  8
M60LXLIFT
 62
2
 66
     1
 70
     9
  0
VERTEX
  8
M60LXLIFT
 62
2
 10
6817.600
 20
-8507.418
 30
-805.000
 70
    32
  0
VERTEX
  8
M60LXLIFT
 62
2
 10
6825.439
 20
-8511.600
 30
-805.000
 70
    32
  0
VERTEX
  8
M60LXLIFT
 62
2
 10
6837.779
 20
-8513.151
 30
-805.000
 70
    32
  0
VERTEX
  8
M60LXLIFT
 62
2
 10
6847.777
 20
-8513.581
 30
-805.000
 70
    32
  0
VERTEX
  8
M60LXLIFT
 62
2
 10
6853.711
 20
-8522.309
 30
-805.000
 70
    32
  0
VERTEX
  8
M60LXLIFT
 62
2
 10
6869.257
 20
-8532.727
 30
-805.000
 70
    32
  0
VERTEX
  8
M60LXLIFT
 62
2
 10
6868.170
 20
-8544.510
 30
-805.000
 70
    32
  0
VERTEX
  8
M60LXLIFT
 62
2
 10
6866.288
 20
-8555.351
 30
-805.000
 70
    32
  0
VERTEX
  8
M60LXLIFT
 62
2
 10
6859.001
 20
-8561.321
 30
-805.000
 70
    32
  0
VERTEX
  8
M60LXLIFT
 62
2
 10
6833.242
 20
-8557.484
 30
-805.000
 70
    32
  0
VERTEX
  8
M60LXLIFT
 62
2
 10
6820.973
 20
-8551.856
 30
-805.000
 70
    32
  0
VERTEX
  8
M60LXLIFT
 62
2
 10
6814.848
 20
-8532.277
 30
-805.000
 70
    32
  0
VERTEX
  8
M60LXLIFT
 62
2
 10
6809.745
 20
-8521.855
 30
-805.000
 70
    32
  0
VERTEX
  8
M60LXLIFT
 62
2
 10
6811.695
 20
-8512.598
 30
-805.000
 70
    32
  0
SEQEND
  8
M60LXLIFT
  0
POLYLINE
  8
M60LXLIFT
 62
2
 66
     1
 70
     9
  0
VERTEX
  8
M60LXLIFT
 62
2
 10
6795.119
 20
-8509.572
 30
-699.000
 70
    32
  0
VERTEX
  8
M60LXLIFT
 62
2
 10
6780.269
 20
-8505.780
 30
-699.000
 70
    32
  0
VERTEX
  8
M60LXLIFT
 62
2
 10
6766.548
 20
-8504.220
 30
-699.000
 70
    32
  0
VERTEX
  8
M60LXLIFT
 62
2
 10
6761.056
 20
-8501.310
 30
-699.000
 70
    32
  0
VERTEX
  8
M60LXLIFT
 62
2
 10
6755.007
 20
-8491.664
 30
-699.000
 70
    32
  0
VERTEX
  8
M60LXLIFT
 62
2
 10
6763.320
 20
-8487.939
 30
-699.000
 70
    32
  0
VERTEX
  8
M60LXLIFT
 62
2
 10
6783.595
 20
-8485.778
 30
-699.000
 70
    32
  0
VERTEX
  8
M60LXLIFT
 62
2
 10
6794.020
 20
-8482.665
 30
-699.000
 70
    32
  0
VERTEX
  8
M60LXLIFT
 62
2
 10
6804.592
 20
-8473.607
 30
-699.000
 70
    32
  0
VERTEX
  8
M60LXLIFT
 62
2
 10
6821.607
 20
-8467.406
 30
-699.000
 70
    32
  0
VERTEX
  8
M60LXLIFT
 62
2
 10
6825.150
 20
-8472.114
 30
-699.000
 70
    32
  0
VERTEX
  8
M60LXLIFT
 62
2
 10
6818.764
 20
-8481.762
 30
-699.000
 70
    32
  0
VERTEX
  8
M60LXLIFT
 62
2
 10
6804.975
 20
-8492.250
 30
-699.000
 70
    32
  0
VERTEX
  8
M60LXLIFT
 62
2
 10
6800.384
 20
-8502.528
 30
-699.000
 70
    32
  0
VERTEX
  8
M60LXLIFT
 62
2
 10
6803.574
 20
-8506.621
 30
-699.000
 70
    32
  0
SEQEND
  8
M60LXLIFT
  0
POLYLINE
  8
M60LXLIFT
 62
1
 66
     1
 70
     9
  0
VERTEX
  8
M60LXLIFT
 62
1
 10
6844.137
 20
-8480.728
 30
-673.000
 70
    32
  0
VERTEX
  8
M60LXLIFT
 62
1
 10
6841.441
 20
-8485.360
 30
-673.000
 70
    32
  0
VERTEX
  8
M60LXLIFT
 62
1
 10
6832.415
 20
-8485.598
 30
-673.000
 70
    32
  0
VERTEX
  8
M60LXLIFT
 62
1
 10
6820.562
 20
-8484.978
 30
-673.000
 70
    32
  0
VERTEX
  8
M60LXLIFT
 62
1
 10
6813.406
 20
-8487.882
 30
-673.000
 70
    32
  0
VERTEX
  8
M60LXLIFT
 62
1
 10
6805.307
 20
-8496.744
 30
-673.000
 70
    32
  0
VERTEX
  8
M60LXLIFT
 62
1
 10
6787.106
 20
-8499.085
 30
-673.000
 70
    32
  0
VERTEX
  8
M60LXLIFT
 62
1
 10
6777.194
 20
-8511.703
 30
-673.000
 70
    32
  0
VERTEX
  8
M60LXLIFT
 62
1
 10
6778.456
 20
-8516.353
 30
-673.000
 70
    32
  0
VERTEX
  8
M60LXLIFT
 62
1
 10
6783.415
 20
-8524.065
 30
-673.000
 70
    32
  0
VERTEX
  8
M60LXLIFT
 62
1
 10
6792.770
 20
-8532.236
 30
-673.000
 70
    32
  0
VERTEX
  8
M60LXLIFT
 62
1
 10
6788.351
 20
-8536.613
 30
-673.000
 70
    32
  0
VERTEX
  8
M60LXLIFT
 62
1
 10
6777.088
 20
-8537.527
 30
-673.000
 70
    32
  0
VERTEX
  8
M60LXLIFT
 62
1
 10
6762.773
 20
-8540.379
 30
-673.000
 70
    32
  0
VERTEX
  8
M60LXLIFT
 62
1
 10
6755.346
 20
-8544.688
 30
-673.000
 70
    32
  0
VERTEX
  8
M60LXLIFT
 62
1
 10
6747.137
 20
-8528.764
 30
-673.000
 70
    32
  0
VERTEX
  8
M60LXLIFT
 62
1
 10
6751.931
 20
-8523.122
 30
-673.000
 70
    32
  0
VERTEX
  8
M60LXLIFT
 62
1
 10
6745.645
 20
-8513.329
 30
-673.000
 70
    32
  0
VERTEX
  8
M60LXLIFT
 62
1
 10
6739.918
 20
-8515.500
 30
-673.000
 70
    32
  0
VERTEX
  8
M60LXLIFT
 62
1
 10
6737.873
 20
-8512.746
 30
-673.000
 70
    32
  0
VERTEX
  8
M60LXLIFT
 62
1
 10
6738.331
 20
-8501.560
 30
-673.000
 70
    32
  0
VERTEX
  8
M60LXLIFT
 62
1
 10
6743.651
 20
-8500.020
 30
-673.000
 70
    32
  0
VERTEX
  8
M60LXLIFT
 62
1
 10
6764.305
 20
-8484.903
 30
-673.000
 70
    32
  0
VERTEX
  8
M60LXLIFT
 62
1
 10
6777.463
 20
-8477.542
 30
-673.000
 70
    32
  0
VERTEX
  8
M60LXLIFT
 62
1
 10
6786.770
 20
-8473.699
 30
-673.000
 70
    32
  0
VERTEX
  8
M60LXLIFT
 62
1
 10
6796.995
 20
-8469.174
 30
-673.000
 70
    32
  0
VERTEX
  8
M60LXLIFT
 62
1
 10
6807.912
 20
-8463.368
 30
-673.000
 70
    32
  0
VERTEX
  8
M60LXLIFT
 62
1
 10
6825.963
 20
-8451.827
 30
-673.000
 70
    32
  0
VERTEX
  8
M60LXLIFT
 62
1
 10
6833.350
 20
-8452.038
 30
-673.000
 70
    32
  0
VERTEX
  8
M60LXLIFT
 62
1
 10
6837.927
 20
-8455.103
 30
-673.000
 70
    32
  0
VERTEX
  8
M60LXLIFT
 62
1
 10
6846.862
 20
-8462.710
 30
-673.000
 70
    32
  0
SEQEND
  8
M60LXLIFT
  0
POLYLINE
  8
M60LXLIFT
 62
2
 66
     1
 70
     9
  0
VERTEX
  8
M60LXLIFT
 62
2
 10
6761.518
 20
-8502.676
 30
-691.000
 70
    32
  0
VERTEX
  8
M60LXLIFT
 62
2
 10
6766.471
 20
-8504.477
 30
-691.000
 70
    32
  0
VERTEX
  8
M60LXLIFT
 62
2
 10
6766.682
 20
-8504.319
 30
-691.000
 70
    32
  0
VERTEX
  8
M60LXLIFT
 62
2
 10
6773.082
 20
-8501.430
 30
-691.000
 70
    32
  0
VERTEX
  8
M60LXLIFT
 62
2
 10
6788.289
 20
-8499.779
 30
-691.000
 70
    32
  0
VERTEX
  8
M60LXLIFT
 62
2
 10
6802.524
 20
-8484.278
 30
-691.000
 70
    32
  0
VERTEX
  8
M60LXLIFT
 62
2
 10
6807.290
 20
-8480.959
 30
-691.000
 70
    32
  0
VERTEX
  8
M60LXLIFT
 62
2
 10
6813.804
 20
-8479.847
 30
-691.000
 70
    32
  0
VERTEX
  8
M60LXLIFT
 62
2
 10
6825.048
 20
-8471.826
 30
-691.000
 70
    32
  0
VERTEX
  8
M60LXLIFT
 62
2
 10
6841.724
 20
-8464.482
 30
-691.000
 70
    32
  0
VERTEX
  8
M60LXLIFT
 62
2
 10
6838.838
 20
-8461.038
 30
-691.000
 70
    32
  0
VERTEX
  8
M60LXLIFT
 62
2
 10
6825.574
 20
-8464.862
 30
-691.000
 70
    32
  0
VERTEX
  8
M60LXLIFT
 62
2
 10
6813.942
 20
-8465.721
 30
-691.000
 70
    32
  0
VERTEX
  8
M60LXLIFT
 62
2
 10
6806.174
 20
-8471.489
 30
-691.000
 70
    32
  0
VERTEX
  8
M60LXLIFT
 62
2
 10
6790.400
 20
-8485.065
 30
-691.000
 70
    32
  0
VERTEX
  8
M60LXLIFT
 62
2
 10
6780.778
 20
-8488.484
 30
-691.000
 70
    32
  0
VERTEX
  8
M60LXLIFT
 62
2
 10
6765.745
 20
-8490.664
 30
-691.000
 70
    32
  0
VERTEX
  8
M60LXLIFT
 62
2
 10
6753.436
 20
-8496.956
 30
-691.000
 70
    32
  0
SEQEND
  8
M60LXLIFT
  0
POLYLINE
  8
M60LXLIFT
 62
2
 66
     1
 70
     9
  0
VERTEX
  8
M60LXLIFT
 62
2
 10
6845.862
 20
-8463.710
 30
-683.000
 70
    32
  0
VERTEX
  8
M60LXLIFT
 62
2
 10
6836.927
 20
-8456.103
 30
-683.000
 70
    32
  0
VERTEX
  8
M60LXLIFT
 62
2
 10
6832.350
 20
-8453.038
 30
-683.000
 70
    32
  0
VERTEX
  8
M60LXLIFT
 62
2
 10
6824.963
 20
-8452.827
 30
-683.000
 70
    32
  0
VERTEX
  8
M60LXLIFT
 62
2
 10
6806.912
 20
-8464.368
 30
-683.000
 70
    32
  0
VERTEX
  8
M60LXLIFT
 62
2
 10
6795.995
 20
-8470.174
 30
-683.000
 70
    32
  0
VERTEX
  8
M60LXLIFT
 62
2
 10
6785.770
 20
-8474.699
 30
-683.000
 70
    32
  0
VERTEX
  8
M60LXLIFT
 62
2
 10
6776.463
 20
-8478.542
 30
-683.000
 70
    32
  0
VERTEX
  8
M60LXLIFT
 62
2
 10
6763.305
 20
-8485.903
 30
-683.000
 70
    32
  0
VERTEX
  8
M60LXLIFT
 62
2
 10
6742.651
 20
-8501.020
 30
-683.000
 70
    32
  0
VERTEX
  8
M60LXLIFT
 62
2
 10
6737.331
 20
-8502.560
 30
-683.000
 70
    32
  0
VERTEX
  8
M60LXLIFT
 62
2
 10
6736.873
 20
-8513.746
 30
-683.000
 70
    32
  0
VERTEX
  8
M60LXLIFT
 62
2
 10
6738.918
 20
-8516.500
 30
-683.000
 70
    32
  0
VERTEX
  8
M60LXLIFT
 62
2
 10
6744.645
 20
-8514.329
 30
-683.000
 70
    32
  0
VERTEX
  8
M60LXLIFT
 62
2
 10
6750.931
 20
-8524.122
 30
-683.000
 70
    32
  0
VERTEX
  8
M60LXLIFT
 62
2
 10
6746.137
 20
-8529.764
 30
-683.000
 70
    32
  0
VERTEX
  8
M60LXLIFT
 62
2
 10
6754.346
 20
-8545.688
 30
-683.000
 70
    32
  0
VERTEX
  8
M60LXLIFT
 62
2
 10
6761.773
 20
-8541.379
 30
-683.000
 70
    32
  0
VERTEX
  8
M60LXLIFT
 62
2
 10
6776.088
 20
-8538.527
 30
-683.000
 70
    32
  0
VERTEX
  8
M60LXLIFT
 62
2
 10
6787.351
 20
-8537.613
 30
-683.000
 70
    32
  0
VERTEX
  8
M60LXLIFT
 62
2
 10
6791.770
 20
-8533.236
 30
-683.000
 70
    32
  0
VERTEX
  8
M60LXLIFT
 62
2
 10
6782.415
 20
-8525.065
 30
-683.000
 70
    32
  0
VERTEX
  8
M60LXLIFT
 62
2
 10
6777.456
 20
-8517.353
 30
-683.000
 70
    32
  0
VERTEX
  8
M60LXLIFT
 62
2
 10
6776.194
 20
-8512.703
 30
-683.000
 70
    32
  0
VERTEX
  8
M60LXLIFT
 62
2
 10
6786.106
 20
-8500.085
 30
-683.000
 70
    32
  0
VERTEX
  8
M60LXLIFT
 62
2
 10
6804.307
 20
-8497.744
 30
-683.000
 70
    32
  0
VERTEX
  8
M60LXLIFT
 62
2
 10
6812.406
 20
-8488.882
 30
-683.000
 70
    32
  0
VERTEX
  8
M60LXLIFT
 62
2
 10
6819.562
 20
-8485.978
 30
-683.000
 70
    32
  0
VERTEX
  8
M60LXLIFT
 62
2
 10
6831.415
 20
-8486.598
 30
-683.000
 70
    32
  0
VERTEX
  8
M60LXLIFT
 62
2
 10
6840.441
 20
-8486.360
 30
-683.000
 70
    32
  0
VERTEX
  8
M60LXLIFT
 62
2
 10
6843.137
 20
-8481.728
 30
-683.000
 70
    32
  0
SEQEND
  8
M60LXLIFT
  0
POLYLINE
  8
M60LXLIFT
 62
2
 66
     1
 70
     9
  0
VERTEX
  8
M60LXLIFT
 62
2
 10
6743.377
 20
-8553.815
 30
-731.000
 70
    32
  0
VERTEX
  8
M60LXLIFT
 62
2
 10
6741.363
 20
-8557.462
 30
-731.000
 70
    32
  0
VERTEX
  8
M60LXLIFT
 62
2
 10
6742.518
 20
-8566.191
 30
-731.000
 70
    32
  0
VERTEX
  8
M60LXLIFT
 62
2
 10
6746.009
 20
-8570.820
 30
-731.000
 70
    32
  0
VERTEX
  8
M60LXLIFT
 62
2
 10
6756.193
 20
-8576.870
 30
-731.000
 70
    32
  0
VERTEX
  8
M60LXLIFT
 62
2
 10
6761.607
 20
-8578.028
 30
-731.000
 70
    32
  0
VERTEX
  8
M60LXLIFT
 62
2
 10
6772.151
 20
-8570.869
 30
-731.000
 70
    32
  0
VERTEX
  8
M60LXLIFT
 62
2
 10
6777.954
 20
-8566.304
 30
-731.000
 70
    32
  0
VERTEX
  8
M60LXLIFT
 62
2
 10
6776.860
 20
-8555.573
 30
-731.000
 70
    32
  0
VERTEX
  8
M60LXLIFT
 62
2
 10
6769.983
 20
-8556.136
 30
-731.000
 70
    32
  0
VERTEX
  8
M60LXLIFT
 62
2
 10
6763.491
 20
-8555.440
 30
-731.000
 70
    32
  0
VERTEX
  8
M60LXLIFT
 62
2
 10
6753.937
 20
-8550.997
 30
-731.000
 70
    32
  0
SEQEND
  8
M60LXLIFT
  0
POLYLINE
  8
M60LXLIFT
 62
1
 66
     1
 70
     9
  0
VERTEX
  8
M60LXLIFT
 62
1
 10
6664.575
 20
-8490.585
 30
-744.000
 70
    32
  0
VERTEX
  8
M60LXLIFT
 62
1
 10
6691.474
 20
-8528.472
 30
-744.000
 70
    32
  0
VERTEX
  8
M60LXLIFT
 62
1
 10
6700.526
 20
-8539.432
 30
-744.000
 70
    32
  0
VERTEX
  8
M60LXLIFT
 62
1
 10
6711.021
 20
-8546.703
 30
-744.000
 70
    32
  0
VERTEX
  8
M60LXLIFT
 62
1
 10
6730.345
 20
-8558.532
 30
-744.000
 70
    32
  0
VERTEX
  8
M60LXLIFT
 62
1
 10
6735.047
 20
-8567.003
 30
-744.000
 70
    32
  0
VERTEX
  8
M60LXLIFT
 62
1
 10
6734.898
 20
-8571.709
 30
-744.000
 70
    32
  0
VERTEX
  8
M60LXLIFT
 62
1
 10
6732.293
 20
-8575.159
 30
-744.000
 70
    32
  0
VERTEX
  8
M60LXLIFT
 62
1
 10
6715.420
 20
-8577.069
 30
-744.000
 70
    32
  0
VERTEX
  8
M60LXLIFT
 62
1
 10
6702.824
 20
-8577.802
 30
-744.000
 70
    32
  0
VERTEX
  8
M60LXLIFT
 62
1
 10
6692.298
 20
-8571.977
 30
-744.000
 70
    32
  0
VERTEX
  8
M60LXLIFT
 62
1
 10
6678.722
 20
-8548.474
 30
-744.000
 70
    32
  0
VERTEX
  8
M60LXLIFT
 62
1
 10
6663.062
 20
-8531.213
 30
-744.000
 70
    32
  0
VERTEX
  8
M60LXLIFT
 62
1
 10
6656.271
 20
-8517.822
 30
-744.000
 70
    32
  0
VERTEX
  8
M60LXLIFT
 62
1
 10
6652.026
 20
-8507.592
 30
-744.000
 70
    32
  0
VERTEX
  8
M60LXLIFT
 62
1
 10
6652.323
 20
-8498.180
 30
-744.000
 70
    32
  0
SEQEND
  8
M60LXLIFT
  0
POLYLINE
  8
M60LXLIFT
 62
6
 66
     1
 70
     9
  0
VERTEX
  8
M60LXLIFT
 62
6
 10
6651.323
 20
-8499.180
 30
-754.000
 70
    32
  0
VERTEX
  8
M60LXLIFT
 62
6
 10
6651.026
 20
-8508.592
 30
-754.000
 70
    32
  0
VERTEX
  8
M60LXLIFT
 62
6
 10
6655.271
 20
-8518.822
 30
-754.000
 70
    32
  0
VERTEX
  8
M60LXLIFT
 62
6
 10
6662.062
 20
-8532.213
 30
-754.000
 70
    32
  0
VERTEX
  8
M60LXLIFT
 62
6
 10
6677.722
 20
-8549.474
 30
-754.000
 70
    32
  0
VERTEX
  8
M60LXLIFT
 62
6
 10
6691.298
 20
-8572.977
 30
-754.000
 70
    32
  0
VERTEX
  8
M60LXLIFT
 62
6
 10
6701.824
 20
-8578.802
 30
-754.000
 70
    32
  0
VERTEX
  8
M60LXLIFT
 62
6
 10
6714.420
 20
-8578.069
 30
-754.000
 70
    32
  0
VERTEX
  8
M60LXLIFT
 62
6
 10
6731.293
 20
-8576.159
 30
-754.000
 70
    32
  0
VERTEX
  8
M60LXLIFT
 62
6
 10
6733.898
 20
-8572.709
 30
-754.000
 70
    32
  0
VERTEX
  8
M60LXLIFT
 62
6
 10
6734.047
 20
-8568.003
 30
-754.000
 70
    32
  0
VERTEX
  8
M60LXLIFT
 62
6
 10
6729.345
 20
-8559.532
 30
-754.000
 70
    32
  0
VERTEX
  8
M60LXLIFT
 62
6
 10
6710.021
 20
-8547.703
 30
-754.000
 70
    32
  0
VERTEX
  8
M60LXLIFT
 62
6
 10
6699.526
 20
-8540.432
 30
-754.000
 70
    32
  0
VERTEX
  8
M60LXLIFT
 62
6
 10
6690.474
 20
-8529.472
 30
-754.000
 70
    32
  0
VERTEX
  8
M60LXLIFT
 62
6
 10
6663.575
 20
-8491.585
 30
-754.000
 70
    32
  0
SEQEND
  8
M60LXLIFT
  0
POLYLINE
  8
M60LXLIFT
 62
6
 66
     1
 70
     9
  0
VERTEX
  8
M60LXLIFT
 62
6
 10
6659.252
 20
-8492.208
 30
-764.000
 70
    32
  0
VERTEX
  8
M60LXLIFT
 62
6
 10
6655.128
 20
-8499.341
 30
-764.000
 70
    32
  0
VERTEX
  8
M60LXLIFT
 62
6
 10
6657.983
 20
-8509.066
 30
-764.000
 70
    32
  0
VERTEX
  8
M60LXLIFT
 62
6
 10
6664.045
 20
-8517.940
 30
-764.000
 70
    32
  0
VERTEX
  8
M60LXLIFT
 62
6
 10
6667.693
 20
-8527.404
 30
-764.000
 70
    32
  0
VERTEX
  8
M60LXLIFT
 62
6
 10
6681.062
 20
-8546.087
 30
-764.000
 70
    32
  0
VERTEX
  8
M60LXLIFT
 62
6
 10
6690.341
 20
-8556.186
 30
-764.000
 70
    32
  0
VERTEX
  8
M60LXLIFT
 62
6
 10
6697.422
 20
-8570.994
 30
-764.000
 70
    32
  0
VERTEX
  8
M60LXLIFT
 62
6
 10
6712.872
 20
-8583.190
 30
-764.000
 70
    32
  0
VERTEX
  8
M60LXLIFT
 62
6
 10
6741.594
 20
-8579.023
 30
-764.000
 70
    32
  0
VERTEX
  8
M60LXLIFT
 62
6
 10
6745.757
 20
-8576.361
 30
-764.000
 70
    32
  0
VERTEX
  8
M60LXLIFT
 62
6
 10
6745.544
 20
-8571.361
 30
-764.000
 70
    32
  0
VERTEX
  8
M60LXLIFT
 62
6
 10
6739.185
 20
-8561.941
 30
-764.000
 70
    32
  0
VERTEX
  8
M60LXLIFT
 62
6
 10
6714.446
 20
-8548.325
 30
-764.000
 70
    32
  0
VERTEX
  8
M60LXLIFT
 62
6
 10
6702.465
 20
-8535.631
 30
-764.000
 70
    32
  0
VERTEX
  8
M60LXLIFT
 62
6
 10
6678.058
 20
-8506.403
 30
-764.000
 70
    32
  0
VERTEX
  8
M60LXLIFT
 62
6
 10
6668.479
 20
-8491.041
 30
-764.000
 70
    32
  0
SEQEND
  8
M60LXLIFT
  0
POLYLINE
  8
M60LXLIFT
 62
6
 66
     1
 70
     9
  0
VERTEX
  8
M60LXLIFT
 62
6
 10
6728.771
 20
-8560.042
 30
-783.000
 70
    32
  0
VERTEX
  8
M60LXLIFT
 62
6
 10
6706.280
 20
-8547.824
 30
-783.000
 70
    32
  0
VERTEX
  8
M60LXLIFT
 62
6
 10
6691.681
 20
-8533.677
 30
-783.000
 70
    32
  0
VERTEX
  8
M60LXLIFT
 62
6
 10
6673.484
 20
-8511.017
 30
-783.000
 70
    32
  0
VERTEX
  8
M60LXLIFT
 62
6
 10
6676.032
 20
-8496.170
 30
-783.000
 70
    32
  0
VERTEX
  8
M60LXLIFT
 62
6
 10
6666.257
 20
-8486.879
 30
-783.000
 70
    32
  0
VERTEX
  8
M60LXLIFT
 62
6
 10
6660.855
 20
-8492.002
 30
-783.000
 70
    32
  0
VERTEX
  8
M60LXLIFT
 62
6
 10
6657.428
 20
-8506.407
 30
-783.000
 70
    32
  0
VERTEX
  8
M60LXLIFT
 62
6
 10
6660.086
 20
-8528.241
 30
-783.000
 70
    32
  0
VERTEX
  8
M60LXLIFT
 62
6
 10
6674.905
 20
-8545.187
 30
-783.000
 70
    32
  0
VERTEX
  8
M60LXLIFT
 62
6
 10
6682.850
 20
-8559.242
 30
-783.000
 70
    32
  0
VERTEX
  8
M60LXLIFT
 62
6
 10
6686.161
 20
-8569.726
 30
-783.000
 70
    32
  0
VERTEX
  8
M60LXLIFT
 62
6
 10
6703.937
 20
-8581.066
 30
-783.000
 70
    32
  0
VERTEX
  8
M60LXLIFT
 62
6
 10
6730.618
 20
-8576.664
 30
-783.000
 70
    32
  0
VERTEX
  8
M60LXLIFT
 62
6
 10
6735.155
 20
-8572.736
 30
-783.000
 70
    32
  0
SEQEND
  8
M60LXLIFT
  0
POLYLINE
  8
M60LXLIFT
 62
6
 66
     1
 70
     9
  0
VERTEX
  8
M60LXLIFT
 62
6
 10
6657.060
 20
-8527.052
 30
-789.000
 70
    32
  0
VERTEX
  8
M60LXLIFT
 62
6
 10
6669.215
 20
-8544.645
 30
-789.000
 70
    32
  0
VERTEX
  8
M60LXLIFT
 62
6
 10
6671.303
 20
-8554.262
 30
-789.000
 70
    32
  0
VERTEX
  8
M60LXLIFT
 62
6
 10
6679.314
 20
-8564.636
 30
-789.000
 70
    32
  0
VERTEX
  8
M60LXLIFT
 62
6
 10
6697.248
 20
-8577.621
 30
-789.000
 70
    32
  0
VERTEX
  8
M60LXLIFT
 62
6
 10
6705.221
 20
-8579.815
 30
-789.000
 70
    32
  0
VERTEX
  8
M60LXLIFT
 62
6
 10
6722.502
 20
-8578.617
 30
-789.000
 70
    32
  0
VERTEX
  8
M60LXLIFT
 62
6
 10
6731.876
 20
-8576.053
 30
-789.000
 70
    32
  0
VERTEX
  8
M60LXLIFT
 62
6
 10
6735.931
 20
-8571.627
 30
-789.000
 70
    32
  0
VERTEX
  8
M60LXLIFT
 62
6
 10
6729.663
 20
-8560.947
 30
-789.000
 70
    32
  0
VERTEX
  8
M60LXLIFT
 62
6
 10
6710.898
 20
-8551.423
 30
-789.000
 70
    32
  0
VERTEX
  8
M60LXLIFT
 62
6
 10
6702.245
 20
-8545.355
 30
-789.000
 70
    32
  0
VERTEX
  8
M60LXLIFT
 62
6
 10
6692.169
 20
-8533.227
 30
-789.000
 70
    32
  0
VERTEX
  8
M60LXLIFT
 62
6
 10
6680.841
 20
-8521.478
 30
-789.000
 70
    32
  0
VERTEX
  8
M60LXLIFT
 62
6
 10
6673.735
 20
-8515.578
 30
-789.000
 70
    32
  0
VERTEX
  8
M60LXLIFT
 62
6
 10
6664.529
 20
-8513.640
 30
-789.000
 70
    32
  0
SEQEND
  8
M60LXLIFT
  0
POLYLINE
  8
M60LXLIFT
 62
6
 66
     1
 70
     9
  0
VERTEX
  8
M60LXLIFT
 62
6
 10
6670.681
 20
-8540.357
 30
-798.000
 70
    32
  0
VERTEX
  8
M60LXLIFT
 62
6
 10
6676.507
 20
-8551.913
 30
-798.000
 70
    32
  0
VERTEX
  8
M60LXLIFT
 62
6
 10
6683.370
 20
-8563.685
 30
-798.000
 70
    32
  0
VERTEX
  8
M60LXLIFT
 62
6
 10
6703.301
 20
-8581.867
 30
-798.000
 70
    32
  0
VERTEX
  8
M60LXLIFT
 62
6
 10
6715.492
 20
-8584.875
 30
-798.000
 70
    32
  0
VERTEX
  8
M60LXLIFT
 62
6
 10
6733.799
 20
-8582.694
 30
-798.000
 70
    32
  0
VERTEX
  8
M60LXLIFT
 62
6
 10
6739.376
 20
-8570.571
 30
-798.000
 70
    32
  0
VERTEX
  8
M60LXLIFT
 62
6
 10
6728.725
 20
-8559.744
 30
-798.000
 70
    32
  0
VERTEX
  8
M60LXLIFT
 62
6
 10
6712.819
 20
-8548.323
 30
-798.000
 70
    32
  0
VERTEX
  8
M60LXLIFT
 62
6
 10
6704.166
 20
-8538.862
 30
-798.000
 70
    32
  0
VERTEX
  8
M60LXLIFT
 62
6
 10
6687.539
 20
-8524.253
 30
-798.000
 70
    32
  0
SEQEND
  8
M60LXLIFT
  0
POLYLINE
  8
M60LXLIFT
 62
6
 66
     1
 70
     9
  0
VERTEX
  8
M60LXLIFT
 62
6
 10
6771.340
 20
-8608.204
 30
-805.000
 70
    32
  0
VERTEX
  8
M60LXLIFT
 62
6
 10
6760.354
 20
-8591.955
 30
-805.000
 70
    32
  0
VERTEX
  8
M60LXLIFT
 62
6
 10
6735.276
 20
-8557.588
 30
-805.000
 70
    32
  0
VERTEX
  8
M60LXLIFT
 62
6
 10
6726.489
 20
-8558.669
 30
-805.000
 70
    32
  0
VERTEX
  8
M60LXLIFT
 62
6
 10
6712.603
 20
-8551.718
 30
-805.000
 70
    32
  0
VERTEX
  8
M60LXLIFT
 62
6
 10
6698.962
 20
-8540.779
 30
-805.000
 70
    32
  0
VERTEX
  8
M60LXLIFT
 62
6
 10
6685.433
 20
-8526.712
 30
-805.000
 70
    32
  0
VERTEX
  8
M60LXLIFT
 62
6
 10
6671.904
 20
-8528.750
 30
-805.000
 70
    32
  0
VERTEX
  8
M60LXLIFT
 62
6
 10
6664.325
 20
-8538.197
 30
-805.000
 70
    32
  0
VERTEX
  8
M60LXLIFT
 62
6
 10
6672.303
 20
-8547.937
 30
-805.000
 70
    32
  0
VERTEX
  8
M60LXLIFT
 62
6
 10
6683.974
 20
-8560.203
 30
-805.000
 70
    32
  0
VERTEX
  8
M60LXLIFT
 62
6
 10
6689.825
 20
-8573.888
 30
-805.000
 70
    32
  0
VERTEX
  8
M60LXLIFT
 62
6
 10
6694.471
 20
-8589.649
 30
-805.000
 70
    32
  0
VERTEX
  8
M60LXLIFT
 62
6
 10
6692.011
 20
-8594.927
 30
-805.000
 70
    32
  0
VERTEX
  8
M60LXLIFT
 62
6
 10
6688.946
 20
-8598.034
 30
-805.000
 70
    32
  0
VERTEX
  8
M60LXLIFT
 62
6
 10
6695.353
 20
-8608.157
 30
-805.000
 70
    32
  0
VERTEX
  8
M60LXLIFT
 62
6
 10
6705.496
 20
-8605.652
 30
-805.000
 70
    32
  0
VERTEX
  8
M60LXLIFT
 62
6
 10
6730.766
 20
-8598.529
 30
-805.000
 70
    32
  0
VERTEX
  8
M60LXLIFT
 62
6
 10
6743.474
 20
-8600.138
 30
-805.000
 70
    32
  0
VERTEX
  8
M60LXLIFT
 62
6
 10
6757.362
 20
-8608.284
 30
-805.000
 70
    32
  0
VERTEX
  8
M60LXLIFT
 62
6
 10
6764.190
 20
-8614.510
 30
-805.000
 70
    32
  0
SEQEND
  8
M60LXLIFT
  0
POLYLINE
  8
M60LXLIFT
 62
8
 66
     1
 70
     9
  0
VERTEX
  8
M60LXLIFT
 62
8
 10
6536.772
 20
-8425.149
 30
-689.000
 70
    32
  0
VERTEX
  8
M60LXLIFT
 62
8
 10
6544.778
 20
-8421.176
 30
-689.000
 70
    32
  0
VERTEX
  8
M60LXLIFT
 62
8
 10
6554.318
 20
-8420.008
 30
-689.000
 70
    32
  0
VERTEX
  8
M60LXLIFT
 62
8
 10
6569.826
 20
-8425.254
 30
-689.000
 70
    32
  0
VERTEX
  8
M60LXLIFT
 62
8
 10
6579.765
 20
-8429.049
 30
-689.000
 70
    32
  0
VERTEX
  8
M60LXLIFT
 62
8
 10
6595.736
 20
-8429.459
 30
-689.000
 70
    32
  0
VERTEX
  8
M60LXLIFT
 62
8
 10
6611.313
 20
-8431.258
 30
-689.000
 70
    32
  0
VERTEX
  8
M60LXLIFT
 62
8
 10
6621.421
 20
-8443.690
 30
-689.000
 70
    32
  0
VERTEX
  8
M60LXLIFT
 62
8
 10
6632.511
 20
-8453.313
 30
-689.000
 70
    32
  0
VERTEX
  8
M60LXLIFT
 62
8
 10
6635.607
 20
-8464.270
 30
-689.000
 70
    32
  0
VERTEX
  8
M60LXLIFT
 62
8
 10
6616.041
 20
-8476.279
 30
-689.000
 70
    32
  0
VERTEX
  8
M60LXLIFT
 62
8
 10
6598.595
 20
-8486.276
 30
-689.000
 70
    32
  0
VERTEX
  8
M60LXLIFT
 62
8
 10
6575.450
 20
-8496.121
 30
-689.000
 70
    32
  0
VERTEX
  8
M60LXLIFT
 62
8
 10
6559.084
 20
-8504.769
 30
-689.000
 70
    32
  0
VERTEX
  8
M60LXLIFT
 62
8
 10
6539.666
 20
-8511.519
 30
-689.000
 70
    32
  0
VERTEX
  8
M60LXLIFT
 62
8
 10
6528.432
 20
-8521.175
 30
-689.000
 70
    32
  0
VERTEX
  8
M60LXLIFT
 62
8
 10
6519.518
 20
-8527.466
 30
-689.000
 70
    32
  0
VERTEX
  8
M60LXLIFT
 62
8
 10
6513.904
 20
-8528.019
 30
-689.000
 70
    32
  0
VERTEX
  8
M60LXLIFT
 62
8
 10
6511.682
 20
-8521.781
 30
-689.000
 70
    32
  0
VERTEX
  8
M60LXLIFT
 62
8
 10
6516.262
 20
-8516.737
 30
-689.000
 70
    32
  0
VERTEX
  8
M60LXLIFT
 62
8
 10
6520.210
 20
-8496.825
 30
-689.000
 70
    32
  0
VERTEX
  8
M60LXLIFT
 62
8
 10
6521.630
 20
-8479.557
 30
-689.000
 70
    32
  0
VERTEX
  8
M60LXLIFT
 62
8
 10
6535.054
 20
-8464.440
 30
-689.000
 70
    32
  0
VERTEX
  8
M60LXLIFT
 62
8
 10
6544.324
 20
-8453.612
 30
-689.000
 70
    32
  0
VERTEX
  8
M60LXLIFT
 62
8
 10
6546.542
 20
-8445.830
 30
-689.000
 70
    32
  0
VERTEX
  8
M60LXLIFT
 62
8
 10
6543.342
 20
-8438.127
 30
-689.000
 70
    32
  0
SEQEND
  8
M60LXLIFT
  0
POLYLINE
  8
M60LXLIFT
 62
8
 66
     1
 70
     9
  0
VERTEX
  8
M60LXLIFT
 62
8
 10
6596.923
 20
-8500.190
 30
-707.000
 70
    32
  0
VERTEX
  8
M60LXLIFT
 62
8
 10
6596.986
 20
-8490.694
 30
-707.000
 70
    32
  0
VERTEX
  8
M60LXLIFT
 62
8
 10
6599.046
 20
-8487.244
 30
-707.000
 70
    32
  0
VERTEX
  8
M60LXLIFT
 62
8
 10
6603.069
 20
-8485.303
 30
-707.000
 70
    32
  0
VERTEX
  8
M60LXLIFT
 62
8
 10
6612.695
 20
-8484.947
 30
-707.000
 70
    32
  0
VERTEX
  8
M60LXLIFT
 62
8
 10
6622.558
 20
-8481.921
 30
-707.000
 70
    32
  0
VERTEX
  8
M60LXLIFT
 62
8
 10
6635.409
 20
-8471.186
 30
-707.000
 70
    32
  0
VERTEX
  8
M60LXLIFT
 62
8
 10
6636.331
 20
-8468.562
 30
-707.000
 70
    32
  0
VERTEX
  8
M60LXLIFT
 62
8
 10
6622.716
 20
-8463.122
 30
-707.000
 70
    32
  0
VERTEX
  8
M60LXLIFT
 62
8
 10
6614.542
 20
-8460.688
 30
-707.000
 70
    32
  0
VERTEX
  8
M60LXLIFT
 62
8
 10
6591.314
 20
-8429.416
 30
-707.000
 70
    32
  0
VERTEX
  8
M60LXLIFT
 62
8
 10
6578.770
 20
-8426.349
 30
-707.000
 70
    32
  0
VERTEX
  8
M60LXLIFT
 62
8
 10
6564.198
 20
-8432.466
 30
-707.000
 70
    32
  0
VERTEX
  8
M60LXLIFT
 62
8
 10
6547.833
 20
-8440.753
 30
-707.000
 70
    32
  0
VERTEX
  8
M60LXLIFT
 62
8
 10
6540.595
 20
-8449.045
 30
-707.000
 70
    32
  0
VERTEX
  8
M60LXLIFT
 62
8
 10
6528.721
 20
-8474.604
 30
-707.000
 70
    32
  0
VERTEX
  8
M60LXLIFT
 62
8
 10
6541.333
 20
-8500.975
 30
-707.000
 70
    32
  0
VERTEX
  8
M60LXLIFT
 62
8
 10
6548.987
 20
-8511.826
 30
-707.000
 70
    32
  0
VERTEX
  8
M60LXLIFT
 62
8
 10
6560.541
 20
-8515.176
 30
-707.000
 70
    32
  0
VERTEX
  8
M60LXLIFT
 62
8
 10
6576.213
 20
-8508.478
 30
-707.000
 70
    32
  0
SEQEND
  8
M60LXLIFT
  0
POLYLINE
  8
M60LXLIFT
 62
8
 66
     1
 70
     9
  0
VERTEX
  8
M60LXLIFT
 62
8
 10
6554.764
 20
-8518.598
 30
-717.000
 70
    32
  0
VERTEX
  8
M60LXLIFT
 62
8
 10
6541.792
 20
-8507.154
 30
-717.000
 70
    32
  0
VERTEX
  8
M60LXLIFT
 62
8
 10
6536.852
 20
-8487.169
 30
-717.000
 70
    32
  0
VERTEX
  8
M60LXLIFT
 62
8
 10
6535.641
 20
-8468.280
 30
-717.000
 70
    32
  0
VERTEX
  8
M60LXLIFT
 62
8
 10
6539.015
 20
-8451.821
 30
-717.000
 70
    32
  0
VERTEX
  8
M60LXLIFT
 62
8
 10
6542.793
 20
-8444.302
 30
-717.000
 70
    32
  0
VERTEX
  8
M60LXLIFT
 62
8
 10
6557.678
 20
-8433.829
 30
-717.000
 70
    32
  0
VERTEX
  8
M60LXLIFT
 62
8
 10
6582.654
 20
-8423.640
 30
-717.000
 70
    32
  0
VERTEX
  8
M60LXLIFT
 62
8
 10
6598.033
 20
-8427.472
 30
-717.000
 70
    32
  0
VERTEX
  8
M60LXLIFT
 62
8
 10
6608.948
 20
-8445.513
 30
-717.000
 70
    32
  0
VERTEX
  8
M60LXLIFT
 62
8
 10
6618.307
 20
-8461.858
 30
-717.000
 70
    32
  0
VERTEX
  8
M60LXLIFT
 62
8
 10
6632.246
 20
-8464.454
 30
-717.000
 70
    32
  0
VERTEX
  8
M60LXLIFT
 62
8
 10
6637.147
 20
-8473.606
 30
-717.000
 70
    32
  0
VERTEX
  8
M60LXLIFT
 62
8
 10
6628.111
 20
-8484.506
 30
-717.000
 70
    32
  0
VERTEX
  8
M60LXLIFT
 62
8
 10
6611.627
 20
-8495.921
 30
-717.000
 70
    32
  0
VERTEX
  8
M60LXLIFT
 62
8
 10
6583.028
 20
-8509.499
 30
-717.000
 70
    32
  0
VERTEX
  8
M60LXLIFT
 62
8
 10
6565.026
 20
-8515.824
 30
-717.000
 70
    32
  0
SEQEND
  8
M60LXLIFT
  0
POLYLINE
  8
M60LXLIFT
 62
13
 66
     1
 70
     9
  0
VERTEX
  8
M60LXLIFT
 62
13
 10
6559.227
 20
-8518.670
 30
-742.000
 70
    32
  0
VERTEX
  8
M60LXLIFT
 62
13
 10
6556.519
 20
-8526.342
 30
-742.000
 70
    32
  0
VERTEX
  8
M60LXLIFT
 62
13
 10
6553.234
 20
-8545.560
 30
-742.000
 70
    32
  0
VERTEX
  8
M60LXLIFT
 62
13
 10
6544.941
 20
-8566.536
 30
-742.000
 70
    32
  0
VERTEX
  8
M60LXLIFT
 62
13
 10
6544.008
 20
-8578.338
 30
-742.000
 70
    32
  0
VERTEX
  8
M60LXLIFT
 62
13
 10
6544.675
 20
-8584.237
 30
-742.000
 70
    32
  0
VERTEX
  8
M60LXLIFT
 62
13
 10
6551.050
 20
-8591.011
 30
-742.000
 70
    32
  0
VERTEX
  8
M60LXLIFT
 62
13
 10
6557.126
 20
-8601.133
 30
-742.000
 70
    32
  0
VERTEX
  8
M60LXLIFT
 62
13
 10
6564.706
 20
-8608.231
 30
-742.000
 70
    32
  0
VERTEX
  8
M60LXLIFT
 62
13
 10
6571.233
 20
-8619.435
 30
-742.000
 70
    32
  0
VERTEX
  8
M60LXLIFT
 62
13
 10
6575.101
 20
-8619.253
 30
-742.000
 70
    32
  0
VERTEX
  8
M60LXLIFT
 62
13
 10
6584.361
 20
-8610.770
 30
-742.000
 70
    32
  0
VERTEX
  8
M60LXLIFT
 62
13
 10
6600.341
 20
-8590.114
 30
-742.000
 70
    32
  0
VERTEX
  8
M60LXLIFT
 62
13
 10
6601.506
 20
-8572.309
 30
-742.000
 70
    32
  0
VERTEX
  8
M60LXLIFT
 62
13
 10
6605.510
 20
-8537.226
 30
-742.000
 70
    32
  0
VERTEX
  8
M60LXLIFT
 62
13
 10
6607.333
 20
-8530.730
 30
-742.000
 70
    32
  0
VERTEX
  8
M60LXLIFT
 62
13
 10
6612.835
 20
-8517.161
 30
-742.000
 70
    32
  0
VERTEX
  8
M60LXLIFT
 62
13
 10
6613.397
 20
-8512.975
 30
-742.000
 70
    32
  0
VERTEX
  8
M60LXLIFT
 62
13
 10
6606.445
 20
-8503.589
 30
-742.000
 70
    32
  0
VERTEX
  8
M60LXLIFT
 62
13
 10
6594.641
 20
-8501.900
 30
-742.000
 70
    32
  0
VERTEX
  8
M60LXLIFT
 62
13
 10
6577.948
 20
-8509.665
 30
-742.000
 70
    32
  0
SEQEND
  8
M60LXLIFT
  0
POLYLINE
  8
M60LXLIFT
 62
13
 66
     1
 70
     9
  0
VERTEX
  8
M60LXLIFT
 62
13
 10
6580.082
 20
-8612.613
 30
-733.000
 70
    32
  0
VERTEX
  8
M60LXLIFT
 62
13
 10
6593.264
 20
-8594.173
 30
-733.000
 70
    32
  0
VERTEX
  8
M60LXLIFT
 62
13
 10
6596.777
 20
-8581.708
 30
-733.000
 70
    32
  0
VERTEX
  8
M60LXLIFT
 62
13
 10
6592.480
 20
-8558.849
 30
-733.000
 70
    32
  0
VERTEX
  8
M60LXLIFT
 62
13
 10
6592.339
 20
-8540.786
 30
-733.000
 70
    32
  0
VERTEX
  8
M60LXLIFT
 62
13
 10
6591.767
 20
-8526.301
 30
-733.000
 70
    32
  0
VERTEX
  8
M60LXLIFT
 62
13
 10
6595.901
 20
-8517.516
 30
-733.000
 70
    32
  0
VERTEX
  8
M60LXLIFT
 62
13
 10
6594.555
 20
-8510.014
 30
-733.000
 70
    32
  0
VERTEX
  8
M60LXLIFT
 62
13
 10
6584.357
 20
-8506.477
 30
-733.000
 70
    32
  0
VERTEX
  8
M60LXLIFT
 62
13
 10
6572.849
 20
-8506.507
 30
-733.000
 70
    32
  0
VERTEX
  8
M60LXLIFT
 62
13
 10
6569.574
 20
-8512.598
 30
-733.000
 70
    32
  0
VERTEX
  8
M60LXLIFT
 62
13
 10
6557.876
 20
-8520.708
 30
-733.000
 70
    32
  0
VERTEX
  8
M60LXLIFT
 62
13
 10
6551.920
 20
-8526.255
 30
-733.000
 70
    32
  0
VERTEX
  8
M60LXLIFT
 62
13
 10
6547.021
 20
-8539.950
 30
-733.000
 70
    32
  0
VERTEX
  8
M60LXLIFT
 62
13
 10
6543.919
 20
-8551.787
 30
-733.000
 70
    32
  0
VERTEX
  8
M60LXLIFT
 62
13
 10
6543.524
 20
-8566.435
 30
-733.000
 70
    32
  0
VERTEX
  8
M60LXLIFT
 62
13
 10
6544.730
 20
-8578.064
 30
-733.000
 70
    32
  0
VERTEX
  8
M60LXLIFT
 62
13
 10
6549.601
 20
-8594.412
 30
-733.000
 70
    32
  0
VERTEX
  8
M60LXLIFT
 62
13
 10
6564.617
 20
-8604.546
 30
-733.000
 70
    32
  0
VERTEX
  8
M60LXLIFT
 62
13
 10
6573.661
 20
-8611.864
 30
-733.000
 70
    32
  0
SEQEND
  8
M60LXLIFT
  0
POLYLINE
  8
M60LXLIFT
 62
13
 66
     1
 70
     9
  0
VERTEX
  8
M60LXLIFT
 62
13
 10
6637.741
 20
-8457.963
 30
-784.000
 70
    32
  0
VERTEX
  8
M60LXLIFT
 62
13
 10
6627.762
 20
-8461.632
 30
-784.000
 70
    32
  0
VERTEX
  8
M60LXLIFT
 62
13
 10
6611.406
 20
-8481.516
 30
-784.000
 70
    32
  0
VERTEX
  8
M60LXLIFT
 62
13
 10
6608.130
 20
-8505.613
 30
-784.000
 70
    32
  0
VERTEX
  8
M60LXLIFT
 62
13
 10
6592.371
 20
-8525.712
 30
-784.000
 70
    32
  0
VERTEX
  8
M60LXLIFT
 62
13
 10
6594.272
 20
-8548.819
 30
-784.000
 70
    32
  0
VERTEX
  8
M60LXLIFT
 62
13
 10
6592.315
 20
-8569.969
 30
-784.000
 70
    32
  0
VERTEX
  8
M60LXLIFT
 62
13
 10
6594.482
 20
-8575.259
 30
-784.000
 70
    32
  0
VERTEX
  8
M60LXLIFT
 62
13
 10
6589.382
 20
-8589.653
 30
-784.000
 70
    32
  0
VERTEX
  8
M60LXLIFT
 62
13
 10
6589.568
 20
-8611.184
 30
-784.000
 70
    32
  0
VERTEX
  8
M60LXLIFT
 62
13
 10
6597.571
 20
-8631.743
 30
-784.000
 70
    32
  0
VERTEX
  8
M60LXLIFT
 62
13
 10
6610.457
 20
-8638.945
 30
-784.000
 70
    32
  0
VERTEX
  8
M60LXLIFT
 62
13
 10
6624.128
 20
-8632.431
 30
-784.000
 70
    32
  0
VERTEX
  8
M60LXLIFT
 62
13
 10
6627.622
 20
-8616.163
 30
-784.000
 70
    32
  0
VERTEX
  8
M60LXLIFT
 62
13
 10
6629.312
 20
-8589.630
 30
-784.000
 70
    32
  0
VERTEX
  8
M60LXLIFT
 62
13
 10
6629.187
 20
-8578.230
 30
-784.000
 70
    32
  0
VERTEX
  8
M60LXLIFT
 62
13
 10
6626.184
 20
-8559.988
 30
-784.000
 70
    32
  0
VERTEX
  8
M60LXLIFT
 62
13
 10
6630.164
 20
-8544.674
 30
-784.000
 70
    32
  0
VERTEX
  8
M60LXLIFT
 62
13
 10
6635.726
 20
-8514.944
 30
-784.000
 70
    32
  0
VERTEX
  8
M60LXLIFT
 62
13
 10
6636.017
 20
-8501.595
 30
-784.000
 70
    32
  0
VERTEX
  8
M60LXLIFT
 62
13
 10
6631.650
 20
-8484.910
 30
-784.000
 70
    32
  0
VERTEX
  8
M60LXLIFT
 62
13
 10
6646.150
 20
-8463.555
 30
-784.000
 70
    32
  0
SEQEND
  8
M60LXLIFT
  0
POLYLINE
  8
M60LXLIFT
 62
13
 66
     1
 70
     9
  0
VERTEX
  8
M60LXLIFT
 62
13
 10
6598.756
 20
-8475.378
 30
-764.000
 70
    32
  0
VERTEX
  8
M60LXLIFT
 62
13
 10
6593.283
 20
-8502.062
 30
-764.000
 70
    32
  0
VERTEX
  8
M60LXLIFT
 62
13
 10
6590.531
 20
-8536.817
 30
-764.000
 70
    32
  0
VERTEX
  8
M60LXLIFT
 62
13
 10
6588.984
 20
-8590.428
 30
-764.000
 70
    32
  0
VERTEX
  8
M60LXLIFT
 62
13
 10
6589.392
 20
-8594.953
 30
-764.000
 70
    32
  0
VERTEX
  8
M60LXLIFT
 62
13
 10
6585.536
 20
-8600.678
 30
-764.000
 70
    32
  0
VERTEX
  8
M60LXLIFT
 62
13
 10
6581.639
 20
-8608.411
 30
-764.000
 70
    32
  0
VERTEX
  8
M60LXLIFT
 62
13
 10
6585.006
 20
-8628.400
 30
-764.000
 70
    32
  0
VERTEX
  8
M60LXLIFT
 62
13
 10
6594.089
 20
-8633.815
 30
-764.000
 70
    32
  0
VERTEX
  8
M60LXLIFT
 62
13
 10
6601.078
 20
-8628.170
 30
-764.000
 70
    32
  0
VERTEX
  8
M60LXLIFT
 62
13
 10
6617.119
 20
-8620.829
 30
-764.000
 70
    32
  0
VERTEX
  8
M60LXLIFT
 62
13
 10
6624.649
 20
-8600.295
 30
-764.000
 70
    32
  0
VERTEX
  8
M60LXLIFT
 62
13
 10
6622.572
 20
-8578.356
 30
-764.000
 70
    32
  0
VERTEX
  8
M60LXLIFT
 62
13
 10
6626.584
 20
-8546.175
 30
-764.000
 70
    32
  0
VERTEX
  8
M60LXLIFT
 62
13
 10
6632.234
 20
-8519.139
 30
-764.000
 70
    32
  0
VERTEX
  8
M60LXLIFT
 62
13
 10
6635.253
 20
-8494.612
 30
-764.000
 70
    32
  0
VERTEX
  8
M60LXLIFT
 62
13
 10
6634.864
 20
-8484.366
 30
-764.000
 70
    32
  0
VERTEX
  8
M60LXLIFT
 62
13
 10
6624.220
 20
-8477.150
 30
-764.000
 70
    32
  0
SEQEND
  8
M60LXLIFT
  0
POLYLINE
  8
M60LXLIFT
 62
8
 66
     1
 70
     9
  0
VERTEX
  8
M60LXLIFT
 62
8
 10
6624.481
 20
-8474.885
 30
-727.000
 70
    32
  0
VERTEX
  8
M60LXLIFT
 62
8
 10
6612.310
 20
-8457.776
 30
-727.000
 70
    32
  0
VERTEX
  8
M60LXLIFT
 62
8
 10
6606.125
 20
-8439.777
 30
-727.000
 70
    32
  0
VERTEX
  8
M60LXLIFT
 62
8
 10
6602.186
 20
-8424.706
 30
-727.000
 70
    32
  0
VERTEX
  8
M60LXLIFT
 62
8
 10
6594.746
 20
-8418.392
 30
-727.000
 70
    32
  0
VERTEX
  8
M60LXLIFT
 62
8
 10
6585.156
 20
-8418.218
 30
-727.000
 70
    32
  0
VERTEX
  8
M60LXLIFT
 62
8
 10
6568.379
 20
-8425.034
 30
-727.000
 70
    32
  0
VERTEX
  8
M60LXLIFT
 62
8
 10
6553.068
 20
-8435.347
 30
-727.000
 70
    32
  0
VERTEX
  8
M60LXLIFT
 62
8
 10
6546.904
 20
-8446.268
 30
-727.000
 70
    32
  0
VERTEX
  8
M60LXLIFT
 62
8
 10
6541.730
 20
-8455.268
 30
-727.000
 70
    32
  0
VERTEX
  8
M60LXLIFT
 62
8
 10
6542.852
 20
-8476.313
 30
-727.000
 70
    32
  0
VERTEX
  8
M60LXLIFT
 62
8
 10
6555.246
 20
-8495.216
 30
-727.000
 70
    32
  0
VERTEX
  8
M60LXLIFT
 62
8
 10
6564.816
 20
-8503.999
 30
-727.000
 70
    32
  0
VERTEX
  8
M60LXLIFT
 62
8
 10
6577.227
 20
-8506.246
 30
-727.000
 70
    32
  0
VERTEX
  8
M60LXLIFT
 62
8
 10
6587.661
 20
-8505.043
 30
-727.000
 70
    32
  0
VERTEX
  8
M60LXLIFT
 62
8
 10
6601.513
 20
-8498.840
 30
-727.000
 70
    32
  0
VERTEX
  8
M60LXLIFT
 62
8
 10
6612.262
 20
-8490.771
 30
-727.000
 70
    32
  0
VERTEX
  8
M60LXLIFT
 62
8
 10
6618.126
 20
-8484.204
 30
-727.000
 70
    32
  0
SEQEND
  8
M60LXLIFT
  0
POLYLINE
  8
M60LXLIFT
 62
13
 66
     1
 70
     9
  0
VERTEX
  8
M60LXLIFT
 62
13
 10
6588.462
 20
-8466.417
 30
-753.000
 70
    32
  0
VERTEX
  8
M60LXLIFT
 62
13
 10
6585.344
 20
-8483.597
 30
-753.000
 70
    32
  0
VERTEX
  8
M60LXLIFT
 62
13
 10
6580.459
 20
-8497.482
 30
-753.000
 70
    32
  0
VERTEX
  8
M60LXLIFT
 62
13
 10
6560.973
 20
-8515.326
 30
-753.000
 70
    32
  0
VERTEX
  8
M60LXLIFT
 62
13
 10
6560.445
 20
-8530.819
 30
-753.000
 70
    32
  0
VERTEX
  8
M60LXLIFT
 62
13
 10
6560.264
 20
-8549.014
 30
-753.000
 70
    32
  0
VERTEX
  8
M60LXLIFT
 62
13
 10
6569.498
 20
-8567.064
 30
-753.000
 70
    32
  0
VERTEX
  8
M60LXLIFT
 62
13
 10
6575.969
 20
-8592.512
 30
-753.000
 70
    32
  0
VERTEX
  8
M60LXLIFT
 62
13
 10
6582.850
 20
-8625.210
 30
-753.000
 70
    32
  0
VERTEX
  8
M60LXLIFT
 62
13
 10
6591.055
 20
-8620.594
 30
-753.000
 70
    32
  0
VERTEX
  8
M60LXLIFT
 62
13
 10
6601.804
 20
-8607.538
 30
-753.000
 70
    32
  0
VERTEX
  8
M60LXLIFT
 62
13
 10
6607.357
 20
-8590.097
 30
-753.000
 70
    32
  0
VERTEX
  8
M60LXLIFT
 62
13
 10
6608.151
 20
-8580.319
 30
-753.000
 70
    32
  0
VERTEX
  8
M60LXLIFT
 62
13
 10
6606.510
 20
-8568.720
 30
-753.000
 70
    32
  0
VERTEX
  8
M60LXLIFT
 62
13
 10
6608.672
 20
-8555.745
 30
-753.000
 70
    32
  0
VERTEX
  8
M60LXLIFT
 62
13
 10
6604.822
 20
-8540.847
 30
-753.000
 70
    32
  0
VERTEX
  8
M60LXLIFT
 62
13
 10
6607.090
 20
-8525.933
 30
-753.000
 70
    32
  0
VERTEX
  8
M60LXLIFT
 62
13
 10
6614.040
 20
-8502.211
 30
-753.000
 70
    32
  0
VERTEX
  8
M60LXLIFT
 62
13
 10
6612.365
 20
-8490.418
 30
-753.000
 70
    32
  0
VERTEX
  8
M60LXLIFT
 62
13
 10
6602.260
 20
-8465.237
 30
-753.000
 70
    32
  0
SEQEND
  8
M60LXLIFT
  0
POLYLINE
  8
M60LXLIFT
 62
13
 66
     1
 70
     9
  0
VERTEX
  8
M60LXLIFT
 62
13
 10
6616.037
 20
-8644.778
 30
-794.000
 70
    32
  0
VERTEX
  8
M60LXLIFT
 62
13
 10
6624.258
 20
-8637.701
 30
-794.000
 70
    32
  0
VERTEX
  8
M60LXLIFT
 62
13
 10
6634.875
 20
-8623.813
 30
-794.000
 70
    32
  0
VERTEX
  8
M60LXLIFT
 62
13
 10
6634.035
 20
-8607.905
 30
-794.000
 70
    32
  0
VERTEX
  8
M60LXLIFT
 62
13
 10
6634.778
 20
-8586.009
 30
-794.000
 70
    32
  0
VERTEX
  8
M60LXLIFT
 62
13
 10
6636.108
 20
-8574.952
 30
-794.000
 70
    32
  0
VERTEX
  8
M60LXLIFT
 62
13
 10
6638.169
 20
-8562.368
 30
-794.000
 70
    32
  0
VERTEX
  8
M60LXLIFT
 62
13
 10
6637.973
 20
-8550.581
 30
-794.000
 70
    32
  0
VERTEX
  8
M60LXLIFT
 62
13
 10
6639.298
 20
-8534.493
 30
-794.000
 70
    32
  0
VERTEX
  8
M60LXLIFT
 62
13
 10
6624.062
 20
-8513.489
 30
-794.000
 70
    32
  0
VERTEX
  8
M60LXLIFT
 62
13
 10
6621.190
 20
-8508.283
 30
-794.000
 70
    32
  0
VERTEX
  8
M60LXLIFT
 62
13
 10
6621.170
 20
-8499.540
 30
-794.000
 70
    32
  0
VERTEX
  8
M60LXLIFT
 62
13
 10
6620.033
 20
-8480.131
 30
-794.000
 70
    32
  0
VERTEX
  8
M60LXLIFT
 62
13
 10
6612.564
 20
-8472.858
 30
-794.000
 70
    32
  0
VERTEX
  8
M60LXLIFT
 62
13
 10
6607.070
 20
-8473.864
 30
-794.000
 70
    32
  0
VERTEX
  8
M60LXLIFT
 62
13
 10
6604.573
 20
-8476.699
 30
-794.000
 70
    32
  0
VERTEX
  8
M60LXLIFT
 62
13
 10
6604.778
 20
-8526.465
 30
-794.000
 70
    32
  0
VERTEX
  8
M60LXLIFT
 62
13
 10
6604.750
 20
-8534.258
 30
-794.000
 70
    32
  0
VERTEX
  8
M60LXLIFT
 62
13
 10
6602.534
 20
-8543.234
 30
-794.000
 70
    32
  0
VERTEX
  8
M60LXLIFT
 62
13
 10
6603.599
 20
-8553.830
 30
-794.000
 70
    32
  0
VERTEX
  8
M60LXLIFT
 62
13
 10
6600.221
 20
-8563.011
 30
-794.000
 70
    32
  0
VERTEX
  8
M60LXLIFT
 62
13
 10
6598.547
 20
-8572.571
 30
-794.000
 70
    32
  0
VERTEX
  8
M60LXLIFT
 62
13
 10
6597.653
 20
-8590.420
 30
-794.000
 70
    32
  0
VERTEX
  8
M60LXLIFT
 62
13
 10
6595.461
 20
-8601.349
 30
-794.000
 70
    32
  0
VERTEX
  8
M60LXLIFT
 62
13
 10
6600.040
 20
-8636.927
 30
-794.000
 70
    32
  0
SEQEND
  8
M60LXLIFT
  0
POLYLINE
  8
M60LXLIFT
 62
8
 66
     1
 70
     9
  0
VERTEX
  8
M60LXLIFT
 62
8
 10
6587.168
 20
-8427.465
 30
-696.000
 70
    32
  0
VERTEX
  8
M60LXLIFT
 62
8
 10
6557.143
 20
-8436.854
 30
-696.000
 70
    32
  0
VERTEX
  8
M60LXLIFT
 62
8
 10
6550.490
 20
-8444.392
 30
-696.000
 70
    32
  0
VERTEX
  8
M60LXLIFT
 62
8
 10
6544.811
 20
-8456.150
 30
-696.000
 70
    32
  0
VERTEX
  8
M60LXLIFT
 62
8
 10
6535.037
 20
-8480.015
 30
-696.000
 70
    32
  0
VERTEX
  8
M60LXLIFT
 62
8
 10
6525.643
 20
-8499.852
 30
-696.000
 70
    32
  0
VERTEX
  8
M60LXLIFT
 62
8
 10
6535.164
 20
-8514.698
 30
-696.000
 70
    32
  0
VERTEX
  8
M60LXLIFT
 62
8
 10
6540.691
 20
-8517.362
 30
-696.000
 70
    32
  0
VERTEX
  8
M60LXLIFT
 62
8
 10
6551.467
 20
-8513.985
 30
-696.000
 70
    32
  0
VERTEX
  8
M60LXLIFT
 62
8
 10
6575.337
 20
-8505.486
 30
-696.000
 70
    32
  0
VERTEX
  8
M60LXLIFT
 62
8
 10
6592.625
 20
-8494.236
 30
-696.000
 70
    32
  0
VERTEX
  8
M60LXLIFT
 62
8
 10
6593.164
 20
-8490.859
 30
-696.000
 70
    32
  0
VERTEX
  8
M60LXLIFT
 62
8
 10
6612.367
 20
-8499.410
 30
-696.000
 70
    32
  0
VERTEX
  8
M60LXLIFT
 62
8
 10
6623.267
 20
-8496.929
 30
-696.000
 70
    32
  0
VERTEX
  8
M60LXLIFT
 62
8
 10
6633.424
 20
-8491.707
 30
-696.000
 70
    32
  0
VERTEX
  8
M60LXLIFT
 62
8
 10
6625.028
 20
-8476.894
 30
-696.000
 70
    32
  0
VERTEX
  8
M60LXLIFT
 62
8
 10
6612.286
 20
-8471.955
 30
-696.000
 70
    32
  0
VERTEX
  8
M60LXLIFT
 62
8
 10
6602.894
 20
-8450.409
 30
-696.000
 70
    32
  0
VERTEX
  8
M60LXLIFT
 62
8
 10
6592.702
 20
-8434.526
 30
-696.000
 70
    32
  0
SEQEND
  8
M60LXLIFT
  0
POLYLINE
  8
M60LXLIFT
 62
1
 66
     1
 70
     9
  0
VERTEX
  8
M60LXLIFT
 62
1
 10
6568.632
 20
-8412.299
 30
-669.000
 70
    32
  0
VERTEX
  8
M60LXLIFT
 62
1
 10
6589.308
 20
-8425.539
 30
-669.000
 70
    32
  0
VERTEX
  8
M60LXLIFT
 62
1
 10
6607.524
 20
-8431.185
 30
-669.000
 70
    32
  0
VERTEX
  8
M60LXLIFT
 62
1
 10
6615.694
 20
-8429.500
 30
-669.000
 70
    32
  0
VERTEX
  8
M60LXLIFT
 62
1
 10
6622.347
 20
-8432.557
 30
-669.000
 70
    32
  0
VERTEX
  8
M60LXLIFT
 62
1
 10
6626.336
 20
-8437.045
 30
-669.000
 70
    32
  0
VERTEX
  8
M60LXLIFT
 62
1
 10
6628.796
 20
-8452.308
 30
-669.000
 70
    32
  0
VERTEX
  8
M60LXLIFT
 62
1
 10
6621.518
 20
-8462.424
 30
-669.000
 70
    32
  0
VERTEX
  8
M60LXLIFT
 62
1
 10
6614.908
 20
-8468.866
 30
-669.000
 70
    32
  0
VERTEX
  8
M60LXLIFT
 62
1
 10
6597.540
 20
-8473.655
 30
-669.000
 70
    32
  0
VERTEX
  8
M60LXLIFT
 62
1
 10
6580.109
 20
-8480.573
 30
-669.000
 70
    32
  0
VERTEX
  8
M60LXLIFT
 62
1
 10
6569.250
 20
-8488.965
 30
-669.000
 70
    32
  0
VERTEX
  8
M60LXLIFT
 62
1
 10
6549.889
 20
-8502.137
 30
-669.000
 70
    32
  0
VERTEX
  8
M60LXLIFT
 62
1
 10
6545.281
 20
-8494.603
 30
-669.000
 70
    32
  0
VERTEX
  8
M60LXLIFT
 62
1
 10
6552.257
 20
-8481.425
 30
-669.000
 70
    32
  0
VERTEX
  8
M60LXLIFT
 62
1
 10
6561.066
 20
-8463.929
 30
-669.000
 70
    32
  0
VERTEX
  8
M60LXLIFT
 62
1
 10
6564.823
 20
-8450.841
 30
-669.000
 70
    32
  0
VERTEX
  8
M60LXLIFT
 62
1
 10
6562.903
 20
-8440.435
 30
-669.000
 70
    32
  0
VERTEX
  8
M60LXLIFT
 62
1
 10
6556.967
 20
-8423.590
 30
-669.000
 70
    32
  0
SEQEND
  8
M60LXLIFT
  0
POLYLINE
  8
M60LXLIFT
 62
8
 66
     1
 70
     9
  0
VERTEX
  8
M60LXLIFT
 62
8
 10
6555.967
 20
-8424.590
 30
-678.000
 70
    32
  0
VERTEX
  8
M60LXLIFT
 62
8
 10
6561.903
 20
-8441.435
 30
-678.000
 70
    32
  0
VERTEX
  8
M60LXLIFT
 62
8
 10
6563.823
 20
-8451.841
 30
-678.000
 70
    32
  0
VERTEX
  8
M60LXLIFT
 62
8
 10
6560.066
 20
-8464.929
 30
-678.000
 70
    32
  0
VERTEX
  8
M60LXLIFT
 62
8
 10
6551.257
 20
-8482.425
 30
-678.000
 70
    32
  0
VERTEX
  8
M60LXLIFT
 62
8
 10
6544.281
 20
-8495.603
 30
-678.000
 70
    32
  0
VERTEX
  8
M60LXLIFT
 62
8
 10
6548.889
 20
-8503.137
 30
-678.000
 70
    32
  0
VERTEX
  8
M60LXLIFT
 62
8
 10
6568.250
 20
-8489.965
 30
-678.000
 70
    32
  0
VERTEX
  8
M60LXLIFT
 62
8
 10
6579.109
 20
-8481.573
 30
-678.000
 70
    32
  0
VERTEX
  8
M60LXLIFT
 62
8
 10
6596.540
 20
-8474.655
 30
-678.000
 70
    32
  0
VERTEX
  8
M60LXLIFT
 62
8
 10
6613.908
 20
-8469.866
 30
-678.000
 70
    32
  0
VERTEX
  8
M60LXLIFT
 62
8
 10
6620.518
 20
-8463.424
 30
-678.000
 70
    32
  0
VERTEX
  8
M60LXLIFT
 62
8
 10
6627.796
 20
-8453.308
 30
-678.000
 70
    32
  0
VERTEX
  8
M60LXLIFT
 62
8
 10
6625.336
 20
-8438.045
 30
-678.000
 70
    32
  0
VERTEX
  8
M60LXLIFT
 62
8
 10
6621.347
 20
-8433.557
 30
-678.000
 70
    32
  0
VERTEX
  8
M60LXLIFT
 62
8
 10
6614.694
 20
-8430.500
 30
-678.000
 70
    32
  0
VERTEX
  8
M60LXLIFT
 62
8
 10
6606.524
 20
-8432.185
 30
-678.000
 70
    32
  0
VERTEX
  8
M60LXLIFT
 62
8
 10
6588.308
 20
-8426.539
 30
-678.000
 70
    32
  0
VERTEX
  8
M60LXLIFT
 62
8
 10
6567.632
 20
-8413.299
 30
-678.000
 70
    32
  0
SEQEND
  8
M60LXLIFT
  0
POLYLINE
  8
M60LXLIFT
 62
8
 66
     1
 70
     9
  0
VERTEX
  8
M60LXLIFT
 62
8
 10
6602.297
 20
-8438.472
 30
-737.000
 70
    32
  0
VERTEX
  8
M60LXLIFT
 62
8
 10
6597.237
 20
-8444.374
 30
-737.000
 70
    32
  0
VERTEX
  8
M60LXLIFT
 62
8
 10
6584.470
 20
-8459.265
 30
-737.000
 70
    32
  0
VERTEX
  8
M60LXLIFT
 62
8
 10
6573.398
 20
-8474.561
 30
-737.000
 70
    32
  0
VERTEX
  8
M60LXLIFT
 62
8
 10
6568.962
 20
-8490.066
 30
-737.000
 70
    32
  0
VERTEX
  8
M60LXLIFT
 62
8
 10
6561.562
 20
-8499.484
 30
-737.000
 70
    32
  0
VERTEX
  8
M60LXLIFT
 62
8
 10
6553.538
 20
-8499.298
 30
-737.000
 70
    32
  0
VERTEX
  8
M60LXLIFT
 62
8
 10
6553.088
 20
-8494.001
 30
-737.000
 70
    32
  0
VERTEX
  8
M60LXLIFT
 62
8
 10
6558.380
 20
-8477.881
 30
-737.000
 70
    32
  0
VERTEX
  8
M60LXLIFT
 62
8
 10
6567.899
 20
-8452.891
 30
-737.000
 70
    32
  0
VERTEX
  8
M60LXLIFT
 62
8
 10
6577.106
 20
-8439.366
 30
-737.000
 70
    32
  0
VERTEX
  8
M60LXLIFT
 62
8
 10
6593.194
 20
-8430.306
 30
-737.000
 70
    32
  0
SEQEND
  8
M60LXLIFT
  0
POLYLINE
  8
M60LXLIFT
 62
13
 66
     1
 70
     9
  0
VERTEX
  8
M60LXLIFT
 62
13
 10
6579.392
 20
-8633.680
 30
-774.000
 70
    32
  0
VERTEX
  8
M60LXLIFT
 62
13
 10
6585.518
 20
-8633.506
 30
-774.000
 70
    32
  0
VERTEX
  8
M60LXLIFT
 62
13
 10
6591.571
 20
-8628.667
 30
-774.000
 70
    32
  0
VERTEX
  8
M60LXLIFT
 62
13
 10
6616.012
 20
-8625.825
 30
-774.000
 70
    32
  0
VERTEX
  8
M60LXLIFT
 62
13
 10
6618.883
 20
-8614.357
 30
-774.000
 70
    32
  0
VERTEX
  8
M60LXLIFT
 62
13
 10
6619.927
 20
-8601.617
 30
-774.000
 70
    32
  0
VERTEX
  8
M60LXLIFT
 62
13
 10
6617.785
 20
-8583.568
 30
-774.000
 70
    32
  0
VERTEX
  8
M60LXLIFT
 62
13
 10
6618.923
 20
-8569.332
 30
-774.000
 70
    32
  0
VERTEX
  8
M60LXLIFT
 62
13
 10
6628.223
 20
-8540.125
 30
-774.000
 70
    32
  0
VERTEX
  8
M60LXLIFT
 62
13
 10
6628.901
 20
-8510.099
 30
-774.000
 70
    32
  0
VERTEX
  8
M60LXLIFT
 62
13
 10
6634.254
 20
-8493.271
 30
-774.000
 70
    32
  0
VERTEX
  8
M60LXLIFT
 62
13
 10
6636.435
 20
-8477.489
 30
-774.000
 70
    32
  0
VERTEX
  8
M60LXLIFT
 62
13
 10
6608.490
 20
-8469.882
 30
-774.000
 70
    32
  0
VERTEX
  8
M60LXLIFT
 62
13
 10
6601.020
 20
-8461.181
 30
-774.000
 70
    32
  0
VERTEX
  8
M60LXLIFT
 62
13
 10
6592.782
 20
-8461.171
 30
-774.000
 70
    32
  0
VERTEX
  8
M60LXLIFT
 62
13
 10
6590.215
 20
-8455.073
 30
-774.000
 70
    32
  0
VERTEX
  8
M60LXLIFT
 62
13
 10
6586.184
 20
-8455.113
 30
-774.000
 70
    32
  0
VERTEX
  8
M60LXLIFT
 62
13
 10
6583.337
 20
-8486.206
 30
-774.000
 70
    32
  0
VERTEX
  8
M60LXLIFT
 62
13
 10
6592.768
 20
-8519.786
 30
-774.000
 70
    32
  0
VERTEX
  8
M60LXLIFT
 62
13
 10
6593.310
 20
-8526.406
 30
-774.000
 70
    32
  0
VERTEX
  8
M60LXLIFT
 62
13
 10
6591.085
 20
-8539.477
 30
-774.000
 70
    32
  0
VERTEX
  8
M60LXLIFT
 62
13
 10
6590.832
 20
-8568.748
 30
-774.000
 70
    32
  0
VERTEX
  8
M60LXLIFT
 62
13
 10
6594.580
 20
-8574.516
 30
-774.000
 70
    32
  0
VERTEX
  8
M60LXLIFT
 62
13
 10
6582.968
 20
-8583.825
 30
-774.000
 70
    32
  0
VERTEX
  8
M60LXLIFT
 62
13
 10
6580.781
 20
-8606.964
 30
-774.000
 70
    32
  0
SEQEND
  8
M60LXLIFT
  0
POLYLINE
  8
M60LXLIFT
 62
13
 66
     1
 70
     9
  0
VERTEX
  8
M60LXLIFT
 62
13
 10
6562.263
 20
-8586.534
 30
-700.000
 70
    32
  0
VERTEX
  8
M60LXLIFT
 62
13
 10
6539.558
 20
-8587.222
 30
-700.000
 70
    32
  0
VERTEX
  8
M60LXLIFT
 62
13
 10
6528.668
 20
-8574.507
 30
-700.000
 70
    32
  0
VERTEX
  8
M60LXLIFT
 62
13
 10
6519.991
 20
-8559.906
 30
-700.000
 70
    32
  0
VERTEX
  8
M60LXLIFT
 62
13
 10
6522.524
 20
-8549.525
 30
-700.000
 70
    32
  0
VERTEX
  8
M60LXLIFT
 62
13
 10
6523.132
 20
-8534.539
 30
-700.000
 70
    32
  0
VERTEX
  8
M60LXLIFT
 62
13
 10
6525.657
 20
-8529.558
 30
-700.000
 70
    32
  0
VERTEX
  8
M60LXLIFT
 62
13
 10
6538.252
 20
-8520.849
 30
-700.000
 70
    32
  0
VERTEX
  8
M60LXLIFT
 62
13
 10
6562.104
 20
-8522.269
 30
-700.000
 70
    32
  0
VERTEX
  8
M60LXLIFT
 62
13
 10
6576.663
 20
-8530.792
 30
-700.000
 70
    32
  0
VERTEX
  8
M60LXLIFT
 62
13
 10
6581.681
 20
-8544.626
 30
-700.000
 70
    32
  0
VERTEX
  8
M60LXLIFT
 62
13
 10
6583.752
 20
-8553.082
 30
-700.000
 70
    32
  0
VERTEX
  8
M60LXLIFT
 62
13
 10
6578.612
 20
-8571.258
 30
-700.000
 70
    32
  0
VERTEX
  8
M60LXLIFT
 62
13
 10
6573.786
 20
-8577.862
 30
-700.000
 70
    32
  0
SEQEND
  8
M60LXLIFT
  0
POLYLINE
  8
M60LXLIFT
 62
13
 66
     1
 70
     9
  0
VERTEX
  8
M60LXLIFT
 62
13
 10
6555.344
 20
-8594.114
 30
-710.000
 70
    32
  0
VERTEX
  8
M60LXLIFT
 62
13
 10
6573.301
 20
-8589.669
 30
-710.000
 70
    32
  0
VERTEX
  8
M60LXLIFT
 62
13
 10
6584.121
 20
-8565.201
 30
-710.000
 70
    32
  0
VERTEX
  8
M60LXLIFT
 62
13
 10
6587.411
 20
-8538.591
 30
-710.000
 70
    32
  0
VERTEX
  8
M60LXLIFT
 62
13
 10
6570.874
 20
-8528.971
 30
-710.000
 70
    32
  0
VERTEX
  8
M60LXLIFT
 62
13
 10
6558.006
 20
-8526.356
 30
-710.000
 70
    32
  0
VERTEX
  8
M60LXLIFT
 62
13
 10
6548.926
 20
-8524.470
 30
-710.000
 70
    32
  0
VERTEX
  8
M60LXLIFT
 62
13
 10
6540.448
 20
-8526.709
 30
-710.000
 70
    32
  0
VERTEX
  8
M60LXLIFT
 62
13
 10
6526.631
 20
-8534.017
 30
-710.000
 70
    32
  0
VERTEX
  8
M60LXLIFT
 62
13
 10
6525.306
 20
-8565.284
 30
-710.000
 70
    32
  0
VERTEX
  8
M60LXLIFT
 62
13
 10
6538.368
 20
-8583.291
 30
-710.000
 70
    32
  0
VERTEX
  8
M60LXLIFT
 62
13
 10
6540.750
 20
-8591.666
 30
-710.000
 70
    32
  0
VERTEX
  8
M60LXLIFT
 62
13
 10
6546.776
 20
-8590.988
 30
-710.000
 70
    32
  0
VERTEX
  8
M60LXLIFT
 62
13
 10
6552.758
 20
-8588.603
 30
-710.000
 70
    32
  0
SEQEND
  8
M60LXLIFT
  0
POLYLINE
  8
M60LXLIFT
 62
1
 66
     1
 70
     9
  0
VERTEX
  8
M60LXLIFT
 62
1
 10
6531.064
 20
-8521.045
 30
-679.000
 70
    32
  0
VERTEX
  8
M60LXLIFT
 62
1
 10
6556.496
 20
-8533.164
 30
-679.000
 70
    32
  0
VERTEX
  8
M60LXLIFT
 62
1
 10
6564.382
 20
-8539.359
 30
-679.000
 70
    32
  0
VERTEX
  8
M60LXLIFT
 62
1
 10
6570.901
 20
-8555.662
 30
-679.000
 70
    32
  0
VERTEX
  8
M60LXLIFT
 62
1
 10
6570.137
 20
-8564.665
 30
-679.000
 70
    32
  0
VERTEX
  8
M60LXLIFT
 62
1
 10
6566.566
 20
-8586.708
 30
-679.000
 70
    32
  0
VERTEX
  8
M60LXLIFT
 62
1
 10
6561.134
 20
-8589.426
 30
-679.000
 70
    32
  0
VERTEX
  8
M60LXLIFT
 62
1
 10
6546.382
 20
-8588.001
 30
-679.000
 70
    32
  0
VERTEX
  8
M60LXLIFT
 62
1
 10
6540.359
 20
-8585.791
 30
-679.000
 70
    32
  0
VERTEX
  8
M60LXLIFT
 62
1
 10
6524.565
 20
-8566.734
 30
-679.000
 70
    32
  0
VERTEX
  8
M60LXLIFT
 62
1
 10
6523.278
 20
-8556.296
 30
-679.000
 70
    32
  0
VERTEX
  8
M60LXLIFT
 62
1
 10
6523.604
 20
-8539.621
 30
-679.000
 70
    32
  0
VERTEX
  8
M60LXLIFT
 62
1
 10
6526.353
 20
-8523.996
 30
-679.000
 70
    32
  0
SEQEND
  8
M60LXLIFT
  0
POLYLINE
  8
M60LXLIFT
 62
13
 66
     1
 70
     9
  0
VERTEX
  8
M60LXLIFT
 62
13
 10
6541.863
 20
-8523.721
 30
-722.000
 70
    32
  0
VERTEX
  8
M60LXLIFT
 62
13
 10
6542.602
 20
-8538.065
 30
-722.000
 70
    32
  0
VERTEX
  8
M60LXLIFT
 62
13
 10
6542.912
 20
-8553.914
 30
-722.000
 70
    32
  0
VERTEX
  8
M60LXLIFT
 62
13
 10
6539.377
 20
-8580.482
 30
-722.000
 70
    32
  0
VERTEX
  8
M60LXLIFT
 62
13
 10
6541.773
 20
-8592.320
 30
-722.000
 70
    32
  0
VERTEX
  8
M60LXLIFT
 62
13
 10
6551.608
 20
-8595.396
 30
-722.000
 70
    32
  0
VERTEX
  8
M60LXLIFT
 62
13
 10
6559.102
 20
-8604.080
 30
-722.000
 70
    32
  0
VERTEX
  8
M60LXLIFT
 62
13
 10
6568.757
 20
-8610.652
 30
-722.000
 70
    32
  0
VERTEX
  8
M60LXLIFT
 62
13
 10
6583.561
 20
-8593.179
 30
-722.000
 70
    32
  0
VERTEX
  8
M60LXLIFT
 62
13
 10
6589.368
 20
-8579.625
 30
-722.000
 70
    32
  0
VERTEX
  8
M60LXLIFT
 62
13
 10
6596.529
 20
-8548.472
 30
-722.000
 70
    32
  0
VERTEX
  8
M60LXLIFT
 62
13
 10
6597.293
 20
-8531.409
 30
-722.000
 70
    32
  0
VERTEX
  8
M60LXLIFT
 62
13
 10
6580.036
 20
-8525.137
 30
-722.000
 70
    32
  0
VERTEX
  8
M60LXLIFT
 62
13
 10
6549.137
 20
-8516.380
 30
-722.000
 70
    32
  0
SEQEND
  8
M60LXLIFT
  0
POLYLINE
  8
M60LXLIFT
 62
13
 66
     1
 70
     9
  0
VERTEX
  8
M60LXLIFT
 62
13
 10
6525.353
 20
-8524.996
 30
-689.000
 70
    32
  0
VERTEX
  8
M60LXLIFT
 62
13
 10
6522.604
 20
-8540.621
 30
-689.000
 70
    32
  0
VERTEX
  8
M60LXLIFT
 62
13
 10
6522.278
 20
-8557.296
 30
-689.000
 70
    32
  0
VERTEX
  8
M60LXLIFT
 62
13
 10
6523.565
 20
-8567.734
 30
-689.000
 70
    32
  0
VERTEX
  8
M60LXLIFT
 62
13
 10
6539.359
 20
-8586.791
 30
-689.000
 70
    32
  0
VERTEX
  8
M60LXLIFT
 62
13
 10
6545.382
 20
-8589.001
 30
-689.000
 70
    32
  0
VERTEX
  8
M60LXLIFT
 62
13
 10
6560.134
 20
-8590.426
 30
-689.000
 70
    32
  0
VERTEX
  8
M60LXLIFT
 62
13
 10
6565.566
 20
-8587.708
 30
-689.000
 70
    32
  0
VERTEX
  8
M60LXLIFT
 62
13
 10
6569.137
 20
-8565.665
 30
-689.000
 70
    32
  0
VERTEX
  8
M60LXLIFT
 62
13
 10
6569.901
 20
-8556.662
 30
-689.000
 70
    32
  0
VERTEX
  8
M60LXLIFT
 62
13
 10
6563.382
 20
-8540.359
 30
-689.000
 70
    32
  0
VERTEX
  8
M60LXLIFT
 62
13
 10
6555.496
 20
-8534.164
 30
-689.000
 70
    32
  0
VERTEX
  8
M60LXLIFT
 62
13
 10
6530.064
 20
-8522.045
 30
-689.000
 70
    32
  0
SEQEND
  8
M60LXLIFT
  0
POLYLINE
  8
M60LXLIFT
 62
13
 66
     1
 70
     9
  0
VERTEX
  8
M60LXLIFT
 62
13
 10
6629.267
 20
-8640.167
 30
-805.000
 70
    32
  0
VERTEX
  8
M60LXLIFT
 62
13
 10
6637.933
 20
-8640.263
 30
-805.000
 70
    32
  0
VERTEX
  8
M60LXLIFT
 62
13
 10
6636.260
 20
-8636.479
 30
-805.000
 70
    32
  0
VERTEX
  8
M60LXLIFT
 62
13
 10
6640.774
 20
-8630.138
 30
-805.000
 70
    32
  0
VERTEX
  8
M60LXLIFT
 62
13
 10
6640.795
 20
-8623.159
 30
-805.000
 70
    32
  0
VERTEX
  8
M60LXLIFT
 62
13
 10
6638.700
 20
-8589.867
 30
-805.000
 70
    32
  0
VERTEX
  8
M60LXLIFT
 62
13
 10
6642.083
 20
-8571.838
 30
-805.000
 70
    32
  0
VERTEX
  8
M60LXLIFT
 62
13
 10
6642.200
 20
-8560.218
 30
-805.000
 70
    32
  0
VERTEX
  8
M60LXLIFT
 62
13
 10
6640.585
 20
-8552.039
 30
-805.000
 70
    32
  0
VERTEX
  8
M60LXLIFT
 62
13
 10
6639.800
 20
-8542.166
 30
-805.000
 70
    32
  0
VERTEX
  8
M60LXLIFT
 62
13
 10
6642.324
 20
-8528.028
 30
-805.000
 70
    32
  0
VERTEX
  8
M60LXLIFT
 62
13
 10
6635.862
 20
-8524.691
 30
-805.000
 70
    32
  0
VERTEX
  8
M60LXLIFT
 62
13
 10
6628.501
 20
-8524.295
 30
-805.000
 70
    32
  0
VERTEX
  8
M60LXLIFT
 62
13
 10
6610.940
 20
-8530.799
 30
-805.000
 70
    32
  0
VERTEX
  8
M60LXLIFT
 62
13
 10
6607.134
 20
-8539.451
 30
-805.000
 70
    32
  0
VERTEX
  8
M60LXLIFT
 62
13
 10
6600.348
 20
-8551.476
 30
-805.000
 70
    32
  0
VERTEX
  8
M60LXLIFT
 62
13
 10
6599.087
 20
-8555.117
 30
-805.000
 70
    32
  0
VERTEX
  8
M60LXLIFT
 62
13
 10
6603.161
 20
-8568.901
 30
-805.000
 70
    32
  0
VERTEX
  8
M60LXLIFT
 62
13
 10
6607.953
 20
-8590.976
 30
-805.000
 70
    32
  0
VERTEX
  8
M60LXLIFT
 62
13
 10
6612.009
 20
-8606.079
 30
-805.000
 70
    32
  0
VERTEX
  8
M60LXLIFT
 62
13
 10
6617.292
 20
-8624.204
 30
-805.000
 70
    32
  0
VERTEX
  8
M60LXLIFT
 62
13
 10
6619.618
 20
-8635.891
 30
-805.000
 70
    32
  0
SEQEND
  8
M60LXLIFT
  0
POLYLINE
  8
M60LXLIFT
 62
3
 66
     1
 70
     9
  0
VERTEX
  8
M60LXLIFT
 62
3
 10
6871.982
 20
-8116.206
 30
-819.207
 70
    32
  0
VERTEX
  8
M60LXLIFT
 62
3
 10
6876.345
 20
-8117.267
 30
-819.192
 70
    32
  0
VERTEX
  8
M60LXLIFT
 62
3
 10
6879.306
 20
-8127.140
 30
-819.154
 70
    32
  0
VERTEX
  8
M60LXLIFT
 62
3
 10
6878.415
 20
-8131.538
 30
-819.143
 70
    32
  0
VERTEX
  8
M60LXLIFT
 62
3
 10
6888.167
 20
-8138.356
 30
-819.097
 70
    32
  0
VERTEX
  8
M60LXLIFT
 62
3
 10
6895.007
 20
-8152.824
 30
-819.034
 70
    32
  0
VERTEX
  8
M60LXLIFT
 62
3
 10
6885.643
 20
-8160.489
 30
-819.036
 70
    32
  0
VERTEX
  8
M60LXLIFT
 62
3
 10
6880.250
 20
-8171.500
 30
-819.016
 70
    32
  0
VERTEX
  8
M60LXLIFT
 62
3
 10
6871.220
 20
-8171.067
 30
-819.041
 70
    32
  0
VERTEX
  8
M60LXLIFT
 62
3
 10
6864.958
 20
-8177.628
 30
-819.038
 70
    32
  0
VERTEX
  8
M60LXLIFT
 62
3
 10
6863.873
 20
-8188.947
 30
-819.006
 70
    32
  0
VERTEX
  8
M60LXLIFT
 62
3
 10
6851.578
 20
-8217.093
 30
-818.952
 70
    32
  0
VERTEX
  8
M60LXLIFT
 62
3
 10
6835.359
 20
-8239.815
 30
-818.925
 70
    32
  0
VERTEX
  8
M60LXLIFT
 62
3
 10
6830.449
 20
-8251.965
 30
-818.901
 70
    32
  0
VERTEX
  8
M60LXLIFT
 62
3
 10
6830.319
 20
-8257.147
 30
-818.885
 70
    32
  0
VERTEX
  8
M60LXLIFT
 62
3
 10
6831.637
 20
-8261.929
 30
-818.867
 70
    32
  0
VERTEX
  8
M60LXLIFT
 62
3
 10
6817.815
 20
-8266.389
 30
-818.890
 70
    32
  0
VERTEX
  8
M60LXLIFT
 62
3
 10
6814.342
 20
-8254.494
 30
-818.936
 70
    32
  0
VERTEX
  8
M60LXLIFT
 62
3
 10
6814.564
 20
-8247.767
 30
-818.956
 70
    32
  0
VERTEX
  8
M60LXLIFT
 62
3
 10
6821.554
 20
-8231.216
 30
-818.988
 70
    32
  0
VERTEX
  8
M60LXLIFT
 62
3
 10
6823.100
 20
-8216.880
 30
-819.028
 70
    32
  0
VERTEX
  8
M60LXLIFT
 62
3
 10
6817.694
 20
-8210.881
 30
-819.060
 70
    32
  0
VERTEX
  8
M60LXLIFT
 62
3
 10
6822.103
 20
-8198.623
 30
-819.086
 70
    32
  0
VERTEX
  8
M60LXLIFT
 62
3
 10
6828.962
 20
-8151.575
 30
-819.212
 70
    32
  0
VERTEX
  8
M60LXLIFT
 62
3
 10
6838.230
 20
-8137.191
 30
-819.232
 70
    32
  0
VERTEX
  8
M60LXLIFT
 62
3
 10
6837.521
 20
-8130.365
 30
-819.255
 70
    32
  0
VERTEX
  8
M60LXLIFT
 62
3
 10
6851.028
 20
-8126.140
 30
-819.232
 70
    32
  0
VERTEX
  8
M60LXLIFT
 62
3
 10
6859.682
 20
-8117.466
 30
-819.236
 70
    32
  0
VERTEX
  8
M60LXLIFT
 62
3
 10
6865.124
 20
-8116.420
 30
-819.225
 70
    32
  0
SEQEND
  8
M60LXLIFT
  0
POLYLINE
  8
M60LXLIFT
 62
2
 66
     1
 70
     9
  0
VERTEX
  8
M60LXLIFT
 62
2
 10
6807.534
 20
-8513.001
 30
-779.000
 70
    32
  0
VERTEX
  8
M60LXLIFT
 62
2
 10
6810.675
 20
-8516.038
 30
-779.000
 70
    32
  0
VERTEX
  8
M60LXLIFT
 62
2
 10
6814.458
 20
-8516.403
 30
-779.000
 70
    32
  0
VERTEX
  8
M60LXLIFT
 62
2
 10
6827.813
 20
-8517.977
 30
-779.000
 70
    32
  0
VERTEX
  8
M60LXLIFT
 62
2
 10
6847.484
 20
-8525.821
 30
-779.000
 70
    32
  0
VERTEX
  8
M60LXLIFT
 62
2
 10
6855.390
 20
-8535.844
 30
-779.000
 70
    32
  0
VERTEX
  8
M60LXLIFT
 62
2
 10
6854.953
 20
-8545.718
 30
-779.000
 70
    32
  0
VERTEX
  8
M60LXLIFT
 62
2
 10
6819.395
 20
-8595.363
 30
-779.000
 70
    32
  0
VERTEX
  8
M60LXLIFT
 62
2
 10
6794.816
 20
-8608.186
 30
-779.000
 70
    32
  0
VERTEX
  8
M60LXLIFT
 62
2
 10
6794.816
 20
-8608.186
 30
-779.000
 70
    32
  0
VERTEX
  8
M60LXLIFT
 62
2
 10
6779.417
 20
-8612.853
 30
-779.000
 70
    32
  0
VERTEX
  8
M60LXLIFT
 62
2
 10
6771.020
 20
-8613.072
 30
-779.000
 70
    32
  0
VERTEX
  8
M60LXLIFT
 62
2
 10
6755.625
 20
-8600.068
 30
-779.000
 70
    32
  0
VERTEX
  8
M60LXLIFT
 62
2
 10
6760.862
 20
-8591.776
 30
-779.000
 70
    32
  0
VERTEX
  8
M60LXLIFT
 62
2
 10
6771.726
 20
-8585.440
 30
-779.000
 70
    32
  0
VERTEX
  8
M60LXLIFT
 62
2
 10
6797.828
 20
-8575.104
 30
-779.000
 70
    32
  0
VERTEX
  8
M60LXLIFT
 62
2
 10
6807.073
 20
-8551.864
 30
-779.000
 70
    32
  0
VERTEX
  8
M60LXLIFT
 62
2
 10
6804.752
 20
-8545.801
 30
-779.000
 70
    32
  0
VERTEX
  8
M60LXLIFT
 62
2
 10
6785.684
 20
-8536.411
 30
-779.000
 70
    32
  0
VERTEX
  8
M60LXLIFT
 62
2
 10
6794.897
 20
-8518.135
 30
-779.000
 70
    32
  0
SEQEND
  8
M60LXLIFT
  0
POLYLINE
  8
M60LXLIFT
 62
2
 66
     1
 70
     9
  0
VERTEX
  8
M60LXLIFT
 62
2
 10
6833.303
 20
-8521.667
 30
-818.942
 70
    32
  0
VERTEX
  8
M60LXLIFT
 62
2
 10
6836.511
 20
-8517.713
 30
-818.942
 70
    32
  0
VERTEX
  8
M60LXLIFT
 62
2
 10
6844.266
 20
-8516.544
 30
-818.943
 70
    32
  0
VERTEX
  8
M60LXLIFT
 62
2
 10
6851.846
 20
-8518.384
 30
-818.945
 70
    32
  0
VERTEX
  8
M60LXLIFT
 62
2
 10
6859.415
 20
-8522.693
 30
-818.948
 70
    32
  0
VERTEX
  8
M60LXLIFT
 62
2
 10
6861.365
 20
-8530.338
 30
-818.951
 70
    32
  0
VERTEX
  8
M60LXLIFT
 62
2
 10
6878.771
 20
-8543.491
 30
-818.959
 70
    32
  0
VERTEX
  8
M60LXLIFT
 62
2
 10
6879.161
 20
-8553.066
 30
-818.963
 70
    32
  0
VERTEX
  8
M60LXLIFT
 62
2
 10
6883.507
 20
-8555.958
 30
-818.964
 70
    32
  0
VERTEX
  8
M60LXLIFT
 62
2
 10
6880.969
 20
-8569.048
 30
-818.968
 70
    32
  0
VERTEX
  8
M60LXLIFT
 62
2
 10
6866.261
 20
-8574.258
 30
-818.967
 70
    32
  0
VERTEX
  8
M60LXLIFT
 62
2
 10
6861.431
 20
-8568.490
 30
-818.964
 70
    32
  0
VERTEX
  8
M60LXLIFT
 62
2
 10
6844.384
 20
-8556.479
 30
-818.956
 70
    32
  0
VERTEX
  8
M60LXLIFT
 62
2
 10
6833.299
 20
-8563.687
 30
-818.956
 70
    32
  0
VERTEX
  8
M60LXLIFT
 62
2
 10
6829.924
 20
-8569.971
 30
-818.957
 70
    32
  0
VERTEX
  8
M60LXLIFT
 62
2
 10
6823.523
 20
-8566.891
 30
-818.955
 70
    32
  0
VERTEX
  8
M60LXLIFT
 62
2
 10
6825.797
 20
-8557.300
 30
-818.952
 70
    32
  0
VERTEX
  8
M60LXLIFT
 62
2
 10
6820.342
 20
-8542.546
 30
-818.946
 70
    32
  0
VERTEX
  8
M60LXLIFT
 62
2
 10
6823.395
 20
-8523.873
 30
-818.941
 70
    32
  0
SEQEND
  8
M60LXLIFT
  0
POLYLINE
  8
M60LXLIFT
 62
6
 66
     1
 70
     9
  0
VERTEX
  8
M60LXLIFT
 62
6
 10
6734.402
 20
-8556.807
 30
-818.932
 70
    32
  0
VERTEX
  8
M60LXLIFT
 62
6
 10
6750.245
 20
-8566.758
 30
-818.939
 70
    32
  0
VERTEX
  8
M60LXLIFT
 62
6
 10
6762.125
 20
-8590.995
 30
-818.949
 70
    32
  0
VERTEX
  8
M60LXLIFT
 62
6
 10
6762.079
 20
-8594.344
 30
-818.951
 70
    32
  0
VERTEX
  8
M60LXLIFT
 62
6
 10
6756.473
 20
-8608.263
 30
-818.981
 70
    32
  0
VERTEX
  8
M60LXLIFT
 62
6
 10
6748.452
 20
-8611.220
 30
-818.998
 70
    32
  0
VERTEX
  8
M60LXLIFT
 62
6
 10
6739.053
 20
-8605.497
 30
-819.003
 70
    32
  0
VERTEX
  8
M60LXLIFT
 62
6
 10
6731.115
 20
-8604.225
 30
-819.012
 70
    32
  0
VERTEX
  8
M60LXLIFT
 62
6
 10
6704.903
 20
-8614.791
 30
-819.068
 70
    32
  0
VERTEX
  8
M60LXLIFT
 62
6
 10
6696.545
 20
-8610.812
 30
-819.074
 70
    32
  0
VERTEX
  8
M60LXLIFT
 62
6
 10
6692.393
 20
-8607.037
 30
-819.074
 70
    32
  0
VERTEX
  8
M60LXLIFT
 62
6
 10
6691.382
 20
-8603.240
 30
-819.070
 70
    32
  0
VERTEX
  8
M60LXLIFT
 62
6
 10
6695.299
 20
-8589.200
 30
-819.041
 70
    32
  0
VERTEX
  8
M60LXLIFT
 62
6
 10
6690.290
 20
-8569.967
 30
-819.017
 70
    32
  0
VERTEX
  8
M60LXLIFT
 62
6
 10
6688.753
 20
-8566.960
 30
-819.015
 70
    32
  0
VERTEX
  8
M60LXLIFT
 62
6
 10
6669.050
 20
-8549.075
 30
-819.015
 70
    32
  0
VERTEX
  8
M60LXLIFT
 62
6
 10
6667.819
 20
-8537.191
 30
-818.997
 70
    32
  0
VERTEX
  8
M60LXLIFT
 62
6
 10
6679.845
 20
-8537.252
 30
-818.980
 70
    32
  0
VERTEX
  8
M60LXLIFT
 62
6
 10
6685.519
 20
-8534.306
 30
-818.967
 70
    32
  0
VERTEX
  8
M60LXLIFT
 62
6
 10
6693.550
 20
-8536.799
 30
-818.959
 70
    32
  0
VERTEX
  8
M60LXLIFT
 62
6
 10
6717.030
 20
-8562.033
 30
-818.965
 70
    32
  0
VERTEX
  8
M60LXLIFT
 62
6
 10
6727.942
 20
-8564.360
 30
-818.953
 70
    32
  0
SEQEND
  8
M60LXLIFT
  0
POLYLINE
  8
M60LXLIFT
 62
13
 66
     1
 70
     9
  0
VERTEX
  8
M60LXLIFT
 62
13
 10
6641.038
 20
-8533.954
 30
-819.032
 70
    32
  0
VERTEX
  8
M60LXLIFT
 62
13
 10
6645.817
 20
-8536.938
 30
-819.030
 70
    32
  0
VERTEX
  8
M60LXLIFT
 62
13
 10
6652.295
 20
-8533.760
 30
-819.015
 70
    32
  0
VERTEX
  8
M60LXLIFT
 62
13
 10
6661.249
 20
-8534.333
 30
-819.003
 70
    32
  0
VERTEX
  8
M60LXLIFT
 62
13
 10
6662.799
 20
-8541.398
 30
-819.012
 70
    32
  0
VERTEX
  8
M60LXLIFT
 62
13
 10
6658.787
 20
-8591.026
 30
-819.098
 70
    32
  0
VERTEX
  8
M60LXLIFT
 62
13
 10
6655.096
 20
-8603.841
 30
-819.124
 70
    32
  0
VERTEX
  8
M60LXLIFT
 62
13
 10
6656.974
 20
-8618.061
 30
-819.144
 70
    32
  0
VERTEX
  8
M60LXLIFT
 62
13
 10
6654.332
 20
-8641.544
 30
-819.186
 70
    32
  0
VERTEX
  8
M60LXLIFT
 62
13
 10
6623.817
 20
-8663.757
 30
-819.267
 70
    32
  0
VERTEX
  8
M60LXLIFT
 62
13
 10
6619.850
 20
-8650.375
 30
-819.252
 70
    32
  0
VERTEX
  8
M60LXLIFT
 62
13
 10
6619.255
 20
-8640.192
 30
-819.236
 70
    32
  0
VERTEX
  8
M60LXLIFT
 62
13
 10
6622.874
 20
-8608.168
 30
-819.179
 70
    32
  0
VERTEX
  8
M60LXLIFT
 62
13
 10
6613.861
 20
-8587.627
 30
-819.159
 70
    32
  0
VERTEX
  8
M60LXLIFT
 62
13
 10
6609.003
 20
-8565.508
 30
-819.130
 70
    32
  0
VERTEX
  8
M60LXLIFT
 62
13
 10
6615.161
 20
-8542.737
 30
-819.084
 70
    32
  0
VERTEX
  8
M60LXLIFT
 62
13
 10
6608.608
 20
-8539.700
 30
-819.089
 70
    32
  0
VERTEX
  8
M60LXLIFT
 62
13
 10
6604.628
 20
-8529.144
 30
-819.110
 70
    32
  0
VERTEX
  8
M60LXLIFT
 62
13
 10
6604.714
 20
-8517.019
 30
-819.125
 70
    32
  0
VERTEX
  8
M60LXLIFT
 62
13
 10
6613.870
 20
-8509.824
 30
-819.105
 70
    32
  0
VERTEX
  8
M60LXLIFT
 62
13
 10
6616.300
 20
-8515.115
 30
-819.090
 70
    32
  0
VERTEX
  8
M60LXLIFT
 62
13
 10
6623.526
 20
-8512.832
 30
-819.070
 70
    32
  0
VERTEX
  8
M60LXLIFT
 62
13
 10
6635.806
 20
-8527.961
 30
-819.030
 70
    32
  0
SEQEND
  8
M60LXLIFT
  0
ENDSEC
  0
EOF
