999
********************************
999
*   DXF File - Entities Only   *
999
*        3D Data Format        *
999
*     Output from ENVISAGE     *
999
*     31-Dec-2007 15:31:05     *
999
********************************
  0
SECTION 
  2
HEADER
  9
$ACADVER
  1
AC1009
  9
$EXTMIN
 10
-290000.000
 20
-250000.000
 30
-4000.000
  9
$EXTMAX
 10
320000.000
 20
160000.000
 30
6000.000
  0
ENDSEC
  0
SECTION
  2
ENTITIES
  0
POLYLINE
  8
M62LXLIFT
 62
3
 66
     1
 70
     9
  0
VERTEX
  8
M62LXLIFT
 62
3
 10
6971.393
 20
-8188.157
 30
-842.000
 70
    32
  0
VERTEX
  8
M62LXLIFT
 62
3
 10
6961.963
 20
-8190.653
 30
-842.000
 70
    32
  0
VERTEX
  8
M62LXLIFT
 62
3
 10
6956.034
 20
-8190.071
 30
-842.000
 70
    32
  0
VERTEX
  8
M62LXLIFT
 62
3
 10
6950.925
 20
-8188.101
 30
-842.000
 70
    32
  0
VERTEX
  8
M62LXLIFT
 62
3
 10
6946.391
 20
-8191.409
 30
-842.000
 70
    32
  0
VERTEX
  8
M62LXLIFT
 62
3
 10
6939.921
 20
-8192.442
 30
-842.000
 70
    32
  0
VERTEX
  8
M62LXLIFT
 62
3
 10
6927.697
 20
-8192.542
 30
-842.000
 70
    32
  0
VERTEX
  8
M62LXLIFT
 62
3
 10
6912.061
 20
-8195.982
 30
-842.000
 70
    32
  0
VERTEX
  8
M62LXLIFT
 62
3
 10
6902.718
 20
-8198.303
 30
-842.000
 70
    32
  0
VERTEX
  8
M62LXLIFT
 62
3
 10
6889.213
 20
-8205.737
 30
-842.000
 70
    32
  0
VERTEX
  8
M62LXLIFT
 62
3
 10
6879.338
 20
-8212.741
 30
-842.000
 70
    32
  0
VERTEX
  8
M62LXLIFT
 62
3
 10
6870.285
 20
-8211.220
 30
-842.000
 70
    32
  0
VERTEX
  8
M62LXLIFT
 62
3
 10
6867.700
 20
-8208.665
 30
-842.000
 70
    32
  0
VERTEX
  8
M62LXLIFT
 62
3
 10
6867.243
 20
-8193.635
 30
-842.000
 70
    32
  0
VERTEX
  8
M62LXLIFT
 62
3
 10
6883.476
 20
-8175.689
 30
-842.000
 70
    32
  0
VERTEX
  8
M62LXLIFT
 62
3
 10
6889.630
 20
-8167.536
 30
-842.000
 70
    32
  0
VERTEX
  8
M62LXLIFT
 62
3
 10
6907.227
 20
-8162.618
 30
-842.000
 70
    32
  0
VERTEX
  8
M62LXLIFT
 62
3
 10
6911.868
 20
-8159.888
 30
-842.000
 70
    32
  0
VERTEX
  8
M62LXLIFT
 62
3
 10
6918.899
 20
-8151.733
 30
-842.000
 70
    32
  0
VERTEX
  8
M62LXLIFT
 62
3
 10
6929.858
 20
-8143.252
 30
-842.000
 70
    32
  0
VERTEX
  8
M62LXLIFT
 62
3
 10
6943.069
 20
-8137.906
 30
-842.000
 70
    32
  0
VERTEX
  8
M62LXLIFT
 62
3
 10
6945.459
 20
-8139.619
 30
-842.000
 70
    32
  0
VERTEX
  8
M62LXLIFT
 62
3
 10
6952.692
 20
-8157.228
 30
-842.000
 70
    32
  0
VERTEX
  8
M62LXLIFT
 62
3
 10
6962.567
 20
-8164.501
 30
-842.000
 70
    32
  0
VERTEX
  8
M62LXLIFT
 62
3
 10
6968.217
 20
-8172.871
 30
-842.000
 70
    32
  0
VERTEX
  8
M62LXLIFT
 62
3
 10
6972.384
 20
-8177.087
 30
-842.000
 70
    32
  0
SEQEND
  8
M62LXLIFT
  0
POLYLINE
  8
M62LXLIFT
 62
1
 66
     1
 70
     9
  0
VERTEX
  8
M62LXLIFT
 62
1
 10
6972.393
 20
-8187.157
 30
-832.000
 70
    32
  0
VERTEX
  8
M62LXLIFT
 62
1
 10
6962.963
 20
-8189.653
 30
-832.000
 70
    32
  0
VERTEX
  8
M62LXLIFT
 62
1
 10
6957.034
 20
-8189.071
 30
-832.000
 70
    32
  0
VERTEX
  8
M62LXLIFT
 62
1
 10
6951.925
 20
-8187.101
 30
-832.000
 70
    32
  0
VERTEX
  8
M62LXLIFT
 62
1
 10
6947.391
 20
-8190.409
 30
-832.000
 70
    32
  0
VERTEX
  8
M62LXLIFT
 62
1
 10
6940.921
 20
-8191.442
 30
-832.000
 70
    32
  0
VERTEX
  8
M62LXLIFT
 62
1
 10
6928.697
 20
-8191.542
 30
-832.000
 70
    32
  0
VERTEX
  8
M62LXLIFT
 62
1
 10
6913.061
 20
-8194.982
 30
-832.000
 70
    32
  0
VERTEX
  8
M62LXLIFT
 62
1
 10
6903.718
 20
-8197.303
 30
-832.000
 70
    32
  0
VERTEX
  8
M62LXLIFT
 62
1
 10
6890.213
 20
-8204.737
 30
-832.000
 70
    32
  0
VERTEX
  8
M62LXLIFT
 62
1
 10
6880.338
 20
-8211.741
 30
-832.000
 70
    32
  0
VERTEX
  8
M62LXLIFT
 62
1
 10
6871.285
 20
-8210.220
 30
-832.000
 70
    32
  0
VERTEX
  8
M62LXLIFT
 62
1
 10
6868.700
 20
-8207.665
 30
-832.000
 70
    32
  0
VERTEX
  8
M62LXLIFT
 62
1
 10
6868.243
 20
-8192.635
 30
-832.000
 70
    32
  0
VERTEX
  8
M62LXLIFT
 62
1
 10
6884.476
 20
-8174.689
 30
-832.000
 70
    32
  0
VERTEX
  8
M62LXLIFT
 62
1
 10
6890.630
 20
-8166.536
 30
-832.000
 70
    32
  0
VERTEX
  8
M62LXLIFT
 62
1
 10
6908.227
 20
-8161.618
 30
-832.000
 70
    32
  0
VERTEX
  8
M62LXLIFT
 62
1
 10
6912.868
 20
-8158.888
 30
-832.000
 70
    32
  0
VERTEX
  8
M62LXLIFT
 62
1
 10
6919.899
 20
-8150.733
 30
-832.000
 70
    32
  0
VERTEX
  8
M62LXLIFT
 62
1
 10
6930.858
 20
-8142.252
 30
-832.000
 70
    32
  0
VERTEX
  8
M62LXLIFT
 62
1
 10
6944.069
 20
-8136.906
 30
-832.000
 70
    32
  0
VERTEX
  8
M62LXLIFT
 62
1
 10
6946.459
 20
-8138.619
 30
-832.000
 70
    32
  0
VERTEX
  8
M62LXLIFT
 62
1
 10
6953.692
 20
-8156.228
 30
-832.000
 70
    32
  0
VERTEX
  8
M62LXLIFT
 62
1
 10
6963.567
 20
-8163.501
 30
-832.000
 70
    32
  0
VERTEX
  8
M62LXLIFT
 62
1
 10
6969.217
 20
-8171.871
 30
-832.000
 70
    32
  0
VERTEX
  8
M62LXLIFT
 62
1
 10
6973.384
 20
-8176.087
 30
-832.000
 70
    32
  0
SEQEND
  8
M62LXLIFT
  0
POLYLINE
  8
M62LXLIFT
 62
3
 66
     1
 70
     9
  0
VERTEX
  8
M62LXLIFT
 62
3
 10
6970.268
 20
-8193.587
 30
-861.000
 70
    32
  0
VERTEX
  8
M62LXLIFT
 62
3
 10
6910.923
 20
-8206.666
 30
-861.000
 70
    32
  0
VERTEX
  8
M62LXLIFT
 62
3
 10
6898.375
 20
-8208.521
 30
-861.000
 70
    32
  0
VERTEX
  8
M62LXLIFT
 62
3
 10
6884.946
 20
-8214.391
 30
-861.000
 70
    32
  0
VERTEX
  8
M62LXLIFT
 62
3
 10
6871.537
 20
-8215.137
 30
-861.000
 70
    32
  0
VERTEX
  8
M62LXLIFT
 62
3
 10
6866.317
 20
-8205.977
 30
-861.000
 70
    32
  0
VERTEX
  8
M62LXLIFT
 62
3
 10
6873.655
 20
-8192.401
 30
-861.000
 70
    32
  0
VERTEX
  8
M62LXLIFT
 62
3
 10
6886.818
 20
-8184.185
 30
-861.000
 70
    32
  0
VERTEX
  8
M62LXLIFT
 62
3
 10
6894.152
 20
-8181.048
 30
-861.000
 70
    32
  0
VERTEX
  8
M62LXLIFT
 62
3
 10
6906.629
 20
-8173.808
 30
-861.000
 70
    32
  0
VERTEX
  8
M62LXLIFT
 62
3
 10
6927.703
 20
-8169.778
 30
-861.000
 70
    32
  0
VERTEX
  8
M62LXLIFT
 62
3
 10
6933.977
 20
-8158.693
 30
-861.000
 70
    32
  0
VERTEX
  8
M62LXLIFT
 62
3
 10
6926.039
 20
-8144.315
 30
-861.000
 70
    32
  0
VERTEX
  8
M62LXLIFT
 62
3
 10
6931.837
 20
-8139.483
 30
-861.000
 70
    32
  0
VERTEX
  8
M62LXLIFT
 62
3
 10
6938.421
 20
-8125.937
 30
-861.000
 70
    32
  0
VERTEX
  8
M62LXLIFT
 62
3
 10
6957.284
 20
-8158.257
 30
-861.000
 70
    32
  0
VERTEX
  8
M62LXLIFT
 62
3
 10
6965.629
 20
-8166.436
 30
-861.000
 70
    32
  0
VERTEX
  8
M62LXLIFT
 62
3
 10
6972.001
 20
-8177.366
 30
-861.000
 70
    32
  0
VERTEX
  8
M62LXLIFT
 62
3
 10
6971.208
 20
-8184.642
 30
-861.000
 70
    32
  0
SEQEND
  8
M62LXLIFT
  0
POLYLINE
  8
M62LXLIFT
 62
3
 66
     1
 70
     9
  0
VERTEX
  8
M62LXLIFT
 62
3
 10
6940.448
 20
-8152.254
 30
-871.000
 70
    32
  0
VERTEX
  8
M62LXLIFT
 62
3
 10
6937.872
 20
-8155.965
 30
-871.000
 70
    32
  0
VERTEX
  8
M62LXLIFT
 62
3
 10
6937.937
 20
-8165.921
 30
-871.000
 70
    32
  0
VERTEX
  8
M62LXLIFT
 62
3
 10
6936.499
 20
-8169.539
 30
-871.000
 70
    32
  0
VERTEX
  8
M62LXLIFT
 62
3
 10
6929.815
 20
-8175.812
 30
-871.000
 70
    32
  0
VERTEX
  8
M62LXLIFT
 62
3
 10
6921.885
 20
-8174.342
 30
-871.000
 70
    32
  0
VERTEX
  8
M62LXLIFT
 62
3
 10
6910.171
 20
-8177.167
 30
-871.000
 70
    32
  0
VERTEX
  8
M62LXLIFT
 62
3
 10
6892.899
 20
-8187.171
 30
-871.000
 70
    32
  0
VERTEX
  8
M62LXLIFT
 62
3
 10
6885.510
 20
-8196.286
 30
-871.000
 70
    32
  0
VERTEX
  8
M62LXLIFT
 62
3
 10
6883.339
 20
-8207.936
 30
-871.000
 70
    32
  0
VERTEX
  8
M62LXLIFT
 62
3
 10
6885.632
 20
-8210.817
 30
-871.000
 70
    32
  0
VERTEX
  8
M62LXLIFT
 62
3
 10
6891.710
 20
-8209.842
 30
-871.000
 70
    32
  0
VERTEX
  8
M62LXLIFT
 62
3
 10
6900.197
 20
-8210.450
 30
-871.000
 70
    32
  0
VERTEX
  8
M62LXLIFT
 62
3
 10
6913.559
 20
-8211.544
 30
-871.000
 70
    32
  0
VERTEX
  8
M62LXLIFT
 62
3
 10
6933.225
 20
-8207.313
 30
-871.000
 70
    32
  0
VERTEX
  8
M62LXLIFT
 62
3
 10
6946.533
 20
-8204.270
 30
-871.000
 70
    32
  0
VERTEX
  8
M62LXLIFT
 62
3
 10
6962.466
 20
-8196.709
 30
-871.000
 70
    32
  0
VERTEX
  8
M62LXLIFT
 62
3
 10
6971.011
 20
-8194.635
 30
-871.000
 70
    32
  0
VERTEX
  8
M62LXLIFT
 62
3
 10
6976.609
 20
-8188.526
 30
-871.000
 70
    32
  0
VERTEX
  8
M62LXLIFT
 62
3
 10
6973.034
 20
-8177.710
 30
-871.000
 70
    32
  0
VERTEX
  8
M62LXLIFT
 62
3
 10
6962.540
 20
-8168.066
 30
-871.000
 70
    32
  0
VERTEX
  8
M62LXLIFT
 62
3
 10
6961.123
 20
-8153.856
 30
-871.000
 70
    32
  0
VERTEX
  8
M62LXLIFT
 62
3
 10
6952.478
 20
-8145.781
 30
-871.000
 70
    32
  0
SEQEND
  8
M62LXLIFT
  0
POLYLINE
  8
M62LXLIFT
 62
3
 66
     1
 70
     9
  0
VERTEX
  8
M62LXLIFT
 62
3
 10
6933.089
 20
-8217.116
 30
-895.000
 70
    32
  0
VERTEX
  8
M62LXLIFT
 62
3
 10
6937.022
 20
-8204.521
 30
-895.000
 70
    32
  0
VERTEX
  8
M62LXLIFT
 62
3
 10
6964.151
 20
-8175.634
 30
-895.000
 70
    32
  0
VERTEX
  8
M62LXLIFT
 62
3
 10
6970.292
 20
-8174.320
 30
-895.000
 70
    32
  0
VERTEX
  8
M62LXLIFT
 62
3
 10
6973.221
 20
-8176.619
 30
-895.000
 70
    32
  0
VERTEX
  8
M62LXLIFT
 62
3
 10
6975.482
 20
-8184.900
 30
-895.000
 70
    32
  0
VERTEX
  8
M62LXLIFT
 62
3
 10
6979.427
 20
-8193.672
 30
-895.000
 70
    32
  0
VERTEX
  8
M62LXLIFT
 62
3
 10
6977.846
 20
-8200.777
 30
-895.000
 70
    32
  0
VERTEX
  8
M62LXLIFT
 62
3
 10
6965.249
 20
-8205.616
 30
-895.000
 70
    32
  0
VERTEX
  8
M62LXLIFT
 62
3
 10
6960.809
 20
-8211.685
 30
-895.000
 70
    32
  0
VERTEX
  8
M62LXLIFT
 62
3
 10
6950.825
 20
-8220.594
 30
-895.000
 70
    32
  0
VERTEX
  8
M62LXLIFT
 62
3
 10
6943.702
 20
-8220.452
 30
-895.000
 70
    32
  0
SEQEND
  8
M62LXLIFT
  0
POLYLINE
  8
M62LXLIFT
 62
3
 66
     1
 70
     9
  0
VERTEX
  8
M62LXLIFT
 62
3
 10
6878.785
 20
-8207.531
 30
-886.000
 70
    32
  0
VERTEX
  8
M62LXLIFT
 62
3
 10
6882.142
 20
-8211.696
 30
-886.000
 70
    32
  0
VERTEX
  8
M62LXLIFT
 62
3
 10
6889.923
 20
-8210.225
 30
-886.000
 70
    32
  0
VERTEX
  8
M62LXLIFT
 62
3
 10
6899.404
 20
-8208.241
 30
-886.000
 70
    32
  0
VERTEX
  8
M62LXLIFT
 62
3
 10
6910.191
 20
-8210.760
 30
-886.000
 70
    32
  0
VERTEX
  8
M62LXLIFT
 62
3
 10
6916.985
 20
-8215.410
 30
-886.000
 70
    32
  0
VERTEX
  8
M62LXLIFT
 62
3
 10
6928.853
 20
-8214.701
 30
-886.000
 70
    32
  0
VERTEX
  8
M62LXLIFT
 62
3
 10
6935.165
 20
-8215.214
 30
-886.000
 70
    32
  0
VERTEX
  8
M62LXLIFT
 62
3
 10
6945.111
 20
-8209.477
 30
-886.000
 70
    32
  0
VERTEX
  8
M62LXLIFT
 62
3
 10
6951.847
 20
-8202.976
 30
-886.000
 70
    32
  0
VERTEX
  8
M62LXLIFT
 62
3
 10
6961.327
 20
-8200.555
 30
-886.000
 70
    32
  0
VERTEX
  8
M62LXLIFT
 62
3
 10
6965.371
 20
-8198.057
 30
-886.000
 70
    32
  0
VERTEX
  8
M62LXLIFT
 62
3
 10
6976.189
 20
-8198.577
 30
-886.000
 70
    32
  0
VERTEX
  8
M62LXLIFT
 62
3
 10
6980.987
 20
-8195.622
 30
-886.000
 70
    32
  0
VERTEX
  8
M62LXLIFT
 62
3
 10
6976.076
 20
-8186.481
 30
-886.000
 70
    32
  0
VERTEX
  8
M62LXLIFT
 62
3
 10
6965.236
 20
-8175.441
 30
-886.000
 70
    32
  0
VERTEX
  8
M62LXLIFT
 62
3
 10
6954.924
 20
-8173.990
 30
-886.000
 70
    32
  0
VERTEX
  8
M62LXLIFT
 62
3
 10
6948.821
 20
-8181.331
 30
-886.000
 70
    32
  0
VERTEX
  8
M62LXLIFT
 62
3
 10
6946.394
 20
-8186.123
 30
-886.000
 70
    32
  0
VERTEX
  8
M62LXLIFT
 62
3
 10
6938.150
 20
-8192.223
 30
-886.000
 70
    32
  0
VERTEX
  8
M62LXLIFT
 62
3
 10
6928.303
 20
-8195.032
 30
-886.000
 70
    32
  0
VERTEX
  8
M62LXLIFT
 62
3
 10
6916.978
 20
-8195.003
 30
-886.000
 70
    32
  0
VERTEX
  8
M62LXLIFT
 62
3
 10
6909.908
 20
-8192.756
 30
-886.000
 70
    32
  0
VERTEX
  8
M62LXLIFT
 62
3
 10
6905.900
 20
-8196.323
 30
-886.000
 70
    32
  0
VERTEX
  8
M62LXLIFT
 62
3
 10
6897.125
 20
-8199.971
 30
-886.000
 70
    32
  0
VERTEX
  8
M62LXLIFT
 62
3
 10
6892.302
 20
-8199.105
 30
-886.000
 70
    32
  0
VERTEX
  8
M62LXLIFT
 62
3
 10
6880.160
 20
-8202.654
 30
-886.000
 70
    32
  0
SEQEND
  8
M62LXLIFT
  0
POLYLINE
  8
M62LXLIFT
 62
3
 66
     1
 70
     9
  0
VERTEX
  8
M62LXLIFT
 62
3
 10
6890.300
 20
-8223.088
 30
-903.000
 70
    32
  0
VERTEX
  8
M62LXLIFT
 62
3
 10
6898.397
 20
-8227.247
 30
-903.000
 70
    32
  0
VERTEX
  8
M62LXLIFT
 62
3
 10
6901.532
 20
-8233.550
 30
-903.000
 70
    32
  0
VERTEX
  8
M62LXLIFT
 62
3
 10
6914.170
 20
-8232.931
 30
-903.000
 70
    32
  0
VERTEX
  8
M62LXLIFT
 62
3
 10
6929.963
 20
-8235.543
 30
-903.000
 70
    32
  0
VERTEX
  8
M62LXLIFT
 62
3
 10
6955.651
 20
-8222.323
 30
-903.000
 70
    32
  0
VERTEX
  8
M62LXLIFT
 62
3
 10
6974.990
 20
-8205.832
 30
-903.000
 70
    32
  0
VERTEX
  8
M62LXLIFT
 62
3
 10
6983.013
 20
-8207.973
 30
-903.000
 70
    32
  0
VERTEX
  8
M62LXLIFT
 62
3
 10
6985.743
 20
-8201.042
 30
-903.000
 70
    32
  0
VERTEX
  8
M62LXLIFT
 62
3
 10
6982.159
 20
-8191.034
 30
-903.000
 70
    32
  0
VERTEX
  8
M62LXLIFT
 62
3
 10
6973.633
 20
-8182.608
 30
-903.000
 70
    32
  0
VERTEX
  8
M62LXLIFT
 62
3
 10
6966.024
 20
-8165.538
 30
-903.000
 70
    32
  0
VERTEX
  8
M62LXLIFT
 62
3
 10
6963.712
 20
-8154.152
 30
-903.000
 70
    32
  0
VERTEX
  8
M62LXLIFT
 62
3
 10
6948.127
 20
-8162.736
 30
-903.000
 70
    32
  0
VERTEX
  8
M62LXLIFT
 62
3
 10
6948.735
 20
-8177.129
 30
-903.000
 70
    32
  0
VERTEX
  8
M62LXLIFT
 62
3
 10
6944.401
 20
-8185.137
 30
-903.000
 70
    32
  0
VERTEX
  8
M62LXLIFT
 62
3
 10
6943.126
 20
-8194.920
 30
-903.000
 70
    32
  0
VERTEX
  8
M62LXLIFT
 62
3
 10
6935.784
 20
-8198.715
 30
-903.000
 70
    32
  0
VERTEX
  8
M62LXLIFT
 62
3
 10
6933.766
 20
-8206.756
 30
-903.000
 70
    32
  0
VERTEX
  8
M62LXLIFT
 62
3
 10
6918.722
 20
-8218.431
 30
-903.000
 70
    32
  0
VERTEX
  8
M62LXLIFT
 62
3
 10
6904.841
 20
-8218.551
 30
-903.000
 70
    32
  0
VERTEX
  8
M62LXLIFT
 62
3
 10
6889.906
 20
-8213.558
 30
-903.000
 70
    32
  0
SEQEND
  8
M62LXLIFT
  0
POLYLINE
  8
M62LXLIFT
 62
3
 66
     1
 70
     9
  0
VERTEX
  8
M62LXLIFT
 62
3
 10
6870.402
 20
-8194.789
 30
-851.000
 70
    32
  0
VERTEX
  8
M62LXLIFT
 62
3
 10
6881.197
 20
-8202.083
 30
-851.000
 70
    32
  0
VERTEX
  8
M62LXLIFT
 62
3
 10
6895.391
 20
-8203.008
 30
-851.000
 70
    32
  0
VERTEX
  8
M62LXLIFT
 62
3
 10
6914.891
 20
-8194.003
 30
-851.000
 70
    32
  0
VERTEX
  8
M62LXLIFT
 62
3
 10
6926.268
 20
-8189.245
 30
-851.000
 70
    32
  0
VERTEX
  8
M62LXLIFT
 62
3
 10
6940.532
 20
-8190.117
 30
-851.000
 70
    32
  0
VERTEX
  8
M62LXLIFT
 62
3
 10
6950.710
 20
-8187.828
 30
-851.000
 70
    32
  0
VERTEX
  8
M62LXLIFT
 62
3
 10
6964.976
 20
-8187.262
 30
-851.000
 70
    32
  0
VERTEX
  8
M62LXLIFT
 62
3
 10
6970.320
 20
-8187.026
 30
-851.000
 70
    32
  0
VERTEX
  8
M62LXLIFT
 62
3
 10
6972.686
 20
-8176.147
 30
-851.000
 70
    32
  0
VERTEX
  8
M62LXLIFT
 62
3
 10
6961.521
 20
-8164.053
 30
-851.000
 70
    32
  0
VERTEX
  8
M62LXLIFT
 62
3
 10
6949.633
 20
-8153.178
 30
-851.000
 70
    32
  0
VERTEX
  8
M62LXLIFT
 62
3
 10
6938.729
 20
-8147.183
 30
-851.000
 70
    32
  0
VERTEX
  8
M62LXLIFT
 62
3
 10
6931.669
 20
-8147.631
 30
-851.000
 70
    32
  0
VERTEX
  8
M62LXLIFT
 62
3
 10
6926.066
 20
-8149.834
 30
-851.000
 70
    32
  0
VERTEX
  8
M62LXLIFT
 62
3
 10
6921.315
 20
-8156.024
 30
-851.000
 70
    32
  0
VERTEX
  8
M62LXLIFT
 62
3
 10
6916.345
 20
-8167.687
 30
-851.000
 70
    32
  0
VERTEX
  8
M62LXLIFT
 62
3
 10
6912.441
 20
-8171.238
 30
-851.000
 70
    32
  0
VERTEX
  8
M62LXLIFT
 62
3
 10
6908.694
 20
-8171.684
 30
-851.000
 70
    32
  0
VERTEX
  8
M62LXLIFT
 62
3
 10
6891.982
 20
-8169.928
 30
-851.000
 70
    32
  0
VERTEX
  8
M62LXLIFT
 62
3
 10
6880.434
 20
-8187.416
 30
-851.000
 70
    32
  0
SEQEND
  8
M62LXLIFT
  0
POLYLINE
  8
M62LXLIFT
 62
3
 66
     1
 70
     9
  0
VERTEX
  8
M62LXLIFT
 62
3
 10
6969.192
 20
-8194.566
 30
-928.000
 70
    32
  0
VERTEX
  8
M62LXLIFT
 62
3
 10
6975.505
 20
-8203.644
 30
-928.000
 70
    32
  0
VERTEX
  8
M62LXLIFT
 62
3
 10
6973.471
 20
-8216.196
 30
-928.000
 70
    32
  0
VERTEX
  8
M62LXLIFT
 62
3
 10
6964.030
 20
-8233.928
 30
-928.000
 70
    32
  0
VERTEX
  8
M62LXLIFT
 62
3
 10
6954.360
 20
-8251.939
 30
-928.000
 70
    32
  0
VERTEX
  8
M62LXLIFT
 62
3
 10
6948.993
 20
-8260.302
 30
-928.000
 70
    32
  0
VERTEX
  8
M62LXLIFT
 62
3
 10
6939.281
 20
-8267.086
 30
-928.000
 70
    32
  0
VERTEX
  8
M62LXLIFT
 62
3
 10
6933.602
 20
-8274.588
 30
-928.000
 70
    32
  0
VERTEX
  8
M62LXLIFT
 62
3
 10
6943.104
 20
-8284.574
 30
-928.000
 70
    32
  0
VERTEX
  8
M62LXLIFT
 62
3
 10
6951.958
 20
-8281.488
 30
-928.000
 70
    32
  0
VERTEX
  8
M62LXLIFT
 62
3
 10
6962.817
 20
-8268.604
 30
-928.000
 70
    32
  0
VERTEX
  8
M62LXLIFT
 62
3
 10
6977.248
 20
-8253.173
 30
-928.000
 70
    32
  0
VERTEX
  8
M62LXLIFT
 62
3
 10
6983.371
 20
-8244.357
 30
-928.000
 70
    32
  0
VERTEX
  8
M62LXLIFT
 62
3
 10
6980.854
 20
-8238.032
 30
-928.000
 70
    32
  0
VERTEX
  8
M62LXLIFT
 62
3
 10
6981.776
 20
-8231.334
 30
-928.000
 70
    32
  0
VERTEX
  8
M62LXLIFT
 62
3
 10
6991.798
 20
-8217.324
 30
-928.000
 70
    32
  0
VERTEX
  8
M62LXLIFT
 62
3
 10
6997.759
 20
-8205.350
 30
-928.000
 70
    32
  0
VERTEX
  8
M62LXLIFT
 62
3
 10
6988.322
 20
-8188.102
 30
-928.000
 70
    32
  0
SEQEND
  8
M62LXLIFT
  0
POLYLINE
  8
M62LXLIFT
 62
3
 66
     1
 70
     9
  0
VERTEX
  8
M62LXLIFT
 62
3
 10
6958.372
 20
-8252.128
 30
-912.000
 70
    32
  0
VERTEX
  8
M62LXLIFT
 62
3
 10
6972.052
 20
-8237.371
 30
-912.000
 70
    32
  0
VERTEX
  8
M62LXLIFT
 62
3
 10
6979.653
 20
-8219.861
 30
-912.000
 70
    32
  0
VERTEX
  8
M62LXLIFT
 62
3
 10
6988.592
 20
-8208.726
 30
-912.000
 70
    32
  0
VERTEX
  8
M62LXLIFT
 62
3
 10
6986.104
 20
-8199.254
 30
-912.000
 70
    32
  0
VERTEX
  8
M62LXLIFT
 62
3
 10
6980.230
 20
-8195.902
 30
-912.000
 70
    32
  0
VERTEX
  8
M62LXLIFT
 62
3
 10
6967.326
 20
-8167.448
 30
-912.000
 70
    32
  0
VERTEX
  8
M62LXLIFT
 62
3
 10
6961.262
 20
-8168.326
 30
-912.000
 70
    32
  0
VERTEX
  8
M62LXLIFT
 62
3
 10
6965.434
 20
-8195.612
 30
-912.000
 70
    32
  0
VERTEX
  8
M62LXLIFT
 62
3
 10
6964.478
 20
-8206.501
 30
-912.000
 70
    32
  0
VERTEX
  8
M62LXLIFT
 62
3
 10
6958.797
 20
-8212.939
 30
-912.000
 70
    32
  0
VERTEX
  8
M62LXLIFT
 62
3
 10
6948.812
 20
-8216.923
 30
-912.000
 70
    32
  0
VERTEX
  8
M62LXLIFT
 62
3
 10
6941.083
 20
-8227.907
 30
-912.000
 70
    32
  0
VERTEX
  8
M62LXLIFT
 62
3
 10
6936.616
 20
-8232.754
 30
-912.000
 70
    32
  0
VERTEX
  8
M62LXLIFT
 62
3
 10
6941.264
 20
-8242.453
 30
-912.000
 70
    32
  0
VERTEX
  8
M62LXLIFT
 62
3
 10
6940.870
 20
-8251.476
 30
-912.000
 70
    32
  0
SEQEND
  8
M62LXLIFT
  0
POLYLINE
  8
M62LXLIFT
 62
3
 66
     1
 70
     9
  0
VERTEX
  8
M62LXLIFT
 62
3
 10
6995.535
 20
-8207.415
 30
-920.000
 70
    32
  0
VERTEX
  8
M62LXLIFT
 62
3
 10
6987.990
 20
-8215.056
 30
-920.000
 70
    32
  0
VERTEX
  8
M62LXLIFT
 62
3
 10
6981.680
 20
-8221.567
 30
-920.000
 70
    32
  0
VERTEX
  8
M62LXLIFT
 62
3
 10
6971.650
 20
-8242.376
 30
-920.000
 70
    32
  0
VERTEX
  8
M62LXLIFT
 62
3
 10
6955.155
 20
-8271.554
 30
-920.000
 70
    32
  0
VERTEX
  8
M62LXLIFT
 62
3
 10
6942.639
 20
-8270.986
 30
-920.000
 70
    32
  0
VERTEX
  8
M62LXLIFT
 62
3
 10
6934.059
 20
-8264.678
 30
-920.000
 70
    32
  0
VERTEX
  8
M62LXLIFT
 62
3
 10
6944.800
 20
-8240.402
 30
-920.000
 70
    32
  0
VERTEX
  8
M62LXLIFT
 62
3
 10
6947.815
 20
-8231.201
 30
-920.000
 70
    32
  0
VERTEX
  8
M62LXLIFT
 62
3
 10
6956.511
 20
-8217.589
 30
-920.000
 70
    32
  0
VERTEX
  8
M62LXLIFT
 62
3
 10
6960.877
 20
-8206.083
 30
-920.000
 70
    32
  0
VERTEX
  8
M62LXLIFT
 62
3
 10
6964.150
 20
-8197.673
 30
-920.000
 70
    32
  0
VERTEX
  8
M62LXLIFT
 62
3
 10
6968.367
 20
-8189.656
 30
-920.000
 70
    32
  0
VERTEX
  8
M62LXLIFT
 62
3
 10
6976.363
 20
-8187.349
 30
-920.000
 70
    32
  0
VERTEX
  8
M62LXLIFT
 62
3
 10
6985.576
 20
-8195.696
 30
-920.000
 70
    32
  0
SEQEND
  8
M62LXLIFT
  0
POLYLINE
  8
M62LXLIFT
 62
3
 66
     1
 70
     9
  0
VERTEX
  8
M62LXLIFT
 62
3
 10
6975.070
 20
-8192.257
 30
-953.000
 70
    32
  0
VERTEX
  8
M62LXLIFT
 62
3
 10
6979.182
 20
-8197.062
 30
-953.000
 70
    32
  0
VERTEX
  8
M62LXLIFT
 62
3
 10
6980.110
 20
-8200.878
 30
-953.000
 70
    32
  0
VERTEX
  8
M62LXLIFT
 62
3
 10
6992.996
 20
-8206.045
 30
-953.000
 70
    32
  0
VERTEX
  8
M62LXLIFT
 62
3
 10
6997.363
 20
-8201.937
 30
-953.000
 70
    32
  0
VERTEX
  8
M62LXLIFT
 62
3
 10
7003.618
 20
-8199.145
 30
-953.000
 70
    32
  0
VERTEX
  8
M62LXLIFT
 62
3
 10
7003.315
 20
-8192.535
 30
-953.000
 70
    32
  0
VERTEX
  8
M62LXLIFT
 62
3
 10
7006.915
 20
-8189.013
 30
-953.000
 70
    32
  0
VERTEX
  8
M62LXLIFT
 62
3
 10
7005.134
 20
-8185.958
 30
-953.000
 70
    32
  0
VERTEX
  8
M62LXLIFT
 62
3
 10
6996.248
 20
-8186.896
 30
-953.000
 70
    32
  0
VERTEX
  8
M62LXLIFT
 62
3
 10
6988.001
 20
-8190.547
 30
-953.000
 70
    32
  0
VERTEX
  8
M62LXLIFT
 62
3
 10
6982.414
 20
-8191.613
 30
-953.000
 70
    32
  0
SEQEND
  8
M62LXLIFT
  0
POLYLINE
  8
M62LXLIFT
 62
3
 66
     1
 70
     9
  0
VERTEX
  8
M62LXLIFT
 62
3
 10
6985.913
 20
-8237.015
 30
-945.000
 70
    32
  0
VERTEX
  8
M62LXLIFT
 62
3
 10
6992.468
 20
-8232.605
 30
-945.000
 70
    32
  0
VERTEX
  8
M62LXLIFT
 62
3
 10
7009.138
 20
-8229.763
 30
-945.000
 70
    32
  0
VERTEX
  8
M62LXLIFT
 62
3
 10
7013.785
 20
-8219.264
 30
-945.000
 70
    32
  0
VERTEX
  8
M62LXLIFT
 62
3
 10
7021.575
 20
-8190.044
 30
-945.000
 70
    32
  0
VERTEX
  8
M62LXLIFT
 62
3
 10
7017.940
 20
-8185.311
 30
-945.000
 70
    32
  0
VERTEX
  8
M62LXLIFT
 62
3
 10
6998.369
 20
-8189.381
 30
-945.000
 70
    32
  0
VERTEX
  8
M62LXLIFT
 62
3
 10
6979.091
 20
-8196.704
 30
-945.000
 70
    32
  0
VERTEX
  8
M62LXLIFT
 62
3
 10
6969.569
 20
-8205.097
 30
-945.000
 70
    32
  0
VERTEX
  8
M62LXLIFT
 62
3
 10
6971.592
 20
-8211.644
 30
-945.000
 70
    32
  0
VERTEX
  8
M62LXLIFT
 62
3
 10
6974.398
 20
-8221.522
 30
-945.000
 70
    32
  0
VERTEX
  8
M62LXLIFT
 62
3
 10
6981.147
 20
-8230.717
 30
-945.000
 70
    32
  0
SEQEND
  8
M62LXLIFT
  0
POLYLINE
  8
M62LXLIFT
 62
3
 66
     1
 70
     9
  0
VERTEX
  8
M62LXLIFT
 62
3
 10
6956.020
 20
-8284.938
 30
-936.000
 70
    32
  0
VERTEX
  8
M62LXLIFT
 62
3
 10
6993.558
 20
-8248.423
 30
-936.000
 70
    32
  0
VERTEX
  8
M62LXLIFT
 62
3
 10
6995.038
 20
-8235.417
 30
-936.000
 70
    32
  0
VERTEX
  8
M62LXLIFT
 62
3
 10
7011.158
 20
-8203.890
 30
-936.000
 70
    32
  0
VERTEX
  8
M62LXLIFT
 62
3
 10
7011.349
 20
-8196.648
 30
-936.000
 70
    32
  0
VERTEX
  8
M62LXLIFT
 62
3
 10
7018.790
 20
-8184.021
 30
-936.000
 70
    32
  0
VERTEX
  8
M62LXLIFT
 62
3
 10
7011.355
 20
-8183.864
 30
-936.000
 70
    32
  0
VERTEX
  8
M62LXLIFT
 62
3
 10
7005.829
 20
-8180.542
 30
-936.000
 70
    32
  0
VERTEX
  8
M62LXLIFT
 62
3
 10
6991.832
 20
-8181.109
 30
-936.000
 70
    32
  0
VERTEX
  8
M62LXLIFT
 62
3
 10
6985.010
 20
-8184.866
 30
-936.000
 70
    32
  0
VERTEX
  8
M62LXLIFT
 62
3
 10
6975.044
 20
-8186.153
 30
-936.000
 70
    32
  0
VERTEX
  8
M62LXLIFT
 62
3
 10
6975.701
 20
-8203.359
 30
-936.000
 70
    32
  0
VERTEX
  8
M62LXLIFT
 62
3
 10
6974.821
 20
-8223.347
 30
-936.000
 70
    32
  0
VERTEX
  8
M62LXLIFT
 62
3
 10
6955.089
 20
-8254.718
 30
-936.000
 70
    32
  0
VERTEX
  8
M62LXLIFT
 62
3
 10
6938.180
 20
-8274.597
 30
-936.000
 70
    32
  0
VERTEX
  8
M62LXLIFT
 62
3
 10
6947.682
 20
-8282.831
 30
-936.000
 70
    32
  0
SEQEND
  8
M62LXLIFT
  0
POLYLINE
  8
M62LXLIFT
 62
7
 66
     1
 70
     9
  0
VERTEX
  8
M62LXLIFT
 62
7
 10
6658.313
 20
-8635.776
 30
-872.000
 70
    32
  0
VERTEX
  8
M62LXLIFT
 62
7
 10
6674.498
 20
-8640.449
 30
-872.000
 70
    32
  0
VERTEX
  8
M62LXLIFT
 62
7
 10
6679.752
 20
-8635.919
 30
-872.000
 70
    32
  0
VERTEX
  8
M62LXLIFT
 62
7
 10
6687.652
 20
-8623.559
 30
-872.000
 70
    32
  0
VERTEX
  8
M62LXLIFT
 62
7
 10
6679.704
 20
-8610.888
 30
-872.000
 70
    32
  0
VERTEX
  8
M62LXLIFT
 62
7
 10
6674.810
 20
-8595.573
 30
-872.000
 70
    32
  0
VERTEX
  8
M62LXLIFT
 62
7
 10
6673.808
 20
-8576.540
 30
-872.000
 70
    32
  0
VERTEX
  8
M62LXLIFT
 62
7
 10
6673.714
 20
-8567.706
 30
-872.000
 70
    32
  0
VERTEX
  8
M62LXLIFT
 62
7
 10
6662.788
 20
-8533.540
 30
-872.000
 70
    32
  0
VERTEX
  8
M62LXLIFT
 62
7
 10
6655.436
 20
-8509.753
 30
-872.000
 70
    32
  0
VERTEX
  8
M62LXLIFT
 62
7
 10
6647.305
 20
-8502.938
 30
-872.000
 70
    32
  0
VERTEX
  8
M62LXLIFT
 62
7
 10
6640.310
 20
-8502.848
 30
-872.000
 70
    32
  0
VERTEX
  8
M62LXLIFT
 62
7
 10
6638.091
 20
-8508.047
 30
-872.000
 70
    32
  0
VERTEX
  8
M62LXLIFT
 62
7
 10
6640.170
 20
-8528.792
 30
-872.000
 70
    32
  0
VERTEX
  8
M62LXLIFT
 62
7
 10
6642.091
 20
-8545.699
 30
-872.000
 70
    32
  0
VERTEX
  8
M62LXLIFT
 62
7
 10
6644.003
 20
-8571.739
 30
-872.000
 70
    32
  0
VERTEX
  8
M62LXLIFT
 62
7
 10
6646.273
 20
-8592.009
 30
-872.000
 70
    32
  0
VERTEX
  8
M62LXLIFT
 62
7
 10
6647.191
 20
-8604.398
 30
-872.000
 70
    32
  0
VERTEX
  8
M62LXLIFT
 62
7
 10
6654.794
 20
-8618.210
 30
-872.000
 70
    32
  0
VERTEX
  8
M62LXLIFT
 62
7
 10
6663.740
 20
-8626.827
 30
-872.000
 70
    32
  0
SEQEND
  8
M62LXLIFT
  0
POLYLINE
  8
M62LXLIFT
 62
1
 66
     1
 70
     9
  0
VERTEX
  8
M62LXLIFT
 62
1
 10
6652.446
 20
-8650.015
 30
-822.000
 70
    32
  0
VERTEX
  8
M62LXLIFT
 62
1
 10
6647.642
 20
-8642.189
 30
-822.000
 70
    32
  0
VERTEX
  8
M62LXLIFT
 62
1
 10
6648.417
 20
-8633.838
 30
-822.000
 70
    32
  0
VERTEX
  8
M62LXLIFT
 62
1
 10
6649.909
 20
-8628.147
 30
-822.000
 70
    32
  0
VERTEX
  8
M62LXLIFT
 62
1
 10
6646.968
 20
-8616.118
 30
-822.000
 70
    32
  0
VERTEX
  8
M62LXLIFT
 62
1
 10
6643.914
 20
-8606.392
 30
-822.000
 70
    32
  0
VERTEX
  8
M62LXLIFT
 62
1
 10
6640.527
 20
-8589.610
 30
-822.000
 70
    32
  0
VERTEX
  8
M62LXLIFT
 62
1
 10
6635.000
 20
-8575.804
 30
-822.000
 70
    32
  0
VERTEX
  8
M62LXLIFT
 62
1
 10
6630.250
 20
-8566.608
 30
-822.000
 70
    32
  0
VERTEX
  8
M62LXLIFT
 62
1
 10
6628.053
 20
-8556.555
 30
-822.000
 70
    32
  0
VERTEX
  8
M62LXLIFT
 62
1
 10
6625.515
 20
-8528.927
 30
-822.000
 70
    32
  0
VERTEX
  8
M62LXLIFT
 62
1
 10
6627.766
 20
-8516.448
 30
-822.000
 70
    32
  0
VERTEX
  8
M62LXLIFT
 62
1
 10
6638.966
 20
-8517.468
 30
-822.000
 70
    32
  0
VERTEX
  8
M62LXLIFT
 62
1
 10
6642.880
 20
-8549.909
 30
-822.000
 70
    32
  0
VERTEX
  8
M62LXLIFT
 62
1
 10
6647.682
 20
-8550.534
 30
-822.000
 70
    32
  0
VERTEX
  8
M62LXLIFT
 62
1
 10
6647.933
 20
-8545.245
 30
-822.000
 70
    32
  0
VERTEX
  8
M62LXLIFT
 62
1
 10
6650.789
 20
-8530.528
 30
-822.000
 70
    32
  0
VERTEX
  8
M62LXLIFT
 62
1
 10
6656.156
 20
-8522.962
 30
-822.000
 70
    32
  0
VERTEX
  8
M62LXLIFT
 62
1
 10
6665.106
 20
-8518.180
 30
-822.000
 70
    32
  0
VERTEX
  8
M62LXLIFT
 62
1
 10
6666.620
 20
-8536.847
 30
-822.000
 70
    32
  0
VERTEX
  8
M62LXLIFT
 62
1
 10
6666.488
 20
-8575.835
 30
-822.000
 70
    32
  0
VERTEX
  8
M62LXLIFT
 62
1
 10
6670.359
 20
-8601.884
 30
-822.000
 70
    32
  0
VERTEX
  8
M62LXLIFT
 62
1
 10
6673.104
 20
-8623.592
 30
-822.000
 70
    32
  0
VERTEX
  8
M62LXLIFT
 62
1
 10
6670.563
 20
-8629.647
 30
-822.000
 70
    32
  0
VERTEX
  8
M62LXLIFT
 62
1
 10
6663.639
 20
-8647.716
 30
-822.000
 70
    32
  0
SEQEND
  8
M62LXLIFT
  0
POLYLINE
  8
M62LXLIFT
 62
7
 66
     1
 70
     9
  0
VERTEX
  8
M62LXLIFT
 62
7
 10
6662.639
 20
-8648.716
 30
-832.000
 70
    32
  0
VERTEX
  8
M62LXLIFT
 62
7
 10
6669.563
 20
-8630.647
 30
-832.000
 70
    32
  0
VERTEX
  8
M62LXLIFT
 62
7
 10
6672.104
 20
-8624.592
 30
-832.000
 70
    32
  0
VERTEX
  8
M62LXLIFT
 62
7
 10
6669.359
 20
-8602.884
 30
-832.000
 70
    32
  0
VERTEX
  8
M62LXLIFT
 62
7
 10
6665.488
 20
-8576.835
 30
-832.000
 70
    32
  0
VERTEX
  8
M62LXLIFT
 62
7
 10
6665.620
 20
-8537.847
 30
-832.000
 70
    32
  0
VERTEX
  8
M62LXLIFT
 62
7
 10
6664.106
 20
-8519.180
 30
-832.000
 70
    32
  0
VERTEX
  8
M62LXLIFT
 62
7
 10
6655.156
 20
-8523.962
 30
-832.000
 70
    32
  0
VERTEX
  8
M62LXLIFT
 62
7
 10
6649.789
 20
-8531.528
 30
-832.000
 70
    32
  0
VERTEX
  8
M62LXLIFT
 62
7
 10
6646.933
 20
-8546.245
 30
-832.000
 70
    32
  0
VERTEX
  8
M62LXLIFT
 62
7
 10
6646.682
 20
-8551.534
 30
-832.000
 70
    32
  0
VERTEX
  8
M62LXLIFT
 62
7
 10
6641.880
 20
-8550.909
 30
-832.000
 70
    32
  0
VERTEX
  8
M62LXLIFT
 62
7
 10
6637.966
 20
-8518.468
 30
-832.000
 70
    32
  0
VERTEX
  8
M62LXLIFT
 62
7
 10
6626.766
 20
-8517.448
 30
-832.000
 70
    32
  0
VERTEX
  8
M62LXLIFT
 62
7
 10
6624.515
 20
-8529.927
 30
-832.000
 70
    32
  0
VERTEX
  8
M62LXLIFT
 62
7
 10
6627.053
 20
-8557.555
 30
-832.000
 70
    32
  0
VERTEX
  8
M62LXLIFT
 62
7
 10
6629.250
 20
-8567.608
 30
-832.000
 70
    32
  0
VERTEX
  8
M62LXLIFT
 62
7
 10
6634.000
 20
-8576.804
 30
-832.000
 70
    32
  0
VERTEX
  8
M62LXLIFT
 62
7
 10
6639.527
 20
-8590.610
 30
-832.000
 70
    32
  0
VERTEX
  8
M62LXLIFT
 62
7
 10
6642.914
 20
-8607.392
 30
-832.000
 70
    32
  0
VERTEX
  8
M62LXLIFT
 62
7
 10
6645.968
 20
-8617.118
 30
-832.000
 70
    32
  0
VERTEX
  8
M62LXLIFT
 62
7
 10
6648.909
 20
-8629.147
 30
-832.000
 70
    32
  0
VERTEX
  8
M62LXLIFT
 62
7
 10
6647.417
 20
-8634.838
 30
-832.000
 70
    32
  0
VERTEX
  8
M62LXLIFT
 62
7
 10
6646.642
 20
-8643.189
 30
-832.000
 70
    32
  0
VERTEX
  8
M62LXLIFT
 62
7
 10
6651.446
 20
-8651.015
 30
-832.000
 70
    32
  0
SEQEND
  8
M62LXLIFT
  0
POLYLINE
  8
M62LXLIFT
 62
7
 66
     1
 70
     9
  0
VERTEX
  8
M62LXLIFT
 62
7
 10
6671.784
 20
-8659.988
 30
-901.000
 70
    32
  0
VERTEX
  8
M62LXLIFT
 62
7
 10
6685.340
 20
-8639.810
 30
-901.000
 70
    32
  0
VERTEX
  8
M62LXLIFT
 62
7
 10
6689.916
 20
-8629.768
 30
-901.000
 70
    32
  0
VERTEX
  8
M62LXLIFT
 62
7
 10
6696.220
 20
-8610.261
 30
-901.000
 70
    32
  0
VERTEX
  8
M62LXLIFT
 62
7
 10
6698.290
 20
-8602.291
 30
-901.000
 70
    32
  0
VERTEX
  8
M62LXLIFT
 62
7
 10
6691.997
 20
-8593.195
 30
-901.000
 70
    32
  0
VERTEX
  8
M62LXLIFT
 62
7
 10
6684.163
 20
-8594.408
 30
-901.000
 70
    32
  0
VERTEX
  8
M62LXLIFT
 62
7
 10
6683.088
 20
-8589.856
 30
-901.000
 70
    32
  0
VERTEX
  8
M62LXLIFT
 62
7
 10
6668.324
 20
-8569.457
 30
-901.000
 70
    32
  0
VERTEX
  8
M62LXLIFT
 62
7
 10
6660.784
 20
-8571.215
 30
-901.000
 70
    32
  0
VERTEX
  8
M62LXLIFT
 62
7
 10
6658.746
 20
-8587.784
 30
-901.000
 70
    32
  0
VERTEX
  8
M62LXLIFT
 62
7
 10
6657.622
 20
-8598.656
 30
-901.000
 70
    32
  0
VERTEX
  8
M62LXLIFT
 62
7
 10
6662.568
 20
-8628.501
 30
-901.000
 70
    32
  0
VERTEX
  8
M62LXLIFT
 62
7
 10
6664.708
 20
-8660.749
 30
-901.000
 70
    32
  0
SEQEND
  8
M62LXLIFT
  0
POLYLINE
  8
M62LXLIFT
 62
7
 66
     1
 70
     9
  0
VERTEX
  8
M62LXLIFT
 62
7
 10
6678.319
 20
-8646.003
 30
-852.000
 70
    32
  0
VERTEX
  8
M62LXLIFT
 62
7
 10
6680.416
 20
-8637.651
 30
-852.000
 70
    32
  0
VERTEX
  8
M62LXLIFT
 62
7
 10
6677.124
 20
-8624.154
 30
-852.000
 70
    32
  0
VERTEX
  8
M62LXLIFT
 62
7
 10
6678.553
 20
-8615.651
 30
-852.000
 70
    32
  0
VERTEX
  8
M62LXLIFT
 62
7
 10
6680.619
 20
-8606.108
 30
-852.000
 70
    32
  0
VERTEX
  8
M62LXLIFT
 62
7
 10
6678.232
 20
-8590.478
 30
-852.000
 70
    32
  0
VERTEX
  8
M62LXLIFT
 62
7
 10
6680.980
 20
-8570.021
 30
-852.000
 70
    32
  0
VERTEX
  8
M62LXLIFT
 62
7
 10
6679.953
 20
-8564.510
 30
-852.000
 70
    32
  0
VERTEX
  8
M62LXLIFT
 62
7
 10
6675.020
 20
-8557.798
 30
-852.000
 70
    32
  0
VERTEX
  8
M62LXLIFT
 62
7
 10
6675.905
 20
-8541.535
 30
-852.000
 70
    32
  0
VERTEX
  8
M62LXLIFT
 62
7
 10
6674.017
 20
-8529.722
 30
-852.000
 70
    32
  0
VERTEX
  8
M62LXLIFT
 62
7
 10
6671.076
 20
-8513.082
 30
-852.000
 70
    32
  0
VERTEX
  8
M62LXLIFT
 62
7
 10
6648.786
 20
-8515.720
 30
-852.000
 70
    32
  0
VERTEX
  8
M62LXLIFT
 62
7
 10
6647.565
 20
-8525.499
 30
-852.000
 70
    32
  0
VERTEX
  8
M62LXLIFT
 62
7
 10
6649.871
 20
-8541.744
 30
-852.000
 70
    32
  0
VERTEX
  8
M62LXLIFT
 62
7
 10
6650.907
 20
-8561.947
 30
-852.000
 70
    32
  0
VERTEX
  8
M62LXLIFT
 62
7
 10
6641.950
 20
-8574.462
 30
-852.000
 70
    32
  0
VERTEX
  8
M62LXLIFT
 62
7
 10
6647.755
 20
-8593.104
 30
-852.000
 70
    32
  0
VERTEX
  8
M62LXLIFT
 62
7
 10
6652.534
 20
-8610.985
 30
-852.000
 70
    32
  0
VERTEX
  8
M62LXLIFT
 62
7
 10
6655.111
 20
-8629.453
 30
-852.000
 70
    32
  0
VERTEX
  8
M62LXLIFT
 62
7
 10
6651.266
 20
-8632.074
 30
-852.000
 70
    32
  0
VERTEX
  8
M62LXLIFT
 62
7
 10
6656.503
 20
-8639.326
 30
-852.000
 70
    32
  0
VERTEX
  8
M62LXLIFT
 62
7
 10
6656.526
 20
-8649.144
 30
-852.000
 70
    32
  0
SEQEND
  8
M62LXLIFT
  0
POLYLINE
  8
M62LXLIFT
 62
7
 66
     1
 70
     9
  0
VERTEX
  8
M62LXLIFT
 62
7
 10
6692.476
 20
-8632.116
 30
-881.000
 70
    32
  0
VERTEX
  8
M62LXLIFT
 62
7
 10
6685.001
 20
-8587.374
 30
-881.000
 70
    32
  0
VERTEX
  8
M62LXLIFT
 62
7
 10
6666.969
 20
-8541.146
 30
-881.000
 70
    32
  0
VERTEX
  8
M62LXLIFT
 62
7
 10
6655.325
 20
-8506.020
 30
-881.000
 70
    32
  0
VERTEX
  8
M62LXLIFT
 62
7
 10
6646.802
 20
-8504.758
 30
-881.000
 70
    32
  0
VERTEX
  8
M62LXLIFT
 62
7
 10
6633.114
 20
-8515.288
 30
-881.000
 70
    32
  0
VERTEX
  8
M62LXLIFT
 62
7
 10
6639.741
 20
-8540.257
 30
-881.000
 70
    32
  0
VERTEX
  8
M62LXLIFT
 62
7
 10
6642.017
 20
-8563.674
 30
-881.000
 70
    32
  0
VERTEX
  8
M62LXLIFT
 62
7
 10
6641.910
 20
-8579.558
 30
-881.000
 70
    32
  0
VERTEX
  8
M62LXLIFT
 62
7
 10
6647.606
 20
-8595.570
 30
-881.000
 70
    32
  0
VERTEX
  8
M62LXLIFT
 62
7
 10
6652.535
 20
-8613.476
 30
-881.000
 70
    32
  0
VERTEX
  8
M62LXLIFT
 62
7
 10
6657.259
 20
-8625.283
 30
-881.000
 70
    32
  0
VERTEX
  8
M62LXLIFT
 62
7
 10
6662.975
 20
-8634.037
 30
-881.000
 70
    32
  0
VERTEX
  8
M62LXLIFT
 62
7
 10
6671.374
 20
-8651.305
 30
-881.000
 70
    32
  0
VERTEX
  8
M62LXLIFT
 62
7
 10
6677.385
 20
-8650.398
 30
-881.000
 70
    32
  0
VERTEX
  8
M62LXLIFT
 62
7
 10
6677.294
 20
-8640.370
 30
-881.000
 70
    32
  0
SEQEND
  8
M62LXLIFT
  0
POLYLINE
  8
M62LXLIFT
 62
7
 66
     1
 70
     9
  0
VERTEX
  8
M62LXLIFT
 62
7
 10
6670.751
 20
-8641.442
 30
-843.000
 70
    32
  0
VERTEX
  8
M62LXLIFT
 62
7
 10
6680.755
 20
-8608.093
 30
-843.000
 70
    32
  0
VERTEX
  8
M62LXLIFT
 62
7
 10
6681.143
 20
-8601.761
 30
-843.000
 70
    32
  0
VERTEX
  8
M62LXLIFT
 62
7
 10
6679.014
 20
-8570.091
 30
-843.000
 70
    32
  0
VERTEX
  8
M62LXLIFT
 62
7
 10
6679.838
 20
-8548.165
 30
-843.000
 70
    32
  0
VERTEX
  8
M62LXLIFT
 62
7
 10
6679.184
 20
-8538.994
 30
-843.000
 70
    32
  0
VERTEX
  8
M62LXLIFT
 62
7
 10
6682.097
 20
-8532.076
 30
-843.000
 70
    32
  0
VERTEX
  8
M62LXLIFT
 62
7
 10
6684.705
 20
-8522.862
 30
-843.000
 70
    32
  0
VERTEX
  8
M62LXLIFT
 62
7
 10
6679.109
 20
-8500.724
 30
-843.000
 70
    32
  0
VERTEX
  8
M62LXLIFT
 62
7
 10
6673.992
 20
-8502.385
 30
-843.000
 70
    32
  0
VERTEX
  8
M62LXLIFT
 62
7
 10
6670.830
 20
-8514.652
 30
-843.000
 70
    32
  0
VERTEX
  8
M62LXLIFT
 62
7
 10
6663.395
 20
-8522.563
 30
-843.000
 70
    32
  0
VERTEX
  8
M62LXLIFT
 62
7
 10
6656.878
 20
-8525.718
 30
-843.000
 70
    32
  0
VERTEX
  8
M62LXLIFT
 62
7
 10
6642.077
 20
-8519.194
 30
-843.000
 70
    32
  0
VERTEX
  8
M62LXLIFT
 62
7
 10
6640.015
 20
-8515.148
 30
-843.000
 70
    32
  0
VERTEX
  8
M62LXLIFT
 62
7
 10
6633.215
 20
-8517.199
 30
-843.000
 70
    32
  0
VERTEX
  8
M62LXLIFT
 62
7
 10
6628.502
 20
-8526.681
 30
-843.000
 70
    32
  0
VERTEX
  8
M62LXLIFT
 62
7
 10
6629.599
 20
-8537.606
 30
-843.000
 70
    32
  0
VERTEX
  8
M62LXLIFT
 62
7
 10
6630.544
 20
-8558.527
 30
-843.000
 70
    32
  0
VERTEX
  8
M62LXLIFT
 62
7
 10
6633.978
 20
-8571.533
 30
-843.000
 70
    32
  0
VERTEX
  8
M62LXLIFT
 62
7
 10
6642.211
 20
-8582.019
 30
-843.000
 70
    32
  0
VERTEX
  8
M62LXLIFT
 62
7
 10
6650.978
 20
-8624.389
 30
-843.000
 70
    32
  0
VERTEX
  8
M62LXLIFT
 62
7
 10
6647.985
 20
-8634.113
 30
-843.000
 70
    32
  0
VERTEX
  8
M62LXLIFT
 62
7
 10
6641.425
 20
-8641.144
 30
-843.000
 70
    32
  0
VERTEX
  8
M62LXLIFT
 62
7
 10
6645.121
 20
-8646.485
 30
-843.000
 70
    32
  0
VERTEX
  8
M62LXLIFT
 62
7
 10
6656.043
 20
-8651.650
 30
-843.000
 70
    32
  0
SEQEND
  8
M62LXLIFT
  0
POLYLINE
  8
M62LXLIFT
 62
7
 66
     1
 70
     9
  0
VERTEX
  8
M62LXLIFT
 62
7
 10
6659.730
 20
-8635.600
 30
-860.000
 70
    32
  0
VERTEX
  8
M62LXLIFT
 62
7
 10
6656.347
 20
-8641.112
 30
-860.000
 70
    32
  0
VERTEX
  8
M62LXLIFT
 62
7
 10
6656.251
 20
-8651.289
 30
-860.000
 70
    32
  0
VERTEX
  8
M62LXLIFT
 62
7
 10
6661.480
 20
-8652.448
 30
-860.000
 70
    32
  0
VERTEX
  8
M62LXLIFT
 62
7
 10
6671.106
 20
-8649.974
 30
-860.000
 70
    32
  0
VERTEX
  8
M62LXLIFT
 62
7
 10
6684.693
 20
-8633.436
 30
-860.000
 70
    32
  0
VERTEX
  8
M62LXLIFT
 62
7
 10
6679.511
 20
-8624.469
 30
-860.000
 70
    32
  0
VERTEX
  8
M62LXLIFT
 62
7
 10
6677.819
 20
-8617.567
 30
-860.000
 70
    32
  0
VERTEX
  8
M62LXLIFT
 62
7
 10
6681.199
 20
-8607.617
 30
-860.000
 70
    32
  0
VERTEX
  8
M62LXLIFT
 62
7
 10
6681.877
 20
-8599.764
 30
-860.000
 70
    32
  0
VERTEX
  8
M62LXLIFT
 62
7
 10
6678.751
 20
-8568.554
 30
-860.000
 70
    32
  0
VERTEX
  8
M62LXLIFT
 62
7
 10
6679.311
 20
-8549.247
 30
-860.000
 70
    32
  0
VERTEX
  8
M62LXLIFT
 62
7
 10
6678.024
 20
-8530.707
 30
-860.000
 70
    32
  0
VERTEX
  8
M62LXLIFT
 62
7
 10
6673.105
 20
-8520.648
 30
-860.000
 70
    32
  0
VERTEX
  8
M62LXLIFT
 62
7
 10
6659.855
 20
-8510.726
 30
-860.000
 70
    32
  0
VERTEX
  8
M62LXLIFT
 62
7
 10
6653.367
 20
-8506.657
 30
-860.000
 70
    32
  0
VERTEX
  8
M62LXLIFT
 62
7
 10
6648.089
 20
-8507.866
 30
-860.000
 70
    32
  0
VERTEX
  8
M62LXLIFT
 62
7
 10
6645.500
 20
-8518.978
 30
-860.000
 70
    32
  0
VERTEX
  8
M62LXLIFT
 62
7
 10
6640.338
 20
-8532.642
 30
-860.000
 70
    32
  0
VERTEX
  8
M62LXLIFT
 62
7
 10
6639.393
 20
-8552.025
 30
-860.000
 70
    32
  0
VERTEX
  8
M62LXLIFT
 62
7
 10
6644.125
 20
-8578.438
 30
-860.000
 70
    32
  0
VERTEX
  8
M62LXLIFT
 62
7
 10
6654.326
 20
-8604.602
 30
-860.000
 70
    32
  0
VERTEX
  8
M62LXLIFT
 62
7
 10
6658.176
 20
-8614.714
 30
-860.000
 70
    32
  0
VERTEX
  8
M62LXLIFT
 62
7
 10
6657.716
 20
-8620.844
 30
-860.000
 70
    32
  0
VERTEX
  8
M62LXLIFT
 62
7
 10
6655.084
 20
-8628.326
 30
-860.000
 70
    32
  0
SEQEND
  8
M62LXLIFT
  0
POLYLINE
  8
M62LXLIFT
 62
7
 66
     1
 70
     9
  0
VERTEX
  8
M62LXLIFT
 62
7
 10
6644.233
 20
-8533.273
 30
-843.000
 70
    32
  0
VERTEX
  8
M62LXLIFT
 62
7
 10
6646.662
 20
-8551.209
 30
-843.000
 70
    32
  0
VERTEX
  8
M62LXLIFT
 62
7
 10
6650.436
 20
-8560.005
 30
-843.000
 70
    32
  0
VERTEX
  8
M62LXLIFT
 62
7
 10
6654.251
 20
-8563.609
 30
-843.000
 70
    32
  0
VERTEX
  8
M62LXLIFT
 62
7
 10
6659.879
 20
-8562.771
 30
-843.000
 70
    32
  0
VERTEX
  8
M62LXLIFT
 62
7
 10
6656.290
 20
-8536.594
 30
-843.000
 70
    32
  0
SEQEND
  8
M62LXLIFT
  0
POLYLINE
  8
M62LXLIFT
 62
7
 66
     1
 70
     9
  0
VERTEX
  8
M62LXLIFT
 62
7
 10
6682.848
 20
-8592.270
 30
-891.000
 70
    32
  0
VERTEX
  8
M62LXLIFT
 62
7
 10
6676.783
 20
-8573.357
 30
-891.000
 70
    32
  0
VERTEX
  8
M62LXLIFT
 62
7
 10
6680.582
 20
-8534.990
 30
-891.000
 70
    32
  0
VERTEX
  8
M62LXLIFT
 62
7
 10
6682.302
 20
-8528.658
 30
-891.000
 70
    32
  0
VERTEX
  8
M62LXLIFT
 62
7
 10
6676.954
 20
-8520.499
 30
-891.000
 70
    32
  0
VERTEX
  8
M62LXLIFT
 62
7
 10
6665.480
 20
-8522.303
 30
-891.000
 70
    32
  0
VERTEX
  8
M62LXLIFT
 62
7
 10
6659.880
 20
-8537.354
 30
-891.000
 70
    32
  0
VERTEX
  8
M62LXLIFT
 62
7
 10
6658.171
 20
-8565.054
 30
-891.000
 70
    32
  0
VERTEX
  8
M62LXLIFT
 62
7
 10
6658.233
 20
-8599.211
 30
-891.000
 70
    32
  0
VERTEX
  8
M62LXLIFT
 62
7
 10
6657.984
 20
-8615.403
 30
-891.000
 70
    32
  0
VERTEX
  8
M62LXLIFT
 62
7
 10
6664.364
 20
-8638.246
 30
-891.000
 70
    32
  0
VERTEX
  8
M62LXLIFT
 62
7
 10
6665.516
 20
-8660.842
 30
-891.000
 70
    32
  0
VERTEX
  8
M62LXLIFT
 62
7
 10
6674.973
 20
-8656.055
 30
-891.000
 70
    32
  0
VERTEX
  8
M62LXLIFT
 62
7
 10
6685.695
 20
-8642.427
 30
-891.000
 70
    32
  0
VERTEX
  8
M62LXLIFT
 62
7
 10
6691.486
 20
-8636.990
 30
-891.000
 70
    32
  0
VERTEX
  8
M62LXLIFT
 62
7
 10
6693.860
 20
-8612.517
 30
-891.000
 70
    32
  0
VERTEX
  8
M62LXLIFT
 62
7
 10
6692.791
 20
-8608.605
 30
-891.000
 70
    32
  0
VERTEX
  8
M62LXLIFT
 62
7
 10
6697.497
 20
-8591.922
 30
-891.000
 70
    32
  0
VERTEX
  8
M62LXLIFT
 62
7
 10
6694.902
 20
-8585.975
 30
-891.000
 70
    32
  0
SEQEND
  8
M62LXLIFT
  0
POLYLINE
  8
M62LXLIFT
 62
7
 66
     1
 70
     9
  0
VERTEX
  8
M62LXLIFT
 62
7
 10
6664.348
 20
-8592.788
 30
-908.000
 70
    32
  0
VERTEX
  8
M62LXLIFT
 62
7
 10
6671.425
 20
-8625.032
 30
-908.000
 70
    32
  0
VERTEX
  8
M62LXLIFT
 62
7
 10
6674.289
 20
-8653.207
 30
-908.000
 70
    32
  0
VERTEX
  8
M62LXLIFT
 62
7
 10
6677.584
 20
-8656.652
 30
-908.000
 70
    32
  0
VERTEX
  8
M62LXLIFT
 62
7
 10
6683.824
 20
-8655.860
 30
-908.000
 70
    32
  0
VERTEX
  8
M62LXLIFT
 62
7
 10
6692.885
 20
-8628.843
 30
-908.000
 70
    32
  0
VERTEX
  8
M62LXLIFT
 62
7
 10
6690.707
 20
-8622.667
 30
-908.000
 70
    32
  0
VERTEX
  8
M62LXLIFT
 62
7
 10
6699.158
 20
-8611.905
 30
-908.000
 70
    32
  0
VERTEX
  8
M62LXLIFT
 62
7
 10
6696.475
 20
-8598.276
 30
-908.000
 70
    32
  0
VERTEX
  8
M62LXLIFT
 62
7
 10
6692.819
 20
-8595.659
 30
-908.000
 70
    32
  0
VERTEX
  8
M62LXLIFT
 62
7
 10
6692.657
 20
-8591.256
 30
-908.000
 70
    32
  0
VERTEX
  8
M62LXLIFT
 62
7
 10
6679.798
 20
-8595.669
 30
-908.000
 70
    32
  0
VERTEX
  8
M62LXLIFT
 62
7
 10
6674.498
 20
-8593.645
 30
-908.000
 70
    32
  0
VERTEX
  8
M62LXLIFT
 62
7
 10
6670.187
 20
-8590.314
 30
-908.000
 70
    32
  0
SEQEND
  8
M62LXLIFT
  0
POLYLINE
  8
M62LXLIFT
 62
7
 66
     1
 70
     9
  0
VERTEX
  8
M62LXLIFT
 62
7
 10
6690.074
 20
-8666.242
 30
-919.000
 70
    32
  0
VERTEX
  8
M62LXLIFT
 62
7
 10
6690.920
 20
-8661.040
 30
-919.000
 70
    32
  0
VERTEX
  8
M62LXLIFT
 62
7
 10
6695.542
 20
-8657.410
 30
-919.000
 70
    32
  0
VERTEX
  8
M62LXLIFT
 62
7
 10
6692.196
 20
-8650.072
 30
-919.000
 70
    32
  0
VERTEX
  8
M62LXLIFT
 62
7
 10
6701.739
 20
-8603.359
 30
-919.000
 70
    32
  0
VERTEX
  8
M62LXLIFT
 62
7
 10
6690.606
 20
-8596.103
 30
-919.000
 70
    32
  0
VERTEX
  8
M62LXLIFT
 62
7
 10
6687.500
 20
-8591.748
 30
-919.000
 70
    32
  0
VERTEX
  8
M62LXLIFT
 62
7
 10
6686.851
 20
-8584.816
 30
-919.000
 70
    32
  0
VERTEX
  8
M62LXLIFT
 62
7
 10
6684.966
 20
-8583.592
 30
-919.000
 70
    32
  0
VERTEX
  8
M62LXLIFT
 62
7
 10
6671.567
 20
-8593.047
 30
-919.000
 70
    32
  0
VERTEX
  8
M62LXLIFT
 62
7
 10
6675.730
 20
-8599.129
 30
-919.000
 70
    32
  0
VERTEX
  8
M62LXLIFT
 62
7
 10
6669.293
 20
-8603.990
 30
-919.000
 70
    32
  0
VERTEX
  8
M62LXLIFT
 62
7
 10
6670.876
 20
-8617.207
 30
-919.000
 70
    32
  0
VERTEX
  8
M62LXLIFT
 62
7
 10
6678.105
 20
-8642.057
 30
-919.000
 70
    32
  0
VERTEX
  8
M62LXLIFT
 62
7
 10
6677.998
 20
-8667.746
 30
-919.000
 70
    32
  0
VERTEX
  8
M62LXLIFT
 62
7
 10
6680.488
 20
-8672.447
 30
-919.000
 70
    32
  0
SEQEND
  8
M62LXLIFT
  0
POLYLINE
  8
M62LXLIFT
 62
7
 66
     1
 70
     9
  0
VERTEX
  8
M62LXLIFT
 62
7
 10
6695.720
 20
-8672.151
 30
-929.000
 70
    32
  0
VERTEX
  8
M62LXLIFT
 62
7
 10
6690.359
 20
-8674.936
 30
-929.000
 70
    32
  0
VERTEX
  8
M62LXLIFT
 62
7
 10
6688.388
 20
-8672.139
 30
-929.000
 70
    32
  0
VERTEX
  8
M62LXLIFT
 62
7
 10
6687.565
 20
-8667.504
 30
-929.000
 70
    32
  0
VERTEX
  8
M62LXLIFT
 62
7
 10
6685.627
 20
-8652.550
 30
-929.000
 70
    32
  0
VERTEX
  8
M62LXLIFT
 62
7
 10
6683.156
 20
-8626.297
 30
-929.000
 70
    32
  0
VERTEX
  8
M62LXLIFT
 62
7
 10
6677.280
 20
-8621.922
 30
-929.000
 70
    32
  0
VERTEX
  8
M62LXLIFT
 62
7
 10
6678.594
 20
-8613.840
 30
-929.000
 70
    32
  0
VERTEX
  8
M62LXLIFT
 62
7
 10
6676.167
 20
-8585.587
 30
-929.000
 70
    32
  0
VERTEX
  8
M62LXLIFT
 62
7
 10
6678.396
 20
-8581.088
 30
-929.000
 70
    32
  0
VERTEX
  8
M62LXLIFT
 62
7
 10
6684.100
 20
-8580.234
 30
-929.000
 70
    32
  0
VERTEX
  8
M62LXLIFT
 62
7
 10
6692.232
 20
-8590.583
 30
-929.000
 70
    32
  0
VERTEX
  8
M62LXLIFT
 62
7
 10
6694.916
 20
-8599.190
 30
-929.000
 70
    32
  0
VERTEX
  8
M62LXLIFT
 62
7
 10
6705.243
 20
-8596.320
 30
-929.000
 70
    32
  0
VERTEX
  8
M62LXLIFT
 62
7
 10
6710.334
 20
-8608.165
 30
-929.000
 70
    32
  0
VERTEX
  8
M62LXLIFT
 62
7
 10
6711.061
 20
-8623.254
 30
-929.000
 70
    32
  0
VERTEX
  8
M62LXLIFT
 62
7
 10
6706.064
 20
-8639.758
 30
-929.000
 70
    32
  0
VERTEX
  8
M62LXLIFT
 62
7
 10
6703.997
 20
-8655.941
 30
-929.000
 70
    32
  0
VERTEX
  8
M62LXLIFT
 62
7
 10
6705.181
 20
-8666.647
 30
-929.000
 70
    32
  0
SEQEND
  8
M62LXLIFT
  0
POLYLINE
  8
M62LXLIFT
 62
1
 66
     1
 70
     9
  0
VERTEX
  8
M62LXLIFT
 62
1
 10
6774.015
 20
-8652.857
 30
-831.000
 70
    32
  0
VERTEX
  8
M62LXLIFT
 62
1
 10
6755.658
 20
-8633.749
 30
-831.000
 70
    32
  0
VERTEX
  8
M62LXLIFT
 62
1
 10
6748.147
 20
-8617.228
 30
-831.000
 70
    32
  0
VERTEX
  8
M62LXLIFT
 62
1
 10
6738.252
 20
-8608.763
 30
-831.000
 70
    32
  0
VERTEX
  8
M62LXLIFT
 62
1
 10
6728.063
 20
-8594.809
 30
-831.000
 70
    32
  0
VERTEX
  8
M62LXLIFT
 62
1
 10
6747.693
 20
-8582.099
 30
-831.000
 70
    32
  0
VERTEX
  8
M62LXLIFT
 62
1
 10
6762.479
 20
-8603.899
 30
-831.000
 70
    32
  0
VERTEX
  8
M62LXLIFT
 62
1
 10
6765.594
 20
-8622.746
 30
-831.000
 70
    32
  0
VERTEX
  8
M62LXLIFT
 62
1
 10
6767.997
 20
-8630.159
 30
-831.000
 70
    32
  0
VERTEX
  8
M62LXLIFT
 62
1
 10
6780.040
 20
-8649.195
 30
-831.000
 70
    32
  0
SEQEND
  8
M62LXLIFT
  0
POLYLINE
  8
M62LXLIFT
 62
6
 66
     1
 70
     9
  0
VERTEX
  8
M62LXLIFT
 62
6
 10
6779.040
 20
-8650.195
 30
-841.000
 70
    32
  0
VERTEX
  8
M62LXLIFT
 62
6
 10
6766.997
 20
-8631.159
 30
-841.000
 70
    32
  0
VERTEX
  8
M62LXLIFT
 62
6
 10
6764.594
 20
-8623.746
 30
-841.000
 70
    32
  0
VERTEX
  8
M62LXLIFT
 62
6
 10
6761.479
 20
-8604.899
 30
-841.000
 70
    32
  0
VERTEX
  8
M62LXLIFT
 62
6
 10
6746.693
 20
-8583.099
 30
-841.000
 70
    32
  0
VERTEX
  8
M62LXLIFT
 62
6
 10
6727.063
 20
-8595.809
 30
-841.000
 70
    32
  0
VERTEX
  8
M62LXLIFT
 62
6
 10
6737.252
 20
-8609.763
 30
-841.000
 70
    32
  0
VERTEX
  8
M62LXLIFT
 62
6
 10
6747.147
 20
-8618.228
 30
-841.000
 70
    32
  0
VERTEX
  8
M62LXLIFT
 62
6
 10
6754.658
 20
-8634.749
 30
-841.000
 70
    32
  0
VERTEX
  8
M62LXLIFT
 62
6
 10
6773.015
 20
-8653.857
 30
-841.000
 70
    32
  0
SEQEND
  8
M62LXLIFT
  0
POLYLINE
  8
M62LXLIFT
 62
6
 66
     1
 70
     9
  0
VERTEX
  8
M62LXLIFT
 62
6
 10
6762.998
 20
-8580.341
 30
-868.000
 70
    32
  0
VERTEX
  8
M62LXLIFT
 62
6
 10
6771.798
 20
-8591.378
 30
-868.000
 70
    32
  0
VERTEX
  8
M62LXLIFT
 62
6
 10
6775.917
 20
-8602.332
 30
-868.000
 70
    32
  0
VERTEX
  8
M62LXLIFT
 62
6
 10
6782.959
 20
-8616.129
 30
-868.000
 70
    32
  0
VERTEX
  8
M62LXLIFT
 62
6
 10
6789.973
 20
-8635.115
 30
-868.000
 70
    32
  0
VERTEX
  8
M62LXLIFT
 62
6
 10
6789.107
 20
-8640.939
 30
-868.000
 70
    32
  0
VERTEX
  8
M62LXLIFT
 62
6
 10
6779.871
 20
-8641.228
 30
-868.000
 70
    32
  0
VERTEX
  8
M62LXLIFT
 62
6
 10
6777.523
 20
-8634.210
 30
-868.000
 70
    32
  0
VERTEX
  8
M62LXLIFT
 62
6
 10
6768.461
 20
-8623.262
 30
-868.000
 70
    32
  0
VERTEX
  8
M62LXLIFT
 62
6
 10
6757.102
 20
-8612.185
 30
-868.000
 70
    32
  0
VERTEX
  8
M62LXLIFT
 62
6
 10
6740.218
 20
-8593.088
 30
-868.000
 70
    32
  0
VERTEX
  8
M62LXLIFT
 62
6
 10
6737.517
 20
-8585.458
 30
-868.000
 70
    32
  0
VERTEX
  8
M62LXLIFT
 62
6
 10
6753.489
 20
-8578.528
 30
-868.000
 70
    32
  0
SEQEND
  8
M62LXLIFT
  0
POLYLINE
  8
M62LXLIFT
 62
6
 66
     1
 70
     9
  0
VERTEX
  8
M62LXLIFT
 62
6
 10
6793.508
 20
-8662.876
 30
-850.000
 70
    32
  0
VERTEX
  8
M62LXLIFT
 62
6
 10
6797.150
 20
-8660.854
 30
-850.000
 70
    32
  0
VERTEX
  8
M62LXLIFT
 62
6
 10
6790.760
 20
-8650.950
 30
-850.000
 70
    32
  0
VERTEX
  8
M62LXLIFT
 62
6
 10
6785.938
 20
-8640.064
 30
-850.000
 70
    32
  0
VERTEX
  8
M62LXLIFT
 62
6
 10
6782.284
 20
-8625.519
 30
-850.000
 70
    32
  0
VERTEX
  8
M62LXLIFT
 62
6
 10
6770.478
 20
-8598.775
 30
-850.000
 70
    32
  0
VERTEX
  8
M62LXLIFT
 62
6
 10
6763.022
 20
-8593.670
 30
-850.000
 70
    32
  0
VERTEX
  8
M62LXLIFT
 62
6
 10
6762.779
 20
-8583.136
 30
-850.000
 70
    32
  0
VERTEX
  8
M62LXLIFT
 62
6
 10
6743.246
 20
-8575.257
 30
-850.000
 70
    32
  0
VERTEX
  8
M62LXLIFT
 62
6
 10
6736.234
 20
-8575.337
 30
-850.000
 70
    32
  0
VERTEX
  8
M62LXLIFT
 62
6
 10
6730.731
 20
-8578.678
 30
-850.000
 70
    32
  0
VERTEX
  8
M62LXLIFT
 62
6
 10
6737.006
 20
-8590.880
 30
-850.000
 70
    32
  0
VERTEX
  8
M62LXLIFT
 62
6
 10
6751.062
 20
-8604.290
 30
-850.000
 70
    32
  0
VERTEX
  8
M62LXLIFT
 62
6
 10
6754.933
 20
-8608.612
 30
-850.000
 70
    32
  0
VERTEX
  8
M62LXLIFT
 62
6
 10
6756.447
 20
-8619.939
 30
-850.000
 70
    32
  0
VERTEX
  8
M62LXLIFT
 62
6
 10
6758.959
 20
-8626.520
 30
-850.000
 70
    32
  0
VERTEX
  8
M62LXLIFT
 62
6
 10
6772.978
 20
-8645.927
 30
-850.000
 70
    32
  0
VERTEX
  8
M62LXLIFT
 62
6
 10
6782.023
 20
-8662.744
 30
-850.000
 70
    32
  0
SEQEND
  8
M62LXLIFT
  0
POLYLINE
  8
M62LXLIFT
 62
6
 66
     1
 70
     9
  0
VERTEX
  8
M62LXLIFT
 62
6
 10
6718.654
 20
-8586.213
 30
-860.000
 70
    32
  0
VERTEX
  8
M62LXLIFT
 62
6
 10
6746.583
 20
-8601.175
 30
-860.000
 70
    32
  0
VERTEX
  8
M62LXLIFT
 62
6
 10
6754.807
 20
-8620.215
 30
-860.000
 70
    32
  0
VERTEX
  8
M62LXLIFT
 62
6
 10
6779.168
 20
-8655.042
 30
-860.000
 70
    32
  0
VERTEX
  8
M62LXLIFT
 62
6
 10
6788.388
 20
-8664.206
 30
-860.000
 70
    32
  0
VERTEX
  8
M62LXLIFT
 62
6
 10
6797.015
 20
-8660.731
 30
-860.000
 70
    32
  0
VERTEX
  8
M62LXLIFT
 62
6
 10
6797.482
 20
-8656.039
 30
-860.000
 70
    32
  0
VERTEX
  8
M62LXLIFT
 62
6
 10
6786.842
 20
-8636.320
 30
-860.000
 70
    32
  0
VERTEX
  8
M62LXLIFT
 62
6
 10
6780.372
 20
-8617.252
 30
-860.000
 70
    32
  0
VERTEX
  8
M62LXLIFT
 62
6
 10
6768.467
 20
-8587.746
 30
-860.000
 70
    32
  0
VERTEX
  8
M62LXLIFT
 62
6
 10
6764.918
 20
-8583.173
 30
-860.000
 70
    32
  0
VERTEX
  8
M62LXLIFT
 62
6
 10
6753.492
 20
-8578.607
 30
-860.000
 70
    32
  0
VERTEX
  8
M62LXLIFT
 62
6
 10
6729.382
 20
-8567.564
 30
-860.000
 70
    32
  0
VERTEX
  8
M62LXLIFT
 62
6
 10
6724.836
 20
-8567.428
 30
-860.000
 70
    32
  0
SEQEND
  8
M62LXLIFT
  0
POLYLINE
  8
M62LXLIFT
 62
6
 66
     1
 70
     9
  0
VERTEX
  8
M62LXLIFT
 62
6
 10
6733.829
 20
-8588.235
 30
-878.000
 70
    32
  0
VERTEX
  8
M62LXLIFT
 62
6
 10
6739.118
 20
-8594.237
 30
-878.000
 70
    32
  0
VERTEX
  8
M62LXLIFT
 62
6
 10
6763.805
 20
-8620.308
 30
-878.000
 70
    32
  0
VERTEX
  8
M62LXLIFT
 62
6
 10
6779.306
 20
-8638.262
 30
-878.000
 70
    32
  0
VERTEX
  8
M62LXLIFT
 62
6
 10
6787.166
 20
-8633.109
 30
-878.000
 70
    32
  0
VERTEX
  8
M62LXLIFT
 62
6
 10
6781.312
 20
-8616.887
 30
-878.000
 70
    32
  0
VERTEX
  8
M62LXLIFT
 62
6
 10
6779.735
 20
-8608.966
 30
-878.000
 70
    32
  0
VERTEX
  8
M62LXLIFT
 62
6
 10
6767.054
 20
-8589.656
 30
-878.000
 70
    32
  0
VERTEX
  8
M62LXLIFT
 62
6
 10
6752.005
 20
-8586.286
 30
-878.000
 70
    32
  0
VERTEX
  8
M62LXLIFT
 62
6
 10
6748.773
 20
-8583.453
 30
-878.000
 70
    32
  0
VERTEX
  8
M62LXLIFT
 62
6
 10
6745.784
 20
-8579.339
 30
-878.000
 70
    32
  0
SEQEND
  8
M62LXLIFT
  0
POLYLINE
  8
M62LXLIFT
 62
6
 66
     1
 70
     9
  0
VERTEX
  8
M62LXLIFT
 62
6
 10
6802.864
 20
-8651.613
 30
-889.000
 70
    32
  0
VERTEX
  8
M62LXLIFT
 62
6
 10
6776.105
 20
-8603.924
 30
-889.000
 70
    32
  0
VERTEX
  8
M62LXLIFT
 62
6
 10
6760.883
 20
-8581.570
 30
-889.000
 70
    32
  0
VERTEX
  8
M62LXLIFT
 62
6
 10
6748.480
 20
-8581.988
 30
-889.000
 70
    32
  0
VERTEX
  8
M62LXLIFT
 62
6
 10
6734.987
 20
-8590.897
 30
-889.000
 70
    32
  0
VERTEX
  8
M62LXLIFT
 62
6
 10
6743.440
 20
-8604.074
 30
-889.000
 70
    32
  0
VERTEX
  8
M62LXLIFT
 62
6
 10
6758.822
 20
-8615.674
 30
-889.000
 70
    32
  0
VERTEX
  8
M62LXLIFT
 62
6
 10
6776.378
 20
-8636.168
 30
-889.000
 70
    32
  0
VERTEX
  8
M62LXLIFT
 62
6
 10
6792.582
 20
-8658.224
 30
-889.000
 70
    32
  0
SEQEND
  8
M62LXLIFT
  0
POLYLINE
  8
M62LXLIFT
 62
6
 66
     1
 70
     9
  0
VERTEX
  8
M62LXLIFT
 62
6
 10
6804.403
 20
-8671.227
 30
-899.000
 70
    32
  0
VERTEX
  8
M62LXLIFT
 62
6
 10
6797.721
 20
-8649.214
 30
-899.000
 70
    32
  0
VERTEX
  8
M62LXLIFT
 62
6
 10
6788.076
 20
-8632.340
 30
-899.000
 70
    32
  0
VERTEX
  8
M62LXLIFT
 62
6
 10
6781.159
 20
-8619.451
 30
-899.000
 70
    32
  0
VERTEX
  8
M62LXLIFT
 62
6
 10
6768.264
 20
-8594.940
 30
-899.000
 70
    32
  0
VERTEX
  8
M62LXLIFT
 62
6
 10
6745.028
 20
-8590.086
 30
-899.000
 70
    32
  0
VERTEX
  8
M62LXLIFT
 62
6
 10
6741.010
 20
-8598.079
 30
-899.000
 70
    32
  0
VERTEX
  8
M62LXLIFT
 62
6
 10
6734.706
 20
-8612.128
 30
-899.000
 70
    32
  0
VERTEX
  8
M62LXLIFT
 62
6
 10
6742.752
 20
-8624.183
 30
-899.000
 70
    32
  0
VERTEX
  8
M62LXLIFT
 62
6
 10
6761.631
 20
-8621.674
 30
-899.000
 70
    32
  0
VERTEX
  8
M62LXLIFT
 62
6
 10
6787.887
 20
-8663.801
 30
-899.000
 70
    32
  0
VERTEX
  8
M62LXLIFT
 62
6
 10
6796.013
 20
-8676.998
 30
-899.000
 70
    32
  0
SEQEND
  8
M62LXLIFT
  0
POLYLINE
  8
M62LXLIFT
 62
6
 66
     1
 70
     9
  0
VERTEX
  8
M62LXLIFT
 62
6
 10
6808.817
 20
-8675.091
 30
-910.000
 70
    32
  0
VERTEX
  8
M62LXLIFT
 62
6
 10
6799.736
 20
-8648.462
 30
-910.000
 70
    32
  0
VERTEX
  8
M62LXLIFT
 62
6
 10
6798.493
 20
-8632.961
 30
-910.000
 70
    32
  0
VERTEX
  8
M62LXLIFT
 62
6
 10
6788.808
 20
-8627.220
 30
-910.000
 70
    32
  0
VERTEX
  8
M62LXLIFT
 62
6
 10
6778.356
 20
-8614.117
 30
-910.000
 70
    32
  0
VERTEX
  8
M62LXLIFT
 62
6
 10
6768.151
 20
-8599.168
 30
-910.000
 70
    32
  0
VERTEX
  8
M62LXLIFT
 62
6
 10
6752.090
 20
-8594.765
 30
-910.000
 70
    32
  0
VERTEX
  8
M62LXLIFT
 62
6
 10
6745.233
 20
-8591.281
 30
-910.000
 70
    32
  0
VERTEX
  8
M62LXLIFT
 62
6
 10
6740.361
 20
-8594.009
 30
-910.000
 70
    32
  0
VERTEX
  8
M62LXLIFT
 62
6
 10
6743.516
 20
-8605.511
 30
-910.000
 70
    32
  0
VERTEX
  8
M62LXLIFT
 62
6
 10
6750.793
 20
-8614.747
 30
-910.000
 70
    32
  0
VERTEX
  8
M62LXLIFT
 62
6
 10
6763.683
 20
-8623.670
 30
-910.000
 70
    32
  0
VERTEX
  8
M62LXLIFT
 62
6
 10
6773.966
 20
-8637.565
 30
-910.000
 70
    32
  0
VERTEX
  8
M62LXLIFT
 62
6
 10
6790.992
 20
-8655.805
 30
-910.000
 70
    32
  0
VERTEX
  8
M62LXLIFT
 62
6
 10
6794.105
 20
-8670.430
 30
-910.000
 70
    32
  0
VERTEX
  8
M62LXLIFT
 62
6
 10
6798.427
 20
-8676.955
 30
-910.000
 70
    32
  0
SEQEND
  8
M62LXLIFT
  0
POLYLINE
  8
M62LXLIFT
 62
6
 66
     1
 70
     9
  0
VERTEX
  8
M62LXLIFT
 62
6
 10
6790.716
 20
-8677.386
 30
-918.000
 70
    32
  0
VERTEX
  8
M62LXLIFT
 62
6
 10
6800.845
 20
-8666.748
 30
-918.000
 70
    32
  0
VERTEX
  8
M62LXLIFT
 62
6
 10
6803.579
 20
-8646.094
 30
-918.000
 70
    32
  0
VERTEX
  8
M62LXLIFT
 62
6
 10
6794.631
 20
-8635.154
 30
-918.000
 70
    32
  0
VERTEX
  8
M62LXLIFT
 62
6
 10
6771.692
 20
-8612.201
 30
-918.000
 70
    32
  0
VERTEX
  8
M62LXLIFT
 62
6
 10
6774.454
 20
-8601.770
 30
-918.000
 70
    32
  0
VERTEX
  8
M62LXLIFT
 62
6
 10
6764.359
 20
-8591.786
 30
-918.000
 70
    32
  0
VERTEX
  8
M62LXLIFT
 62
6
 10
6757.928
 20
-8595.771
 30
-918.000
 70
    32
  0
VERTEX
  8
M62LXLIFT
 62
6
 10
6745.365
 20
-8592.186
 30
-918.000
 70
    32
  0
VERTEX
  8
M62LXLIFT
 62
6
 10
6740.182
 20
-8595.794
 30
-918.000
 70
    32
  0
VERTEX
  8
M62LXLIFT
 62
6
 10
6743.070
 20
-8610.336
 30
-918.000
 70
    32
  0
VERTEX
  8
M62LXLIFT
 62
6
 10
6747.994
 20
-8615.529
 30
-918.000
 70
    32
  0
VERTEX
  8
M62LXLIFT
 62
6
 10
6764.872
 20
-8621.268
 30
-918.000
 70
    32
  0
VERTEX
  8
M62LXLIFT
 62
6
 10
6771.859
 20
-8636.489
 30
-918.000
 70
    32
  0
VERTEX
  8
M62LXLIFT
 62
6
 10
6789.895
 20
-8665.350
 30
-918.000
 70
    32
  0
VERTEX
  8
M62LXLIFT
 62
6
 10
6784.346
 20
-8670.972
 30
-918.000
 70
    32
  0
SEQEND
  8
M62LXLIFT
  0
POLYLINE
  8
M62LXLIFT
 62
6
 66
     1
 70
     9
  0
VERTEX
  8
M62LXLIFT
 62
6
 10
6793.369
 20
-8657.362
 30
-929.000
 70
    32
  0
VERTEX
  8
M62LXLIFT
 62
6
 10
6794.779
 20
-8647.352
 30
-929.000
 70
    32
  0
VERTEX
  8
M62LXLIFT
 62
6
 10
6789.895
 20
-8631.964
 30
-929.000
 70
    32
  0
VERTEX
  8
M62LXLIFT
 62
6
 10
6778.060
 20
-8613.549
 30
-929.000
 70
    32
  0
VERTEX
  8
M62LXLIFT
 62
6
 10
6769.181
 20
-8614.249
 30
-929.000
 70
    32
  0
VERTEX
  8
M62LXLIFT
 62
6
 10
6761.491
 20
-8603.025
 30
-929.000
 70
    32
  0
VERTEX
  8
M62LXLIFT
 62
6
 10
6753.987
 20
-8614.835
 30
-929.000
 70
    32
  0
VERTEX
  8
M62LXLIFT
 62
6
 10
6765.237
 20
-8630.407
 30
-929.000
 70
    32
  0
VERTEX
  8
M62LXLIFT
 62
6
 10
6768.726
 20
-8643.771
 30
-929.000
 70
    32
  0
VERTEX
  8
M62LXLIFT
 62
6
 10
6777.385
 20
-8653.946
 30
-929.000
 70
    32
  0
VERTEX
  8
M62LXLIFT
 62
6
 10
6788.199
 20
-8660.551
 30
-929.000
 70
    32
  0
SEQEND
  8
M62LXLIFT
  0
POLYLINE
  8
M62LXLIFT
 62
6
 66
     1
 70
     9
  0
VERTEX
  8
M62LXLIFT
 62
6
 10
6770.490
 20
-8650.836
 30
-941.000
 70
    32
  0
VERTEX
  8
M62LXLIFT
 62
6
 10
6765.092
 20
-8634.747
 30
-941.000
 70
    32
  0
VERTEX
  8
M62LXLIFT
 62
6
 10
6754.994
 20
-8618.655
 30
-941.000
 70
    32
  0
VERTEX
  8
M62LXLIFT
 62
6
 10
6758.515
 20
-8607.956
 30
-941.000
 70
    32
  0
VERTEX
  8
M62LXLIFT
 62
6
 10
6767.857
 20
-8609.209
 30
-941.000
 70
    32
  0
VERTEX
  8
M62LXLIFT
 62
6
 10
6778.554
 20
-8613.168
 30
-941.000
 70
    32
  0
VERTEX
  8
M62LXLIFT
 62
6
 10
6786.373
 20
-8625.164
 30
-941.000
 70
    32
  0
VERTEX
  8
M62LXLIFT
 62
6
 10
6785.926
 20
-8642.208
 30
-941.000
 70
    32
  0
VERTEX
  8
M62LXLIFT
 62
6
 10
6780.778
 20
-8652.040
 30
-941.000
 70
    32
  0
SEQEND
  8
M62LXLIFT
  0
POLYLINE
  8
M62LXLIFT
 62
8
 66
     1
 70
     9
  0
VERTEX
  8
M62LXLIFT
 62
8
 10
6840.990
 20
-8662.114
 30
-871.000
 70
    32
  0
VERTEX
  8
M62LXLIFT
 62
8
 10
6833.959
 20
-8665.460
 30
-871.000
 70
    32
  0
VERTEX
  8
M62LXLIFT
 62
8
 10
6826.370
 20
-8658.344
 30
-871.000
 70
    32
  0
VERTEX
  8
M62LXLIFT
 62
8
 10
6831.638
 20
-8638.300
 30
-871.000
 70
    32
  0
VERTEX
  8
M62LXLIFT
 62
8
 10
6837.590
 20
-8629.174
 30
-871.000
 70
    32
  0
VERTEX
  8
M62LXLIFT
 62
8
 10
6844.807
 20
-8628.106
 30
-871.000
 70
    32
  0
VERTEX
  8
M62LXLIFT
 62
8
 10
6850.976
 20
-8631.460
 30
-871.000
 70
    32
  0
VERTEX
  8
M62LXLIFT
 62
8
 10
6855.487
 20
-8640.028
 30
-871.000
 70
    32
  0
VERTEX
  8
M62LXLIFT
 62
8
 10
6848.567
 20
-8652.086
 30
-871.000
 70
    32
  0
VERTEX
  8
M62LXLIFT
 62
8
 10
6850.432
 20
-8657.160
 30
-871.000
 70
    32
  0
SEQEND
  8
M62LXLIFT
  0
POLYLINE
  8
M62LXLIFT
 62
1
 66
     1
 70
     9
  0
VERTEX
  8
M62LXLIFT
 62
1
 10
6854.248
 20
-8656.948
 30
-851.000
 70
    32
  0
VERTEX
  8
M62LXLIFT
 62
1
 10
6829.326
 20
-8656.305
 30
-851.000
 70
    32
  0
VERTEX
  8
M62LXLIFT
 62
1
 10
6823.775
 20
-8653.729
 30
-851.000
 70
    32
  0
VERTEX
  8
M62LXLIFT
 62
1
 10
6815.704
 20
-8641.897
 30
-851.000
 70
    32
  0
VERTEX
  8
M62LXLIFT
 62
1
 10
6809.268
 20
-8632.460
 30
-851.000
 70
    32
  0
VERTEX
  8
M62LXLIFT
 62
1
 10
6818.038
 20
-8624.877
 30
-851.000
 70
    32
  0
VERTEX
  8
M62LXLIFT
 62
1
 10
6826.281
 20
-8621.479
 30
-851.000
 70
    32
  0
VERTEX
  8
M62LXLIFT
 62
1
 10
6840.965
 20
-8627.957
 30
-851.000
 70
    32
  0
VERTEX
  8
M62LXLIFT
 62
1
 10
6854.091
 20
-8632.425
 30
-851.000
 70
    32
  0
VERTEX
  8
M62LXLIFT
 62
1
 10
6862.621
 20
-8646.565
 30
-851.000
 70
    32
  0
SEQEND
  8
M62LXLIFT
  0
POLYLINE
  8
M62LXLIFT
 62
8
 66
     1
 70
     9
  0
VERTEX
  8
M62LXLIFT
 62
8
 10
6861.621
 20
-8647.565
 30
-861.000
 70
    32
  0
VERTEX
  8
M62LXLIFT
 62
8
 10
6853.091
 20
-8633.425
 30
-861.000
 70
    32
  0
VERTEX
  8
M62LXLIFT
 62
8
 10
6839.965
 20
-8628.957
 30
-861.000
 70
    32
  0
VERTEX
  8
M62LXLIFT
 62
8
 10
6825.281
 20
-8622.479
 30
-861.000
 70
    32
  0
VERTEX
  8
M62LXLIFT
 62
8
 10
6817.038
 20
-8625.877
 30
-861.000
 70
    32
  0
VERTEX
  8
M62LXLIFT
 62
8
 10
6808.268
 20
-8633.460
 30
-861.000
 70
    32
  0
VERTEX
  8
M62LXLIFT
 62
8
 10
6814.704
 20
-8642.897
 30
-861.000
 70
    32
  0
VERTEX
  8
M62LXLIFT
 62
8
 10
6822.775
 20
-8654.729
 30
-861.000
 70
    32
  0
VERTEX
  8
M62LXLIFT
 62
8
 10
6828.326
 20
-8657.305
 30
-861.000
 70
    32
  0
VERTEX
  8
M62LXLIFT
 62
8
 10
6853.248
 20
-8657.948
 30
-861.000
 70
    32
  0
SEQEND
  8
M62LXLIFT
  0
POLYLINE
  8
M62LXLIFT
 62
2
 66
     1
 70
     9
  0
VERTEX
  8
M62LXLIFT
 62
2
 10
6876.813
 20
-8723.068
 30
-952.000
 70
    32
  0
VERTEX
  8
M62LXLIFT
 62
2
 10
6885.478
 20
-8716.485
 30
-952.000
 70
    32
  0
VERTEX
  8
M62LXLIFT
 62
2
 10
6891.085
 20
-8717.954
 30
-952.000
 70
    32
  0
VERTEX
  8
M62LXLIFT
 62
2
 10
6915.152
 20
-8701.978
 30
-952.000
 70
    32
  0
VERTEX
  8
M62LXLIFT
 62
2
 10
6940.791
 20
-8696.121
 30
-952.000
 70
    32
  0
VERTEX
  8
M62LXLIFT
 62
2
 10
6960.350
 20
-8681.994
 30
-952.000
 70
    32
  0
VERTEX
  8
M62LXLIFT
 62
2
 10
6961.499
 20
-8671.749
 30
-952.000
 70
    32
  0
VERTEX
  8
M62LXLIFT
 62
2
 10
6927.289
 20
-8680.874
 30
-952.000
 70
    32
  0
VERTEX
  8
M62LXLIFT
 62
2
 10
6916.182
 20
-8684.675
 30
-952.000
 70
    32
  0
VERTEX
  8
M62LXLIFT
 62
2
 10
6905.692
 20
-8693.226
 30
-952.000
 70
    32
  0
VERTEX
  8
M62LXLIFT
 62
2
 10
6872.131
 20
-8717.035
 30
-952.000
 70
    32
  0
SEQEND
  8
M62LXLIFT
  0
POLYLINE
  8
M62LXLIFT
 62
2
 66
     1
 70
     9
  0
VERTEX
  8
M62LXLIFT
 62
2
 10
6914.598
 20
-8712.567
 30
-960.000
 70
    32
  0
VERTEX
  8
M62LXLIFT
 62
2
 10
6937.049
 20
-8704.248
 30
-960.000
 70
    32
  0
VERTEX
  8
M62LXLIFT
 62
2
 10
6964.280
 20
-8691.062
 30
-960.000
 70
    32
  0
VERTEX
  8
M62LXLIFT
 62
2
 10
6967.106
 20
-8687.249
 30
-960.000
 70
    32
  0
VERTEX
  8
M62LXLIFT
 62
2
 10
6966.720
 20
-8673.306
 30
-960.000
 70
    32
  0
VERTEX
  8
M62LXLIFT
 62
2
 10
6962.243
 20
-8668.890
 30
-960.000
 70
    32
  0
VERTEX
  8
M62LXLIFT
 62
2
 10
6956.096
 20
-8669.944
 30
-960.000
 70
    32
  0
VERTEX
  8
M62LXLIFT
 62
2
 10
6943.724
 20
-8675.420
 30
-960.000
 70
    32
  0
VERTEX
  8
M62LXLIFT
 62
2
 10
6933.803
 20
-8682.226
 30
-960.000
 70
    32
  0
VERTEX
  8
M62LXLIFT
 62
2
 10
6923.700
 20
-8690.384
 30
-960.000
 70
    32
  0
VERTEX
  8
M62LXLIFT
 62
2
 10
6915.918
 20
-8697.101
 30
-960.000
 70
    32
  0
VERTEX
  8
M62LXLIFT
 62
2
 10
6907.018
 20
-8702.354
 30
-960.000
 70
    32
  0
SEQEND
  8
M62LXLIFT
  0
POLYLINE
  8
M62LXLIFT
 62
1
 66
     1
 70
     9
  0
VERTEX
  8
M62LXLIFT
 62
1
 10
6898.026
 20
-8600.079
 30
-894.000
 70
    32
  0
VERTEX
  8
M62LXLIFT
 62
1
 10
6903.678
 20
-8596.204
 30
-894.000
 70
    32
  0
VERTEX
  8
M62LXLIFT
 62
1
 10
6889.006
 20
-8576.276
 30
-894.000
 70
    32
  0
VERTEX
  8
M62LXLIFT
 62
1
 10
6881.051
 20
-8571.643
 30
-894.000
 70
    32
  0
VERTEX
  8
M62LXLIFT
 62
1
 10
6876.900
 20
-8566.644
 30
-894.000
 70
    32
  0
VERTEX
  8
M62LXLIFT
 62
1
 10
6881.732
 20
-8561.406
 30
-894.000
 70
    32
  0
VERTEX
  8
M62LXLIFT
 62
1
 10
6886.953
 20
-8556.534
 30
-894.000
 70
    32
  0
VERTEX
  8
M62LXLIFT
 62
1
 10
6900.482
 20
-8550.395
 30
-894.000
 70
    32
  0
VERTEX
  8
M62LXLIFT
 62
1
 10
6904.507
 20
-8559.134
 30
-894.000
 70
    32
  0
VERTEX
  8
M62LXLIFT
 62
1
 10
6916.530
 20
-8571.259
 30
-894.000
 70
    32
  0
VERTEX
  8
M62LXLIFT
 62
1
 10
6916.788
 20
-8580.557
 30
-894.000
 70
    32
  0
VERTEX
  8
M62LXLIFT
 62
1
 10
6924.790
 20
-8590.454
 30
-894.000
 70
    32
  0
VERTEX
  8
M62LXLIFT
 62
1
 10
6917.170
 20
-8595.944
 30
-894.000
 70
    32
  0
VERTEX
  8
M62LXLIFT
 62
1
 10
6907.604
 20
-8599.608
 30
-894.000
 70
    32
  0
VERTEX
  8
M62LXLIFT
 62
1
 10
6901.345
 20
-8604.279
 30
-894.000
 70
    32
  0
SEQEND
  8
M62LXLIFT
  0
POLYLINE
  8
M62LXLIFT
 62
13
 66
     1
 70
     9
  0
VERTEX
  8
M62LXLIFT
 62
13
 10
6900.345
 20
-8605.279
 30
-904.000
 70
    32
  0
VERTEX
  8
M62LXLIFT
 62
13
 10
6906.604
 20
-8600.608
 30
-904.000
 70
    32
  0
VERTEX
  8
M62LXLIFT
 62
13
 10
6916.170
 20
-8596.944
 30
-904.000
 70
    32
  0
VERTEX
  8
M62LXLIFT
 62
13
 10
6923.790
 20
-8591.454
 30
-904.000
 70
    32
  0
VERTEX
  8
M62LXLIFT
 62
13
 10
6915.788
 20
-8581.557
 30
-904.000
 70
    32
  0
VERTEX
  8
M62LXLIFT
 62
13
 10
6915.530
 20
-8572.259
 30
-904.000
 70
    32
  0
VERTEX
  8
M62LXLIFT
 62
13
 10
6903.507
 20
-8560.134
 30
-904.000
 70
    32
  0
VERTEX
  8
M62LXLIFT
 62
13
 10
6899.482
 20
-8551.395
 30
-904.000
 70
    32
  0
VERTEX
  8
M62LXLIFT
 62
13
 10
6885.953
 20
-8557.534
 30
-904.000
 70
    32
  0
VERTEX
  8
M62LXLIFT
 62
13
 10
6880.732
 20
-8562.406
 30
-904.000
 70
    32
  0
VERTEX
  8
M62LXLIFT
 62
13
 10
6875.900
 20
-8567.644
 30
-904.000
 70
    32
  0
VERTEX
  8
M62LXLIFT
 62
13
 10
6880.051
 20
-8572.643
 30
-904.000
 70
    32
  0
VERTEX
  8
M62LXLIFT
 62
13
 10
6888.006
 20
-8577.276
 30
-904.000
 70
    32
  0
VERTEX
  8
M62LXLIFT
 62
13
 10
6902.678
 20
-8597.204
 30
-904.000
 70
    32
  0
VERTEX
  8
M62LXLIFT
 62
13
 10
6897.026
 20
-8601.079
 30
-904.000
 70
    32
  0
SEQEND
  8
M62LXLIFT
  0
POLYLINE
  8
M62LXLIFT
 62
13
 66
     1
 70
     9
  0
VERTEX
  8
M62LXLIFT
 62
13
 10
6927.324
 20
-8586.673
 30
-913.000
 70
    32
  0
VERTEX
  8
M62LXLIFT
 62
13
 10
6923.996
 20
-8579.212
 30
-913.000
 70
    32
  0
VERTEX
  8
M62LXLIFT
 62
13
 10
6922.748
 20
-8563.351
 30
-913.000
 70
    32
  0
VERTEX
  8
M62LXLIFT
 62
13
 10
6926.619
 20
-8554.717
 30
-913.000
 70
    32
  0
VERTEX
  8
M62LXLIFT
 62
13
 10
6920.380
 20
-8544.937
 30
-913.000
 70
    32
  0
VERTEX
  8
M62LXLIFT
 62
13
 10
6911.597
 20
-8544.555
 30
-913.000
 70
    32
  0
VERTEX
  8
M62LXLIFT
 62
13
 10
6893.013
 20
-8550.973
 30
-913.000
 70
    32
  0
VERTEX
  8
M62LXLIFT
 62
13
 10
6884.091
 20
-8559.849
 30
-913.000
 70
    32
  0
VERTEX
  8
M62LXLIFT
 62
13
 10
6881.344
 20
-8570.595
 30
-913.000
 70
    32
  0
VERTEX
  8
M62LXLIFT
 62
13
 10
6885.377
 20
-8577.535
 30
-913.000
 70
    32
  0
VERTEX
  8
M62LXLIFT
 62
13
 10
6905.037
 20
-8602.690
 30
-913.000
 70
    32
  0
SEQEND
  8
M62LXLIFT
  0
POLYLINE
  8
M62LXLIFT
 62
13
 66
     1
 70
     9
  0
VERTEX
  8
M62LXLIFT
 62
13
 10
6892.802
 20
-8601.461
 30
-923.000
 70
    32
  0
VERTEX
  8
M62LXLIFT
 62
13
 10
6890.140
 20
-8579.066
 30
-923.000
 70
    32
  0
VERTEX
  8
M62LXLIFT
 62
13
 10
6906.193
 20
-8570.081
 30
-923.000
 70
    32
  0
VERTEX
  8
M62LXLIFT
 62
13
 10
6907.778
 20
-8560.158
 30
-923.000
 70
    32
  0
VERTEX
  8
M62LXLIFT
 62
13
 10
6925.410
 20
-8555.354
 30
-923.000
 70
    32
  0
VERTEX
  8
M62LXLIFT
 62
13
 10
6934.746
 20
-8558.796
 30
-923.000
 70
    32
  0
VERTEX
  8
M62LXLIFT
 62
13
 10
6940.140
 20
-8569.431
 30
-923.000
 70
    32
  0
VERTEX
  8
M62LXLIFT
 62
13
 10
6942.955
 20
-8584.389
 30
-923.000
 70
    32
  0
VERTEX
  8
M62LXLIFT
 62
13
 10
6934.987
 20
-8589.549
 30
-923.000
 70
    32
  0
VERTEX
  8
M62LXLIFT
 62
13
 10
6918.528
 20
-8594.901
 30
-923.000
 70
    32
  0
VERTEX
  8
M62LXLIFT
 62
13
 10
6910.807
 20
-8599.659
 30
-923.000
 70
    32
  0
VERTEX
  8
M62LXLIFT
 62
13
 10
6903.688
 20
-8611.839
 30
-923.000
 70
    32
  0
SEQEND
  8
M62LXLIFT
  0
POLYLINE
  8
M62LXLIFT
 62
3
 66
     1
 70
     9
  0
VERTEX
  8
M62LXLIFT
 62
3
 10
6995.129
 20
-8185.761
 30
-971.428
 70
    32
  0
VERTEX
  8
M62LXLIFT
 62
3
 10
7002.216
 20
-8189.361
 30
-971.426
 70
    32
  0
VERTEX
  8
M62LXLIFT
 62
3
 10
7003.010
 20
-8197.086
 30
-971.427
 70
    32
  0
VERTEX
  8
M62LXLIFT
 62
3
 10
6995.611
 20
-8201.795
 30
-971.431
 70
    32
  0
VERTEX
  8
M62LXLIFT
 62
3
 10
6991.249
 20
-8205.721
 30
-971.433
 70
    32
  0
VERTEX
  8
M62LXLIFT
 62
3
 10
6984.450
 20
-8196.342
 30
-971.434
 70
    32
  0
VERTEX
  8
M62LXLIFT
 62
3
 10
6987.996
 20
-8190.386
 30
-971.431
 70
    32
  0
SEQEND
  8
M62LXLIFT
  0
POLYLINE
  8
M62LXLIFT
 62
1
 66
     1
 70
     9
  0
VERTEX
  8
M62LXLIFT
 62
1
 10
6873.131
 20
-8716.035
 30
-942.000
 70
    32
  0
VERTEX
  8
M62LXLIFT
 62
1
 10
6906.692
 20
-8692.226
 30
-942.000
 70
    32
  0
VERTEX
  8
M62LXLIFT
 62
1
 10
6917.182
 20
-8683.675
 30
-942.000
 70
    32
  0
VERTEX
  8
M62LXLIFT
 62
1
 10
6928.289
 20
-8679.874
 30
-942.000
 70
    32
  0
VERTEX
  8
M62LXLIFT
 62
1
 10
6962.499
 20
-8670.749
 30
-942.000
 70
    32
  0
VERTEX
  8
M62LXLIFT
 62
1
 10
6961.350
 20
-8680.994
 30
-942.000
 70
    32
  0
VERTEX
  8
M62LXLIFT
 62
1
 10
6941.791
 20
-8695.121
 30
-942.000
 70
    32
  0
VERTEX
  8
M62LXLIFT
 62
1
 10
6916.152
 20
-8700.978
 30
-942.000
 70
    32
  0
VERTEX
  8
M62LXLIFT
 62
1
 10
6892.085
 20
-8716.954
 30
-942.000
 70
    32
  0
VERTEX
  8
M62LXLIFT
 62
1
 10
6886.478
 20
-8715.485
 30
-942.000
 70
    32
  0
VERTEX
  8
M62LXLIFT
 62
1
 10
6877.813
 20
-8722.068
 30
-942.000
 70
    32
  0
SEQEND
  8
M62LXLIFT
  0
POLYLINE
  8
M62LXLIFT
 62
2
 66
     1
 70
     9
  0
VERTEX
  8
M62LXLIFT
 62
2
 10
6885.676
 20
-8725.892
 30
-971.574
 70
    32
  0
VERTEX
  8
M62LXLIFT
 62
2
 10
6906.373
 20
-8711.058
 30
-971.563
 70
    32
  0
VERTEX
  8
M62LXLIFT
 62
2
 10
6907.462
 20
-8701.253
 30
-971.561
 70
    32
  0
VERTEX
  8
M62LXLIFT
 62
2
 10
6929.755
 20
-8684.547
 30
-971.550
 70
    32
  0
VERTEX
  8
M62LXLIFT
 62
2
 10
6947.053
 20
-8673.756
 30
-971.541
 70
    32
  0
VERTEX
  8
M62LXLIFT
 62
2
 10
6957.003
 20
-8674.770
 30
-971.538
 70
    32
  0
VERTEX
  8
M62LXLIFT
 62
2
 10
6971.790
 20
-8664.172
 30
-971.530
 70
    32
  0
VERTEX
  8
M62LXLIFT
 62
2
 10
6976.273
 20
-8670.779
 30
-971.530
 70
    32
  0
VERTEX
  8
M62LXLIFT
 62
2
 10
6974.633
 20
-8685.437
 30
-971.533
 70
    32
  0
VERTEX
  8
M62LXLIFT
 62
2
 10
6943.261
 20
-8707.850
 30
-971.549
 70
    32
  0
VERTEX
  8
M62LXLIFT
 62
2
 10
6926.945
 20
-8714.872
 30
-971.557
 70
    32
  0
VERTEX
  8
M62LXLIFT
 62
2
 10
6924.959
 20
-8720.571
 30
-971.558
 70
    32
  0
VERTEX
  8
M62LXLIFT
 62
2
 10
6913.335
 20
-8732.710
 30
-971.565
 70
    32
  0
VERTEX
  8
M62LXLIFT
 62
2
 10
6894.838
 20
-8728.526
 30
-971.571
 70
    32
  0
SEQEND
  8
M62LXLIFT
  0
ENDSEC
  0
EOF
