999
********************************
999
*   DXF File - Entities Only   *
999
*        3D Data Format        *
999
*     Output from ENVISAGE     *
999
*     31-Dec-2007 15:31:38     *
999
********************************
  0
SECTION 
  2
HEADER
  9
$ACADVER
  1
AC1009
  9
$EXTMIN
 10
-290000.000
 20
-250000.000
 30
-4000.000
  9
$EXTMAX
 10
320000.000
 20
160000.000
 30
6000.000
  0
ENDSEC
  0
SECTION
  2
ENTITIES
  0
POLYLINE
  8
M63LALIFT
 62
6
 66
     1
 70
     9
  0
VERTEX
  8
M63LALIFT
 62
6
 10
7200.657
 20
-8507.645
 30
-1072.000
 70
    32
  0
VERTEX
  8
M63LALIFT
 62
6
 10
7208.207
 20
-8502.974
 30
-1072.000
 70
    32
  0
VERTEX
  8
M63LALIFT
 62
6
 10
7215.231
 20
-8497.531
 30
-1072.000
 70
    32
  0
VERTEX
  8
M63LALIFT
 62
6
 10
7219.596
 20
-8498.009
 30
-1072.000
 70
    32
  0
VERTEX
  8
M63LALIFT
 62
6
 10
7226.525
 20
-8493.537
 30
-1072.000
 70
    32
  0
VERTEX
  8
M63LALIFT
 62
6
 10
7224.404
 20
-8491.828
 30
-1072.137
 70
    32
  0
VERTEX
  8
M63LALIFT
 62
6
 10
7222.538
 20
-8488.053
 30
-1072.137
 70
    32
  0
VERTEX
  8
M63LALIFT
 62
6
 10
7213.361
 20
-8479.011
 30
-1072.137
 70
    32
  0
VERTEX
  8
M63LALIFT
 62
6
 10
7218.830
 20
-8471.987
 30
-1072.137
 70
    32
  0
VERTEX
  8
M63LALIFT
 62
6
 10
7224.574
 20
-8467.207
 30
-1072.137
 70
    32
  0
VERTEX
  8
M63LALIFT
 62
6
 10
7233.217
 20
-8475.817
 30
-1072.137
 70
    32
  0
VERTEX
  8
M63LALIFT
 62
6
 10
7238.303
 20
-8474.674
 30
-1072.137
 70
    32
  0
VERTEX
  8
M63LALIFT
 62
6
 10
7241.445
 20
-8467.726
 30
-1072.137
 70
    32
  0
VERTEX
  8
M63LALIFT
 62
6
 10
7252.643
 20
-8471.242
 30
-1072.137
 70
    32
  0
VERTEX
  8
M63LALIFT
 62
6
 10
7248.803
 20
-8478.917
 30
-1072.137
 70
    32
  0
VERTEX
  8
M63LALIFT
 62
6
 10
7255.140
 20
-8486.848
 30
-1072.137
 70
    32
  0
VERTEX
  8
M63LALIFT
 62
6
 10
7261.111
 20
-8496.535
 30
-1072.137
 70
    32
  0
VERTEX
  8
M63LALIFT
 62
6
 10
7266.780
 20
-8498.663
 30
-1072.137
 70
    32
  0
VERTEX
  8
M63LALIFT
 62
6
 10
7259.617
 20
-8512.221
 30
-1072.137
 70
    32
  0
VERTEX
  8
M63LALIFT
 62
6
 10
7258.745
 20
-8523.146
 30
-1072.137
 70
    32
  0
VERTEX
  8
M63LALIFT
 62
6
 10
7259.808
 20
-8527.050
 30
-1072.137
 70
    32
  0
VERTEX
  8
M63LALIFT
 62
6
 10
7245.502
 20
-8536.052
 30
-1072.137
 70
    32
  0
VERTEX
  8
M63LALIFT
 62
6
 10
7244.598
 20
-8545.439
 30
-1072.137
 70
    32
  0
VERTEX
  8
M63LALIFT
 62
6
 10
7241.466
 20
-8548.120
 30
-1072.137
 70
    32
  0
VERTEX
  8
M63LALIFT
 62
6
 10
7236.106
 20
-8541.858
 30
-1072.137
 70
    32
  0
VERTEX
  8
M63LALIFT
 62
6
 10
7237.039
 20
-8525.939
 30
-1072.137
 70
    32
  0
VERTEX
  8
M63LALIFT
 62
6
 10
7236.093
 20
-8520.243
 30
-1072.137
 70
    32
  0
VERTEX
  8
M63LALIFT
 62
6
 10
7237.127
 20
-8518.633
 30
-1072.000
 70
    32
  0
VERTEX
  8
M63LALIFT
 62
6
 10
7225.799
 20
-8516.730
 30
-1072.000
 70
    32
  0
VERTEX
  8
M63LALIFT
 62
6
 10
7212.433
 20
-8515.686
 30
-1072.000
 70
    32
  0
SEQEND
  8
M63LALIFT
  0
POLYLINE
  8
M63LALIFT
 62
6
 66
     1
 70
     8
  0
VERTEX
  8
M63LALIFT
 62
6
 10
7228.355
 20
-8507.783
 30
-1068.971
 70
    32
  0
VERTEX
  8
M63LALIFT
 62
6
 10
7228.340
 20
-8507.892
 30
-1068.971
 70
    32
  0
VERTEX
  8
M63LALIFT
 62
6
 10
7228.341
 20
-8507.897
 30
-1068.971
 70
    32
  0
VERTEX
  8
M63LALIFT
 62
6
 10
7228.315
 20
-8508.214
 30
-1068.971
 70
    32
  0
VERTEX
  8
M63LALIFT
 62
6
 10
7228.320
 20
-8508.237
 30
-1068.971
 70
    32
  0
VERTEX
  8
M63LALIFT
 62
6
 10
7228.160
 20
-8508.652
 30
-1068.971
 70
    32
  0
VERTEX
  8
M63LALIFT
 62
6
 10
7228.162
 20
-8508.682
 30
-1068.971
 70
    32
  0
VERTEX
  8
M63LALIFT
 62
6
 10
7228.297
 20
-8508.899
 30
-1068.971
 70
    32
  0
VERTEX
  8
M63LALIFT
 62
6
 10
7228.332
 20
-8508.966
 30
-1068.971
 70
    32
  0
VERTEX
  8
M63LALIFT
 62
6
 10
7228.166
 20
-8509.316
 30
-1068.971
 70
    32
  0
VERTEX
  8
M63LALIFT
 62
6
 10
7228.132
 20
-8509.433
 30
-1068.971
 70
    32
  0
VERTEX
  8
M63LALIFT
 62
6
 10
7228.042
 20
-8509.782
 30
-1068.971
 70
    32
  0
VERTEX
  8
M63LALIFT
 62
6
 10
7228.178
 20
-8509.835
 30
-1068.971
 70
    32
  0
VERTEX
  8
M63LALIFT
 62
6
 10
7228.278
 20
-8510.011
 30
-1068.971
 70
    32
  0
VERTEX
  8
M63LALIFT
 62
6
 10
7228.504
 20
-8510.132
 30
-1068.971
 70
    32
  0
VERTEX
  8
M63LALIFT
 62
6
 10
7228.594
 20
-8510.247
 30
-1068.971
 70
    32
  0
VERTEX
  8
M63LALIFT
 62
6
 10
7229.176
 20
-8510.290
 30
-1068.971
 70
    32
  0
VERTEX
  8
M63LALIFT
 62
6
 10
7229.179
 20
-8510.293
 30
-1068.971
 70
    32
  0
VERTEX
  8
M63LALIFT
 62
6
 10
7229.147
 20
-8510.800
 30
-1068.971
 70
    32
  0
VERTEX
  8
M63LALIFT
 62
6
 10
7229.155
 20
-8510.844
 30
-1068.971
 70
    32
  0
VERTEX
  8
M63LALIFT
 62
6
 10
7229.489
 20
-8511.150
 30
-1068.971
 70
    32
  0
VERTEX
  8
M63LALIFT
 62
6
 10
7229.465
 20
-8511.371
 30
-1068.971
 70
    32
  0
VERTEX
  8
M63LALIFT
 62
6
 10
7229.473
 20
-8511.702
 30
-1068.971
 70
    32
  0
VERTEX
  8
M63LALIFT
 62
6
 10
7229.664
 20
-8511.961
 30
-1068.971
 70
    32
  0
VERTEX
  8
M63LALIFT
 62
6
 10
7229.667
 20
-8512.167
 30
-1068.971
 70
    32
  0
VERTEX
  8
M63LALIFT
 62
6
 10
7230.002
 20
-8512.566
 30
-1068.971
 70
    32
  0
VERTEX
  8
M63LALIFT
 62
6
 10
7229.992
 20
-8512.635
 30
-1068.971
 70
    32
  0
VERTEX
  8
M63LALIFT
 62
6
 10
7230.121
 20
-8512.809
 30
-1068.971
 70
    32
  0
VERTEX
  8
M63LALIFT
 62
6
 10
7230.177
 20
-8513.085
 30
-1068.971
 70
    32
  0
VERTEX
  8
M63LALIFT
 62
6
 10
7230.207
 20
-8513.120
 30
-1068.971
 70
    32
  0
VERTEX
  8
M63LALIFT
 62
6
 10
7230.266
 20
-8513.666
 30
-1068.971
 70
    32
  0
VERTEX
  8
M63LALIFT
 62
6
 10
7230.339
 20
-8513.814
 30
-1068.971
 70
    32
  0
VERTEX
  8
M63LALIFT
 62
6
 10
7230.528
 20
-8514.149
 30
-1068.971
 70
    32
  0
VERTEX
  8
M63LALIFT
 62
6
 10
7230.715
 20
-8514.397
 30
-1068.971
 70
    32
  0
VERTEX
  8
M63LALIFT
 62
6
 10
7230.815
 20
-8514.583
 30
-1068.971
 70
    32
  0
VERTEX
  8
M63LALIFT
 62
6
 10
7230.909
 20
-8515.015
 30
-1068.971
 70
    32
  0
VERTEX
  8
M63LALIFT
 62
6
 10
7230.940
 20
-8515.132
 30
-1068.971
 70
    32
  0
VERTEX
  8
M63LALIFT
 62
6
 10
7231.208
 20
-8515.341
 30
-1068.971
 70
    32
  0
VERTEX
  8
M63LALIFT
 62
6
 10
7231.561
 20
-8515.652
 30
-1068.971
 70
    32
  0
VERTEX
  8
M63LALIFT
 62
6
 10
7232.012
 20
-8516.069
 30
-1068.971
 70
    32
  0
VERTEX
  8
M63LALIFT
 62
6
 10
7232.317
 20
-8516.414
 30
-1068.971
 70
    32
  0
VERTEX
  8
M63LALIFT
 62
6
 10
7232.674
 20
-8516.817
 30
-1068.971
 70
    32
  0
VERTEX
  8
M63LALIFT
 62
6
 10
7232.782
 20
-8517.257
 30
-1068.971
 70
    32
  0
VERTEX
  8
M63LALIFT
 62
6
 10
7232.834
 20
-8517.385
 30
-1068.971
 70
    32
  0
VERTEX
  8
M63LALIFT
 62
6
 10
7233.106
 20
-8518.151
 30
-1068.971
 70
    32
  0
VERTEX
  8
M63LALIFT
 62
6
 10
7233.270
 20
-8518.537
 30
-1068.971
 70
    32
  0
VERTEX
  8
M63LALIFT
 62
6
 10
7233.421
 20
-8519.062
 30
-1068.971
 70
    32
  0
VERTEX
  8
M63LALIFT
 62
6
 10
7233.721
 20
-8519.844
 30
-1068.971
 70
    32
  0
VERTEX
  8
M63LALIFT
 62
6
 10
7233.811
 20
-8520.061
 30
-1068.971
 70
    32
  0
VERTEX
  8
M63LALIFT
 62
6
 10
7234.082
 20
-8520.570
 30
-1068.971
 70
    32
  0
VERTEX
  8
M63LALIFT
 62
6
 10
7234.428
 20
-8521.205
 30
-1068.971
 70
    32
  0
VERTEX
  8
M63LALIFT
 62
6
 10
7235.034
 20
-8522.322
 30
-1068.971
 70
    32
  0
VERTEX
  8
M63LALIFT
 62
6
 10
7235.495
 20
-8523.196
 30
-1068.971
 70
    32
  0
VERTEX
  8
M63LALIFT
 62
6
 10
7235.847
 20
-8523.841
 30
-1068.971
 70
    32
  0
VERTEX
  8
M63LALIFT
 62
6
 10
7236.327
 20
-8524.478
 30
-1068.971
 70
    32
  0
VERTEX
  8
M63LALIFT
 62
6
 10
7236.617
 20
-8524.868
 30
-1068.971
 70
    32
  0
VERTEX
  8
M63LALIFT
 62
6
 10
7237.088
 20
-8525.426
 30
-1068.971
 70
    32
  0
VERTEX
  8
M63LALIFT
 62
6
 10
7237.885
 20
-8526.438
 30
-1068.971
 70
    32
  0
VERTEX
  8
M63LALIFT
 62
6
 10
7237.949
 20
-8526.531
 30
-1068.971
 70
    32
  0
VERTEX
  8
M63LALIFT
 62
6
 10
7238.060
 20
-8526.649
 30
-1068.971
 70
    32
  0
VERTEX
  8
M63LALIFT
 62
6
 10
7239.346
 20
-8527.838
 30
-1068.971
 70
    32
  0
VERTEX
  8
M63LALIFT
 62
6
 10
7240.672
 20
-8529.037
 30
-1068.971
 70
    32
  0
VERTEX
  8
M63LALIFT
 62
6
 10
7241.231
 20
-8528.847
 30
-1068.971
 70
    32
  0
VERTEX
  8
M63LALIFT
 62
6
 10
7243.178
 20
-8528.253
 30
-1068.971
 70
    32
  0
VERTEX
  8
M63LALIFT
 62
6
 10
7243.959
 20
-8527.667
 30
-1068.971
 70
    32
  0
VERTEX
  8
M63LALIFT
 62
6
 10
7244.833
 20
-8526.844
 30
-1068.971
 70
    32
  0
VERTEX
  8
M63LALIFT
 62
6
 10
7245.090
 20
-8526.611
 30
-1068.971
 70
    32
  0
VERTEX
  8
M63LALIFT
 62
6
 10
7245.331
 20
-8526.435
 30
-1068.971
 70
    32
  0
VERTEX
  8
M63LALIFT
 62
6
 10
7245.695
 20
-8526.193
 30
-1068.971
 70
    32
  0
VERTEX
  8
M63LALIFT
 62
6
 10
7247.466
 20
-8525.230
 30
-1068.971
 70
    32
  0
VERTEX
  8
M63LALIFT
 62
6
 10
7247.601
 20
-8525.166
 30
-1068.971
 70
    32
  0
VERTEX
  8
M63LALIFT
 62
6
 10
7249.544
 20
-8524.110
 30
-1068.971
 70
    32
  0
VERTEX
  8
M63LALIFT
 62
6
 10
7249.681
 20
-8524.017
 30
-1068.971
 70
    32
  0
VERTEX
  8
M63LALIFT
 62
6
 10
7249.961
 20
-8523.868
 30
-1068.971
 70
    32
  0
VERTEX
  8
M63LALIFT
 62
6
 10
7251.012
 20
-8523.536
 30
-1068.971
 70
    32
  0
VERTEX
  8
M63LALIFT
 62
6
 10
7251.544
 20
-8522.940
 30
-1068.971
 70
    32
  0
VERTEX
  8
M63LALIFT
 62
6
 10
7251.907
 20
-8522.509
 30
-1068.971
 70
    32
  0
VERTEX
  8
M63LALIFT
 62
6
 10
7252.126
 20
-8521.943
 30
-1068.971
 70
    32
  0
VERTEX
  8
M63LALIFT
 62
6
 10
7252.465
 20
-8521.284
 30
-1068.971
 70
    32
  0
VERTEX
  8
M63LALIFT
 62
6
 10
7252.791
 20
-8520.770
 30
-1068.971
 70
    32
  0
VERTEX
  8
M63LALIFT
 62
6
 10
7253.693
 20
-8519.373
 30
-1068.971
 70
    32
  0
VERTEX
  8
M63LALIFT
 62
6
 10
7254.207
 20
-8518.598
 30
-1068.971
 70
    32
  0
VERTEX
  8
M63LALIFT
 62
6
 10
7255.421
 20
-8517.365
 30
-1068.971
 70
    32
  0
VERTEX
  8
M63LALIFT
 62
6
 10
7255.543
 20
-8517.212
 30
-1068.971
 70
    32
  0
VERTEX
  8
M63LALIFT
 62
6
 10
7255.696
 20
-8516.978
 30
-1068.971
 70
    32
  0
VERTEX
  8
M63LALIFT
 62
6
 10
7256.860
 20
-8515.543
 30
-1068.971
 70
    32
  0
VERTEX
  8
M63LALIFT
 62
6
 10
7256.861
 20
-8514.690
 30
-1068.971
 70
    32
  0
VERTEX
  8
M63LALIFT
 62
6
 10
7256.859
 20
-8514.288
 30
-1068.971
 70
    32
  0
VERTEX
  8
M63LALIFT
 62
6
 10
7256.783
 20
-8513.566
 30
-1068.971
 70
    32
  0
VERTEX
  8
M63LALIFT
 62
6
 10
7256.838
 20
-8512.824
 30
-1068.971
 70
    32
  0
VERTEX
  8
M63LALIFT
 62
6
 10
7256.776
 20
-8512.646
 30
-1068.971
 70
    32
  0
VERTEX
  8
M63LALIFT
 62
6
 10
7256.873
 20
-8512.271
 30
-1068.971
 70
    32
  0
VERTEX
  8
M63LALIFT
 62
6
 10
7256.671
 20
-8511.330
 30
-1068.971
 70
    32
  0
VERTEX
  8
M63LALIFT
 62
6
 10
7256.658
 20
-8510.356
 30
-1068.971
 70
    32
  0
VERTEX
  8
M63LALIFT
 62
6
 10
7256.606
 20
-8509.961
 30
-1068.971
 70
    32
  0
VERTEX
  8
M63LALIFT
 62
6
 10
7256.717
 20
-8509.719
 30
-1068.971
 70
    32
  0
VERTEX
  8
M63LALIFT
 62
6
 10
7257.578
 20
-8508.896
 30
-1068.971
 70
    32
  0
VERTEX
  8
M63LALIFT
 62
6
 10
7257.923
 20
-8508.432
 30
-1068.971
 70
    32
  0
VERTEX
  8
M63LALIFT
 62
6
 10
7258.814
 20
-8507.347
 30
-1068.971
 70
    32
  0
VERTEX
  8
M63LALIFT
 62
6
 10
7258.961
 20
-8506.993
 30
-1068.971
 70
    32
  0
VERTEX
  8
M63LALIFT
 62
6
 10
7259.093
 20
-8506.406
 30
-1068.971
 70
    32
  0
VERTEX
  8
M63LALIFT
 62
6
 10
7259.078
 20
-8506.100
 30
-1068.971
 70
    32
  0
VERTEX
  8
M63LALIFT
 62
6
 10
7259.123
 20
-8505.739
 30
-1068.971
 70
    32
  0
VERTEX
  8
M63LALIFT
 62
6
 10
7259.257
 20
-8505.067
 30
-1068.971
 70
    32
  0
VERTEX
  8
M63LALIFT
 62
6
 10
7259.253
 20
-8505.046
 30
-1068.971
 70
    32
  0
VERTEX
  8
M63LALIFT
 62
6
 10
7259.249
 20
-8505.035
 30
-1068.971
 70
    32
  0
VERTEX
  8
M63LALIFT
 62
6
 10
7259.028
 20
-8504.139
 30
-1068.971
 70
    32
  0
VERTEX
  8
M63LALIFT
 62
6
 10
7258.829
 20
-8503.702
 30
-1068.971
 70
    32
  0
VERTEX
  8
M63LALIFT
 62
6
 10
7258.672
 20
-8503.305
 30
-1068.971
 70
    32
  0
VERTEX
  8
M63LALIFT
 62
6
 10
7258.493
 20
-8502.657
 30
-1068.971
 70
    32
  0
VERTEX
  8
M63LALIFT
 62
6
 10
7258.480
 20
-8502.633
 30
-1068.971
 70
    32
  0
VERTEX
  8
M63LALIFT
 62
6
 10
7258.441
 20
-8502.560
 30
-1068.971
 70
    32
  0
VERTEX
  8
M63LALIFT
 62
6
 10
7258.171
 20
-8502.130
 30
-1068.971
 70
    32
  0
VERTEX
  8
M63LALIFT
 62
6
 10
7258.112
 20
-8502.051
 30
-1068.971
 70
    32
  0
VERTEX
  8
M63LALIFT
 62
6
 10
7257.998
 20
-8501.646
 30
-1068.971
 70
    32
  0
VERTEX
  8
M63LALIFT
 62
6
 10
7257.880
 20
-8501.456
 30
-1068.971
 70
    32
  0
VERTEX
  8
M63LALIFT
 62
6
 10
7257.721
 20
-8501.170
 30
-1068.971
 70
    32
  0
VERTEX
  8
M63LALIFT
 62
6
 10
7257.561
 20
-8500.929
 30
-1068.971
 70
    32
  0
VERTEX
  8
M63LALIFT
 62
6
 10
7257.425
 20
-8500.470
 30
-1068.971
 70
    32
  0
VERTEX
  8
M63LALIFT
 62
6
 10
7257.376
 20
-8500.412
 30
-1068.971
 70
    32
  0
VERTEX
  8
M63LALIFT
 62
6
 10
7257.287
 20
-8500.193
 30
-1068.971
 70
    32
  0
VERTEX
  8
M63LALIFT
 62
6
 10
7258.014
 20
-8499.272
 30
-1068.971
 70
    32
  0
VERTEX
  8
M63LALIFT
 62
6
 10
7258.360
 20
-8498.874
 30
-1068.971
 70
    32
  0
VERTEX
  8
M63LALIFT
 62
6
 10
7258.258
 20
-8498.610
 30
-1068.971
 70
    32
  0
VERTEX
  8
M63LALIFT
 62
6
 10
7258.235
 20
-8498.549
 30
-1068.971
 70
    32
  0
VERTEX
  8
M63LALIFT
 62
6
 10
7258.074
 20
-8498.219
 30
-1068.971
 70
    32
  0
VERTEX
  8
M63LALIFT
 62
6
 10
7258.005
 20
-8498.103
 30
-1068.971
 70
    32
  0
VERTEX
  8
M63LALIFT
 62
6
 10
7257.920
 20
-8497.876
 30
-1068.971
 70
    32
  0
VERTEX
  8
M63LALIFT
 62
6
 10
7257.880
 20
-8497.673
 30
-1068.971
 70
    32
  0
VERTEX
  8
M63LALIFT
 62
6
 10
7257.777
 20
-8497.550
 30
-1068.971
 70
    32
  0
VERTEX
  8
M63LALIFT
 62
6
 10
7257.678
 20
-8497.315
 30
-1068.971
 70
    32
  0
VERTEX
  8
M63LALIFT
 62
6
 10
7257.604
 20
-8497.250
 30
-1068.971
 70
    32
  0
VERTEX
  8
M63LALIFT
 62
6
 10
7257.502
 20
-8496.967
 30
-1068.971
 70
    32
  0
VERTEX
  8
M63LALIFT
 62
6
 10
7257.498
 20
-8496.945
 30
-1068.971
 70
    32
  0
VERTEX
  8
M63LALIFT
 62
6
 10
7257.419
 20
-8496.820
 30
-1068.971
 70
    32
  0
VERTEX
  8
M63LALIFT
 62
6
 10
7257.293
 20
-8496.666
 30
-1068.971
 70
    32
  0
VERTEX
  8
M63LALIFT
 62
6
 10
7257.284
 20
-8496.648
 30
-1068.971
 70
    32
  0
VERTEX
  8
M63LALIFT
 62
6
 10
7257.263
 20
-8496.347
 30
-1068.971
 70
    32
  0
VERTEX
  8
M63LALIFT
 62
6
 10
7257.196
 20
-8496.289
 30
-1068.971
 70
    32
  0
VERTEX
  8
M63LALIFT
 62
6
 10
7257.020
 20
-8496.103
 30
-1068.971
 70
    32
  0
VERTEX
  8
M63LALIFT
 62
6
 10
7256.991
 20
-8495.989
 30
-1068.971
 70
    32
  0
VERTEX
  8
M63LALIFT
 62
6
 10
7256.869
 20
-8495.852
 30
-1068.971
 70
    32
  0
VERTEX
  8
M63LALIFT
 62
6
 10
7256.818
 20
-8495.729
 30
-1068.971
 70
    32
  0
VERTEX
  8
M63LALIFT
 62
6
 10
7256.768
 20
-8495.601
 30
-1068.971
 70
    32
  0
VERTEX
  8
M63LALIFT
 62
6
 10
7256.574
 20
-8495.512
 30
-1068.971
 70
    32
  0
VERTEX
  8
M63LALIFT
 62
6
 10
7256.485
 20
-8495.414
 30
-1068.971
 70
    32
  0
VERTEX
  8
M63LALIFT
 62
6
 10
7256.402
 20
-8495.242
 30
-1068.971
 70
    32
  0
VERTEX
  8
M63LALIFT
 62
6
 10
7256.357
 20
-8495.167
 30
-1068.971
 70
    32
  0
VERTEX
  8
M63LALIFT
 62
6
 10
7256.333
 20
-8494.951
 30
-1068.971
 70
    32
  0
VERTEX
  8
M63LALIFT
 62
6
 10
7256.324
 20
-8494.912
 30
-1068.971
 70
    32
  0
VERTEX
  8
M63LALIFT
 62
6
 10
7256.246
 20
-8494.682
 30
-1068.971
 70
    32
  0
VERTEX
  8
M63LALIFT
 62
6
 10
7256.244
 20
-8494.670
 30
-1068.971
 70
    32
  0
VERTEX
  8
M63LALIFT
 62
6
 10
7256.242
 20
-8494.669
 30
-1068.971
 70
    32
  0
VERTEX
  8
M63LALIFT
 62
6
 10
7255.951
 20
-8494.533
 30
-1068.971
 70
    32
  0
VERTEX
  8
M63LALIFT
 62
6
 10
7255.954
 20
-8494.527
 30
-1068.971
 70
    32
  0
VERTEX
  8
M63LALIFT
 62
6
 10
7256.097
 20
-8494.268
 30
-1068.971
 70
    32
  0
VERTEX
  8
M63LALIFT
 62
6
 10
7256.070
 20
-8494.236
 30
-1068.971
 70
    32
  0
VERTEX
  8
M63LALIFT
 62
6
 10
7255.953
 20
-8494.113
 30
-1068.971
 70
    32
  0
VERTEX
  8
M63LALIFT
 62
6
 10
7255.947
 20
-8494.055
 30
-1068.971
 70
    32
  0
VERTEX
  8
M63LALIFT
 62
6
 10
7255.886
 20
-8493.915
 30
-1068.971
 70
    32
  0
VERTEX
  8
M63LALIFT
 62
6
 10
7255.759
 20
-8493.891
 30
-1068.971
 70
    32
  0
VERTEX
  8
M63LALIFT
 62
6
 10
7255.694
 20
-8493.768
 30
-1068.971
 70
    32
  0
VERTEX
  8
M63LALIFT
 62
6
 10
7255.739
 20
-8493.667
 30
-1068.971
 70
    32
  0
VERTEX
  8
M63LALIFT
 62
6
 10
7255.677
 20
-8493.595
 30
-1068.971
 70
    32
  0
VERTEX
  8
M63LALIFT
 62
6
 10
7255.630
 20
-8493.518
 30
-1068.971
 70
    32
  0
VERTEX
  8
M63LALIFT
 62
6
 10
7255.560
 20
-8493.450
 30
-1068.971
 70
    32
  0
VERTEX
  8
M63LALIFT
 62
6
 10
7255.535
 20
-8493.354
 30
-1068.971
 70
    32
  0
VERTEX
  8
M63LALIFT
 62
6
 10
7255.490
 20
-8493.285
 30
-1068.971
 70
    32
  0
VERTEX
  8
M63LALIFT
 62
6
 10
7255.367
 20
-8493.221
 30
-1068.971
 70
    32
  0
VERTEX
  8
M63LALIFT
 62
6
 10
7255.324
 20
-8493.159
 30
-1068.971
 70
    32
  0
VERTEX
  8
M63LALIFT
 62
6
 10
7255.315
 20
-8493.028
 30
-1068.971
 70
    32
  0
VERTEX
  8
M63LALIFT
 62
6
 10
7255.275
 20
-8492.997
 30
-1068.971
 70
    32
  0
VERTEX
  8
M63LALIFT
 62
6
 10
7255.140
 20
-8492.922
 30
-1068.971
 70
    32
  0
VERTEX
  8
M63LALIFT
 62
6
 10
7255.126
 20
-8492.880
 30
-1068.971
 70
    32
  0
VERTEX
  8
M63LALIFT
 62
6
 10
7254.931
 20
-8492.831
 30
-1068.971
 70
    32
  0
VERTEX
  8
M63LALIFT
 62
6
 10
7254.937
 20
-8492.782
 30
-1068.971
 70
    32
  0
VERTEX
  8
M63LALIFT
 62
6
 10
7255.017
 20
-8492.626
 30
-1068.971
 70
    32
  0
VERTEX
  8
M63LALIFT
 62
6
 10
7254.989
 20
-8492.614
 30
-1068.971
 70
    32
  0
VERTEX
  8
M63LALIFT
 62
6
 10
7254.855
 20
-8492.537
 30
-1068.971
 70
    32
  0
VERTEX
  8
M63LALIFT
 62
6
 10
7254.856
 20
-8492.519
 30
-1068.971
 70
    32
  0
VERTEX
  8
M63LALIFT
 62
6
 10
7254.693
 20
-8492.454
 30
-1068.971
 70
    32
  0
VERTEX
  8
M63LALIFT
 62
6
 10
7254.685
 20
-8492.439
 30
-1068.971
 70
    32
  0
VERTEX
  8
M63LALIFT
 62
6
 10
7254.768
 20
-8492.271
 30
-1068.971
 70
    32
  0
VERTEX
  8
M63LALIFT
 62
6
 10
7254.778
 20
-8492.249
 30
-1068.971
 70
    32
  0
VERTEX
  8
M63LALIFT
 62
6
 10
7254.777
 20
-8492.247
 30
-1068.971
 70
    32
  0
VERTEX
  8
M63LALIFT
 62
6
 10
7254.632
 20
-8492.206
 30
-1068.971
 70
    32
  0
VERTEX
  8
M63LALIFT
 62
6
 10
7254.550
 20
-8492.180
 30
-1068.971
 70
    32
  0
VERTEX
  8
M63LALIFT
 62
6
 10
7254.509
 20
-8492.146
 30
-1068.971
 70
    32
  0
VERTEX
  8
M63LALIFT
 62
6
 10
7254.428
 20
-8492.071
 30
-1068.971
 70
    32
  0
VERTEX
  8
M63LALIFT
 62
6
 10
7254.424
 20
-8492.070
 30
-1068.971
 70
    32
  0
VERTEX
  8
M63LALIFT
 62
6
 10
7254.491
 20
-8491.901
 30
-1068.971
 70
    32
  0
VERTEX
  8
M63LALIFT
 62
6
 10
7254.499
 20
-8491.881
 30
-1068.971
 70
    32
  0
VERTEX
  8
M63LALIFT
 62
6
 10
7254.392
 20
-8491.804
 30
-1068.971
 70
    32
  0
VERTEX
  8
M63LALIFT
 62
6
 10
7254.385
 20
-8491.785
 30
-1068.971
 70
    32
  0
VERTEX
  8
M63LALIFT
 62
6
 10
7254.422
 20
-8491.635
 30
-1068.971
 70
    32
  0
VERTEX
  8
M63LALIFT
 62
6
 10
7254.371
 20
-8491.629
 30
-1068.971
 70
    32
  0
VERTEX
  8
M63LALIFT
 62
6
 10
7254.196
 20
-8491.597
 30
-1068.971
 70
    32
  0
VERTEX
  8
M63LALIFT
 62
6
 10
7254.213
 20
-8491.564
 30
-1068.971
 70
    32
  0
VERTEX
  8
M63LALIFT
 62
6
 10
7254.197
 20
-8491.450
 30
-1068.971
 70
    32
  0
VERTEX
  8
M63LALIFT
 62
6
 10
7254.163
 20
-8491.428
 30
-1068.971
 70
    32
  0
VERTEX
  8
M63LALIFT
 62
6
 10
7254.143
 20
-8491.325
 30
-1068.971
 70
    32
  0
VERTEX
  8
M63LALIFT
 62
6
 10
7254.149
 20
-8491.283
 30
-1068.971
 70
    32
  0
VERTEX
  8
M63LALIFT
 62
6
 10
7254.133
 20
-8491.200
 30
-1068.971
 70
    32
  0
VERTEX
  8
M63LALIFT
 62
6
 10
7254.087
 20
-8491.177
 30
-1068.971
 70
    32
  0
VERTEX
  8
M63LALIFT
 62
6
 10
7254.069
 20
-8491.100
 30
-1068.971
 70
    32
  0
VERTEX
  8
M63LALIFT
 62
6
 10
7254.071
 20
-8491.051
 30
-1068.971
 70
    32
  0
VERTEX
  8
M63LALIFT
 62
6
 10
7254.015
 20
-8490.997
 30
-1068.971
 70
    32
  0
VERTEX
  8
M63LALIFT
 62
6
 10
7253.961
 20
-8490.972
 30
-1068.971
 70
    32
  0
VERTEX
  8
M63LALIFT
 62
6
 10
7253.913
 20
-8490.926
 30
-1068.971
 70
    32
  0
VERTEX
  8
M63LALIFT
 62
6
 10
7253.936
 20
-8490.869
 30
-1068.971
 70
    32
  0
VERTEX
  8
M63LALIFT
 62
6
 10
7253.907
 20
-8490.810
 30
-1068.971
 70
    32
  0
VERTEX
  8
M63LALIFT
 62
6
 10
7253.861
 20
-8490.775
 30
-1068.971
 70
    32
  0
VERTEX
  8
M63LALIFT
 62
6
 10
7253.864
 20
-8490.715
 30
-1068.971
 70
    32
  0
VERTEX
  8
M63LALIFT
 62
6
 10
7253.818
 20
-8490.669
 30
-1068.971
 70
    32
  0
VERTEX
  8
M63LALIFT
 62
6
 10
7253.831
 20
-8490.601
 30
-1068.971
 70
    32
  0
VERTEX
  8
M63LALIFT
 62
6
 10
7253.690
 20
-8490.604
 30
-1068.971
 70
    32
  0
VERTEX
  8
M63LALIFT
 62
6
 10
7253.667
 20
-8490.541
 30
-1068.971
 70
    32
  0
VERTEX
  8
M63LALIFT
 62
6
 10
7253.759
 20
-8490.436
 30
-1068.971
 70
    32
  0
VERTEX
  8
M63LALIFT
 62
6
 10
7253.733
 20
-8490.395
 30
-1068.971
 70
    32
  0
VERTEX
  8
M63LALIFT
 62
6
 10
7253.628
 20
-8490.377
 30
-1068.971
 70
    32
  0
VERTEX
  8
M63LALIFT
 62
6
 10
7253.600
 20
-8490.334
 30
-1068.971
 70
    32
  0
VERTEX
  8
M63LALIFT
 62
6
 10
7253.567
 20
-8490.291
 30
-1068.971
 70
    32
  0
VERTEX
  8
M63LALIFT
 62
6
 10
7253.526
 20
-8490.256
 30
-1068.971
 70
    32
  0
VERTEX
  8
M63LALIFT
 62
6
 10
7253.408
 20
-8490.253
 30
-1068.971
 70
    32
  0
VERTEX
  8
M63LALIFT
 62
6
 10
7253.418
 20
-8490.206
 30
-1068.971
 70
    32
  0
VERTEX
  8
M63LALIFT
 62
6
 10
7253.466
 20
-8490.129
 30
-1068.971
 70
    32
  0
VERTEX
  8
M63LALIFT
 62
6
 10
7253.444
 20
-8490.102
 30
-1068.971
 70
    32
  0
VERTEX
  8
M63LALIFT
 62
6
 10
7253.468
 20
-8490.039
 30
-1068.971
 70
    32
  0
VERTEX
  8
M63LALIFT
 62
6
 10
7253.457
 20
-8490.005
 30
-1068.971
 70
    32
  0
VERTEX
  8
M63LALIFT
 62
6
 10
7253.381
 20
-8489.984
 30
-1068.971
 70
    32
  0
VERTEX
  8
M63LALIFT
 62
6
 10
7253.369
 20
-8489.951
 30
-1068.971
 70
    32
  0
VERTEX
  8
M63LALIFT
 62
6
 10
7253.391
 20
-8489.879
 30
-1068.971
 70
    32
  0
VERTEX
  8
M63LALIFT
 62
6
 10
7253.368
 20
-8489.853
 30
-1068.971
 70
    32
  0
VERTEX
  8
M63LALIFT
 62
6
 10
7253.266
 20
-8489.835
 30
-1068.971
 70
    32
  0
VERTEX
  8
M63LALIFT
 62
6
 10
7253.265
 20
-8489.798
 30
-1068.971
 70
    32
  0
VERTEX
  8
M63LALIFT
 62
6
 10
7253.244
 20
-8489.744
 30
-1068.971
 70
    32
  0
VERTEX
  8
M63LALIFT
 62
6
 10
7253.194
 20
-8489.735
 30
-1068.971
 70
    32
  0
VERTEX
  8
M63LALIFT
 62
6
 10
7253.088
 20
-8489.729
 30
-1068.971
 70
    32
  0
VERTEX
  8
M63LALIFT
 62
6
 10
7253.074
 20
-8489.695
 30
-1068.971
 70
    32
  0
VERTEX
  8
M63LALIFT
 62
6
 10
7253.236
 20
-8489.562
 30
-1068.971
 70
    32
  0
VERTEX
  8
M63LALIFT
 62
6
 10
7253.212
 20
-8489.543
 30
-1068.971
 70
    32
  0
VERTEX
  8
M63LALIFT
 62
6
 10
7253.127
 20
-8489.523
 30
-1068.971
 70
    32
  0
VERTEX
  8
M63LALIFT
 62
6
 10
7253.135
 20
-8489.492
 30
-1068.971
 70
    32
  0
VERTEX
  8
M63LALIFT
 62
6
 10
7253.120
 20
-8489.452
 30
-1068.971
 70
    32
  0
VERTEX
  8
M63LALIFT
 62
6
 10
7253.060
 20
-8489.450
 30
-1068.971
 70
    32
  0
VERTEX
  8
M63LALIFT
 62
6
 10
7252.997
 20
-8489.423
 30
-1068.971
 70
    32
  0
VERTEX
  8
M63LALIFT
 62
6
 10
7252.966
 20
-8489.407
 30
-1068.971
 70
    32
  0
VERTEX
  8
M63LALIFT
 62
6
 10
7252.999
 20
-8489.339
 30
-1068.971
 70
    32
  0
VERTEX
  8
M63LALIFT
 62
6
 10
7252.983
 20
-8489.323
 30
-1068.971
 70
    32
  0
VERTEX
  8
M63LALIFT
 62
6
 10
7252.918
 20
-8489.297
 30
-1068.971
 70
    32
  0
VERTEX
  8
M63LALIFT
 62
6
 10
7252.900
 20
-8489.275
 30
-1068.971
 70
    32
  0
VERTEX
  8
M63LALIFT
 62
6
 10
7252.908
 20
-8489.228
 30
-1068.971
 70
    32
  0
VERTEX
  8
M63LALIFT
 62
6
 10
7252.911
 20
-8489.204
 30
-1068.971
 70
    32
  0
VERTEX
  8
M63LALIFT
 62
6
 10
7252.950
 20
-8489.141
 30
-1068.971
 70
    32
  0
VERTEX
  8
M63LALIFT
 62
6
 10
7252.935
 20
-8489.127
 30
-1068.971
 70
    32
  0
VERTEX
  8
M63LALIFT
 62
6
 10
7252.843
 20
-8489.110
 30
-1068.971
 70
    32
  0
VERTEX
  8
M63LALIFT
 62
6
 10
7252.521
 20
-8489.214
 30
-1068.971
 70
    32
  0
VERTEX
  8
M63LALIFT
 62
6
 10
7251.977
 20
-8489.400
 30
-1068.971
 70
    32
  0
VERTEX
  8
M63LALIFT
 62
6
 10
7251.892
 20
-8489.357
 30
-1068.971
 70
    32
  0
VERTEX
  8
M63LALIFT
 62
6
 10
7252.242
 20
-8489.074
 30
-1068.971
 70
    32
  0
VERTEX
  8
M63LALIFT
 62
6
 10
7252.291
 20
-8488.926
 30
-1068.971
 70
    32
  0
VERTEX
  8
M63LALIFT
 62
6
 10
7252.242
 20
-8488.893
 30
-1068.971
 70
    32
  0
VERTEX
  8
M63LALIFT
 62
6
 10
7252.600
 20
-8488.681
 30
-1068.971
 70
    32
  0
VERTEX
  8
M63LALIFT
 62
6
 10
7252.542
 20
-8488.668
 30
-1068.971
 70
    32
  0
VERTEX
  8
M63LALIFT
 62
6
 10
7252.549
 20
-8488.621
 30
-1068.971
 70
    32
  0
VERTEX
  8
M63LALIFT
 62
6
 10
7252.592
 20
-8488.511
 30
-1068.971
 70
    32
  0
VERTEX
  8
M63LALIFT
 62
6
 10
7252.547
 20
-8488.485
 30
-1068.971
 70
    32
  0
VERTEX
  8
M63LALIFT
 62
6
 10
7252.420
 20
-8488.451
 30
-1068.971
 70
    32
  0
VERTEX
  8
M63LALIFT
 62
6
 10
7252.416
 20
-8488.410
 30
-1068.971
 70
    32
  0
VERTEX
  8
M63LALIFT
 62
6
 10
7252.361
 20
-8488.340
 30
-1068.971
 70
    32
  0
VERTEX
  8
M63LALIFT
 62
6
 10
7252.309
 20
-8488.314
 30
-1068.971
 70
    32
  0
VERTEX
  8
M63LALIFT
 62
6
 10
7252.218
 20
-8488.280
 30
-1068.971
 70
    32
  0
VERTEX
  8
M63LALIFT
 62
6
 10
7252.236
 20
-8488.218
 30
-1068.971
 70
    32
  0
VERTEX
  8
M63LALIFT
 62
6
 10
7252.210
 20
-8488.156
 30
-1068.971
 70
    32
  0
VERTEX
  8
M63LALIFT
 62
6
 10
7252.183
 20
-8488.119
 30
-1068.971
 70
    32
  0
VERTEX
  8
M63LALIFT
 62
6
 10
7252.154
 20
-8488.053
 30
-1068.971
 70
    32
  0
VERTEX
  8
M63LALIFT
 62
6
 10
7252.123
 20
-8488.011
 30
-1068.971
 70
    32
  0
VERTEX
  8
M63LALIFT
 62
6
 10
7251.985
 20
-8487.997
 30
-1068.971
 70
    32
  0
VERTEX
  8
M63LALIFT
 62
6
 10
7251.919
 20
-8487.959
 30
-1068.971
 70
    32
  0
VERTEX
  8
M63LALIFT
 62
6
 10
7251.878
 20
-8487.905
 30
-1068.971
 70
    32
  0
VERTEX
  8
M63LALIFT
 62
6
 10
7251.804
 20
-8487.865
 30
-1068.971
 70
    32
  0
VERTEX
  8
M63LALIFT
 62
6
 10
7251.810
 20
-8487.802
 30
-1068.971
 70
    32
  0
VERTEX
  8
M63LALIFT
 62
6
 10
7251.725
 20
-8487.755
 30
-1068.971
 70
    32
  0
VERTEX
  8
M63LALIFT
 62
6
 10
7251.704
 20
-8487.713
 30
-1068.971
 70
    32
  0
VERTEX
  8
M63LALIFT
 62
6
 10
7251.566
 20
-8487.689
 30
-1068.971
 70
    32
  0
VERTEX
  8
M63LALIFT
 62
6
 10
7251.574
 20
-8487.632
 30
-1068.971
 70
    32
  0
VERTEX
  8
M63LALIFT
 62
6
 10
7251.510
 20
-8487.570
 30
-1068.971
 70
    32
  0
VERTEX
  8
M63LALIFT
 62
6
 10
7251.477
 20
-8487.540
 30
-1068.971
 70
    32
  0
VERTEX
  8
M63LALIFT
 62
6
 10
7251.480
 20
-8487.445
 30
-1068.971
 70
    32
  0
VERTEX
  8
M63LALIFT
 62
6
 10
7251.525
 20
-8487.375
 30
-1068.971
 70
    32
  0
VERTEX
  8
M63LALIFT
 62
6
 10
7251.505
 20
-8487.294
 30
-1068.971
 70
    32
  0
VERTEX
  8
M63LALIFT
 62
6
 10
7251.527
 20
-8487.237
 30
-1068.971
 70
    32
  0
VERTEX
  8
M63LALIFT
 62
6
 10
7251.394
 20
-8487.201
 30
-1068.971
 70
    32
  0
VERTEX
  8
M63LALIFT
 62
6
 10
7251.466
 20
-8487.132
 30
-1068.971
 70
    32
  0
VERTEX
  8
M63LALIFT
 62
6
 10
7251.543
 20
-8487.017
 30
-1068.971
 70
    32
  0
VERTEX
  8
M63LALIFT
 62
6
 10
7251.474
 20
-8486.993
 30
-1068.971
 70
    32
  0
VERTEX
  8
M63LALIFT
 62
6
 10
7251.439
 20
-8486.903
 30
-1068.971
 70
    32
  0
VERTEX
  8
M63LALIFT
 62
6
 10
7251.401
 20
-8486.878
 30
-1068.971
 70
    32
  0
VERTEX
  8
M63LALIFT
 62
6
 10
7251.453
 20
-8486.747
 30
-1068.971
 70
    32
  0
VERTEX
  8
M63LALIFT
 62
6
 10
7251.431
 20
-8486.718
 30
-1068.971
 70
    32
  0
VERTEX
  8
M63LALIFT
 62
6
 10
7251.345
 20
-8486.650
 30
-1068.971
 70
    32
  0
VERTEX
  8
M63LALIFT
 62
6
 10
7251.379
 20
-8486.595
 30
-1068.971
 70
    32
  0
VERTEX
  8
M63LALIFT
 62
6
 10
7251.332
 20
-8486.497
 30
-1068.971
 70
    32
  0
VERTEX
  8
M63LALIFT
 62
6
 10
7251.271
 20
-8486.493
 30
-1068.971
 70
    32
  0
VERTEX
  8
M63LALIFT
 62
6
 10
7251.092
 20
-8486.456
 30
-1068.971
 70
    32
  0
VERTEX
  8
M63LALIFT
 62
6
 10
7251.086
 20
-8486.441
 30
-1068.971
 70
    32
  0
VERTEX
  8
M63LALIFT
 62
6
 10
7251.153
 20
-8486.287
 30
-1068.971
 70
    32
  0
VERTEX
  8
M63LALIFT
 62
6
 10
7251.159
 20
-8486.265
 30
-1068.971
 70
    32
  0
VERTEX
  8
M63LALIFT
 62
6
 10
7250.863
 20
-8486.289
 30
-1068.971
 70
    32
  0
VERTEX
  8
M63LALIFT
 62
6
 10
7250.765
 20
-8486.282
 30
-1068.971
 70
    32
  0
VERTEX
  8
M63LALIFT
 62
6
 10
7250.757
 20
-8486.276
 30
-1068.971
 70
    32
  0
VERTEX
  8
M63LALIFT
 62
6
 10
7250.483
 20
-8486.219
 30
-1068.971
 70
    32
  0
VERTEX
  8
M63LALIFT
 62
6
 10
7250.448
 20
-8486.193
 30
-1068.971
 70
    32
  0
VERTEX
  8
M63LALIFT
 62
6
 10
7250.435
 20
-8486.082
 30
-1068.971
 70
    32
  0
VERTEX
  8
M63LALIFT
 62
6
 10
7250.408
 20
-8486.046
 30
-1068.971
 70
    32
  0
VERTEX
  8
M63LALIFT
 62
6
 10
7250.252
 20
-8486.001
 30
-1068.971
 70
    32
  0
VERTEX
  8
M63LALIFT
 62
6
 10
7250.243
 20
-8485.941
 30
-1068.971
 70
    32
  0
VERTEX
  8
M63LALIFT
 62
6
 10
7250.234
 20
-8485.839
 30
-1068.971
 70
    32
  0
VERTEX
  8
M63LALIFT
 62
6
 10
7250.214
 20
-8485.775
 30
-1068.971
 70
    32
  0
VERTEX
  8
M63LALIFT
 62
6
 10
7250.183
 20
-8485.695
 30
-1068.971
 70
    32
  0
VERTEX
  8
M63LALIFT
 62
6
 10
7250.149
 20
-8485.618
 30
-1068.971
 70
    32
  0
VERTEX
  8
M63LALIFT
 62
6
 10
7250.143
 20
-8485.537
 30
-1068.971
 70
    32
  0
VERTEX
  8
M63LALIFT
 62
6
 10
7250.124
 20
-8485.453
 30
-1068.971
 70
    32
  0
VERTEX
  8
M63LALIFT
 62
6
 10
7250.113
 20
-8485.379
 30
-1068.971
 70
    32
  0
VERTEX
  8
M63LALIFT
 62
6
 10
7250.160
 20
-8485.279
 30
-1068.971
 70
    32
  0
VERTEX
  8
M63LALIFT
 62
6
 10
7250.154
 20
-8485.203
 30
-1068.971
 70
    32
  0
VERTEX
  8
M63LALIFT
 62
6
 10
7250.008
 20
-8485.143
 30
-1068.971
 70
    32
  0
VERTEX
  8
M63LALIFT
 62
6
 10
7249.942
 20
-8485.100
 30
-1068.971
 70
    32
  0
VERTEX
  8
M63LALIFT
 62
6
 10
7250.013
 20
-8484.967
 30
-1068.971
 70
    32
  0
VERTEX
  8
M63LALIFT
 62
6
 10
7250.019
 20
-8484.907
 30
-1068.971
 70
    32
  0
VERTEX
  8
M63LALIFT
 62
6
 10
7249.731
 20
-8484.844
 30
-1068.971
 70
    32
  0
VERTEX
  8
M63LALIFT
 62
6
 10
7249.734
 20
-8484.819
 30
-1068.971
 70
    32
  0
VERTEX
  8
M63LALIFT
 62
6
 10
7249.796
 20
-8484.640
 30
-1068.971
 70
    32
  0
VERTEX
  8
M63LALIFT
 62
6
 10
7249.782
 20
-8484.615
 30
-1068.971
 70
    32
  0
VERTEX
  8
M63LALIFT
 62
6
 10
7249.560
 20
-8484.585
 30
-1068.971
 70
    32
  0
VERTEX
  8
M63LALIFT
 62
6
 10
7249.496
 20
-8484.560
 30
-1068.971
 70
    32
  0
VERTEX
  8
M63LALIFT
 62
6
 10
7249.494
 20
-8484.553
 30
-1068.971
 70
    32
  0
VERTEX
  8
M63LALIFT
 62
6
 10
7249.348
 20
-8484.439
 30
-1068.971
 70
    32
  0
VERTEX
  8
M63LALIFT
 62
6
 10
7249.340
 20
-8484.408
 30
-1068.971
 70
    32
  0
VERTEX
  8
M63LALIFT
 62
6
 10
7249.321
 20
-8484.269
 30
-1068.971
 70
    32
  0
VERTEX
  8
M63LALIFT
 62
6
 10
7249.324
 20
-8484.227
 30
-1068.971
 70
    32
  0
VERTEX
  8
M63LALIFT
 62
6
 10
7249.311
 20
-8484.104
 30
-1068.971
 70
    32
  0
VERTEX
  8
M63LALIFT
 62
6
 10
7249.326
 20
-8484.037
 30
-1068.971
 70
    32
  0
VERTEX
  8
M63LALIFT
 62
6
 10
7249.319
 20
-8483.902
 30
-1068.971
 70
    32
  0
VERTEX
  8
M63LALIFT
 62
6
 10
7249.324
 20
-8483.841
 30
-1068.971
 70
    32
  0
VERTEX
  8
M63LALIFT
 62
6
 10
7249.356
 20
-8483.693
 30
-1068.971
 70
    32
  0
VERTEX
  8
M63LALIFT
 62
6
 10
7249.330
 20
-8483.632
 30
-1068.971
 70
    32
  0
VERTEX
  8
M63LALIFT
 62
6
 10
7249.319
 20
-8483.524
 30
-1068.971
 70
    32
  0
VERTEX
  8
M63LALIFT
 62
6
 10
7249.314
 20
-8483.439
 30
-1068.971
 70
    32
  0
VERTEX
  8
M63LALIFT
 62
6
 10
7249.266
 20
-8483.346
 30
-1068.971
 70
    32
  0
VERTEX
  8
M63LALIFT
 62
6
 10
7249.239
 20
-8483.260
 30
-1068.971
 70
    32
  0
VERTEX
  8
M63LALIFT
 62
6
 10
7249.296
 20
-8483.130
 30
-1068.971
 70
    32
  0
VERTEX
  8
M63LALIFT
 62
6
 10
7249.288
 20
-8483.017
 30
-1068.971
 70
    32
  0
VERTEX
  8
M63LALIFT
 62
6
 10
7249.278
 20
-8482.925
 30
-1068.971
 70
    32
  0
VERTEX
  8
M63LALIFT
 62
6
 10
7249.222
 20
-8482.814
 30
-1068.971
 70
    32
  0
VERTEX
  8
M63LALIFT
 62
6
 10
7249.210
 20
-8482.740
 30
-1068.971
 70
    32
  0
VERTEX
  8
M63LALIFT
 62
6
 10
7249.218
 20
-8482.595
 30
-1068.971
 70
    32
  0
VERTEX
  8
M63LALIFT
 62
6
 10
7249.230
 20
-8482.521
 30
-1068.971
 70
    32
  0
VERTEX
  8
M63LALIFT
 62
6
 10
7249.146
 20
-8482.382
 30
-1068.971
 70
    32
  0
VERTEX
  8
M63LALIFT
 62
6
 10
7249.138
 20
-8482.339
 30
-1068.971
 70
    32
  0
VERTEX
  8
M63LALIFT
 62
6
 10
7249.031
 20
-8482.157
 30
-1068.971
 70
    32
  0
VERTEX
  8
M63LALIFT
 62
6
 10
7249.032
 20
-8482.138
 30
-1068.971
 70
    32
  0
VERTEX
  8
M63LALIFT
 62
6
 10
7249.051
 20
-8481.914
 30
-1068.971
 70
    32
  0
VERTEX
  8
M63LALIFT
 62
6
 10
7249.053
 20
-8481.904
 30
-1068.971
 70
    32
  0
VERTEX
  8
M63LALIFT
 62
6
 10
7249.023
 20
-8481.837
 30
-1068.971
 70
    32
  0
VERTEX
  8
M63LALIFT
 62
6
 10
7248.808
 20
-8481.693
 30
-1068.971
 70
    32
  0
VERTEX
  8
M63LALIFT
 62
6
 10
7248.657
 20
-8481.664
 30
-1068.971
 70
    32
  0
VERTEX
  8
M63LALIFT
 62
6
 10
7248.462
 20
-8481.531
 30
-1068.971
 70
    32
  0
VERTEX
  8
M63LALIFT
 62
6
 10
7248.241
 20
-8481.410
 30
-1068.971
 70
    32
  0
VERTEX
  8
M63LALIFT
 62
6
 10
7248.137
 20
-8481.352
 30
-1068.971
 70
    32
  0
VERTEX
  8
M63LALIFT
 62
6
 10
7247.792
 20
-8481.251
 30
-1068.971
 70
    32
  0
VERTEX
  8
M63LALIFT
 62
6
 10
7247.739
 20
-8481.180
 30
-1068.971
 70
    32
  0
VERTEX
  8
M63LALIFT
 62
6
 10
7247.737
 20
-8481.161
 30
-1068.971
 70
    32
  0
VERTEX
  8
M63LALIFT
 62
6
 10
7247.871
 20
-8480.841
 30
-1068.971
 70
    32
  0
VERTEX
  8
M63LALIFT
 62
6
 10
7247.868
 20
-8480.821
 30
-1068.971
 70
    32
  0
VERTEX
  8
M63LALIFT
 62
6
 10
7247.655
 20
-8480.579
 30
-1068.971
 70
    32
  0
VERTEX
  8
M63LALIFT
 62
6
 10
7247.625
 20
-8480.501
 30
-1068.971
 70
    32
  0
VERTEX
  8
M63LALIFT
 62
6
 10
7247.530
 20
-8480.310
 30
-1068.971
 70
    32
  0
VERTEX
  8
M63LALIFT
 62
6
 10
7247.516
 20
-8480.159
 30
-1068.971
 70
    32
  0
VERTEX
  8
M63LALIFT
 62
6
 10
7247.492
 20
-8479.997
 30
-1068.971
 70
    32
  0
VERTEX
  8
M63LALIFT
 62
6
 10
7247.406
 20
-8479.815
 30
-1068.971
 70
    32
  0
VERTEX
  8
M63LALIFT
 62
6
 10
7247.341
 20
-8479.698
 30
-1068.971
 70
    32
  0
VERTEX
  8
M63LALIFT
 62
6
 10
7247.298
 20
-8479.427
 30
-1068.971
 70
    32
  0
VERTEX
  8
M63LALIFT
 62
6
 10
7247.291
 20
-8479.346
 30
-1068.971
 70
    32
  0
VERTEX
  8
M63LALIFT
 62
6
 10
7247.162
 20
-8479.066
 30
-1068.971
 70
    32
  0
VERTEX
  8
M63LALIFT
 62
6
 10
7247.131
 20
-8479.048
 30
-1068.971
 70
    32
  0
VERTEX
  8
M63LALIFT
 62
6
 10
7247.065
 20
-8478.969
 30
-1068.971
 70
    32
  0
VERTEX
  8
M63LALIFT
 62
6
 10
7246.657
 20
-8478.729
 30
-1068.971
 70
    32
  0
VERTEX
  8
M63LALIFT
 62
6
 10
7246.520
 20
-8478.497
 30
-1068.971
 70
    32
  0
VERTEX
  8
M63LALIFT
 62
6
 10
7246.386
 20
-8478.279
 30
-1068.971
 70
    32
  0
VERTEX
  8
M63LALIFT
 62
6
 10
7246.425
 20
-8477.917
 30
-1068.971
 70
    32
  0
VERTEX
  8
M63LALIFT
 62
6
 10
7246.268
 20
-8477.786
 30
-1068.971
 70
    32
  0
VERTEX
  8
M63LALIFT
 62
6
 10
7246.087
 20
-8477.499
 30
-1068.971
 70
    32
  0
VERTEX
  8
M63LALIFT
 62
6
 10
7245.597
 20
-8477.576
 30
-1068.971
 70
    32
  0
VERTEX
  8
M63LALIFT
 62
6
 10
7245.192
 20
-8477.491
 30
-1068.971
 70
    32
  0
VERTEX
  8
M63LALIFT
 62
6
 10
7244.939
 20
-8477.447
 30
-1068.971
 70
    32
  0
VERTEX
  8
M63LALIFT
 62
6
 10
7244.644
 20
-8477.373
 30
-1068.971
 70
    32
  0
VERTEX
  8
M63LALIFT
 62
6
 10
7244.475
 20
-8477.221
 30
-1068.971
 70
    32
  0
VERTEX
  8
M63LALIFT
 62
6
 10
7244.403
 20
-8477.143
 30
-1068.971
 70
    32
  0
VERTEX
  8
M63LALIFT
 62
6
 10
7244.029
 20
-8476.911
 30
-1068.971
 70
    32
  0
VERTEX
  8
M63LALIFT
 62
6
 10
7243.840
 20
-8476.613
 30
-1068.971
 70
    32
  0
VERTEX
  8
M63LALIFT
 62
6
 10
7243.818
 20
-8476.435
 30
-1068.971
 70
    32
  0
VERTEX
  8
M63LALIFT
 62
6
 10
7243.482
 20
-8476.004
 30
-1068.971
 70
    32
  0
VERTEX
  8
M63LALIFT
 62
6
 10
7243.475
 20
-8476.001
 30
-1068.971
 70
    32
  0
VERTEX
  8
M63LALIFT
 62
6
 10
7243.472
 20
-8475.998
 30
-1068.971
 70
    32
  0
VERTEX
  8
M63LALIFT
 62
6
 10
7243.077
 20
-8475.642
 30
-1068.971
 70
    32
  0
VERTEX
  8
M63LALIFT
 62
6
 10
7242.788
 20
-8475.487
 30
-1068.971
 70
    32
  0
VERTEX
  8
M63LALIFT
 62
6
 10
7242.541
 20
-8475.373
 30
-1068.971
 70
    32
  0
VERTEX
  8
M63LALIFT
 62
6
 10
7242.148
 20
-8475.166
 30
-1068.971
 70
    32
  0
VERTEX
  8
M63LALIFT
 62
6
 10
7241.861
 20
-8475.049
 30
-1068.971
 70
    32
  0
VERTEX
  8
M63LALIFT
 62
6
 10
7240.727
 20
-8474.715
 30
-1068.971
 70
    32
  0
VERTEX
  8
M63LALIFT
 62
6
 10
7240.586
 20
-8474.630
 30
-1068.971
 70
    32
  0
VERTEX
  8
M63LALIFT
 62
6
 10
7240.508
 20
-8474.582
 30
-1068.971
 70
    32
  0
VERTEX
  8
M63LALIFT
 62
6
 10
7240.029
 20
-8474.354
 30
-1068.971
 70
    32
  0
VERTEX
  8
M63LALIFT
 62
6
 10
7239.526
 20
-8474.145
 30
-1068.971
 70
    32
  0
VERTEX
  8
M63LALIFT
 62
6
 10
7239.472
 20
-8474.108
 30
-1068.971
 70
    32
  0
VERTEX
  8
M63LALIFT
 62
6
 10
7239.373
 20
-8474.116
 30
-1068.971
 70
    32
  0
VERTEX
  8
M63LALIFT
 62
6
 10
7239.201
 20
-8474.093
 30
-1068.971
 70
    32
  0
VERTEX
  8
M63LALIFT
 62
6
 10
7237.696
 20
-8473.612
 30
-1068.971
 70
    32
  0
VERTEX
  8
M63LALIFT
 62
6
 10
7237.230
 20
-8473.450
 30
-1068.971
 70
    32
  0
VERTEX
  8
M63LALIFT
 62
6
 10
7236.999
 20
-8473.248
 30
-1068.971
 70
    32
  0
VERTEX
  8
M63LALIFT
 62
6
 10
7236.806
 20
-8472.873
 30
-1068.971
 70
    32
  0
VERTEX
  8
M63LALIFT
 62
6
 10
7236.028
 20
-8472.704
 30
-1068.971
 70
    32
  0
VERTEX
  8
M63LALIFT
 62
6
 10
7235.873
 20
-8472.632
 30
-1068.971
 70
    32
  0
VERTEX
  8
M63LALIFT
 62
6
 10
7235.718
 20
-8472.555
 30
-1068.971
 70
    32
  0
VERTEX
  8
M63LALIFT
 62
6
 10
7235.072
 20
-8472.186
 30
-1068.971
 70
    32
  0
VERTEX
  8
M63LALIFT
 62
6
 10
7234.360
 20
-8471.705
 30
-1068.971
 70
    32
  0
VERTEX
  8
M63LALIFT
 62
6
 10
7234.194
 20
-8471.617
 30
-1068.971
 70
    32
  0
VERTEX
  8
M63LALIFT
 62
6
 10
7234.036
 20
-8471.596
 30
-1068.971
 70
    32
  0
VERTEX
  8
M63LALIFT
 62
6
 10
7233.167
 20
-8471.412
 30
-1068.971
 70
    32
  0
VERTEX
  8
M63LALIFT
 62
6
 10
7232.366
 20
-8471.242
 30
-1068.971
 70
    32
  0
VERTEX
  8
M63LALIFT
 62
6
 10
7230.995
 20
-8470.881
 30
-1068.971
 70
    32
  0
VERTEX
  8
M63LALIFT
 62
6
 10
7230.498
 20
-8470.754
 30
-1068.971
 70
    32
  0
VERTEX
  8
M63LALIFT
 62
6
 10
7229.272
 20
-8469.828
 30
-1068.971
 70
    32
  0
VERTEX
  8
M63LALIFT
 62
6
 10
7227.952
 20
-8469.398
 30
-1068.971
 70
    32
  0
VERTEX
  8
M63LALIFT
 62
6
 10
7226.838
 20
-8469.297
 30
-1068.971
 70
    32
  0
VERTEX
  8
M63LALIFT
 62
6
 10
7225.330
 20
-8468.277
 30
-1068.971
 70
    32
  0
VERTEX
  8
M63LALIFT
 62
6
 10
7225.216
 20
-8468.201
 30
-1068.971
 70
    32
  0
VERTEX
  8
M63LALIFT
 62
6
 10
7225.102
 20
-8468.123
 30
-1068.971
 70
    32
  0
VERTEX
  8
M63LALIFT
 62
6
 10
7223.805
 20
-8469.055
 30
-1068.971
 70
    32
  0
VERTEX
  8
M63LALIFT
 62
6
 10
7223.409
 20
-8469.405
 30
-1068.971
 70
    32
  0
VERTEX
  8
M63LALIFT
 62
6
 10
7223.170
 20
-8469.670
 30
-1068.971
 70
    32
  0
VERTEX
  8
M63LALIFT
 62
6
 10
7222.763
 20
-8469.942
 30
-1068.971
 70
    32
  0
VERTEX
  8
M63LALIFT
 62
6
 10
7222.167
 20
-8470.340
 30
-1068.971
 70
    32
  0
VERTEX
  8
M63LALIFT
 62
6
 10
7221.725
 20
-8470.661
 30
-1068.971
 70
    32
  0
VERTEX
  8
M63LALIFT
 62
6
 10
7220.760
 20
-8471.236
 30
-1068.971
 70
    32
  0
VERTEX
  8
M63LALIFT
 62
6
 10
7219.785
 20
-8471.685
 30
-1068.971
 70
    32
  0
VERTEX
  8
M63LALIFT
 62
6
 10
7219.263
 20
-8472.273
 30
-1068.971
 70
    32
  0
VERTEX
  8
M63LALIFT
 62
6
 10
7218.666
 20
-8473.414
 30
-1068.971
 70
    32
  0
VERTEX
  8
M63LALIFT
 62
6
 10
7218.599
 20
-8473.522
 30
-1068.971
 70
    32
  0
VERTEX
  8
M63LALIFT
 62
6
 10
7218.560
 20
-8473.578
 30
-1068.971
 70
    32
  0
VERTEX
  8
M63LALIFT
 62
6
 10
7218.372
 20
-8473.916
 30
-1068.971
 70
    32
  0
VERTEX
  8
M63LALIFT
 62
6
 10
7217.481
 20
-8475.453
 30
-1068.971
 70
    32
  0
VERTEX
  8
M63LALIFT
 62
6
 10
7217.398
 20
-8475.702
 30
-1068.971
 70
    32
  0
VERTEX
  8
M63LALIFT
 62
6
 10
7217.336
 20
-8475.917
 30
-1068.971
 70
    32
  0
VERTEX
  8
M63LALIFT
 62
6
 10
7217.009
 20
-8476.684
 30
-1068.971
 70
    32
  0
VERTEX
  8
M63LALIFT
 62
6
 10
7217.052
 20
-8477.581
 30
-1068.971
 70
    32
  0
VERTEX
  8
M63LALIFT
 62
6
 10
7217.037
 20
-8477.626
 30
-1068.971
 70
    32
  0
VERTEX
  8
M63LALIFT
 62
6
 10
7217.033
 20
-8477.717
 30
-1068.971
 70
    32
  0
VERTEX
  8
M63LALIFT
 62
6
 10
7216.743
 20
-8478.719
 30
-1068.971
 70
    32
  0
VERTEX
  8
M63LALIFT
 62
6
 10
7216.319
 20
-8479.760
 30
-1068.971
 70
    32
  0
VERTEX
  8
M63LALIFT
 62
6
 10
7216.319
 20
-8479.763
 30
-1068.971
 70
    32
  0
VERTEX
  8
M63LALIFT
 62
6
 10
7216.327
 20
-8480.661
 30
-1068.971
 70
    32
  0
VERTEX
  8
M63LALIFT
 62
6
 10
7216.574
 20
-8481.086
 30
-1068.971
 70
    32
  0
VERTEX
  8
M63LALIFT
 62
6
 10
7216.690
 20
-8481.516
 30
-1068.971
 70
    32
  0
VERTEX
  8
M63LALIFT
 62
6
 10
7216.868
 20
-8482.230
 30
-1068.971
 70
    32
  0
VERTEX
  8
M63LALIFT
 62
6
 10
7216.884
 20
-8482.294
 30
-1068.971
 70
    32
  0
VERTEX
  8
M63LALIFT
 62
6
 10
7217.126
 20
-8482.584
 30
-1068.971
 70
    32
  0
VERTEX
  8
M63LALIFT
 62
6
 10
7217.417
 20
-8482.951
 30
-1068.971
 70
    32
  0
VERTEX
  8
M63LALIFT
 62
6
 10
7217.482
 20
-8483.007
 30
-1068.971
 70
    32
  0
VERTEX
  8
M63LALIFT
 62
6
 10
7217.734
 20
-8483.777
 30
-1068.971
 70
    32
  0
VERTEX
  8
M63LALIFT
 62
6
 10
7218.002
 20
-8484.020
 30
-1068.971
 70
    32
  0
VERTEX
  8
M63LALIFT
 62
6
 10
7218.227
 20
-8484.447
 30
-1068.971
 70
    32
  0
VERTEX
  8
M63LALIFT
 62
6
 10
7218.497
 20
-8484.895
 30
-1068.971
 70
    32
  0
VERTEX
  8
M63LALIFT
 62
6
 10
7218.630
 20
-8485.092
 30
-1068.971
 70
    32
  0
VERTEX
  8
M63LALIFT
 62
6
 10
7219.011
 20
-8485.504
 30
-1068.971
 70
    32
  0
VERTEX
  8
M63LALIFT
 62
6
 10
7219.069
 20
-8485.597
 30
-1068.971
 70
    32
  0
VERTEX
  8
M63LALIFT
 62
6
 10
7219.532
 20
-8486.098
 30
-1068.971
 70
    32
  0
VERTEX
  8
M63LALIFT
 62
6
 10
7219.534
 20
-8486.100
 30
-1068.971
 70
    32
  0
VERTEX
  8
M63LALIFT
 62
6
 10
7219.540
 20
-8486.109
 30
-1068.971
 70
    32
  0
VERTEX
  8
M63LALIFT
 62
6
 10
7219.520
 20
-8486.510
 30
-1068.971
 70
    32
  0
VERTEX
  8
M63LALIFT
 62
6
 10
7219.513
 20
-8486.608
 30
-1068.971
 70
    32
  0
VERTEX
  8
M63LALIFT
 62
6
 10
7219.355
 20
-8486.888
 30
-1068.971
 70
    32
  0
VERTEX
  8
M63LALIFT
 62
6
 10
7219.334
 20
-8487.077
 30
-1068.971
 70
    32
  0
VERTEX
  8
M63LALIFT
 62
6
 10
7219.317
 20
-8487.267
 30
-1068.971
 70
    32
  0
VERTEX
  8
M63LALIFT
 62
6
 10
7219.306
 20
-8487.555
 30
-1068.971
 70
    32
  0
VERTEX
  8
M63LALIFT
 62
6
 10
7219.285
 20
-8487.630
 30
-1068.971
 70
    32
  0
VERTEX
  8
M63LALIFT
 62
6
 10
7219.238
 20
-8487.899
 30
-1068.971
 70
    32
  0
VERTEX
  8
M63LALIFT
 62
6
 10
7219.276
 20
-8487.967
 30
-1068.971
 70
    32
  0
VERTEX
  8
M63LALIFT
 62
6
 10
7219.284
 20
-8487.978
 30
-1068.971
 70
    32
  0
VERTEX
  8
M63LALIFT
 62
6
 10
7219.567
 20
-8488.424
 30
-1068.971
 70
    32
  0
VERTEX
  8
M63LALIFT
 62
6
 10
7219.617
 20
-8488.522
 30
-1068.971
 70
    32
  0
VERTEX
  8
M63LALIFT
 62
6
 10
7219.856
 20
-8488.849
 30
-1068.971
 70
    32
  0
VERTEX
  8
M63LALIFT
 62
6
 10
7219.851
 20
-8489.065
 30
-1068.971
 70
    32
  0
VERTEX
  8
M63LALIFT
 62
6
 10
7219.999
 20
-8489.289
 30
-1068.971
 70
    32
  0
VERTEX
  8
M63LALIFT
 62
6
 10
7220.076
 20
-8489.579
 30
-1068.971
 70
    32
  0
VERTEX
  8
M63LALIFT
 62
6
 10
7220.165
 20
-8489.708
 30
-1068.971
 70
    32
  0
VERTEX
  8
M63LALIFT
 62
6
 10
7220.314
 20
-8490.089
 30
-1068.971
 70
    32
  0
VERTEX
  8
M63LALIFT
 62
6
 10
7220.333
 20
-8490.140
 30
-1068.971
 70
    32
  0
VERTEX
  8
M63LALIFT
 62
6
 10
7220.423
 20
-8490.363
 30
-1068.971
 70
    32
  0
SEQEND
  8
M63LALIFT
  0
POLYLINE
  8
M63LALIFT
 62
6
 66
     1
 70
     9
  0
VERTEX
  8
M63LALIFT
 62
6
 10
7253.862
 20
-8505.097
 30
-1064.255
 70
    32
  0
VERTEX
  8
M63LALIFT
 62
6
 10
7253.871
 20
-8505.222
 30
-1064.255
 70
    32
  0
VERTEX
  8
M63LALIFT
 62
6
 10
7253.670
 20
-8505.565
 30
-1064.255
 70
    32
  0
VERTEX
  8
M63LALIFT
 62
6
 10
7253.498
 20
-8505.867
 30
-1064.255
 70
    32
  0
VERTEX
  8
M63LALIFT
 62
6
 10
7253.502
 20
-8506.107
 30
-1064.255
 70
    32
  0
VERTEX
  8
M63LALIFT
 62
6
 10
7253.429
 20
-8506.671
 30
-1064.255
 70
    32
  0
VERTEX
  8
M63LALIFT
 62
6
 10
7253.401
 20
-8507.394
 30
-1064.255
 70
    32
  0
VERTEX
  8
M63LALIFT
 62
6
 10
7253.392
 20
-8507.447
 30
-1064.255
 70
    32
  0
VERTEX
  8
M63LALIFT
 62
6
 10
7253.898
 20
-8507.911
 30
-1064.255
 70
    32
  0
VERTEX
  8
M63LALIFT
 62
6
 10
7253.899
 20
-8507.974
 30
-1064.255
 70
    32
  0
VERTEX
  8
M63LALIFT
 62
6
 10
7253.979
 20
-8508.217
 30
-1064.255
 70
    32
  0
VERTEX
  8
M63LALIFT
 62
6
 10
7254.017
 20
-8508.592
 30
-1064.255
 70
    32
  0
VERTEX
  8
M63LALIFT
 62
6
 10
7254.021
 20
-8508.676
 30
-1064.255
 70
    32
  0
VERTEX
  8
M63LALIFT
 62
6
 10
7253.839
 20
-8509.141
 30
-1064.255
 70
    32
  0
VERTEX
  8
M63LALIFT
 62
6
 10
7253.869
 20
-8509.460
 30
-1064.255
 70
    32
  0
VERTEX
  8
M63LALIFT
 62
6
 10
7253.696
 20
-8509.827
 30
-1064.255
 70
    32
  0
VERTEX
  8
M63LALIFT
 62
6
 10
7253.301
 20
-8510.404
 30
-1064.255
 70
    32
  0
VERTEX
  8
M63LALIFT
 62
6
 10
7253.299
 20
-8510.409
 30
-1064.255
 70
    32
  0
VERTEX
  8
M63LALIFT
 62
6
 10
7253.296
 20
-8510.422
 30
-1064.255
 70
    32
  0
VERTEX
  8
M63LALIFT
 62
6
 10
7253.302
 20
-8511.492
 30
-1064.255
 70
    32
  0
VERTEX
  8
M63LALIFT
 62
6
 10
7253.253
 20
-8512.255
 30
-1064.255
 70
    32
  0
VERTEX
  8
M63LALIFT
 62
6
 10
7253.279
 20
-8512.725
 30
-1064.255
 70
    32
  0
VERTEX
  8
M63LALIFT
 62
6
 10
7253.231
 20
-8513.491
 30
-1064.255
 70
    32
  0
VERTEX
  8
M63LALIFT
 62
6
 10
7252.993
 20
-8513.850
 30
-1064.255
 70
    32
  0
VERTEX
  8
M63LALIFT
 62
6
 10
7252.754
 20
-8514.297
 30
-1064.255
 70
    32
  0
VERTEX
  8
M63LALIFT
 62
6
 10
7252.426
 20
-8514.774
 30
-1064.255
 70
    32
  0
VERTEX
  8
M63LALIFT
 62
6
 10
7252.419
 20
-8515.476
 30
-1064.255
 70
    32
  0
VERTEX
  8
M63LALIFT
 62
6
 10
7252.465
 20
-8515.770
 30
-1064.255
 70
    32
  0
VERTEX
  8
M63LALIFT
 62
6
 10
7252.520
 20
-8515.792
 30
-1064.255
 70
    32
  0
VERTEX
  8
M63LALIFT
 62
6
 10
7252.925
 20
-8517.049
 30
-1064.255
 70
    32
  0
VERTEX
  8
M63LALIFT
 62
6
 10
7252.945
 20
-8517.319
 30
-1064.255
 70
    32
  0
VERTEX
  8
M63LALIFT
 62
6
 10
7253.467
 20
-8518.184
 30
-1064.255
 70
    32
  0
VERTEX
  8
M63LALIFT
 62
6
 10
7253.425
 20
-8518.574
 30
-1064.255
 70
    32
  0
VERTEX
  8
M63LALIFT
 62
6
 10
7253.639
 20
-8519.457
 30
-1064.255
 70
    32
  0
VERTEX
  8
M63LALIFT
 62
6
 10
7253.319
 20
-8520.763
 30
-1064.255
 70
    32
  0
VERTEX
  8
M63LALIFT
 62
6
 10
7253.284
 20
-8521.091
 30
-1064.255
 70
    32
  0
VERTEX
  8
M63LALIFT
 62
6
 10
7253.129
 20
-8521.530
 30
-1064.255
 70
    32
  0
VERTEX
  8
M63LALIFT
 62
6
 10
7252.511
 20
-8522.323
 30
-1064.255
 70
    32
  0
VERTEX
  8
M63LALIFT
 62
6
 10
7251.498
 20
-8523.190
 30
-1064.255
 70
    32
  0
VERTEX
  8
M63LALIFT
 62
6
 10
7250.030
 20
-8524.337
 30
-1064.255
 70
    32
  0
VERTEX
  8
M63LALIFT
 62
6
 10
7249.458
 20
-8524.585
 30
-1064.255
 70
    32
  0
VERTEX
  8
M63LALIFT
 62
6
 10
7248.472
 20
-8524.773
 30
-1064.255
 70
    32
  0
VERTEX
  8
M63LALIFT
 62
6
 10
7247.045
 20
-8525.006
 30
-1064.255
 70
    32
  0
VERTEX
  8
M63LALIFT
 62
6
 10
7246.139
 20
-8525.692
 30
-1064.255
 70
    32
  0
VERTEX
  8
M63LALIFT
 62
6
 10
7244.923
 20
-8526.615
 30
-1064.255
 70
    32
  0
VERTEX
  8
M63LALIFT
 62
6
 10
7244.223
 20
-8527.020
 30
-1064.255
 70
    32
  0
VERTEX
  8
M63LALIFT
 62
6
 10
7243.410
 20
-8527.440
 30
-1064.255
 70
    32
  0
VERTEX
  8
M63LALIFT
 62
6
 10
7242.962
 20
-8527.689
 30
-1064.255
 70
    32
  0
VERTEX
  8
M63LALIFT
 62
6
 10
7242.590
 20
-8527.895
 30
-1064.255
 70
    32
  0
VERTEX
  8
M63LALIFT
 62
6
 10
7240.662
 20
-8529.848
 30
-1064.255
 70
    32
  0
VERTEX
  8
M63LALIFT
 62
6
 10
7240.148
 20
-8530.294
 30
-1064.255
 70
    32
  0
VERTEX
  8
M63LALIFT
 62
6
 10
7239.991
 20
-8530.111
 30
-1064.255
 70
    32
  0
VERTEX
  8
M63LALIFT
 62
6
 10
7239.948
 20
-8530.017
 30
-1064.255
 70
    32
  0
VERTEX
  8
M63LALIFT
 62
6
 10
7239.138
 20
-8528.649
 30
-1064.255
 70
    32
  0
VERTEX
  8
M63LALIFT
 62
6
 10
7238.864
 20
-8528.042
 30
-1064.255
 70
    32
  0
VERTEX
  8
M63LALIFT
 62
6
 10
7238.544
 20
-8527.230
 30
-1064.255
 70
    32
  0
VERTEX
  8
M63LALIFT
 62
6
 10
7238.073
 20
-8526.322
 30
-1064.255
 70
    32
  0
VERTEX
  8
M63LALIFT
 62
6
 10
7238.010
 20
-8525.900
 30
-1064.255
 70
    32
  0
VERTEX
  8
M63LALIFT
 62
6
 10
7237.616
 20
-8524.967
 30
-1064.255
 70
    32
  0
VERTEX
  8
M63LALIFT
 62
6
 10
7237.543
 20
-8524.767
 30
-1064.255
 70
    32
  0
VERTEX
  8
M63LALIFT
 62
6
 10
7237.220
 20
-8523.960
 30
-1064.255
 70
    32
  0
VERTEX
  8
M63LALIFT
 62
6
 10
7237.115
 20
-8523.689
 30
-1064.255
 70
    32
  0
VERTEX
  8
M63LALIFT
 62
6
 10
7237.082
 20
-8523.648
 30
-1064.255
 70
    32
  0
VERTEX
  8
M63LALIFT
 62
6
 10
7236.623
 20
-8522.886
 30
-1064.255
 70
    32
  0
VERTEX
  8
M63LALIFT
 62
6
 10
7236.416
 20
-8522.677
 30
-1064.255
 70
    32
  0
VERTEX
  8
M63LALIFT
 62
6
 10
7236.055
 20
-8522.172
 30
-1064.255
 70
    32
  0
VERTEX
  8
M63LALIFT
 62
6
 10
7235.623
 20
-8521.736
 30
-1064.255
 70
    32
  0
VERTEX
  8
M63LALIFT
 62
6
 10
7235.463
 20
-8521.520
 30
-1064.255
 70
    32
  0
VERTEX
  8
M63LALIFT
 62
6
 10
7234.979
 20
-8521.106
 30
-1064.255
 70
    32
  0
VERTEX
  8
M63LALIFT
 62
6
 10
7234.847
 20
-8520.837
 30
-1064.255
 70
    32
  0
VERTEX
  8
M63LALIFT
 62
6
 10
7234.816
 20
-8520.765
 30
-1064.255
 70
    32
  0
VERTEX
  8
M63LALIFT
 62
6
 10
7234.489
 20
-8519.874
 30
-1064.255
 70
    32
  0
VERTEX
  8
M63LALIFT
 62
6
 10
7234.417
 20
-8519.570
 30
-1064.255
 70
    32
  0
VERTEX
  8
M63LALIFT
 62
6
 10
7234.262
 20
-8518.905
 30
-1064.255
 70
    32
  0
VERTEX
  8
M63LALIFT
 62
6
 10
7234.210
 20
-8518.525
 30
-1064.255
 70
    32
  0
VERTEX
  8
M63LALIFT
 62
6
 10
7234.072
 20
-8518.061
 30
-1064.255
 70
    32
  0
VERTEX
  8
M63LALIFT
 62
6
 10
7234.150
 20
-8517.675
 30
-1064.255
 70
    32
  0
VERTEX
  8
M63LALIFT
 62
6
 10
7233.974
 20
-8517.210
 30
-1064.255
 70
    32
  0
VERTEX
  8
M63LALIFT
 62
6
 10
7233.925
 20
-8516.717
 30
-1064.255
 70
    32
  0
VERTEX
  8
M63LALIFT
 62
6
 10
7233.866
 20
-8516.412
 30
-1064.255
 70
    32
  0
VERTEX
  8
M63LALIFT
 62
6
 10
7233.740
 20
-8515.873
 30
-1064.255
 70
    32
  0
VERTEX
  8
M63LALIFT
 62
6
 10
7233.722
 20
-8515.690
 30
-1064.255
 70
    32
  0
VERTEX
  8
M63LALIFT
 62
6
 10
7233.602
 20
-8515.098
 30
-1064.255
 70
    32
  0
VERTEX
  8
M63LALIFT
 62
6
 10
7233.607
 20
-8514.972
 30
-1064.255
 70
    32
  0
VERTEX
  8
M63LALIFT
 62
6
 10
7233.505
 20
-8514.355
 30
-1064.255
 70
    32
  0
VERTEX
  8
M63LALIFT
 62
6
 10
7233.527
 20
-8514.286
 30
-1064.255
 70
    32
  0
VERTEX
  8
M63LALIFT
 62
6
 10
7233.383
 20
-8513.715
 30
-1064.255
 70
    32
  0
VERTEX
  8
M63LALIFT
 62
6
 10
7233.705
 20
-8513.097
 30
-1064.255
 70
    32
  0
VERTEX
  8
M63LALIFT
 62
6
 10
7233.719
 20
-8512.980
 30
-1064.255
 70
    32
  0
VERTEX
  8
M63LALIFT
 62
6
 10
7233.716
 20
-8512.473
 30
-1064.255
 70
    32
  0
VERTEX
  8
M63LALIFT
 62
6
 10
7233.698
 20
-8512.384
 30
-1064.255
 70
    32
  0
VERTEX
  8
M63LALIFT
 62
6
 10
7233.768
 20
-8511.892
 30
-1064.255
 70
    32
  0
VERTEX
  8
M63LALIFT
 62
6
 10
7233.750
 20
-8511.784
 30
-1064.255
 70
    32
  0
VERTEX
  8
M63LALIFT
 62
6
 10
7233.706
 20
-8511.407
 30
-1064.255
 70
    32
  0
VERTEX
  8
M63LALIFT
 62
6
 10
7233.686
 20
-8511.339
 30
-1064.255
 70
    32
  0
VERTEX
  8
M63LALIFT
 62
6
 10
7233.542
 20
-8510.853
 30
-1064.255
 70
    32
  0
VERTEX
  8
M63LALIFT
 62
6
 10
7233.565
 20
-8510.829
 30
-1064.255
 70
    32
  0
VERTEX
  8
M63LALIFT
 62
6
 10
7233.860
 20
-8510.345
 30
-1064.255
 70
    32
  0
VERTEX
  8
M63LALIFT
 62
6
 10
7233.905
 20
-8510.226
 30
-1064.255
 70
    32
  0
VERTEX
  8
M63LALIFT
 62
6
 10
7233.894
 20
-8509.852
 30
-1064.255
 70
    32
  0
VERTEX
  8
M63LALIFT
 62
6
 10
7233.847
 20
-8509.737
 30
-1064.255
 70
    32
  0
VERTEX
  8
M63LALIFT
 62
6
 10
7233.697
 20
-8509.348
 30
-1064.255
 70
    32
  0
VERTEX
  8
M63LALIFT
 62
6
 10
7233.680
 20
-8509.295
 30
-1064.255
 70
    32
  0
VERTEX
  8
M63LALIFT
 62
6
 10
7234.003
 20
-8508.898
 30
-1064.255
 70
    32
  0
VERTEX
  8
M63LALIFT
 62
6
 10
7233.940
 20
-8508.774
 30
-1064.255
 70
    32
  0
VERTEX
  8
M63LALIFT
 62
6
 10
7233.825
 20
-8508.515
 30
-1064.255
 70
    32
  0
VERTEX
  8
M63LALIFT
 62
6
 10
7233.796
 20
-8508.429
 30
-1064.255
 70
    32
  0
VERTEX
  8
M63LALIFT
 62
6
 10
7233.749
 20
-8508.109
 30
-1064.255
 70
    32
  0
VERTEX
  8
M63LALIFT
 62
6
 10
7233.741
 20
-8508.042
 30
-1064.255
 70
    32
  0
VERTEX
  8
M63LALIFT
 62
6
 10
7233.786
 20
-8507.683
 30
-1064.255
 70
    32
  0
VERTEX
  8
M63LALIFT
 62
6
 10
7233.777
 20
-8507.612
 30
-1064.255
 70
    32
  0
VERTEX
  8
M63LALIFT
 62
6
 10
7233.841
 20
-8507.310
 30
-1064.255
 70
    32
  0
VERTEX
  8
M63LALIFT
 62
6
 10
7233.804
 20
-8507.232
 30
-1064.255
 70
    32
  0
VERTEX
  8
M63LALIFT
 62
6
 10
7233.500
 20
-8506.979
 30
-1064.255
 70
    32
  0
VERTEX
  8
M63LALIFT
 62
6
 10
7233.389
 20
-8506.979
 30
-1064.255
 70
    32
  0
VERTEX
  8
M63LALIFT
 62
6
 10
7233.376
 20
-8506.961
 30
-1064.255
 70
    32
  0
VERTEX
  8
M63LALIFT
 62
6
 10
7233.268
 20
-8506.662
 30
-1064.255
 70
    32
  0
VERTEX
  8
M63LALIFT
 62
6
 10
7233.201
 20
-8506.636
 30
-1064.255
 70
    32
  0
VERTEX
  8
M63LALIFT
 62
6
 10
7232.919
 20
-8506.521
 30
-1064.255
 70
    32
  0
VERTEX
  8
M63LALIFT
 62
6
 10
7232.844
 20
-8506.422
 30
-1064.255
 70
    32
  0
VERTEX
  8
M63LALIFT
 62
6
 10
7232.639
 20
-8506.361
 30
-1064.255
 70
    32
  0
VERTEX
  8
M63LALIFT
 62
6
 10
7232.568
 20
-8506.201
 30
-1064.255
 70
    32
  0
VERTEX
  8
M63LALIFT
 62
6
 10
7232.449
 20
-8506.136
 30
-1064.255
 70
    32
  0
VERTEX
  8
M63LALIFT
 62
6
 10
7232.246
 20
-8505.983
 30
-1064.255
 70
    32
  0
VERTEX
  8
M63LALIFT
 62
6
 10
7232.205
 20
-8505.945
 30
-1064.255
 70
    32
  0
VERTEX
  8
M63LALIFT
 62
6
 10
7232.020
 20
-8505.772
 30
-1064.255
 70
    32
  0
VERTEX
  8
M63LALIFT
 62
6
 10
7232.013
 20
-8505.766
 30
-1064.255
 70
    32
  0
VERTEX
  8
M63LALIFT
 62
6
 10
7231.967
 20
-8505.738
 30
-1064.255
 70
    32
  0
VERTEX
  8
M63LALIFT
 62
6
 10
7231.782
 20
-8505.541
 30
-1064.255
 70
    32
  0
VERTEX
  8
M63LALIFT
 62
6
 10
7231.754
 20
-8505.509
 30
-1064.255
 70
    32
  0
VERTEX
  8
M63LALIFT
 62
6
 10
7231.705
 20
-8505.262
 30
-1064.255
 70
    32
  0
VERTEX
  8
M63LALIFT
 62
6
 10
7231.692
 20
-8505.219
 30
-1064.255
 70
    32
  0
VERTEX
  8
M63LALIFT
 62
6
 10
7231.628
 20
-8504.995
 30
-1064.255
 70
    32
  0
VERTEX
  8
M63LALIFT
 62
6
 10
7231.599
 20
-8504.936
 30
-1064.255
 70
    32
  0
VERTEX
  8
M63LALIFT
 62
6
 10
7231.622
 20
-8504.728
 30
-1064.255
 70
    32
  0
VERTEX
  8
M63LALIFT
 62
6
 10
7231.567
 20
-8504.683
 30
-1064.255
 70
    32
  0
VERTEX
  8
M63LALIFT
 62
6
 10
7231.490
 20
-8504.517
 30
-1064.255
 70
    32
  0
VERTEX
  8
M63LALIFT
 62
6
 10
7231.486
 20
-8504.442
 30
-1064.255
 70
    32
  0
VERTEX
  8
M63LALIFT
 62
6
 10
7231.427
 20
-8504.285
 30
-1064.255
 70
    32
  0
VERTEX
  8
M63LALIFT
 62
6
 10
7231.548
 20
-8504.175
 30
-1064.255
 70
    32
  0
VERTEX
  8
M63LALIFT
 62
6
 10
7231.594
 20
-8503.950
 30
-1064.255
 70
    32
  0
VERTEX
  8
M63LALIFT
 62
6
 10
7231.593
 20
-8503.899
 30
-1064.255
 70
    32
  0
VERTEX
  8
M63LALIFT
 62
6
 10
7231.463
 20
-8503.728
 30
-1064.255
 70
    32
  0
VERTEX
  8
M63LALIFT
 62
6
 10
7231.442
 20
-8503.654
 30
-1064.255
 70
    32
  0
VERTEX
  8
M63LALIFT
 62
6
 10
7231.292
 20
-8503.520
 30
-1064.255
 70
    32
  0
VERTEX
  8
M63LALIFT
 62
6
 10
7231.279
 20
-8503.418
 30
-1064.255
 70
    32
  0
VERTEX
  8
M63LALIFT
 62
6
 10
7231.220
 20
-8503.279
 30
-1064.255
 70
    32
  0
VERTEX
  8
M63LALIFT
 62
6
 10
7231.152
 20
-8503.179
 30
-1064.255
 70
    32
  0
VERTEX
  8
M63LALIFT
 62
6
 10
7230.992
 20
-8503.111
 30
-1064.255
 70
    32
  0
VERTEX
  8
M63LALIFT
 62
6
 10
7230.945
 20
-8502.987
 30
-1064.255
 70
    32
  0
VERTEX
  8
M63LALIFT
 62
6
 10
7230.834
 20
-8502.943
 30
-1064.255
 70
    32
  0
VERTEX
  8
M63LALIFT
 62
6
 10
7230.704
 20
-8502.812
 30
-1064.255
 70
    32
  0
VERTEX
  8
M63LALIFT
 62
6
 10
7230.691
 20
-8502.757
 30
-1064.255
 70
    32
  0
VERTEX
  8
M63LALIFT
 62
6
 10
7230.477
 20
-8502.625
 30
-1064.255
 70
    32
  0
VERTEX
  8
M63LALIFT
 62
6
 10
7230.471
 20
-8502.607
 30
-1064.255
 70
    32
  0
VERTEX
  8
M63LALIFT
 62
6
 10
7230.338
 20
-8502.490
 30
-1064.255
 70
    32
  0
VERTEX
  8
M63LALIFT
 62
6
 10
7230.292
 20
-8502.486
 30
-1064.255
 70
    32
  0
VERTEX
  8
M63LALIFT
 62
6
 10
7230.293
 20
-8502.479
 30
-1064.255
 70
    32
  0
VERTEX
  8
M63LALIFT
 62
6
 10
7229.861
 20
-8502.525
 30
-1064.255
 70
    32
  0
VERTEX
  8
M63LALIFT
 62
6
 10
7229.799
 20
-8502.489
 30
-1064.255
 70
    32
  0
VERTEX
  8
M63LALIFT
 62
6
 10
7229.523
 20
-8502.508
 30
-1064.255
 70
    32
  0
VERTEX
  8
M63LALIFT
 62
6
 10
7229.583
 20
-8502.383
 30
-1064.255
 70
    32
  0
VERTEX
  8
M63LALIFT
 62
6
 10
7229.496
 20
-8502.317
 30
-1064.255
 70
    32
  0
VERTEX
  8
M63LALIFT
 62
6
 10
7229.441
 20
-8502.232
 30
-1064.255
 70
    32
  0
VERTEX
  8
M63LALIFT
 62
6
 10
7229.364
 20
-8502.190
 30
-1064.255
 70
    32
  0
VERTEX
  8
M63LALIFT
 62
6
 10
7229.379
 20
-8502.058
 30
-1064.255
 70
    32
  0
VERTEX
  8
M63LALIFT
 62
6
 10
7229.287
 20
-8502.019
 30
-1064.255
 70
    32
  0
VERTEX
  8
M63LALIFT
 62
6
 10
7229.277
 20
-8501.891
 30
-1064.255
 70
    32
  0
VERTEX
  8
M63LALIFT
 62
6
 10
7229.212
 20
-8501.846
 30
-1064.255
 70
    32
  0
VERTEX
  8
M63LALIFT
 62
6
 10
7229.136
 20
-8501.762
 30
-1064.255
 70
    32
  0
VERTEX
  8
M63LALIFT
 62
6
 10
7229.095
 20
-8501.735
 30
-1064.255
 70
    32
  0
VERTEX
  8
M63LALIFT
 62
6
 10
7229.075
 20
-8501.632
 30
-1064.255
 70
    32
  0
VERTEX
  8
M63LALIFT
 62
6
 10
7229.047
 20
-8501.596
 30
-1064.255
 70
    32
  0
VERTEX
  8
M63LALIFT
 62
6
 10
7228.982
 20
-8501.473
 30
-1064.255
 70
    32
  0
VERTEX
  8
M63LALIFT
 62
6
 10
7228.945
 20
-8501.443
 30
-1064.255
 70
    32
  0
VERTEX
  8
M63LALIFT
 62
6
 10
7228.855
 20
-8501.322
 30
-1064.255
 70
    32
  0
VERTEX
  8
M63LALIFT
 62
6
 10
7228.835
 20
-8501.306
 30
-1064.255
 70
    32
  0
VERTEX
  8
M63LALIFT
 62
6
 10
7228.811
 20
-8501.188
 30
-1064.255
 70
    32
  0
VERTEX
  8
M63LALIFT
 62
6
 10
7228.792
 20
-8501.168
 30
-1064.255
 70
    32
  0
VERTEX
  8
M63LALIFT
 62
6
 10
7228.685
 20
-8501.087
 30
-1064.255
 70
    32
  0
VERTEX
  8
M63LALIFT
 62
6
 10
7228.674
 20
-8501.076
 30
-1064.255
 70
    32
  0
VERTEX
  8
M63LALIFT
 62
6
 10
7228.572
 20
-8500.961
 30
-1064.255
 70
    32
  0
VERTEX
  8
M63LALIFT
 62
6
 10
7228.569
 20
-8500.955
 30
-1064.255
 70
    32
  0
VERTEX
  8
M63LALIFT
 62
6
 10
7228.505
 20
-8500.812
 30
-1064.255
 70
    32
  0
VERTEX
  8
M63LALIFT
 62
6
 10
7228.503
 20
-8500.811
 30
-1064.255
 70
    32
  0
VERTEX
  8
M63LALIFT
 62
6
 10
7228.466
 20
-8500.746
 30
-1064.255
 70
    32
  0
VERTEX
  8
M63LALIFT
 62
6
 10
7228.411
 20
-8500.700
 30
-1064.255
 70
    32
  0
VERTEX
  8
M63LALIFT
 62
6
 10
7228.412
 20
-8500.696
 30
-1064.255
 70
    32
  0
VERTEX
  8
M63LALIFT
 62
6
 10
7228.265
 20
-8500.603
 30
-1064.255
 70
    32
  0
VERTEX
  8
M63LALIFT
 62
6
 10
7228.260
 20
-8500.591
 30
-1064.255
 70
    32
  0
VERTEX
  8
M63LALIFT
 62
6
 10
7228.126
 20
-8500.505
 30
-1064.255
 70
    32
  0
VERTEX
  8
M63LALIFT
 62
6
 10
7228.124
 20
-8500.479
 30
-1064.255
 70
    32
  0
VERTEX
  8
M63LALIFT
 62
6
 10
7227.837
 20
-8500.454
 30
-1064.255
 70
    32
  0
VERTEX
  8
M63LALIFT
 62
6
 10
7227.838
 20
-8500.418
 30
-1064.255
 70
    32
  0
VERTEX
  8
M63LALIFT
 62
6
 10
7227.758
 20
-8500.343
 30
-1064.255
 70
    32
  0
VERTEX
  8
M63LALIFT
 62
6
 10
7227.746
 20
-8500.308
 30
-1064.255
 70
    32
  0
VERTEX
  8
M63LALIFT
 62
6
 10
7227.707
 20
-8500.223
 30
-1064.255
 70
    32
  0
VERTEX
  8
M63LALIFT
 62
6
 10
7227.694
 20
-8500.185
 30
-1064.255
 70
    32
  0
VERTEX
  8
M63LALIFT
 62
6
 10
7227.592
 20
-8500.143
 30
-1064.255
 70
    32
  0
VERTEX
  8
M63LALIFT
 62
6
 10
7227.559
 20
-8500.097
 30
-1064.255
 70
    32
  0
VERTEX
  8
M63LALIFT
 62
6
 10
7227.520
 20
-8500.022
 30
-1064.255
 70
    32
  0
VERTEX
  8
M63LALIFT
 62
6
 10
7227.455
 20
-8499.973
 30
-1064.255
 70
    32
  0
VERTEX
  8
M63LALIFT
 62
6
 10
7227.396
 20
-8499.897
 30
-1064.255
 70
    32
  0
VERTEX
  8
M63LALIFT
 62
6
 10
7227.321
 20
-8499.820
 30
-1064.255
 70
    32
  0
VERTEX
  8
M63LALIFT
 62
6
 10
7227.283
 20
-8499.734
 30
-1064.255
 70
    32
  0
VERTEX
  8
M63LALIFT
 62
6
 10
7227.148
 20
-8499.529
 30
-1064.255
 70
    32
  0
VERTEX
  8
M63LALIFT
 62
6
 10
7227.004
 20
-8499.331
 30
-1064.255
 70
    32
  0
VERTEX
  8
M63LALIFT
 62
6
 10
7226.883
 20
-8499.259
 30
-1064.255
 70
    32
  0
VERTEX
  8
M63LALIFT
 62
6
 10
7226.768
 20
-8499.221
 30
-1064.255
 70
    32
  0
VERTEX
  8
M63LALIFT
 62
6
 10
7226.653
 20
-8499.047
 30
-1064.255
 70
    32
  0
VERTEX
  8
M63LALIFT
 62
6
 10
7226.567
 20
-8499.029
 30
-1064.255
 70
    32
  0
VERTEX
  8
M63LALIFT
 62
6
 10
7226.448
 20
-8498.869
 30
-1064.255
 70
    32
  0
VERTEX
  8
M63LALIFT
 62
6
 10
7226.356
 20
-8498.835
 30
-1064.255
 70
    32
  0
VERTEX
  8
M63LALIFT
 62
6
 10
7226.265
 20
-8498.690
 30
-1064.255
 70
    32
  0
VERTEX
  8
M63LALIFT
 62
6
 10
7226.230
 20
-8498.657
 30
-1064.255
 70
    32
  0
VERTEX
  8
M63LALIFT
 62
6
 10
7226.004
 20
-8498.515
 30
-1064.255
 70
    32
  0
VERTEX
  8
M63LALIFT
 62
6
 10
7225.980
 20
-8498.501
 30
-1064.255
 70
    32
  0
VERTEX
  8
M63LALIFT
 62
6
 10
7225.779
 20
-8498.429
 30
-1064.255
 70
    32
  0
VERTEX
  8
M63LALIFT
 62
6
 10
7225.607
 20
-8498.415
 30
-1064.255
 70
    32
  0
VERTEX
  8
M63LALIFT
 62
6
 10
7225.600
 20
-8498.402
 30
-1064.255
 70
    32
  0
VERTEX
  8
M63LALIFT
 62
6
 10
7225.366
 20
-8498.316
 30
-1064.255
 70
    32
  0
VERTEX
  8
M63LALIFT
 62
6
 10
7225.357
 20
-8498.283
 30
-1064.255
 70
    32
  0
VERTEX
  8
M63LALIFT
 62
6
 10
7225.132
 20
-8498.166
 30
-1064.255
 70
    32
  0
VERTEX
  8
M63LALIFT
 62
6
 10
7225.112
 20
-8498.121
 30
-1064.255
 70
    32
  0
VERTEX
  8
M63LALIFT
 62
6
 10
7224.692
 20
-8498.155
 30
-1064.255
 70
    32
  0
VERTEX
  8
M63LALIFT
 62
6
 10
7224.663
 20
-8498.079
 30
-1064.255
 70
    32
  0
VERTEX
  8
M63LALIFT
 62
6
 10
7224.523
 20
-8498.013
 30
-1064.255
 70
    32
  0
VERTEX
  8
M63LALIFT
 62
6
 10
7224.454
 20
-8497.924
 30
-1064.255
 70
    32
  0
VERTEX
  8
M63LALIFT
 62
6
 10
7224.336
 20
-8497.825
 30
-1064.255
 70
    32
  0
VERTEX
  8
M63LALIFT
 62
6
 10
7224.273
 20
-8497.736
 30
-1064.255
 70
    32
  0
VERTEX
  8
M63LALIFT
 62
6
 10
7224.188
 20
-8497.654
 30
-1064.255
 70
    32
  0
VERTEX
  8
M63LALIFT
 62
6
 10
7224.109
 20
-8497.566
 30
-1064.255
 70
    32
  0
VERTEX
  8
M63LALIFT
 62
6
 10
7224.026
 20
-8497.475
 30
-1064.255
 70
    32
  0
VERTEX
  8
M63LALIFT
 62
6
 10
7223.944
 20
-8497.383
 30
-1064.255
 70
    32
  0
VERTEX
  8
M63LALIFT
 62
6
 10
7223.854
 20
-8497.285
 30
-1064.255
 70
    32
  0
VERTEX
  8
M63LALIFT
 62
6
 10
7223.760
 20
-8497.192
 30
-1064.255
 70
    32
  0
VERTEX
  8
M63LALIFT
 62
6
 10
7223.708
 20
-8497.093
 30
-1064.255
 70
    32
  0
VERTEX
  8
M63LALIFT
 62
6
 10
7223.621
 20
-8496.979
 30
-1064.255
 70
    32
  0
VERTEX
  8
M63LALIFT
 62
6
 10
7223.546
 20
-8496.891
 30
-1064.255
 70
    32
  0
VERTEX
  8
M63LALIFT
 62
6
 10
7223.442
 20
-8496.810
 30
-1064.255
 70
    32
  0
VERTEX
  8
M63LALIFT
 62
6
 10
7223.386
 20
-8496.726
 30
-1064.255
 70
    32
  0
VERTEX
  8
M63LALIFT
 62
6
 10
7223.264
 20
-8496.635
 30
-1064.255
 70
    32
  0
VERTEX
  8
M63LALIFT
 62
6
 10
7223.193
 20
-8496.538
 30
-1064.255
 70
    32
  0
VERTEX
  8
M63LALIFT
 62
6
 10
7223.089
 20
-8496.432
 30
-1064.255
 70
    32
  0
VERTEX
  8
M63LALIFT
 62
6
 10
7223.025
 20
-8496.331
 30
-1064.255
 70
    32
  0
VERTEX
  8
M63LALIFT
 62
6
 10
7222.919
 20
-8496.241
 30
-1064.255
 70
    32
  0
VERTEX
  8
M63LALIFT
 62
6
 10
7222.863
 20
-8496.147
 30
-1064.255
 70
    32
  0
VERTEX
  8
M63LALIFT
 62
6
 10
7222.752
 20
-8496.025
 30
-1064.255
 70
    32
  0
VERTEX
  8
M63LALIFT
 62
6
 10
7222.712
 20
-8495.919
 30
-1064.255
 70
    32
  0
VERTEX
  8
M63LALIFT
 62
6
 10
7222.602
 20
-8495.814
 30
-1064.255
 70
    32
  0
VERTEX
  8
M63LALIFT
 62
6
 10
7222.540
 20
-8495.729
 30
-1064.255
 70
    32
  0
VERTEX
  8
M63LALIFT
 62
6
 10
7222.394
 20
-8495.637
 30
-1064.255
 70
    32
  0
VERTEX
  8
M63LALIFT
 62
6
 10
7222.319
 20
-8495.535
 30
-1064.255
 70
    32
  0
VERTEX
  8
M63LALIFT
 62
6
 10
7222.192
 20
-8495.429
 30
-1064.255
 70
    32
  0
VERTEX
  8
M63LALIFT
 62
6
 10
7222.128
 20
-8495.318
 30
-1064.255
 70
    32
  0
VERTEX
  8
M63LALIFT
 62
6
 10
7222.024
 20
-8495.218
 30
-1064.255
 70
    32
  0
VERTEX
  8
M63LALIFT
 62
6
 10
7221.955
 20
-8495.133
 30
-1064.255
 70
    32
  0
VERTEX
  8
M63LALIFT
 62
6
 10
7221.806
 20
-8495.035
 30
-1064.255
 70
    32
  0
VERTEX
  8
M63LALIFT
 62
6
 10
7221.884
 20
-8494.847
 30
-1064.255
 70
    32
  0
VERTEX
  8
M63LALIFT
 62
6
 10
7221.792
 20
-8494.725
 30
-1064.255
 70
    32
  0
VERTEX
  8
M63LALIFT
 62
6
 10
7222.495
 20
-8494.127
 30
-1064.255
 70
    32
  0
VERTEX
  8
M63LALIFT
 62
6
 10
7222.481
 20
-8494.117
 30
-1064.255
 70
    32
  0
VERTEX
  8
M63LALIFT
 62
6
 10
7221.854
 20
-8494.181
 30
-1064.255
 70
    32
  0
VERTEX
  8
M63LALIFT
 62
6
 10
7221.777
 20
-8494.129
 30
-1064.255
 70
    32
  0
VERTEX
  8
M63LALIFT
 62
6
 10
7221.081
 20
-8494.310
 30
-1064.255
 70
    32
  0
VERTEX
  8
M63LALIFT
 62
6
 10
7220.972
 20
-8494.181
 30
-1064.255
 70
    32
  0
VERTEX
  8
M63LALIFT
 62
6
 10
7220.896
 20
-8494.066
 30
-1064.255
 70
    32
  0
VERTEX
  8
M63LALIFT
 62
6
 10
7220.801
 20
-8493.935
 30
-1064.255
 70
    32
  0
VERTEX
  8
M63LALIFT
 62
6
 10
7220.717
 20
-8493.810
 30
-1064.255
 70
    32
  0
VERTEX
  8
M63LALIFT
 62
6
 10
7220.626
 20
-8493.685
 30
-1064.255
 70
    32
  0
VERTEX
  8
M63LALIFT
 62
6
 10
7220.540
 20
-8493.544
 30
-1064.255
 70
    32
  0
VERTEX
  8
M63LALIFT
 62
6
 10
7220.449
 20
-8493.431
 30
-1064.255
 70
    32
  0
VERTEX
  8
M63LALIFT
 62
6
 10
7220.389
 20
-8493.275
 30
-1064.255
 70
    32
  0
VERTEX
  8
M63LALIFT
 62
6
 10
7220.331
 20
-8493.176
 30
-1064.255
 70
    32
  0
VERTEX
  8
M63LALIFT
 62
6
 10
7220.261
 20
-8492.976
 30
-1064.255
 70
    32
  0
VERTEX
  8
M63LALIFT
 62
6
 10
7220.229
 20
-8492.861
 30
-1064.255
 70
    32
  0
VERTEX
  8
M63LALIFT
 62
6
 10
7220.109
 20
-8492.653
 30
-1064.255
 70
    32
  0
VERTEX
  8
M63LALIFT
 62
6
 10
7220.071
 20
-8492.585
 30
-1064.255
 70
    32
  0
VERTEX
  8
M63LALIFT
 62
6
 10
7220.376
 20
-8492.116
 30
-1064.255
 70
    32
  0
VERTEX
  8
M63LALIFT
 62
6
 10
7220.503
 20
-8492.037
 30
-1064.255
 70
    32
  0
VERTEX
  8
M63LALIFT
 62
6
 10
7220.492
 20
-8492.017
 30
-1064.255
 70
    32
  0
VERTEX
  8
M63LALIFT
 62
6
 10
7220.223
 20
-8491.998
 30
-1064.255
 70
    32
  0
VERTEX
  8
M63LALIFT
 62
6
 10
7219.721
 20
-8492.023
 30
-1064.255
 70
    32
  0
VERTEX
  8
M63LALIFT
 62
6
 10
7219.686
 20
-8491.978
 30
-1064.255
 70
    32
  0
VERTEX
  8
M63LALIFT
 62
6
 10
7219.415
 20
-8491.806
 30
-1064.255
 70
    32
  0
VERTEX
  8
M63LALIFT
 62
6
 10
7219.385
 20
-8491.762
 30
-1064.255
 70
    32
  0
VERTEX
  8
M63LALIFT
 62
6
 10
7219.206
 20
-8491.484
 30
-1064.255
 70
    32
  0
VERTEX
  8
M63LALIFT
 62
6
 10
7219.185
 20
-8491.458
 30
-1064.255
 70
    32
  0
VERTEX
  8
M63LALIFT
 62
6
 10
7218.977
 20
-8491.158
 30
-1064.255
 70
    32
  0
VERTEX
  8
M63LALIFT
 62
6
 10
7218.970
 20
-8491.150
 30
-1064.255
 70
    32
  0
VERTEX
  8
M63LALIFT
 62
6
 10
7218.902
 20
-8491.024
 30
-1064.255
 70
    32
  0
VERTEX
  8
M63LALIFT
 62
6
 10
7218.923
 20
-8490.827
 30
-1064.255
 70
    32
  0
VERTEX
  8
M63LALIFT
 62
6
 10
7218.913
 20
-8490.798
 30
-1064.255
 70
    32
  0
VERTEX
  8
M63LALIFT
 62
6
 10
7218.834
 20
-8490.522
 30
-1064.255
 70
    32
  0
VERTEX
  8
M63LALIFT
 62
6
 10
7218.818
 20
-8490.459
 30
-1064.255
 70
    32
  0
VERTEX
  8
M63LALIFT
 62
6
 10
7218.792
 20
-8490.228
 30
-1064.255
 70
    32
  0
VERTEX
  8
M63LALIFT
 62
6
 10
7218.751
 20
-8490.141
 30
-1064.255
 70
    32
  0
VERTEX
  8
M63LALIFT
 62
6
 10
7218.601
 20
-8489.958
 30
-1064.255
 70
    32
  0
VERTEX
  8
M63LALIFT
 62
6
 10
7218.509
 20
-8489.849
 30
-1064.255
 70
    32
  0
VERTEX
  8
M63LALIFT
 62
6
 10
7218.418
 20
-8489.625
 30
-1064.255
 70
    32
  0
VERTEX
  8
M63LALIFT
 62
6
 10
7218.325
 20
-8489.479
 30
-1064.255
 70
    32
  0
VERTEX
  8
M63LALIFT
 62
6
 10
7218.270
 20
-8489.300
 30
-1064.255
 70
    32
  0
VERTEX
  8
M63LALIFT
 62
6
 10
7218.270
 20
-8489.112
 30
-1064.255
 70
    32
  0
VERTEX
  8
M63LALIFT
 62
6
 10
7218.184
 20
-8488.994
 30
-1064.255
 70
    32
  0
VERTEX
  8
M63LALIFT
 62
6
 10
7218.110
 20
-8488.757
 30
-1064.255
 70
    32
  0
VERTEX
  8
M63LALIFT
 62
6
 10
7218.025
 20
-8488.643
 30
-1064.255
 70
    32
  0
VERTEX
  8
M63LALIFT
 62
6
 10
7217.941
 20
-8488.329
 30
-1064.255
 70
    32
  0
VERTEX
  8
M63LALIFT
 62
6
 10
7217.911
 20
-8488.261
 30
-1064.255
 70
    32
  0
VERTEX
  8
M63LALIFT
 62
6
 10
7217.815
 20
-8487.961
 30
-1064.255
 70
    32
  0
VERTEX
  8
M63LALIFT
 62
6
 10
7217.809
 20
-8487.931
 30
-1064.255
 70
    32
  0
VERTEX
  8
M63LALIFT
 62
6
 10
7217.432
 20
-8487.651
 30
-1064.255
 70
    32
  0
VERTEX
  8
M63LALIFT
 62
6
 10
7217.427
 20
-8487.621
 30
-1064.255
 70
    32
  0
VERTEX
  8
M63LALIFT
 62
6
 10
7217.183
 20
-8487.285
 30
-1064.255
 70
    32
  0
VERTEX
  8
M63LALIFT
 62
6
 10
7217.193
 20
-8487.239
 30
-1064.255
 70
    32
  0
VERTEX
  8
M63LALIFT
 62
6
 10
7218.856
 20
-8486.031
 30
-1064.255
 70
    32
  0
VERTEX
  8
M63LALIFT
 62
6
 10
7218.852
 20
-8485.978
 30
-1064.255
 70
    32
  0
VERTEX
  8
M63LALIFT
 62
6
 10
7218.833
 20
-8485.975
 30
-1064.255
 70
    32
  0
VERTEX
  8
M63LALIFT
 62
6
 10
7218.533
 20
-8485.597
 30
-1064.255
 70
    32
  0
VERTEX
  8
M63LALIFT
 62
6
 10
7218.496
 20
-8485.561
 30
-1064.255
 70
    32
  0
VERTEX
  8
M63LALIFT
 62
6
 10
7218.117
 20
-8485.122
 30
-1064.255
 70
    32
  0
VERTEX
  8
M63LALIFT
 62
6
 10
7218.045
 20
-8485.056
 30
-1064.255
 70
    32
  0
VERTEX
  8
M63LALIFT
 62
6
 10
7217.615
 20
-8484.647
 30
-1064.255
 70
    32
  0
VERTEX
  8
M63LALIFT
 62
6
 10
7217.521
 20
-8484.559
 30
-1064.255
 70
    32
  0
VERTEX
  8
M63LALIFT
 62
6
 10
7217.160
 20
-8484.228
 30
-1064.255
 70
    32
  0
VERTEX
  8
M63LALIFT
 62
6
 10
7217.060
 20
-8484.112
 30
-1064.255
 70
    32
  0
VERTEX
  8
M63LALIFT
 62
6
 10
7216.687
 20
-8483.741
 30
-1064.255
 70
    32
  0
VERTEX
  8
M63LALIFT
 62
6
 10
7216.565
 20
-8483.584
 30
-1064.255
 70
    32
  0
VERTEX
  8
M63LALIFT
 62
6
 10
7216.185
 20
-8483.231
 30
-1064.255
 70
    32
  0
VERTEX
  8
M63LALIFT
 62
6
 10
7216.046
 20
-8483.024
 30
-1064.255
 70
    32
  0
VERTEX
  8
M63LALIFT
 62
6
 10
7215.712
 20
-8482.685
 30
-1064.255
 70
    32
  0
VERTEX
  8
M63LALIFT
 62
6
 10
7215.597
 20
-8482.425
 30
-1064.255
 70
    32
  0
VERTEX
  8
M63LALIFT
 62
6
 10
7215.300
 20
-8482.128
 30
-1064.255
 70
    32
  0
VERTEX
  8
M63LALIFT
 62
6
 10
7215.051
 20
-8481.791
 30
-1064.255
 70
    32
  0
VERTEX
  8
M63LALIFT
 62
6
 10
7214.779
 20
-8481.530
 30
-1064.255
 70
    32
  0
VERTEX
  8
M63LALIFT
 62
6
 10
7214.542
 20
-8481.086
 30
-1064.255
 70
    32
  0
VERTEX
  8
M63LALIFT
 62
6
 10
7214.089
 20
-8480.957
 30
-1064.255
 70
    32
  0
VERTEX
  8
M63LALIFT
 62
6
 10
7213.859
 20
-8480.514
 30
-1064.255
 70
    32
  0
VERTEX
  8
M63LALIFT
 62
6
 10
7213.644
 20
-8480.315
 30
-1064.255
 70
    32
  0
VERTEX
  8
M63LALIFT
 62
6
 10
7213.382
 20
-8479.567
 30
-1064.255
 70
    32
  0
VERTEX
  8
M63LALIFT
 62
6
 10
7213.331
 20
-8479.499
 30
-1064.255
 70
    32
  0
VERTEX
  8
M63LALIFT
 62
6
 10
7213.258
 20
-8479.168
 30
-1064.255
 70
    32
  0
VERTEX
  8
M63LALIFT
 62
6
 10
7213.311
 20
-8478.641
 30
-1064.255
 70
    32
  0
VERTEX
  8
M63LALIFT
 62
6
 10
7213.390
 20
-8478.322
 30
-1064.255
 70
    32
  0
VERTEX
  8
M63LALIFT
 62
6
 10
7213.495
 20
-8477.718
 30
-1064.255
 70
    32
  0
VERTEX
  8
M63LALIFT
 62
6
 10
7213.407
 20
-8477.004
 30
-1064.255
 70
    32
  0
VERTEX
  8
M63LALIFT
 62
6
 10
7213.353
 20
-8476.751
 30
-1064.255
 70
    32
  0
VERTEX
  8
M63LALIFT
 62
6
 10
7213.390
 20
-8476.122
 30
-1064.255
 70
    32
  0
VERTEX
  8
M63LALIFT
 62
6
 10
7213.508
 20
-8475.810
 30
-1064.255
 70
    32
  0
VERTEX
  8
M63LALIFT
 62
6
 10
7213.718
 20
-8475.483
 30
-1064.255
 70
    32
  0
VERTEX
  8
M63LALIFT
 62
6
 10
7214.149
 20
-8474.721
 30
-1064.255
 70
    32
  0
VERTEX
  8
M63LALIFT
 62
6
 10
7214.355
 20
-8473.793
 30
-1064.255
 70
    32
  0
VERTEX
  8
M63LALIFT
 62
6
 10
7214.612
 20
-8473.612
 30
-1064.255
 70
    32
  0
VERTEX
  8
M63LALIFT
 62
6
 10
7216.407
 20
-8472.454
 30
-1064.255
 70
    32
  0
VERTEX
  8
M63LALIFT
 62
6
 10
7216.791
 20
-8471.653
 30
-1064.255
 70
    32
  0
VERTEX
  8
M63LALIFT
 62
6
 10
7217.115
 20
-8470.906
 30
-1064.255
 70
    32
  0
VERTEX
  8
M63LALIFT
 62
6
 10
7217.344
 20
-8470.469
 30
-1064.255
 70
    32
  0
VERTEX
  8
M63LALIFT
 62
6
 10
7217.558
 20
-8470.000
 30
-1064.255
 70
    32
  0
VERTEX
  8
M63LALIFT
 62
6
 10
7218.418
 20
-8469.574
 30
-1064.255
 70
    32
  0
VERTEX
  8
M63LALIFT
 62
6
 10
7219.925
 20
-8469.072
 30
-1064.255
 70
    32
  0
VERTEX
  8
M63LALIFT
 62
6
 10
7220.470
 20
-8468.442
 30
-1064.255
 70
    32
  0
VERTEX
  8
M63LALIFT
 62
6
 10
7220.841
 20
-8467.920
 30
-1064.255
 70
    32
  0
VERTEX
  8
M63LALIFT
 62
6
 10
7221.158
 20
-8467.597
 30
-1064.255
 70
    32
  0
VERTEX
  8
M63LALIFT
 62
6
 10
7221.617
 20
-8467.310
 30
-1064.255
 70
    32
  0
VERTEX
  8
M63LALIFT
 62
6
 10
7222.208
 20
-8467.019
 30
-1064.255
 70
    32
  0
VERTEX
  8
M63LALIFT
 62
6
 10
7223.089
 20
-8466.873
 30
-1064.255
 70
    32
  0
VERTEX
  8
M63LALIFT
 62
6
 10
7223.583
 20
-8466.821
 30
-1064.255
 70
    32
  0
VERTEX
  8
M63LALIFT
 62
6
 10
7223.987
 20
-8466.719
 30
-1064.255
 70
    32
  0
VERTEX
  8
M63LALIFT
 62
6
 10
7224.490
 20
-8466.373
 30
-1064.255
 70
    32
  0
VERTEX
  8
M63LALIFT
 62
6
 10
7225.925
 20
-8465.333
 30
-1064.255
 70
    32
  0
VERTEX
  8
M63LALIFT
 62
6
 10
7226.538
 20
-8465.196
 30
-1064.255
 70
    32
  0
VERTEX
  8
M63LALIFT
 62
6
 10
7228.308
 20
-8465.019
 30
-1064.255
 70
    32
  0
VERTEX
  8
M63LALIFT
 62
6
 10
7228.932
 20
-8465.471
 30
-1064.255
 70
    32
  0
VERTEX
  8
M63LALIFT
 62
6
 10
7229.666
 20
-8466.084
 30
-1064.255
 70
    32
  0
VERTEX
  8
M63LALIFT
 62
6
 10
7230.527
 20
-8466.799
 30
-1064.255
 70
    32
  0
VERTEX
  8
M63LALIFT
 62
6
 10
7231.160
 20
-8467.170
 30
-1064.255
 70
    32
  0
VERTEX
  8
M63LALIFT
 62
6
 10
7231.813
 20
-8467.416
 30
-1064.255
 70
    32
  0
VERTEX
  8
M63LALIFT
 62
6
 10
7231.997
 20
-8467.562
 30
-1064.255
 70
    32
  0
VERTEX
  8
M63LALIFT
 62
6
 10
7232.587
 20
-8467.696
 30
-1064.255
 70
    32
  0
VERTEX
  8
M63LALIFT
 62
6
 10
7233.091
 20
-8468.099
 30
-1064.255
 70
    32
  0
VERTEX
  8
M63LALIFT
 62
6
 10
7233.227
 20
-8468.285
 30
-1064.255
 70
    32
  0
VERTEX
  8
M63LALIFT
 62
6
 10
7233.751
 20
-8468.330
 30
-1064.255
 70
    32
  0
VERTEX
  8
M63LALIFT
 62
6
 10
7234.425
 20
-8468.660
 30
-1064.255
 70
    32
  0
VERTEX
  8
M63LALIFT
 62
6
 10
7234.596
 20
-8469.020
 30
-1064.255
 70
    32
  0
VERTEX
  8
M63LALIFT
 62
6
 10
7234.872
 20
-8469.522
 30
-1064.255
 70
    32
  0
VERTEX
  8
M63LALIFT
 62
6
 10
7235.091
 20
-8469.965
 30
-1064.255
 70
    32
  0
VERTEX
  8
M63LALIFT
 62
6
 10
7235.327
 20
-8470.314
 30
-1064.255
 70
    32
  0
VERTEX
  8
M63LALIFT
 62
6
 10
7235.643
 20
-8470.944
 30
-1064.255
 70
    32
  0
VERTEX
  8
M63LALIFT
 62
6
 10
7235.746
 20
-8471.116
 30
-1064.255
 70
    32
  0
VERTEX
  8
M63LALIFT
 62
6
 10
7236.120
 20
-8471.851
 30
-1064.255
 70
    32
  0
VERTEX
  8
M63LALIFT
 62
6
 10
7236.131
 20
-8471.874
 30
-1064.255
 70
    32
  0
VERTEX
  8
M63LALIFT
 62
6
 10
7236.188
 20
-8471.935
 30
-1064.255
 70
    32
  0
VERTEX
  8
M63LALIFT
 62
6
 10
7236.862
 20
-8472.117
 30
-1064.255
 70
    32
  0
VERTEX
  8
M63LALIFT
 62
6
 10
7237.065
 20
-8472.339
 30
-1064.255
 70
    32
  0
VERTEX
  8
M63LALIFT
 62
6
 10
7237.606
 20
-8472.289
 30
-1064.255
 70
    32
  0
VERTEX
  8
M63LALIFT
 62
6
 10
7237.812
 20
-8472.772
 30
-1064.255
 70
    32
  0
VERTEX
  8
M63LALIFT
 62
6
 10
7237.861
 20
-8472.853
 30
-1064.255
 70
    32
  0
VERTEX
  8
M63LALIFT
 62
6
 10
7238.092
 20
-8473.448
 30
-1064.255
 70
    32
  0
VERTEX
  8
M63LALIFT
 62
6
 10
7238.101
 20
-8473.463
 30
-1064.255
 70
    32
  0
VERTEX
  8
M63LALIFT
 62
6
 10
7238.167
 20
-8473.648
 30
-1064.255
 70
    32
  0
VERTEX
  8
M63LALIFT
 62
6
 10
7238.807
 20
-8474.175
 30
-1064.255
 70
    32
  0
VERTEX
  8
M63LALIFT
 62
6
 10
7239.374
 20
-8474.530
 30
-1064.255
 70
    32
  0
VERTEX
  8
M63LALIFT
 62
6
 10
7239.762
 20
-8474.773
 30
-1064.255
 70
    32
  0
VERTEX
  8
M63LALIFT
 62
6
 10
7240.084
 20
-8474.966
 30
-1064.255
 70
    32
  0
VERTEX
  8
M63LALIFT
 62
6
 10
7240.349
 20
-8475.185
 30
-1064.255
 70
    32
  0
VERTEX
  8
M63LALIFT
 62
6
 10
7240.455
 20
-8475.245
 30
-1064.255
 70
    32
  0
VERTEX
  8
M63LALIFT
 62
6
 10
7240.794
 20
-8475.471
 30
-1064.255
 70
    32
  0
VERTEX
  8
M63LALIFT
 62
6
 10
7241.193
 20
-8475.557
 30
-1064.255
 70
    32
  0
VERTEX
  8
M63LALIFT
 62
6
 10
7241.320
 20
-8475.605
 30
-1064.255
 70
    32
  0
VERTEX
  8
M63LALIFT
 62
6
 10
7241.583
 20
-8475.729
 30
-1064.255
 70
    32
  0
VERTEX
  8
M63LALIFT
 62
6
 10
7241.881
 20
-8475.877
 30
-1064.255
 70
    32
  0
VERTEX
  8
M63LALIFT
 62
6
 10
7242.029
 20
-8475.978
 30
-1064.255
 70
    32
  0
VERTEX
  8
M63LALIFT
 62
6
 10
7242.345
 20
-8476.260
 30
-1064.255
 70
    32
  0
VERTEX
  8
M63LALIFT
 62
6
 10
7243.058
 20
-8476.566
 30
-1064.255
 70
    32
  0
VERTEX
  8
M63LALIFT
 62
6
 10
7243.099
 20
-8476.589
 30
-1064.255
 70
    32
  0
VERTEX
  8
M63LALIFT
 62
6
 10
7243.148
 20
-8476.642
 30
-1064.255
 70
    32
  0
VERTEX
  8
M63LALIFT
 62
6
 10
7243.328
 20
-8476.980
 30
-1064.255
 70
    32
  0
VERTEX
  8
M63LALIFT
 62
6
 10
7243.377
 20
-8477.026
 30
-1064.255
 70
    32
  0
VERTEX
  8
M63LALIFT
 62
6
 10
7243.543
 20
-8477.311
 30
-1064.255
 70
    32
  0
VERTEX
  8
M63LALIFT
 62
6
 10
7244.072
 20
-8476.981
 30
-1064.255
 70
    32
  0
VERTEX
  8
M63LALIFT
 62
6
 10
7244.322
 20
-8476.967
 30
-1064.255
 70
    32
  0
VERTEX
  8
M63LALIFT
 62
6
 10
7243.961
 20
-8477.541
 30
-1064.255
 70
    32
  0
VERTEX
  8
M63LALIFT
 62
6
 10
7244.170
 20
-8477.755
 30
-1064.255
 70
    32
  0
VERTEX
  8
M63LALIFT
 62
6
 10
7244.264
 20
-8477.846
 30
-1064.255
 70
    32
  0
VERTEX
  8
M63LALIFT
 62
6
 10
7244.468
 20
-8478.082
 30
-1064.255
 70
    32
  0
VERTEX
  8
M63LALIFT
 62
6
 10
7244.514
 20
-8478.102
 30
-1064.255
 70
    32
  0
VERTEX
  8
M63LALIFT
 62
6
 10
7244.630
 20
-8478.164
 30
-1064.255
 70
    32
  0
VERTEX
  8
M63LALIFT
 62
6
 10
7244.866
 20
-8478.432
 30
-1064.255
 70
    32
  0
VERTEX
  8
M63LALIFT
 62
6
 10
7244.906
 20
-8478.507
 30
-1064.255
 70
    32
  0
VERTEX
  8
M63LALIFT
 62
6
 10
7245.150
 20
-8478.814
 30
-1064.255
 70
    32
  0
VERTEX
  8
M63LALIFT
 62
6
 10
7245.230
 20
-8478.975
 30
-1064.255
 70
    32
  0
VERTEX
  8
M63LALIFT
 62
6
 10
7245.393
 20
-8479.188
 30
-1064.255
 70
    32
  0
VERTEX
  8
M63LALIFT
 62
6
 10
7245.543
 20
-8479.420
 30
-1064.255
 70
    32
  0
VERTEX
  8
M63LALIFT
 62
6
 10
7245.617
 20
-8479.551
 30
-1064.255
 70
    32
  0
VERTEX
  8
M63LALIFT
 62
6
 10
7245.717
 20
-8479.840
 30
-1064.255
 70
    32
  0
VERTEX
  8
M63LALIFT
 62
6
 10
7245.741
 20
-8479.930
 30
-1064.255
 70
    32
  0
VERTEX
  8
M63LALIFT
 62
6
 10
7246.018
 20
-8480.186
 30
-1064.255
 70
    32
  0
VERTEX
  8
M63LALIFT
 62
6
 10
7246.065
 20
-8480.218
 30
-1064.255
 70
    32
  0
VERTEX
  8
M63LALIFT
 62
6
 10
7246.066
 20
-8480.228
 30
-1064.255
 70
    32
  0
VERTEX
  8
M63LALIFT
 62
6
 10
7246.173
 20
-8480.526
 30
-1064.255
 70
    32
  0
VERTEX
  8
M63LALIFT
 62
6
 10
7246.181
 20
-8480.560
 30
-1064.255
 70
    32
  0
VERTEX
  8
M63LALIFT
 62
6
 10
7246.263
 20
-8480.830
 30
-1064.255
 70
    32
  0
VERTEX
  8
M63LALIFT
 62
6
 10
7246.245
 20
-8480.899
 30
-1064.255
 70
    32
  0
VERTEX
  8
M63LALIFT
 62
6
 10
7246.219
 20
-8481.173
 30
-1064.255
 70
    32
  0
VERTEX
  8
M63LALIFT
 62
6
 10
7246.246
 20
-8481.222
 30
-1064.255
 70
    32
  0
VERTEX
  8
M63LALIFT
 62
6
 10
7246.312
 20
-8481.439
 30
-1064.255
 70
    32
  0
VERTEX
  8
M63LALIFT
 62
6
 10
7246.324
 20
-8481.515
 30
-1064.255
 70
    32
  0
VERTEX
  8
M63LALIFT
 62
6
 10
7246.416
 20
-8481.742
 30
-1064.255
 70
    32
  0
VERTEX
  8
M63LALIFT
 62
6
 10
7246.443
 20
-8481.836
 30
-1064.255
 70
    32
  0
VERTEX
  8
M63LALIFT
 62
6
 10
7246.513
 20
-8482.018
 30
-1064.255
 70
    32
  0
VERTEX
  8
M63LALIFT
 62
6
 10
7246.522
 20
-8482.125
 30
-1064.255
 70
    32
  0
VERTEX
  8
M63LALIFT
 62
6
 10
7246.569
 20
-8482.293
 30
-1064.255
 70
    32
  0
VERTEX
  8
M63LALIFT
 62
6
 10
7246.580
 20
-8482.425
 30
-1064.255
 70
    32
  0
VERTEX
  8
M63LALIFT
 62
6
 10
7246.616
 20
-8482.580
 30
-1064.255
 70
    32
  0
VERTEX
  8
M63LALIFT
 62
6
 10
7246.663
 20
-8482.722
 30
-1064.255
 70
    32
  0
VERTEX
  8
M63LALIFT
 62
6
 10
7246.677
 20
-8482.868
 30
-1064.255
 70
    32
  0
VERTEX
  8
M63LALIFT
 62
6
 10
7246.690
 20
-8483.019
 30
-1064.255
 70
    32
  0
VERTEX
  8
M63LALIFT
 62
6
 10
7246.717
 20
-8483.162
 30
-1064.255
 70
    32
  0
VERTEX
  8
M63LALIFT
 62
6
 10
7246.769
 20
-8483.304
 30
-1064.255
 70
    32
  0
VERTEX
  8
M63LALIFT
 62
6
 10
7246.793
 20
-8483.403
 30
-1064.255
 70
    32
  0
VERTEX
  8
M63LALIFT
 62
6
 10
7246.826
 20
-8483.547
 30
-1064.255
 70
    32
  0
VERTEX
  8
M63LALIFT
 62
6
 10
7246.825
 20
-8483.659
 30
-1064.255
 70
    32
  0
VERTEX
  8
M63LALIFT
 62
6
 10
7246.826
 20
-8483.853
 30
-1064.255
 70
    32
  0
VERTEX
  8
M63LALIFT
 62
6
 10
7246.834
 20
-8483.969
 30
-1064.255
 70
    32
  0
VERTEX
  8
M63LALIFT
 62
6
 10
7246.844
 20
-8484.120
 30
-1064.255
 70
    32
  0
VERTEX
  8
M63LALIFT
 62
6
 10
7246.862
 20
-8484.215
 30
-1064.255
 70
    32
  0
VERTEX
  8
M63LALIFT
 62
6
 10
7246.950
 20
-8484.358
 30
-1064.255
 70
    32
  0
VERTEX
  8
M63LALIFT
 62
6
 10
7246.934
 20
-8484.462
 30
-1064.255
 70
    32
  0
VERTEX
  8
M63LALIFT
 62
6
 10
7246.929
 20
-8484.667
 30
-1064.255
 70
    32
  0
VERTEX
  8
M63LALIFT
 62
6
 10
7246.955
 20
-8484.741
 30
-1064.255
 70
    32
  0
VERTEX
  8
M63LALIFT
 62
6
 10
7246.988
 20
-8484.912
 30
-1064.255
 70
    32
  0
VERTEX
  8
M63LALIFT
 62
6
 10
7247.000
 20
-8484.985
 30
-1064.255
 70
    32
  0
VERTEX
  8
M63LALIFT
 62
6
 10
7247.109
 20
-8485.150
 30
-1064.255
 70
    32
  0
VERTEX
  8
M63LALIFT
 62
6
 10
7247.100
 20
-8485.215
 30
-1064.255
 70
    32
  0
VERTEX
  8
M63LALIFT
 62
6
 10
7247.079
 20
-8485.402
 30
-1064.255
 70
    32
  0
VERTEX
  8
M63LALIFT
 62
6
 10
7247.070
 20
-8485.468
 30
-1064.255
 70
    32
  0
VERTEX
  8
M63LALIFT
 62
6
 10
7247.191
 20
-8485.611
 30
-1064.255
 70
    32
  0
VERTEX
  8
M63LALIFT
 62
6
 10
7247.208
 20
-8485.651
 30
-1064.255
 70
    32
  0
VERTEX
  8
M63LALIFT
 62
6
 10
7247.310
 20
-8485.845
 30
-1064.255
 70
    32
  0
VERTEX
  8
M63LALIFT
 62
6
 10
7247.304
 20
-8485.882
 30
-1064.255
 70
    32
  0
VERTEX
  8
M63LALIFT
 62
6
 10
7247.305
 20
-8486.099
 30
-1064.255
 70
    32
  0
VERTEX
  8
M63LALIFT
 62
6
 10
7247.310
 20
-8486.132
 30
-1064.255
 70
    32
  0
VERTEX
  8
M63LALIFT
 62
6
 10
7247.443
 20
-8486.296
 30
-1064.255
 70
    32
  0
VERTEX
  8
M63LALIFT
 62
6
 10
7247.449
 20
-8486.309
 30
-1064.255
 70
    32
  0
VERTEX
  8
M63LALIFT
 62
6
 10
7247.541
 20
-8486.503
 30
-1064.255
 70
    32
  0
VERTEX
  8
M63LALIFT
 62
6
 10
7247.541
 20
-8486.506
 30
-1064.255
 70
    32
  0
VERTEX
  8
M63LALIFT
 62
6
 10
7247.568
 20
-8486.585
 30
-1064.255
 70
    32
  0
VERTEX
  8
M63LALIFT
 62
6
 10
7247.623
 20
-8486.715
 30
-1064.255
 70
    32
  0
VERTEX
  8
M63LALIFT
 62
6
 10
7247.624
 20
-8486.721
 30
-1064.255
 70
    32
  0
VERTEX
  8
M63LALIFT
 62
6
 10
7247.708
 20
-8486.947
 30
-1064.255
 70
    32
  0
VERTEX
  8
M63LALIFT
 62
6
 10
7247.730
 20
-8486.956
 30
-1064.255
 70
    32
  0
VERTEX
  8
M63LALIFT
 62
6
 10
7247.877
 20
-8487.103
 30
-1064.255
 70
    32
  0
VERTEX
  8
M63LALIFT
 62
6
 10
7247.890
 20
-8487.138
 30
-1064.255
 70
    32
  0
VERTEX
  8
M63LALIFT
 62
6
 10
7247.990
 20
-8487.303
 30
-1064.255
 70
    32
  0
VERTEX
  8
M63LALIFT
 62
6
 10
7247.985
 20
-8487.344
 30
-1064.255
 70
    32
  0
VERTEX
  8
M63LALIFT
 62
6
 10
7248.147
 20
-8487.494
 30
-1064.255
 70
    32
  0
VERTEX
  8
M63LALIFT
 62
6
 10
7248.186
 20
-8487.548
 30
-1064.255
 70
    32
  0
VERTEX
  8
M63LALIFT
 62
6
 10
7248.110
 20
-8487.737
 30
-1064.255
 70
    32
  0
VERTEX
  8
M63LALIFT
 62
6
 10
7248.180
 20
-8487.772
 30
-1064.255
 70
    32
  0
VERTEX
  8
M63LALIFT
 62
6
 10
7248.377
 20
-8487.885
 30
-1064.255
 70
    32
  0
VERTEX
  8
M63LALIFT
 62
6
 10
7248.438
 20
-8487.962
 30
-1064.255
 70
    32
  0
VERTEX
  8
M63LALIFT
 62
6
 10
7248.563
 20
-8488.054
 30
-1064.255
 70
    32
  0
VERTEX
  8
M63LALIFT
 62
6
 10
7248.760
 20
-8488.127
 30
-1064.255
 70
    32
  0
VERTEX
  8
M63LALIFT
 62
6
 10
7248.838
 20
-8488.204
 30
-1064.255
 70
    32
  0
VERTEX
  8
M63LALIFT
 62
6
 10
7248.928
 20
-8488.317
 30
-1064.255
 70
    32
  0
VERTEX
  8
M63LALIFT
 62
6
 10
7249.020
 20
-8488.355
 30
-1064.255
 70
    32
  0
VERTEX
  8
M63LALIFT
 62
6
 10
7249.216
 20
-8488.468
 30
-1064.255
 70
    32
  0
VERTEX
  8
M63LALIFT
 62
6
 10
7249.247
 20
-8488.499
 30
-1064.255
 70
    32
  0
VERTEX
  8
M63LALIFT
 62
6
 10
7249.283
 20
-8488.651
 30
-1064.255
 70
    32
  0
VERTEX
  8
M63LALIFT
 62
6
 10
7249.301
 20
-8488.689
 30
-1064.255
 70
    32
  0
VERTEX
  8
M63LALIFT
 62
6
 10
7249.458
 20
-8488.846
 30
-1064.255
 70
    32
  0
VERTEX
  8
M63LALIFT
 62
6
 10
7249.485
 20
-8488.858
 30
-1064.255
 70
    32
  0
VERTEX
  8
M63LALIFT
 62
6
 10
7249.520
 20
-8489.042
 30
-1064.255
 70
    32
  0
VERTEX
  8
M63LALIFT
 62
6
 10
7249.530
 20
-8489.064
 30
-1064.255
 70
    32
  0
VERTEX
  8
M63LALIFT
 62
6
 10
7249.738
 20
-8489.154
 30
-1064.255
 70
    32
  0
VERTEX
  8
M63LALIFT
 62
6
 10
7249.781
 20
-8489.171
 30
-1064.255
 70
    32
  0
VERTEX
  8
M63LALIFT
 62
6
 10
7249.784
 20
-8489.174
 30
-1064.255
 70
    32
  0
VERTEX
  8
M63LALIFT
 62
6
 10
7249.868
 20
-8489.380
 30
-1064.255
 70
    32
  0
VERTEX
  8
M63LALIFT
 62
6
 10
7249.872
 20
-8489.383
 30
-1064.255
 70
    32
  0
VERTEX
  8
M63LALIFT
 62
6
 10
7249.977
 20
-8489.556
 30
-1064.255
 70
    32
  0
VERTEX
  8
M63LALIFT
 62
6
 10
7249.990
 20
-8489.566
 30
-1064.255
 70
    32
  0
VERTEX
  8
M63LALIFT
 62
6
 10
7250.227
 20
-8489.781
 30
-1064.255
 70
    32
  0
VERTEX
  8
M63LALIFT
 62
6
 10
7250.531
 20
-8489.806
 30
-1064.255
 70
    32
  0
VERTEX
  8
M63LALIFT
 62
6
 10
7250.613
 20
-8489.812
 30
-1064.255
 70
    32
  0
VERTEX
  8
M63LALIFT
 62
6
 10
7250.702
 20
-8489.995
 30
-1064.255
 70
    32
  0
VERTEX
  8
M63LALIFT
 62
6
 10
7250.765
 20
-8490.091
 30
-1064.255
 70
    32
  0
VERTEX
  8
M63LALIFT
 62
6
 10
7250.833
 20
-8490.201
 30
-1064.255
 70
    32
  0
VERTEX
  8
M63LALIFT
 62
6
 10
7250.887
 20
-8490.234
 30
-1064.255
 70
    32
  0
VERTEX
  8
M63LALIFT
 62
6
 10
7251.033
 20
-8490.263
 30
-1064.255
 70
    32
  0
VERTEX
  8
M63LALIFT
 62
6
 10
7251.096
 20
-8490.298
 30
-1064.255
 70
    32
  0
VERTEX
  8
M63LALIFT
 62
6
 10
7251.080
 20
-8490.376
 30
-1064.255
 70
    32
  0
VERTEX
  8
M63LALIFT
 62
6
 10
7251.095
 20
-8490.423
 30
-1064.255
 70
    32
  0
VERTEX
  8
M63LALIFT
 62
6
 10
7251.026
 20
-8490.532
 30
-1064.255
 70
    32
  0
VERTEX
  8
M63LALIFT
 62
6
 10
7251.002
 20
-8490.589
 30
-1064.255
 70
    32
  0
VERTEX
  8
M63LALIFT
 62
6
 10
7250.949
 20
-8490.717
 30
-1064.255
 70
    32
  0
VERTEX
  8
M63LALIFT
 62
6
 10
7250.965
 20
-8490.737
 30
-1064.255
 70
    32
  0
VERTEX
  8
M63LALIFT
 62
6
 10
7251.022
 20
-8490.835
 30
-1064.255
 70
    32
  0
VERTEX
  8
M63LALIFT
 62
6
 10
7251.029
 20
-8490.859
 30
-1064.255
 70
    32
  0
VERTEX
  8
M63LALIFT
 62
6
 10
7250.958
 20
-8490.992
 30
-1064.255
 70
    32
  0
VERTEX
  8
M63LALIFT
 62
6
 10
7250.964
 20
-8491.014
 30
-1064.255
 70
    32
  0
VERTEX
  8
M63LALIFT
 62
6
 10
7250.761
 20
-8491.250
 30
-1064.255
 70
    32
  0
VERTEX
  8
M63LALIFT
 62
6
 10
7250.760
 20
-8491.252
 30
-1064.255
 70
    32
  0
VERTEX
  8
M63LALIFT
 62
6
 10
7250.832
 20
-8491.385
 30
-1064.255
 70
    32
  0
VERTEX
  8
M63LALIFT
 62
6
 10
7251.061
 20
-8491.430
 30
-1064.255
 70
    32
  0
VERTEX
  8
M63LALIFT
 62
6
 10
7251.068
 20
-8491.440
 30
-1064.255
 70
    32
  0
VERTEX
  8
M63LALIFT
 62
6
 10
7250.959
 20
-8491.603
 30
-1064.255
 70
    32
  0
VERTEX
  8
M63LALIFT
 62
6
 10
7250.927
 20
-8491.647
 30
-1064.255
 70
    32
  0
VERTEX
  8
M63LALIFT
 62
6
 10
7250.929
 20
-8491.652
 30
-1064.255
 70
    32
  0
VERTEX
  8
M63LALIFT
 62
6
 10
7250.991
 20
-8491.653
 30
-1064.255
 70
    32
  0
VERTEX
  8
M63LALIFT
 62
6
 10
7251.187
 20
-8491.661
 30
-1064.255
 70
    32
  0
VERTEX
  8
M63LALIFT
 62
6
 10
7251.184
 20
-8491.677
 30
-1064.255
 70
    32
  0
VERTEX
  8
M63LALIFT
 62
6
 10
7251.082
 20
-8491.792
 30
-1064.255
 70
    32
  0
VERTEX
  8
M63LALIFT
 62
6
 10
7250.896
 20
-8491.963
 30
-1064.255
 70
    32
  0
VERTEX
  8
M63LALIFT
 62
6
 10
7250.925
 20
-8491.977
 30
-1064.255
 70
    32
  0
VERTEX
  8
M63LALIFT
 62
6
 10
7250.983
 20
-8492.094
 30
-1064.255
 70
    32
  0
VERTEX
  8
M63LALIFT
 62
6
 10
7250.988
 20
-8492.121
 30
-1064.255
 70
    32
  0
VERTEX
  8
M63LALIFT
 62
6
 10
7250.947
 20
-8492.275
 30
-1064.255
 70
    32
  0
VERTEX
  8
M63LALIFT
 62
6
 10
7250.974
 20
-8492.307
 30
-1064.255
 70
    32
  0
VERTEX
  8
M63LALIFT
 62
6
 10
7251.032
 20
-8492.408
 30
-1064.255
 70
    32
  0
VERTEX
  8
M63LALIFT
 62
6
 10
7251.057
 20
-8492.441
 30
-1064.255
 70
    32
  0
VERTEX
  8
M63LALIFT
 62
6
 10
7251.029
 20
-8492.577
 30
-1064.255
 70
    32
  0
VERTEX
  8
M63LALIFT
 62
6
 10
7251.032
 20
-8492.635
 30
-1064.255
 70
    32
  0
VERTEX
  8
M63LALIFT
 62
6
 10
7251.056
 20
-8492.735
 30
-1064.255
 70
    32
  0
VERTEX
  8
M63LALIFT
 62
6
 10
7251.104
 20
-8492.778
 30
-1064.255
 70
    32
  0
VERTEX
  8
M63LALIFT
 62
6
 10
7251.389
 20
-8492.788
 30
-1064.255
 70
    32
  0
VERTEX
  8
M63LALIFT
 62
6
 10
7251.386
 20
-8492.830
 30
-1064.255
 70
    32
  0
VERTEX
  8
M63LALIFT
 62
6
 10
7251.315
 20
-8493.004
 30
-1064.255
 70
    32
  0
VERTEX
  8
M63LALIFT
 62
6
 10
7251.362
 20
-8493.052
 30
-1064.255
 70
    32
  0
VERTEX
  8
M63LALIFT
 62
6
 10
7251.381
 20
-8493.158
 30
-1064.255
 70
    32
  0
VERTEX
  8
M63LALIFT
 62
6
 10
7251.443
 20
-8493.215
 30
-1064.255
 70
    32
  0
VERTEX
  8
M63LALIFT
 62
6
 10
7251.515
 20
-8493.314
 30
-1064.255
 70
    32
  0
VERTEX
  8
M63LALIFT
 62
6
 10
7251.528
 20
-8493.387
 30
-1064.255
 70
    32
  0
VERTEX
  8
M63LALIFT
 62
6
 10
7251.639
 20
-8493.464
 30
-1064.255
 70
    32
  0
VERTEX
  8
M63LALIFT
 62
6
 10
7251.671
 20
-8493.518
 30
-1064.255
 70
    32
  0
VERTEX
  8
M63LALIFT
 62
6
 10
7251.690
 20
-8493.637
 30
-1064.255
 70
    32
  0
VERTEX
  8
M63LALIFT
 62
6
 10
7251.756
 20
-8493.693
 30
-1064.255
 70
    32
  0
VERTEX
  8
M63LALIFT
 62
6
 10
7251.739
 20
-8493.821
 30
-1064.255
 70
    32
  0
VERTEX
  8
M63LALIFT
 62
6
 10
7251.788
 20
-8493.900
 30
-1064.255
 70
    32
  0
VERTEX
  8
M63LALIFT
 62
6
 10
7251.902
 20
-8493.963
 30
-1064.255
 70
    32
  0
VERTEX
  8
M63LALIFT
 62
6
 10
7251.972
 20
-8494.028
 30
-1064.255
 70
    32
  0
VERTEX
  8
M63LALIFT
 62
6
 10
7252.089
 20
-8494.112
 30
-1064.255
 70
    32
  0
VERTEX
  8
M63LALIFT
 62
6
 10
7252.146
 20
-8494.192
 30
-1064.255
 70
    32
  0
VERTEX
  8
M63LALIFT
 62
6
 10
7252.226
 20
-8494.280
 30
-1064.255
 70
    32
  0
VERTEX
  8
M63LALIFT
 62
6
 10
7252.239
 20
-8494.376
 30
-1064.255
 70
    32
  0
VERTEX
  8
M63LALIFT
 62
6
 10
7252.272
 20
-8494.490
 30
-1064.255
 70
    32
  0
VERTEX
  8
M63LALIFT
 62
6
 10
7252.246
 20
-8494.642
 30
-1064.255
 70
    32
  0
VERTEX
  8
M63LALIFT
 62
6
 10
7252.268
 20
-8494.733
 30
-1064.255
 70
    32
  0
VERTEX
  8
M63LALIFT
 62
6
 10
7252.328
 20
-8494.869
 30
-1064.255
 70
    32
  0
VERTEX
  8
M63LALIFT
 62
6
 10
7252.335
 20
-8494.944
 30
-1064.255
 70
    32
  0
VERTEX
  8
M63LALIFT
 62
6
 10
7252.395
 20
-8495.080
 30
-1064.255
 70
    32
  0
VERTEX
  8
M63LALIFT
 62
6
 10
7252.424
 20
-8495.133
 30
-1064.255
 70
    32
  0
VERTEX
  8
M63LALIFT
 62
6
 10
7252.543
 20
-8495.248
 30
-1064.255
 70
    32
  0
VERTEX
  8
M63LALIFT
 62
6
 10
7252.592
 20
-8495.301
 30
-1064.255
 70
    32
  0
VERTEX
  8
M63LALIFT
 62
6
 10
7252.403
 20
-8495.617
 30
-1064.255
 70
    32
  0
VERTEX
  8
M63LALIFT
 62
6
 10
7252.396
 20
-8495.633
 30
-1064.255
 70
    32
  0
VERTEX
  8
M63LALIFT
 62
6
 10
7252.743
 20
-8495.686
 30
-1064.255
 70
    32
  0
VERTEX
  8
M63LALIFT
 62
6
 10
7252.799
 20
-8495.710
 30
-1064.255
 70
    32
  0
VERTEX
  8
M63LALIFT
 62
6
 10
7252.782
 20
-8495.965
 30
-1064.255
 70
    32
  0
VERTEX
  8
M63LALIFT
 62
6
 10
7252.781
 20
-8495.982
 30
-1064.255
 70
    32
  0
VERTEX
  8
M63LALIFT
 62
6
 10
7252.931
 20
-8496.186
 30
-1064.255
 70
    32
  0
VERTEX
  8
M63LALIFT
 62
6
 10
7252.936
 20
-8496.192
 30
-1064.255
 70
    32
  0
VERTEX
  8
M63LALIFT
 62
6
 10
7252.931
 20
-8496.250
 30
-1064.255
 70
    32
  0
VERTEX
  8
M63LALIFT
 62
6
 10
7252.657
 20
-8496.595
 30
-1064.255
 70
    32
  0
VERTEX
  8
M63LALIFT
 62
6
 10
7252.492
 20
-8496.798
 30
-1064.255
 70
    32
  0
VERTEX
  8
M63LALIFT
 62
6
 10
7252.239
 20
-8497.065
 30
-1064.255
 70
    32
  0
VERTEX
  8
M63LALIFT
 62
6
 10
7252.038
 20
-8497.399
 30
-1064.255
 70
    32
  0
VERTEX
  8
M63LALIFT
 62
6
 10
7252.025
 20
-8497.420
 30
-1064.255
 70
    32
  0
VERTEX
  8
M63LALIFT
 62
6
 10
7251.977
 20
-8497.469
 30
-1064.255
 70
    32
  0
VERTEX
  8
M63LALIFT
 62
6
 10
7251.703
 20
-8497.751
 30
-1064.255
 70
    32
  0
VERTEX
  8
M63LALIFT
 62
6
 10
7251.672
 20
-8497.853
 30
-1064.255
 70
    32
  0
VERTEX
  8
M63LALIFT
 62
6
 10
7251.697
 20
-8498.006
 30
-1064.255
 70
    32
  0
VERTEX
  8
M63LALIFT
 62
6
 10
7251.288
 20
-8498.339
 30
-1064.255
 70
    32
  0
VERTEX
  8
M63LALIFT
 62
6
 10
7251.217
 20
-8498.424
 30
-1064.255
 70
    32
  0
VERTEX
  8
M63LALIFT
 62
6
 10
7251.135
 20
-8498.631
 30
-1064.255
 70
    32
  0
VERTEX
  8
M63LALIFT
 62
6
 10
7251.167
 20
-8498.723
 30
-1064.255
 70
    32
  0
VERTEX
  8
M63LALIFT
 62
6
 10
7251.177
 20
-8498.728
 30
-1064.255
 70
    32
  0
VERTEX
  8
M63LALIFT
 62
6
 10
7251.227
 20
-8499.020
 30
-1064.255
 70
    32
  0
VERTEX
  8
M63LALIFT
 62
6
 10
7251.258
 20
-8499.056
 30
-1064.255
 70
    32
  0
VERTEX
  8
M63LALIFT
 62
6
 10
7251.417
 20
-8499.272
 30
-1064.255
 70
    32
  0
VERTEX
  8
M63LALIFT
 62
6
 10
7251.460
 20
-8499.311
 30
-1064.255
 70
    32
  0
VERTEX
  8
M63LALIFT
 62
6
 10
7251.680
 20
-8499.531
 30
-1064.255
 70
    32
  0
VERTEX
  8
M63LALIFT
 62
6
 10
7251.719
 20
-8499.574
 30
-1064.255
 70
    32
  0
VERTEX
  8
M63LALIFT
 62
6
 10
7251.900
 20
-8499.787
 30
-1064.255
 70
    32
  0
VERTEX
  8
M63LALIFT
 62
6
 10
7251.943
 20
-8499.845
 30
-1064.255
 70
    32
  0
VERTEX
  8
M63LALIFT
 62
6
 10
7252.230
 20
-8500.016
 30
-1064.255
 70
    32
  0
VERTEX
  8
M63LALIFT
 62
6
 10
7252.273
 20
-8500.042
 30
-1064.255
 70
    32
  0
VERTEX
  8
M63LALIFT
 62
6
 10
7252.533
 20
-8500.291
 30
-1064.255
 70
    32
  0
VERTEX
  8
M63LALIFT
 62
6
 10
7252.555
 20
-8500.336
 30
-1064.255
 70
    32
  0
VERTEX
  8
M63LALIFT
 62
6
 10
7252.723
 20
-8500.596
 30
-1064.255
 70
    32
  0
VERTEX
  8
M63LALIFT
 62
6
 10
7252.753
 20
-8500.669
 30
-1064.255
 70
    32
  0
VERTEX
  8
M63LALIFT
 62
6
 10
7253.079
 20
-8500.882
 30
-1064.255
 70
    32
  0
VERTEX
  8
M63LALIFT
 62
6
 10
7253.111
 20
-8500.931
 30
-1064.255
 70
    32
  0
VERTEX
  8
M63LALIFT
 62
6
 10
7253.425
 20
-8501.140
 30
-1064.255
 70
    32
  0
VERTEX
  8
M63LALIFT
 62
6
 10
7253.464
 20
-8501.174
 30
-1064.255
 70
    32
  0
VERTEX
  8
M63LALIFT
 62
6
 10
7253.580
 20
-8501.537
 30
-1064.255
 70
    32
  0
VERTEX
  8
M63LALIFT
 62
6
 10
7253.658
 20
-8501.618
 30
-1064.255
 70
    32
  0
VERTEX
  8
M63LALIFT
 62
6
 10
7253.833
 20
-8501.876
 30
-1064.255
 70
    32
  0
VERTEX
  8
M63LALIFT
 62
6
 10
7253.864
 20
-8502.014
 30
-1064.255
 70
    32
  0
VERTEX
  8
M63LALIFT
 62
6
 10
7253.999
 20
-8502.289
 30
-1064.255
 70
    32
  0
VERTEX
  8
M63LALIFT
 62
6
 10
7254.049
 20
-8502.519
 30
-1064.255
 70
    32
  0
VERTEX
  8
M63LALIFT
 62
6
 10
7254.176
 20
-8502.730
 30
-1064.255
 70
    32
  0
VERTEX
  8
M63LALIFT
 62
6
 10
7254.183
 20
-8503.100
 30
-1064.255
 70
    32
  0
VERTEX
  8
M63LALIFT
 62
6
 10
7254.203
 20
-8503.257
 30
-1064.255
 70
    32
  0
VERTEX
  8
M63LALIFT
 62
6
 10
7254.114
 20
-8503.725
 30
-1064.255
 70
    32
  0
VERTEX
  8
M63LALIFT
 62
6
 10
7254.073
 20
-8503.790
 30
-1064.255
 70
    32
  0
VERTEX
  8
M63LALIFT
 62
6
 10
7254.058
 20
-8503.821
 30
-1064.255
 70
    32
  0
VERTEX
  8
M63LALIFT
 62
6
 10
7253.985
 20
-8504.256
 30
-1064.255
 70
    32
  0
VERTEX
  8
M63LALIFT
 62
6
 10
7253.981
 20
-8504.435
 30
-1064.255
 70
    32
  0
VERTEX
  8
M63LALIFT
 62
6
 10
7253.917
 20
-8504.737
 30
-1064.255
 70
    32
  0
SEQEND
  8
M63LALIFT
  0
POLYLINE
  8
M63LALIFT
 62
6
 66
     1
 70
     9
  0
VERTEX
  8
M63LALIFT
 62
6
 10
7249.050
 20
-8492.503
 30
-1059.539
 70
    32
  0
VERTEX
  8
M63LALIFT
 62
6
 10
7249.081
 20
-8492.394
 30
-1059.539
 70
    32
  0
VERTEX
  8
M63LALIFT
 62
6
 10
7248.987
 20
-8492.302
 30
-1059.539
 70
    32
  0
VERTEX
  8
M63LALIFT
 62
6
 10
7248.946
 20
-8492.234
 30
-1059.539
 70
    32
  0
VERTEX
  8
M63LALIFT
 62
6
 10
7248.889
 20
-8492.152
 30
-1059.539
 70
    32
  0
VERTEX
  8
M63LALIFT
 62
6
 10
7248.851
 20
-8492.082
 30
-1059.539
 70
    32
  0
VERTEX
  8
M63LALIFT
 62
6
 10
7248.808
 20
-8492.013
 30
-1059.539
 70
    32
  0
VERTEX
  8
M63LALIFT
 62
6
 10
7248.769
 20
-8491.955
 30
-1059.539
 70
    32
  0
VERTEX
  8
M63LALIFT
 62
6
 10
7248.659
 20
-8491.903
 30
-1059.539
 70
    32
  0
VERTEX
  8
M63LALIFT
 62
6
 10
7248.642
 20
-8491.815
 30
-1059.539
 70
    32
  0
VERTEX
  8
M63LALIFT
 62
6
 10
7248.556
 20
-8491.709
 30
-1059.539
 70
    32
  0
VERTEX
  8
M63LALIFT
 62
6
 10
7248.535
 20
-8491.587
 30
-1059.539
 70
    32
  0
VERTEX
  8
M63LALIFT
 62
6
 10
7248.423
 20
-8491.330
 30
-1059.539
 70
    32
  0
VERTEX
  8
M63LALIFT
 62
6
 10
7248.336
 20
-8491.069
 30
-1059.539
 70
    32
  0
VERTEX
  8
M63LALIFT
 62
6
 10
7248.251
 20
-8490.961
 30
-1059.539
 70
    32
  0
VERTEX
  8
M63LALIFT
 62
6
 10
7248.171
 20
-8490.868
 30
-1059.539
 70
    32
  0
VERTEX
  8
M63LALIFT
 62
6
 10
7248.104
 20
-8490.699
 30
-1059.539
 70
    32
  0
VERTEX
  8
M63LALIFT
 62
6
 10
7248.060
 20
-8490.505
 30
-1059.539
 70
    32
  0
VERTEX
  8
M63LALIFT
 62
6
 10
7247.905
 20
-8490.419
 30
-1059.539
 70
    32
  0
VERTEX
  8
M63LALIFT
 62
6
 10
7247.837
 20
-8490.249
 30
-1059.539
 70
    32
  0
VERTEX
  8
M63LALIFT
 62
6
 10
7247.861
 20
-8490.105
 30
-1059.539
 70
    32
  0
VERTEX
  8
M63LALIFT
 62
6
 10
7247.792
 20
-8489.985
 30
-1059.539
 70
    32
  0
VERTEX
  8
M63LALIFT
 62
6
 10
7247.684
 20
-8489.897
 30
-1059.539
 70
    32
  0
VERTEX
  8
M63LALIFT
 62
6
 10
7247.558
 20
-8489.765
 30
-1059.539
 70
    32
  0
VERTEX
  8
M63LALIFT
 62
6
 10
7247.525
 20
-8489.659
 30
-1059.539
 70
    32
  0
VERTEX
  8
M63LALIFT
 62
6
 10
7247.469
 20
-8489.486
 30
-1059.539
 70
    32
  0
VERTEX
  8
M63LALIFT
 62
6
 10
7247.400
 20
-8489.389
 30
-1059.539
 70
    32
  0
VERTEX
  8
M63LALIFT
 62
6
 10
7247.370
 20
-8489.181
 30
-1059.539
 70
    32
  0
VERTEX
  8
M63LALIFT
 62
6
 10
7247.318
 20
-8489.069
 30
-1059.539
 70
    32
  0
VERTEX
  8
M63LALIFT
 62
6
 10
7247.215
 20
-8488.895
 30
-1059.539
 70
    32
  0
VERTEX
  8
M63LALIFT
 62
6
 10
7247.167
 20
-8488.805
 30
-1059.539
 70
    32
  0
VERTEX
  8
M63LALIFT
 62
6
 10
7247.107
 20
-8488.622
 30
-1059.539
 70
    32
  0
VERTEX
  8
M63LALIFT
 62
6
 10
7247.052
 20
-8488.528
 30
-1059.539
 70
    32
  0
VERTEX
  8
M63LALIFT
 62
6
 10
7247.044
 20
-8488.297
 30
-1059.539
 70
    32
  0
VERTEX
  8
M63LALIFT
 62
6
 10
7247.010
 20
-8488.206
 30
-1059.539
 70
    32
  0
VERTEX
  8
M63LALIFT
 62
6
 10
7246.990
 20
-8488.032
 30
-1059.539
 70
    32
  0
VERTEX
  8
M63LALIFT
 62
6
 10
7246.972
 20
-8487.912
 30
-1059.539
 70
    32
  0
VERTEX
  8
M63LALIFT
 62
6
 10
7246.915
 20
-8487.742
 30
-1059.539
 70
    32
  0
VERTEX
  8
M63LALIFT
 62
6
 10
7246.898
 20
-8487.605
 30
-1059.539
 70
    32
  0
VERTEX
  8
M63LALIFT
 62
6
 10
7246.921
 20
-8487.386
 30
-1059.539
 70
    32
  0
VERTEX
  8
M63LALIFT
 62
6
 10
7247.038
 20
-8487.158
 30
-1059.539
 70
    32
  0
VERTEX
  8
M63LALIFT
 62
6
 10
7247.109
 20
-8486.990
 30
-1059.539
 70
    32
  0
VERTEX
  8
M63LALIFT
 62
6
 10
7247.139
 20
-8486.730
 30
-1059.539
 70
    32
  0
VERTEX
  8
M63LALIFT
 62
6
 10
7247.127
 20
-8486.626
 30
-1059.539
 70
    32
  0
VERTEX
  8
M63LALIFT
 62
6
 10
7247.120
 20
-8486.388
 30
-1059.539
 70
    32
  0
VERTEX
  8
M63LALIFT
 62
6
 10
7247.098
 20
-8486.310
 30
-1059.539
 70
    32
  0
VERTEX
  8
M63LALIFT
 62
6
 10
7247.105
 20
-8486.051
 30
-1059.539
 70
    32
  0
VERTEX
  8
M63LALIFT
 62
6
 10
7247.098
 20
-8485.972
 30
-1059.539
 70
    32
  0
VERTEX
  8
M63LALIFT
 62
6
 10
7247.069
 20
-8485.718
 30
-1059.539
 70
    32
  0
VERTEX
  8
M63LALIFT
 62
6
 10
7247.060
 20
-8485.653
 30
-1059.539
 70
    32
  0
VERTEX
  8
M63LALIFT
 62
6
 10
7247.053
 20
-8485.379
 30
-1059.539
 70
    32
  0
VERTEX
  8
M63LALIFT
 62
6
 10
7247.045
 20
-8485.318
 30
-1059.539
 70
    32
  0
VERTEX
  8
M63LALIFT
 62
6
 10
7247.004
 20
-8485.020
 30
-1059.539
 70
    32
  0
VERTEX
  8
M63LALIFT
 62
6
 10
7247.004
 20
-8484.966
 30
-1059.539
 70
    32
  0
VERTEX
  8
M63LALIFT
 62
6
 10
7247.030
 20
-8484.648
 30
-1059.539
 70
    32
  0
VERTEX
  8
M63LALIFT
 62
6
 10
7247.017
 20
-8484.616
 30
-1059.539
 70
    32
  0
VERTEX
  8
M63LALIFT
 62
6
 10
7246.950
 20
-8484.302
 30
-1059.539
 70
    32
  0
VERTEX
  8
M63LALIFT
 62
6
 10
7246.962
 20
-8484.259
 30
-1059.539
 70
    32
  0
VERTEX
  8
M63LALIFT
 62
6
 10
7247.006
 20
-8483.942
 30
-1059.539
 70
    32
  0
VERTEX
  8
M63LALIFT
 62
6
 10
7247.006
 20
-8483.928
 30
-1059.539
 70
    32
  0
VERTEX
  8
M63LALIFT
 62
6
 10
7247.064
 20
-8483.869
 30
-1059.539
 70
    32
  0
VERTEX
  8
M63LALIFT
 62
6
 10
7247.387
 20
-8483.532
 30
-1059.539
 70
    32
  0
VERTEX
  8
M63LALIFT
 62
6
 10
7247.370
 20
-8483.465
 30
-1059.539
 70
    32
  0
VERTEX
  8
M63LALIFT
 62
6
 10
7247.368
 20
-8483.162
 30
-1059.539
 70
    32
  0
VERTEX
  8
M63LALIFT
 62
6
 10
7247.371
 20
-8483.090
 30
-1059.539
 70
    32
  0
VERTEX
  8
M63LALIFT
 62
6
 10
7247.343
 20
-8482.821
 30
-1059.539
 70
    32
  0
VERTEX
  8
M63LALIFT
 62
6
 10
7247.348
 20
-8482.736
 30
-1059.539
 70
    32
  0
VERTEX
  8
M63LALIFT
 62
6
 10
7247.242
 20
-8482.441
 30
-1059.539
 70
    32
  0
VERTEX
  8
M63LALIFT
 62
6
 10
7247.232
 20
-8482.370
 30
-1059.539
 70
    32
  0
VERTEX
  8
M63LALIFT
 62
6
 10
7247.190
 20
-8482.109
 30
-1059.539
 70
    32
  0
VERTEX
  8
M63LALIFT
 62
6
 10
7247.173
 20
-8482.043
 30
-1059.539
 70
    32
  0
VERTEX
  8
M63LALIFT
 62
6
 10
7247.165
 20
-8481.741
 30
-1059.539
 70
    32
  0
VERTEX
  8
M63LALIFT
 62
6
 10
7247.173
 20
-8481.657
 30
-1059.539
 70
    32
  0
VERTEX
  8
M63LALIFT
 62
6
 10
7247.067
 20
-8481.331
 30
-1059.539
 70
    32
  0
VERTEX
  8
M63LALIFT
 62
6
 10
7247.058
 20
-8481.271
 30
-1059.539
 70
    32
  0
VERTEX
  8
M63LALIFT
 62
6
 10
7246.972
 20
-8480.948
 30
-1059.539
 70
    32
  0
VERTEX
  8
M63LALIFT
 62
6
 10
7246.968
 20
-8480.895
 30
-1059.539
 70
    32
  0
VERTEX
  8
M63LALIFT
 62
6
 10
7246.879
 20
-8480.517
 30
-1059.539
 70
    32
  0
VERTEX
  8
M63LALIFT
 62
6
 10
7246.879
 20
-8480.480
 30
-1059.539
 70
    32
  0
VERTEX
  8
M63LALIFT
 62
6
 10
7246.811
 20
-8480.152
 30
-1059.539
 70
    32
  0
VERTEX
  8
M63LALIFT
 62
6
 10
7246.806
 20
-8480.129
 30
-1059.539
 70
    32
  0
VERTEX
  8
M63LALIFT
 62
6
 10
7246.715
 20
-8479.743
 30
-1059.539
 70
    32
  0
VERTEX
  8
M63LALIFT
 62
6
 10
7246.713
 20
-8479.732
 30
-1059.539
 70
    32
  0
VERTEX
  8
M63LALIFT
 62
6
 10
7246.667
 20
-8479.278
 30
-1059.539
 70
    32
  0
VERTEX
  8
M63LALIFT
 62
6
 10
7246.667
 20
-8479.273
 30
-1059.539
 70
    32
  0
VERTEX
  8
M63LALIFT
 62
6
 10
7246.673
 20
-8478.844
 30
-1059.539
 70
    32
  0
VERTEX
  8
M63LALIFT
 62
6
 10
7246.671
 20
-8478.835
 30
-1059.539
 70
    32
  0
VERTEX
  8
M63LALIFT
 62
6
 10
7246.628
 20
-8478.654
 30
-1059.539
 70
    32
  0
VERTEX
  8
M63LALIFT
 62
6
 10
7246.537
 20
-8478.450
 30
-1059.539
 70
    32
  0
VERTEX
  8
M63LALIFT
 62
6
 10
7246.526
 20
-8478.432
 30
-1059.539
 70
    32
  0
VERTEX
  8
M63LALIFT
 62
6
 10
7246.289
 20
-8478.180
 30
-1059.539
 70
    32
  0
VERTEX
  8
M63LALIFT
 62
6
 10
7246.266
 20
-8478.111
 30
-1059.539
 70
    32
  0
VERTEX
  8
M63LALIFT
 62
6
 10
7246.082
 20
-8477.847
 30
-1059.539
 70
    32
  0
VERTEX
  8
M63LALIFT
 62
6
 10
7245.873
 20
-8477.782
 30
-1059.539
 70
    32
  0
VERTEX
  8
M63LALIFT
 62
6
 10
7245.690
 20
-8477.609
 30
-1059.539
 70
    32
  0
VERTEX
  8
M63LALIFT
 62
6
 10
7245.491
 20
-8477.436
 30
-1059.539
 70
    32
  0
VERTEX
  8
M63LALIFT
 62
6
 10
7245.318
 20
-8477.351
 30
-1059.539
 70
    32
  0
VERTEX
  8
M63LALIFT
 62
6
 10
7245.194
 20
-8477.047
 30
-1059.539
 70
    32
  0
VERTEX
  8
M63LALIFT
 62
6
 10
7245.089
 20
-8476.990
 30
-1059.539
 70
    32
  0
VERTEX
  8
M63LALIFT
 62
6
 10
7244.787
 20
-8476.731
 30
-1059.539
 70
    32
  0
VERTEX
  8
M63LALIFT
 62
6
 10
7244.776
 20
-8476.723
 30
-1059.539
 70
    32
  0
VERTEX
  8
M63LALIFT
 62
6
 10
7244.722
 20
-8476.636
 30
-1059.539
 70
    32
  0
VERTEX
  8
M63LALIFT
 62
6
 10
7244.409
 20
-8476.343
 30
-1059.539
 70
    32
  0
VERTEX
  8
M63LALIFT
 62
6
 10
7244.347
 20
-8476.268
 30
-1059.539
 70
    32
  0
VERTEX
  8
M63LALIFT
 62
6
 10
7244.030
 20
-8475.992
 30
-1059.539
 70
    32
  0
VERTEX
  8
M63LALIFT
 62
6
 10
7243.878
 20
-8475.774
 30
-1059.539
 70
    32
  0
VERTEX
  8
M63LALIFT
 62
6
 10
7243.717
 20
-8475.517
 30
-1059.539
 70
    32
  0
VERTEX
  8
M63LALIFT
 62
6
 10
7243.388
 20
-8475.226
 30
-1059.539
 70
    32
  0
VERTEX
  8
M63LALIFT
 62
6
 10
7243.207
 20
-8475.106
 30
-1059.539
 70
    32
  0
VERTEX
  8
M63LALIFT
 62
6
 10
7242.810
 20
-8474.651
 30
-1059.539
 70
    32
  0
VERTEX
  8
M63LALIFT
 62
6
 10
7242.795
 20
-8474.645
 30
-1059.539
 70
    32
  0
VERTEX
  8
M63LALIFT
 62
6
 10
7242.768
 20
-8474.600
 30
-1059.539
 70
    32
  0
VERTEX
  8
M63LALIFT
 62
6
 10
7242.378
 20
-8474.365
 30
-1059.539
 70
    32
  0
VERTEX
  8
M63LALIFT
 62
6
 10
7242.242
 20
-8474.294
 30
-1059.539
 70
    32
  0
VERTEX
  8
M63LALIFT
 62
6
 10
7241.706
 20
-8474.311
 30
-1059.539
 70
    32
  0
VERTEX
  8
M63LALIFT
 62
6
 10
7241.412
 20
-8474.067
 30
-1059.539
 70
    32
  0
VERTEX
  8
M63LALIFT
 62
6
 10
7241.308
 20
-8474.012
 30
-1059.539
 70
    32
  0
VERTEX
  8
M63LALIFT
 62
6
 10
7240.958
 20
-8473.764
 30
-1059.539
 70
    32
  0
VERTEX
  8
M63LALIFT
 62
6
 10
7240.895
 20
-8473.640
 30
-1059.539
 70
    32
  0
VERTEX
  8
M63LALIFT
 62
6
 10
7240.888
 20
-8473.624
 30
-1059.539
 70
    32
  0
VERTEX
  8
M63LALIFT
 62
6
 10
7240.468
 20
-8473.022
 30
-1059.539
 70
    32
  0
VERTEX
  8
M63LALIFT
 62
6
 10
7240.412
 20
-8472.860
 30
-1059.539
 70
    32
  0
VERTEX
  8
M63LALIFT
 62
6
 10
7240.057
 20
-8472.344
 30
-1059.539
 70
    32
  0
VERTEX
  8
M63LALIFT
 62
6
 10
7239.747
 20
-8472.010
 30
-1059.539
 70
    32
  0
VERTEX
  8
M63LALIFT
 62
6
 10
7239.590
 20
-8471.682
 30
-1059.539
 70
    32
  0
VERTEX
  8
M63LALIFT
 62
6
 10
7238.537
 20
-8471.328
 30
-1059.539
 70
    32
  0
VERTEX
  8
M63LALIFT
 62
6
 10
7237.949
 20
-8471.510
 30
-1059.539
 70
    32
  0
VERTEX
  8
M63LALIFT
 62
6
 10
7237.865
 20
-8471.294
 30
-1059.539
 70
    32
  0
VERTEX
  8
M63LALIFT
 62
6
 10
7237.596
 20
-8470.895
 30
-1059.539
 70
    32
  0
VERTEX
  8
M63LALIFT
 62
6
 10
7237.485
 20
-8470.613
 30
-1059.539
 70
    32
  0
VERTEX
  8
M63LALIFT
 62
6
 10
7237.343
 20
-8470.306
 30
-1059.539
 70
    32
  0
VERTEX
  8
M63LALIFT
 62
6
 10
7237.167
 20
-8469.879
 30
-1059.539
 70
    32
  0
VERTEX
  8
M63LALIFT
 62
6
 10
7237.023
 20
-8469.592
 30
-1059.539
 70
    32
  0
VERTEX
  8
M63LALIFT
 62
6
 10
7236.855
 20
-8469.157
 30
-1059.539
 70
    32
  0
VERTEX
  8
M63LALIFT
 62
6
 10
7236.738
 20
-8468.925
 30
-1059.539
 70
    32
  0
VERTEX
  8
M63LALIFT
 62
6
 10
7236.489
 20
-8468.363
 30
-1059.539
 70
    32
  0
VERTEX
  8
M63LALIFT
 62
6
 10
7236.410
 20
-8468.191
 30
-1059.539
 70
    32
  0
VERTEX
  8
M63LALIFT
 62
6
 10
7236.127
 20
-8467.521
 30
-1059.539
 70
    32
  0
VERTEX
  8
M63LALIFT
 62
6
 10
7236.086
 20
-8467.408
 30
-1059.539
 70
    32
  0
VERTEX
  8
M63LALIFT
 62
6
 10
7235.707
 20
-8466.759
 30
-1059.539
 70
    32
  0
VERTEX
  8
M63LALIFT
 62
6
 10
7235.703
 20
-8466.751
 30
-1059.539
 70
    32
  0
VERTEX
  8
M63LALIFT
 62
6
 10
7235.673
 20
-8466.702
 30
-1059.539
 70
    32
  0
VERTEX
  8
M63LALIFT
 62
6
 10
7234.061
 20
-8466.452
 30
-1059.539
 70
    32
  0
VERTEX
  8
M63LALIFT
 62
6
 10
7233.497
 20
-8466.284
 30
-1059.539
 70
    32
  0
VERTEX
  8
M63LALIFT
 62
6
 10
7233.052
 20
-8466.090
 30
-1059.539
 70
    32
  0
VERTEX
  8
M63LALIFT
 62
6
 10
7232.921
 20
-8465.966
 30
-1059.539
 70
    32
  0
VERTEX
  8
M63LALIFT
 62
6
 10
7232.266
 20
-8465.503
 30
-1059.539
 70
    32
  0
VERTEX
  8
M63LALIFT
 62
6
 10
7232.022
 20
-8465.179
 30
-1059.539
 70
    32
  0
VERTEX
  8
M63LALIFT
 62
6
 10
7231.684
 20
-8464.871
 30
-1059.539
 70
    32
  0
VERTEX
  8
M63LALIFT
 62
6
 10
7231.224
 20
-8464.372
 30
-1059.539
 70
    32
  0
VERTEX
  8
M63LALIFT
 62
6
 10
7230.961
 20
-8464.197
 30
-1059.539
 70
    32
  0
VERTEX
  8
M63LALIFT
 62
6
 10
7230.368
 20
-8463.454
 30
-1059.539
 70
    32
  0
VERTEX
  8
M63LALIFT
 62
6
 10
7230.280
 20
-8463.396
 30
-1059.539
 70
    32
  0
VERTEX
  8
M63LALIFT
 62
6
 10
7229.964
 20
-8463.048
 30
-1059.539
 70
    32
  0
VERTEX
  8
M63LALIFT
 62
6
 10
7227.517
 20
-8462.713
 30
-1059.539
 70
    32
  0
VERTEX
  8
M63LALIFT
 62
6
 10
7227.341
 20
-8462.683
 30
-1059.539
 70
    32
  0
VERTEX
  8
M63LALIFT
 62
6
 10
7227.247
 20
-8462.734
 30
-1059.539
 70
    32
  0
VERTEX
  8
M63LALIFT
 62
6
 10
7224.868
 20
-8463.535
 30
-1059.539
 70
    32
  0
VERTEX
  8
M63LALIFT
 62
6
 10
7223.990
 20
-8463.770
 30
-1059.539
 70
    32
  0
VERTEX
  8
M63LALIFT
 62
6
 10
7222.233
 20
-8464.147
 30
-1059.539
 70
    32
  0
VERTEX
  8
M63LALIFT
 62
6
 10
7221.673
 20
-8464.454
 30
-1059.539
 70
    32
  0
VERTEX
  8
M63LALIFT
 62
6
 10
7219.843
 20
-8465.365
 30
-1059.539
 70
    32
  0
VERTEX
  8
M63LALIFT
 62
6
 10
7218.439
 20
-8466.193
 30
-1059.539
 70
    32
  0
VERTEX
  8
M63LALIFT
 62
6
 10
7217.524
 20
-8466.760
 30
-1059.539
 70
    32
  0
VERTEX
  8
M63LALIFT
 62
6
 10
7216.643
 20
-8467.626
 30
-1059.539
 70
    32
  0
VERTEX
  8
M63LALIFT
 62
6
 10
7215.520
 20
-8468.750
 30
-1059.539
 70
    32
  0
VERTEX
  8
M63LALIFT
 62
6
 10
7214.178
 20
-8469.499
 30
-1059.539
 70
    32
  0
VERTEX
  8
M63LALIFT
 62
6
 10
7213.380
 20
-8470.572
 30
-1059.539
 70
    32
  0
VERTEX
  8
M63LALIFT
 62
6
 10
7213.368
 20
-8470.589
 30
-1059.539
 70
    32
  0
VERTEX
  8
M63LALIFT
 62
6
 10
7211.146
 20
-8472.272
 30
-1059.539
 70
    32
  0
VERTEX
  8
M63LALIFT
 62
6
 10
7210.504
 20
-8472.979
 30
-1059.539
 70
    32
  0
VERTEX
  8
M63LALIFT
 62
6
 10
7209.901
 20
-8473.710
 30
-1059.539
 70
    32
  0
VERTEX
  8
M63LALIFT
 62
6
 10
7209.716
 20
-8474.025
 30
-1059.539
 70
    32
  0
VERTEX
  8
M63LALIFT
 62
6
 10
7209.433
 20
-8474.473
 30
-1059.539
 70
    32
  0
VERTEX
  8
M63LALIFT
 62
6
 10
7209.537
 20
-8475.064
 30
-1059.539
 70
    32
  0
VERTEX
  8
M63LALIFT
 62
6
 10
7209.500
 20
-8475.252
 30
-1059.539
 70
    32
  0
VERTEX
  8
M63LALIFT
 62
6
 10
7209.480
 20
-8476.018
 30
-1059.539
 70
    32
  0
VERTEX
  8
M63LALIFT
 62
6
 10
7209.510
 20
-8476.507
 30
-1059.539
 70
    32
  0
VERTEX
  8
M63LALIFT
 62
6
 10
7209.481
 20
-8477.040
 30
-1059.539
 70
    32
  0
VERTEX
  8
M63LALIFT
 62
6
 10
7208.976
 20
-8477.920
 30
-1059.539
 70
    32
  0
VERTEX
  8
M63LALIFT
 62
6
 10
7208.999
 20
-8477.973
 30
-1059.539
 70
    32
  0
VERTEX
  8
M63LALIFT
 62
6
 10
7209.006
 20
-8477.979
 30
-1059.539
 70
    32
  0
VERTEX
  8
M63LALIFT
 62
6
 10
7209.520
 20
-8478.746
 30
-1059.539
 70
    32
  0
VERTEX
  8
M63LALIFT
 62
6
 10
7209.602
 20
-8478.822
 30
-1059.539
 70
    32
  0
VERTEX
  8
M63LALIFT
 62
6
 10
7210.101
 20
-8479.467
 30
-1059.539
 70
    32
  0
VERTEX
  8
M63LALIFT
 62
6
 10
7210.225
 20
-8479.591
 30
-1059.539
 70
    32
  0
VERTEX
  8
M63LALIFT
 62
6
 10
7210.700
 20
-8480.146
 30
-1059.539
 70
    32
  0
VERTEX
  8
M63LALIFT
 62
6
 10
7210.847
 20
-8480.279
 30
-1059.539
 70
    32
  0
VERTEX
  8
M63LALIFT
 62
6
 10
7211.353
 20
-8480.755
 30
-1059.539
 70
    32
  0
VERTEX
  8
M63LALIFT
 62
6
 10
7211.538
 20
-8480.930
 30
-1059.539
 70
    32
  0
VERTEX
  8
M63LALIFT
 62
6
 10
7212.017
 20
-8481.367
 30
-1059.539
 70
    32
  0
VERTEX
  8
M63LALIFT
 62
6
 10
7212.184
 20
-8481.561
 30
-1059.539
 70
    32
  0
VERTEX
  8
M63LALIFT
 62
6
 10
7212.619
 20
-8481.965
 30
-1059.539
 70
    32
  0
VERTEX
  8
M63LALIFT
 62
6
 10
7212.755
 20
-8482.137
 30
-1059.539
 70
    32
  0
VERTEX
  8
M63LALIFT
 62
6
 10
7213.793
 20
-8482.352
 30
-1059.539
 70
    32
  0
VERTEX
  8
M63LALIFT
 62
6
 10
7213.802
 20
-8482.451
 30
-1059.539
 70
    32
  0
VERTEX
  8
M63LALIFT
 62
6
 10
7214.417
 20
-8482.805
 30
-1059.539
 70
    32
  0
VERTEX
  8
M63LALIFT
 62
6
 10
7214.454
 20
-8482.864
 30
-1059.539
 70
    32
  0
VERTEX
  8
M63LALIFT
 62
6
 10
7214.733
 20
-8483.428
 30
-1059.539
 70
    32
  0
VERTEX
  8
M63LALIFT
 62
6
 10
7214.787
 20
-8483.559
 30
-1059.539
 70
    32
  0
VERTEX
  8
M63LALIFT
 62
6
 10
7215.102
 20
-8483.911
 30
-1059.539
 70
    32
  0
VERTEX
  8
M63LALIFT
 62
6
 10
7215.173
 20
-8484.067
 30
-1059.539
 70
    32
  0
VERTEX
  8
M63LALIFT
 62
6
 10
7215.464
 20
-8484.428
 30
-1059.539
 70
    32
  0
VERTEX
  8
M63LALIFT
 62
6
 10
7215.509
 20
-8484.638
 30
-1059.539
 70
    32
  0
VERTEX
  8
M63LALIFT
 62
6
 10
7215.692
 20
-8484.961
 30
-1059.539
 70
    32
  0
VERTEX
  8
M63LALIFT
 62
6
 10
7215.784
 20
-8485.211
 30
-1059.539
 70
    32
  0
VERTEX
  8
M63LALIFT
 62
6
 10
7215.946
 20
-8485.468
 30
-1059.539
 70
    32
  0
VERTEX
  8
M63LALIFT
 62
6
 10
7216.022
 20
-8485.781
 30
-1059.539
 70
    32
  0
VERTEX
  8
M63LALIFT
 62
6
 10
7216.079
 20
-8485.993
 30
-1059.539
 70
    32
  0
VERTEX
  8
M63LALIFT
 62
6
 10
7216.173
 20
-8486.372
 30
-1059.539
 70
    32
  0
VERTEX
  8
M63LALIFT
 62
6
 10
7216.249
 20
-8486.489
 30
-1059.539
 70
    32
  0
VERTEX
  8
M63LALIFT
 62
6
 10
7216.217
 20
-8487.000
 30
-1059.539
 70
    32
  0
VERTEX
  8
M63LALIFT
 62
6
 10
7216.231
 20
-8487.024
 30
-1059.539
 70
    32
  0
VERTEX
  8
M63LALIFT
 62
6
 10
7216.345
 20
-8487.289
 30
-1059.539
 70
    32
  0
VERTEX
  8
M63LALIFT
 62
6
 10
7216.389
 20
-8487.403
 30
-1059.539
 70
    32
  0
VERTEX
  8
M63LALIFT
 62
6
 10
7216.392
 20
-8487.417
 30
-1059.539
 70
    32
  0
VERTEX
  8
M63LALIFT
 62
6
 10
7216.577
 20
-8487.882
 30
-1059.539
 70
    32
  0
VERTEX
  8
M63LALIFT
 62
6
 10
7216.594
 20
-8487.946
 30
-1059.539
 70
    32
  0
VERTEX
  8
M63LALIFT
 62
6
 10
7216.841
 20
-8488.357
 30
-1059.539
 70
    32
  0
VERTEX
  8
M63LALIFT
 62
6
 10
7216.832
 20
-8488.465
 30
-1059.539
 70
    32
  0
VERTEX
  8
M63LALIFT
 62
6
 10
7217.053
 20
-8488.740
 30
-1059.539
 70
    32
  0
VERTEX
  8
M63LALIFT
 62
6
 10
7217.075
 20
-8488.891
 30
-1059.539
 70
    32
  0
VERTEX
  8
M63LALIFT
 62
6
 10
7217.143
 20
-8489.228
 30
-1059.539
 70
    32
  0
VERTEX
  8
M63LALIFT
 62
6
 10
7217.112
 20
-8489.440
 30
-1059.539
 70
    32
  0
VERTEX
  8
M63LALIFT
 62
6
 10
7217.246
 20
-8489.685
 30
-1059.539
 70
    32
  0
VERTEX
  8
M63LALIFT
 62
6
 10
7217.248
 20
-8489.952
 30
-1059.539
 70
    32
  0
VERTEX
  8
M63LALIFT
 62
6
 10
7217.224
 20
-8490.149
 30
-1059.539
 70
    32
  0
VERTEX
  8
M63LALIFT
 62
6
 10
7217.227
 20
-8490.498
 30
-1059.539
 70
    32
  0
VERTEX
  8
M63LALIFT
 62
6
 10
7217.252
 20
-8490.609
 30
-1059.539
 70
    32
  0
VERTEX
  8
M63LALIFT
 62
6
 10
7217.215
 20
-8491.045
 30
-1059.539
 70
    32
  0
VERTEX
  8
M63LALIFT
 62
6
 10
7217.222
 20
-8491.083
 30
-1059.539
 70
    32
  0
VERTEX
  8
M63LALIFT
 62
6
 10
7217.149
 20
-8491.249
 30
-1059.539
 70
    32
  0
VERTEX
  8
M63LALIFT
 62
6
 10
7217.149
 20
-8491.511
 30
-1059.539
 70
    32
  0
VERTEX
  8
M63LALIFT
 62
6
 10
7217.141
 20
-8491.544
 30
-1059.539
 70
    32
  0
VERTEX
  8
M63LALIFT
 62
6
 10
7217.322
 20
-8491.887
 30
-1059.539
 70
    32
  0
VERTEX
  8
M63LALIFT
 62
6
 10
7217.307
 20
-8491.938
 30
-1059.539
 70
    32
  0
VERTEX
  8
M63LALIFT
 62
6
 10
7217.358
 20
-8492.209
 30
-1059.539
 70
    32
  0
VERTEX
  8
M63LALIFT
 62
6
 10
7217.365
 20
-8492.290
 30
-1059.539
 70
    32
  0
VERTEX
  8
M63LALIFT
 62
6
 10
7217.559
 20
-8492.535
 30
-1059.539
 70
    32
  0
VERTEX
  8
M63LALIFT
 62
6
 10
7217.574
 20
-8492.626
 30
-1059.539
 70
    32
  0
VERTEX
  8
M63LALIFT
 62
6
 10
7217.692
 20
-8492.893
 30
-1059.539
 70
    32
  0
VERTEX
  8
M63LALIFT
 62
6
 10
7217.708
 20
-8493.005
 30
-1059.539
 70
    32
  0
VERTEX
  8
M63LALIFT
 62
6
 10
7217.752
 20
-8493.230
 30
-1059.539
 70
    32
  0
VERTEX
  8
M63LALIFT
 62
6
 10
7218.401
 20
-8493.185
 30
-1059.539
 70
    32
  0
VERTEX
  8
M63LALIFT
 62
6
 10
7218.594
 20
-8493.459
 30
-1059.539
 70
    32
  0
VERTEX
  8
M63LALIFT
 62
6
 10
7218.743
 20
-8493.493
 30
-1059.539
 70
    32
  0
VERTEX
  8
M63LALIFT
 62
6
 10
7218.896
 20
-8493.720
 30
-1059.539
 70
    32
  0
VERTEX
  8
M63LALIFT
 62
6
 10
7218.598
 20
-8493.876
 30
-1059.539
 70
    32
  0
VERTEX
  8
M63LALIFT
 62
6
 10
7218.736
 20
-8494.083
 30
-1059.539
 70
    32
  0
VERTEX
  8
M63LALIFT
 62
6
 10
7218.441
 20
-8494.288
 30
-1059.539
 70
    32
  0
VERTEX
  8
M63LALIFT
 62
6
 10
7218.573
 20
-8494.463
 30
-1059.539
 70
    32
  0
VERTEX
  8
M63LALIFT
 62
6
 10
7218.654
 20
-8494.590
 30
-1059.539
 70
    32
  0
VERTEX
  8
M63LALIFT
 62
6
 10
7218.728
 20
-8494.731
 30
-1059.539
 70
    32
  0
VERTEX
  8
M63LALIFT
 62
6
 10
7218.753
 20
-8494.917
 30
-1059.539
 70
    32
  0
VERTEX
  8
M63LALIFT
 62
6
 10
7218.874
 20
-8495.049
 30
-1059.539
 70
    32
  0
VERTEX
  8
M63LALIFT
 62
6
 10
7218.965
 20
-8495.228
 30
-1059.539
 70
    32
  0
VERTEX
  8
M63LALIFT
 62
6
 10
7219.065
 20
-8495.358
 30
-1059.539
 70
    32
  0
VERTEX
  8
M63LALIFT
 62
6
 10
7219.145
 20
-8495.507
 30
-1059.539
 70
    32
  0
VERTEX
  8
M63LALIFT
 62
6
 10
7219.238
 20
-8495.646
 30
-1059.539
 70
    32
  0
VERTEX
  8
M63LALIFT
 62
6
 10
7219.127
 20
-8495.873
 30
-1059.539
 70
    32
  0
VERTEX
  8
M63LALIFT
 62
6
 10
7219.200
 20
-8495.958
 30
-1059.539
 70
    32
  0
VERTEX
  8
M63LALIFT
 62
6
 10
7219.219
 20
-8496.179
 30
-1059.539
 70
    32
  0
VERTEX
  8
M63LALIFT
 62
6
 10
7219.242
 20
-8496.270
 30
-1059.539
 70
    32
  0
VERTEX
  8
M63LALIFT
 62
6
 10
7219.311
 20
-8496.518
 30
-1059.539
 70
    32
  0
VERTEX
  8
M63LALIFT
 62
6
 10
7219.340
 20
-8496.600
 30
-1059.539
 70
    32
  0
VERTEX
  8
M63LALIFT
 62
6
 10
7219.494
 20
-8496.836
 30
-1059.539
 70
    32
  0
VERTEX
  8
M63LALIFT
 62
6
 10
7219.519
 20
-8496.905
 30
-1059.539
 70
    32
  0
VERTEX
  8
M63LALIFT
 62
6
 10
7219.633
 20
-8497.105
 30
-1059.539
 70
    32
  0
VERTEX
  8
M63LALIFT
 62
6
 10
7219.655
 20
-8497.176
 30
-1059.539
 70
    32
  0
VERTEX
  8
M63LALIFT
 62
6
 10
7219.902
 20
-8497.366
 30
-1059.539
 70
    32
  0
VERTEX
  8
M63LALIFT
 62
6
 10
7219.891
 20
-8497.444
 30
-1059.539
 70
    32
  0
VERTEX
  8
M63LALIFT
 62
6
 10
7219.930
 20
-8497.690
 30
-1059.539
 70
    32
  0
VERTEX
  8
M63LALIFT
 62
6
 10
7219.966
 20
-8497.740
 30
-1059.539
 70
    32
  0
VERTEX
  8
M63LALIFT
 62
6
 10
7220.314
 20
-8497.930
 30
-1059.539
 70
    32
  0
VERTEX
  8
M63LALIFT
 62
6
 10
7220.359
 20
-8498.003
 30
-1059.539
 70
    32
  0
VERTEX
  8
M63LALIFT
 62
6
 10
7220.624
 20
-8498.163
 30
-1059.539
 70
    32
  0
VERTEX
  8
M63LALIFT
 62
6
 10
7220.700
 20
-8498.247
 30
-1059.539
 70
    32
  0
VERTEX
  8
M63LALIFT
 62
6
 10
7220.968
 20
-8498.365
 30
-1059.539
 70
    32
  0
VERTEX
  8
M63LALIFT
 62
6
 10
7221.124
 20
-8498.473
 30
-1059.539
 70
    32
  0
VERTEX
  8
M63LALIFT
 62
6
 10
7221.426
 20
-8498.586
 30
-1059.539
 70
    32
  0
VERTEX
  8
M63LALIFT
 62
6
 10
7221.613
 20
-8498.692
 30
-1059.539
 70
    32
  0
VERTEX
  8
M63LALIFT
 62
6
 10
7221.888
 20
-8498.740
 30
-1059.539
 70
    32
  0
VERTEX
  8
M63LALIFT
 62
6
 10
7222.135
 20
-8498.893
 30
-1059.539
 70
    32
  0
VERTEX
  8
M63LALIFT
 62
6
 10
7222.469
 20
-8498.890
 30
-1059.539
 70
    32
  0
VERTEX
  8
M63LALIFT
 62
6
 10
7222.601
 20
-8499.117
 30
-1059.539
 70
    32
  0
VERTEX
  8
M63LALIFT
 62
6
 10
7222.669
 20
-8499.158
 30
-1059.539
 70
    32
  0
VERTEX
  8
M63LALIFT
 62
6
 10
7222.814
 20
-8499.390
 30
-1059.539
 70
    32
  0
VERTEX
  8
M63LALIFT
 62
6
 10
7222.862
 20
-8499.417
 30
-1059.539
 70
    32
  0
VERTEX
  8
M63LALIFT
 62
6
 10
7223.157
 20
-8499.603
 30
-1059.539
 70
    32
  0
VERTEX
  8
M63LALIFT
 62
6
 10
7223.183
 20
-8499.611
 30
-1059.539
 70
    32
  0
VERTEX
  8
M63LALIFT
 62
6
 10
7223.349
 20
-8499.704
 30
-1059.539
 70
    32
  0
VERTEX
  8
M63LALIFT
 62
6
 10
7223.637
 20
-8499.731
 30
-1059.539
 70
    32
  0
VERTEX
  8
M63LALIFT
 62
6
 10
7223.655
 20
-8499.763
 30
-1059.539
 70
    32
  0
VERTEX
  8
M63LALIFT
 62
6
 10
7223.936
 20
-8499.910
 30
-1059.539
 70
    32
  0
VERTEX
  8
M63LALIFT
 62
6
 10
7223.957
 20
-8499.973
 30
-1059.539
 70
    32
  0
VERTEX
  8
M63LALIFT
 62
6
 10
7224.385
 20
-8500.022
 30
-1059.539
 70
    32
  0
VERTEX
  8
M63LALIFT
 62
6
 10
7224.446
 20
-8500.125
 30
-1059.539
 70
    32
  0
VERTEX
  8
M63LALIFT
 62
6
 10
7224.643
 20
-8500.146
 30
-1059.539
 70
    32
  0
VERTEX
  8
M63LALIFT
 62
6
 10
7224.709
 20
-8500.230
 30
-1059.539
 70
    32
  0
VERTEX
  8
M63LALIFT
 62
6
 10
7224.867
 20
-8500.300
 30
-1059.539
 70
    32
  0
VERTEX
  8
M63LALIFT
 62
6
 10
7225.177
 20
-8500.360
 30
-1059.539
 70
    32
  0
VERTEX
  8
M63LALIFT
 62
6
 10
7225.291
 20
-8500.535
 30
-1059.539
 70
    32
  0
VERTEX
  8
M63LALIFT
 62
6
 10
7225.416
 20
-8500.883
 30
-1059.539
 70
    32
  0
VERTEX
  8
M63LALIFT
 62
6
 10
7225.443
 20
-8500.950
 30
-1059.539
 70
    32
  0
VERTEX
  8
M63LALIFT
 62
6
 10
7225.514
 20
-8501.135
 30
-1059.539
 70
    32
  0
VERTEX
  8
M63LALIFT
 62
6
 10
7225.548
 20
-8501.185
 30
-1059.539
 70
    32
  0
VERTEX
  8
M63LALIFT
 62
6
 10
7225.605
 20
-8501.333
 30
-1059.539
 70
    32
  0
VERTEX
  8
M63LALIFT
 62
6
 10
7225.627
 20
-8501.378
 30
-1059.539
 70
    32
  0
VERTEX
  8
M63LALIFT
 62
6
 10
7225.665
 20
-8501.511
 30
-1059.539
 70
    32
  0
VERTEX
  8
M63LALIFT
 62
6
 10
7225.708
 20
-8501.534
 30
-1059.539
 70
    32
  0
VERTEX
  8
M63LALIFT
 62
6
 10
7225.760
 20
-8501.639
 30
-1059.539
 70
    32
  0
VERTEX
  8
M63LALIFT
 62
6
 10
7225.777
 20
-8501.681
 30
-1059.539
 70
    32
  0
VERTEX
  8
M63LALIFT
 62
6
 10
7225.816
 20
-8501.818
 30
-1059.539
 70
    32
  0
VERTEX
  8
M63LALIFT
 62
6
 10
7225.843
 20
-8501.853
 30
-1059.539
 70
    32
  0
VERTEX
  8
M63LALIFT
 62
6
 10
7225.895
 20
-8501.962
 30
-1059.539
 70
    32
  0
VERTEX
  8
M63LALIFT
 62
6
 10
7225.954
 20
-8501.974
 30
-1059.539
 70
    32
  0
VERTEX
  8
M63LALIFT
 62
6
 10
7226.003
 20
-8502.118
 30
-1059.539
 70
    32
  0
VERTEX
  8
M63LALIFT
 62
6
 10
7226.024
 20
-8502.147
 30
-1059.539
 70
    32
  0
VERTEX
  8
M63LALIFT
 62
6
 10
7226.111
 20
-8502.274
 30
-1059.539
 70
    32
  0
VERTEX
  8
M63LALIFT
 62
6
 10
7226.128
 20
-8502.299
 30
-1059.539
 70
    32
  0
VERTEX
  8
M63LALIFT
 62
6
 10
7226.417
 20
-8502.335
 30
-1059.539
 70
    32
  0
VERTEX
  8
M63LALIFT
 62
6
 10
7226.419
 20
-8502.340
 30
-1059.539
 70
    32
  0
VERTEX
  8
M63LALIFT
 62
6
 10
7226.495
 20
-8502.387
 30
-1059.539
 70
    32
  0
VERTEX
  8
M63LALIFT
 62
6
 10
7226.744
 20
-8502.456
 30
-1059.539
 70
    32
  0
VERTEX
  8
M63LALIFT
 62
6
 10
7226.761
 20
-8502.476
 30
-1059.539
 70
    32
  0
VERTEX
  8
M63LALIFT
 62
6
 10
7226.909
 20
-8502.633
 30
-1059.539
 70
    32
  0
VERTEX
  8
M63LALIFT
 62
6
 10
7226.921
 20
-8502.667
 30
-1059.539
 70
    32
  0
VERTEX
  8
M63LALIFT
 62
6
 10
7227.128
 20
-8502.788
 30
-1059.539
 70
    32
  0
VERTEX
  8
M63LALIFT
 62
6
 10
7227.186
 20
-8502.840
 30
-1059.539
 70
    32
  0
VERTEX
  8
M63LALIFT
 62
6
 10
7227.352
 20
-8502.949
 30
-1059.539
 70
    32
  0
VERTEX
  8
M63LALIFT
 62
6
 10
7227.427
 20
-8503.021
 30
-1059.539
 70
    32
  0
VERTEX
  8
M63LALIFT
 62
6
 10
7227.562
 20
-8503.099
 30
-1059.539
 70
    32
  0
VERTEX
  8
M63LALIFT
 62
6
 10
7227.666
 20
-8503.186
 30
-1059.539
 70
    32
  0
VERTEX
  8
M63LALIFT
 62
6
 10
7227.814
 20
-8503.271
 30
-1059.539
 70
    32
  0
VERTEX
  8
M63LALIFT
 62
6
 10
7227.979
 20
-8503.370
 30
-1059.539
 70
    32
  0
VERTEX
  8
M63LALIFT
 62
6
 10
7228.044
 20
-8503.433
 30
-1059.539
 70
    32
  0
VERTEX
  8
M63LALIFT
 62
6
 10
7228.172
 20
-8503.593
 30
-1059.539
 70
    32
  0
VERTEX
  8
M63LALIFT
 62
6
 10
7228.236
 20
-8503.629
 30
-1059.539
 70
    32
  0
VERTEX
  8
M63LALIFT
 62
6
 10
7228.728
 20
-8503.728
 30
-1059.539
 70
    32
  0
VERTEX
  8
M63LALIFT
 62
6
 10
7228.785
 20
-8503.722
 30
-1059.539
 70
    32
  0
VERTEX
  8
M63LALIFT
 62
6
 10
7228.791
 20
-8503.728
 30
-1059.539
 70
    32
  0
VERTEX
  8
M63LALIFT
 62
6
 10
7229.174
 20
-8503.773
 30
-1059.539
 70
    32
  0
VERTEX
  8
M63LALIFT
 62
6
 10
7229.165
 20
-8503.845
 30
-1059.539
 70
    32
  0
VERTEX
  8
M63LALIFT
 62
6
 10
7229.463
 20
-8503.894
 30
-1059.539
 70
    32
  0
VERTEX
  8
M63LALIFT
 62
6
 10
7229.544
 20
-8503.960
 30
-1059.539
 70
    32
  0
VERTEX
  8
M63LALIFT
 62
6
 10
7229.638
 20
-8504.066
 30
-1059.539
 70
    32
  0
VERTEX
  8
M63LALIFT
 62
6
 10
7229.760
 20
-8504.157
 30
-1059.539
 70
    32
  0
VERTEX
  8
M63LALIFT
 62
6
 10
7229.894
 20
-8504.236
 30
-1059.539
 70
    32
  0
VERTEX
  8
M63LALIFT
 62
6
 10
7230.068
 20
-8504.370
 30
-1059.539
 70
    32
  0
VERTEX
  8
M63LALIFT
 62
6
 10
7230.166
 20
-8504.440
 30
-1059.539
 70
    32
  0
VERTEX
  8
M63LALIFT
 62
6
 10
7230.433
 20
-8504.556
 30
-1059.539
 70
    32
  0
VERTEX
  8
M63LALIFT
 62
6
 10
7230.464
 20
-8504.593
 30
-1059.539
 70
    32
  0
VERTEX
  8
M63LALIFT
 62
6
 10
7230.656
 20
-8504.781
 30
-1059.539
 70
    32
  0
VERTEX
  8
M63LALIFT
 62
6
 10
7230.663
 20
-8504.802
 30
-1059.539
 70
    32
  0
VERTEX
  8
M63LALIFT
 62
6
 10
7230.813
 20
-8504.882
 30
-1059.539
 70
    32
  0
VERTEX
  8
M63LALIFT
 62
6
 10
7231.020
 20
-8504.939
 30
-1059.539
 70
    32
  0
VERTEX
  8
M63LALIFT
 62
6
 10
7231.071
 20
-8504.969
 30
-1059.539
 70
    32
  0
VERTEX
  8
M63LALIFT
 62
6
 10
7231.409
 20
-8505.140
 30
-1059.539
 70
    32
  0
VERTEX
  8
M63LALIFT
 62
6
 10
7231.517
 20
-8505.230
 30
-1059.539
 70
    32
  0
VERTEX
  8
M63LALIFT
 62
6
 10
7231.898
 20
-8505.335
 30
-1059.539
 70
    32
  0
VERTEX
  8
M63LALIFT
 62
6
 10
7232.136
 20
-8505.522
 30
-1059.539
 70
    32
  0
VERTEX
  8
M63LALIFT
 62
6
 10
7232.239
 20
-8505.593
 30
-1059.539
 70
    32
  0
VERTEX
  8
M63LALIFT
 62
6
 10
7232.659
 20
-8505.814
 30
-1059.539
 70
    32
  0
VERTEX
  8
M63LALIFT
 62
6
 10
7232.692
 20
-8505.804
 30
-1059.539
 70
    32
  0
VERTEX
  8
M63LALIFT
 62
6
 10
7232.699
 20
-8505.807
 30
-1059.539
 70
    32
  0
VERTEX
  8
M63LALIFT
 62
6
 10
7233.097
 20
-8505.837
 30
-1059.539
 70
    32
  0
VERTEX
  8
M63LALIFT
 62
6
 10
7233.190
 20
-8505.865
 30
-1059.539
 70
    32
  0
VERTEX
  8
M63LALIFT
 62
6
 10
7233.433
 20
-8505.891
 30
-1059.539
 70
    32
  0
VERTEX
  8
M63LALIFT
 62
6
 10
7233.577
 20
-8505.978
 30
-1059.539
 70
    32
  0
VERTEX
  8
M63LALIFT
 62
6
 10
7233.849
 20
-8505.906
 30
-1059.539
 70
    32
  0
VERTEX
  8
M63LALIFT
 62
6
 10
7234.024
 20
-8506.078
 30
-1059.539
 70
    32
  0
VERTEX
  8
M63LALIFT
 62
6
 10
7234.121
 20
-8506.071
 30
-1059.539
 70
    32
  0
VERTEX
  8
M63LALIFT
 62
6
 10
7234.395
 20
-8506.177
 30
-1059.539
 70
    32
  0
VERTEX
  8
M63LALIFT
 62
6
 10
7234.460
 20
-8506.170
 30
-1059.539
 70
    32
  0
VERTEX
  8
M63LALIFT
 62
6
 10
7234.479
 20
-8506.181
 30
-1059.539
 70
    32
  0
VERTEX
  8
M63LALIFT
 62
6
 10
7235.133
 20
-8506.226
 30
-1059.539
 70
    32
  0
VERTEX
  8
M63LALIFT
 62
6
 10
7235.171
 20
-8506.368
 30
-1059.539
 70
    32
  0
VERTEX
  8
M63LALIFT
 62
6
 10
7235.425
 20
-8506.456
 30
-1059.539
 70
    32
  0
VERTEX
  8
M63LALIFT
 62
6
 10
7235.844
 20
-8506.570
 30
-1059.539
 70
    32
  0
VERTEX
  8
M63LALIFT
 62
6
 10
7235.905
 20
-8506.609
 30
-1059.539
 70
    32
  0
VERTEX
  8
M63LALIFT
 62
6
 10
7236.198
 20
-8506.872
 30
-1059.539
 70
    32
  0
VERTEX
  8
M63LALIFT
 62
6
 10
7236.200
 20
-8506.873
 30
-1059.539
 70
    32
  0
VERTEX
  8
M63LALIFT
 62
6
 10
7236.505
 20
-8507.095
 30
-1059.539
 70
    32
  0
VERTEX
  8
M63LALIFT
 62
6
 10
7236.556
 20
-8507.141
 30
-1059.539
 70
    32
  0
VERTEX
  8
M63LALIFT
 62
6
 10
7236.738
 20
-8507.380
 30
-1059.539
 70
    32
  0
VERTEX
  8
M63LALIFT
 62
6
 10
7236.866
 20
-8507.440
 30
-1059.539
 70
    32
  0
VERTEX
  8
M63LALIFT
 62
6
 10
7237.002
 20
-8507.617
 30
-1059.539
 70
    32
  0
VERTEX
  8
M63LALIFT
 62
6
 10
7237.230
 20
-8507.673
 30
-1059.539
 70
    32
  0
VERTEX
  8
M63LALIFT
 62
6
 10
7237.429
 20
-8507.753
 30
-1059.539
 70
    32
  0
VERTEX
  8
M63LALIFT
 62
6
 10
7237.866
 20
-8507.892
 30
-1059.539
 70
    32
  0
VERTEX
  8
M63LALIFT
 62
6
 10
7237.819
 20
-8507.988
 30
-1059.539
 70
    32
  0
VERTEX
  8
M63LALIFT
 62
6
 10
7238.166
 20
-8508.212
 30
-1059.539
 70
    32
  0
VERTEX
  8
M63LALIFT
 62
6
 10
7238.208
 20
-8508.266
 30
-1059.539
 70
    32
  0
VERTEX
  8
M63LALIFT
 62
6
 10
7238.220
 20
-8508.274
 30
-1059.539
 70
    32
  0
VERTEX
  8
M63LALIFT
 62
6
 10
7238.186
 20
-8508.299
 30
-1059.539
 70
    32
  0
VERTEX
  8
M63LALIFT
 62
6
 10
7237.583
 20
-8508.984
 30
-1059.539
 70
    32
  0
VERTEX
  8
M63LALIFT
 62
6
 10
7237.639
 20
-8509.165
 30
-1059.539
 70
    32
  0
VERTEX
  8
M63LALIFT
 62
6
 10
7237.951
 20
-8509.277
 30
-1059.539
 70
    32
  0
VERTEX
  8
M63LALIFT
 62
6
 10
7238.035
 20
-8509.350
 30
-1059.539
 70
    32
  0
VERTEX
  8
M63LALIFT
 62
6
 10
7238.194
 20
-8509.715
 30
-1059.539
 70
    32
  0
VERTEX
  8
M63LALIFT
 62
6
 10
7238.249
 20
-8509.770
 30
-1059.539
 70
    32
  0
VERTEX
  8
M63LALIFT
 62
6
 10
7237.986
 20
-8510.344
 30
-1059.539
 70
    32
  0
VERTEX
  8
M63LALIFT
 62
6
 10
7238.097
 20
-8510.487
 30
-1059.539
 70
    32
  0
VERTEX
  8
M63LALIFT
 62
6
 10
7238.177
 20
-8510.812
 30
-1059.539
 70
    32
  0
VERTEX
  8
M63LALIFT
 62
6
 10
7238.272
 20
-8510.920
 30
-1059.539
 70
    32
  0
VERTEX
  8
M63LALIFT
 62
6
 10
7238.423
 20
-8511.299
 30
-1059.539
 70
    32
  0
VERTEX
  8
M63LALIFT
 62
6
 10
7238.373
 20
-8511.470
 30
-1059.539
 70
    32
  0
VERTEX
  8
M63LALIFT
 62
6
 10
7238.497
 20
-8511.826
 30
-1059.539
 70
    32
  0
VERTEX
  8
M63LALIFT
 62
6
 10
7238.616
 20
-8511.904
 30
-1059.539
 70
    32
  0
VERTEX
  8
M63LALIFT
 62
6
 10
7238.741
 20
-8512.370
 30
-1059.539
 70
    32
  0
VERTEX
  8
M63LALIFT
 62
6
 10
7238.679
 20
-8512.526
 30
-1059.539
 70
    32
  0
VERTEX
  8
M63LALIFT
 62
6
 10
7239.150
 20
-8512.697
 30
-1059.539
 70
    32
  0
VERTEX
  8
M63LALIFT
 62
6
 10
7239.309
 20
-8512.771
 30
-1059.539
 70
    32
  0
VERTEX
  8
M63LALIFT
 62
6
 10
7239.358
 20
-8512.830
 30
-1059.539
 70
    32
  0
VERTEX
  8
M63LALIFT
 62
6
 10
7239.985
 20
-8513.311
 30
-1059.539
 70
    32
  0
VERTEX
  8
M63LALIFT
 62
6
 10
7240.328
 20
-8513.574
 30
-1059.539
 70
    32
  0
VERTEX
  8
M63LALIFT
 62
6
 10
7240.631
 20
-8513.814
 30
-1059.539
 70
    32
  0
VERTEX
  8
M63LALIFT
 62
6
 10
7241.341
 20
-8514.366
 30
-1059.539
 70
    32
  0
VERTEX
  8
M63LALIFT
 62
6
 10
7241.328
 20
-8514.403
 30
-1059.539
 70
    32
  0
VERTEX
  8
M63LALIFT
 62
6
 10
7241.459
 20
-8514.457
 30
-1059.539
 70
    32
  0
VERTEX
  8
M63LALIFT
 62
6
 10
7242.121
 20
-8514.582
 30
-1059.539
 70
    32
  0
VERTEX
  8
M63LALIFT
 62
6
 10
7242.096
 20
-8514.854
 30
-1059.539
 70
    32
  0
VERTEX
  8
M63LALIFT
 62
6
 10
7241.897
 20
-8515.741
 30
-1059.539
 70
    32
  0
VERTEX
  8
M63LALIFT
 62
6
 10
7241.972
 20
-8515.751
 30
-1059.539
 70
    32
  0
VERTEX
  8
M63LALIFT
 62
6
 10
7242.835
 20
-8515.681
 30
-1059.539
 70
    32
  0
VERTEX
  8
M63LALIFT
 62
6
 10
7243.528
 20
-8515.744
 30
-1059.539
 70
    32
  0
VERTEX
  8
M63LALIFT
 62
6
 10
7243.612
 20
-8515.803
 30
-1059.539
 70
    32
  0
VERTEX
  8
M63LALIFT
 62
6
 10
7243.847
 20
-8515.787
 30
-1059.539
 70
    32
  0
VERTEX
  8
M63LALIFT
 62
6
 10
7245.150
 20
-8515.232
 30
-1059.539
 70
    32
  0
VERTEX
  8
M63LALIFT
 62
6
 10
7245.649
 20
-8514.967
 30
-1059.539
 70
    32
  0
VERTEX
  8
M63LALIFT
 62
6
 10
7246.396
 20
-8513.640
 30
-1059.539
 70
    32
  0
VERTEX
  8
M63LALIFT
 62
6
 10
7246.880
 20
-8512.894
 30
-1059.539
 70
    32
  0
VERTEX
  8
M63LALIFT
 62
6
 10
7247.010
 20
-8512.546
 30
-1059.539
 70
    32
  0
VERTEX
  8
M63LALIFT
 62
6
 10
7247.042
 20
-8512.439
 30
-1059.539
 70
    32
  0
VERTEX
  8
M63LALIFT
 62
6
 10
7247.177
 20
-8511.951
 30
-1059.539
 70
    32
  0
VERTEX
  8
M63LALIFT
 62
6
 10
7247.153
 20
-8511.688
 30
-1059.539
 70
    32
  0
VERTEX
  8
M63LALIFT
 62
6
 10
7247.175
 20
-8511.379
 30
-1059.539
 70
    32
  0
VERTEX
  8
M63LALIFT
 62
6
 10
7247.099
 20
-8511.038
 30
-1059.539
 70
    32
  0
VERTEX
  8
M63LALIFT
 62
6
 10
7246.895
 20
-8510.773
 30
-1059.539
 70
    32
  0
VERTEX
  8
M63LALIFT
 62
6
 10
7247.094
 20
-8510.408
 30
-1059.539
 70
    32
  0
VERTEX
  8
M63LALIFT
 62
6
 10
7246.950
 20
-8510.261
 30
-1059.539
 70
    32
  0
VERTEX
  8
M63LALIFT
 62
6
 10
7246.891
 20
-8509.832
 30
-1059.539
 70
    32
  0
VERTEX
  8
M63LALIFT
 62
6
 10
7246.902
 20
-8509.703
 30
-1059.539
 70
    32
  0
VERTEX
  8
M63LALIFT
 62
6
 10
7247.133
 20
-8509.476
 30
-1059.539
 70
    32
  0
VERTEX
  8
M63LALIFT
 62
6
 10
7247.279
 20
-8509.047
 30
-1059.539
 70
    32
  0
VERTEX
  8
M63LALIFT
 62
6
 10
7247.218
 20
-8508.979
 30
-1059.539
 70
    32
  0
VERTEX
  8
M63LALIFT
 62
6
 10
7247.176
 20
-8508.562
 30
-1059.539
 70
    32
  0
VERTEX
  8
M63LALIFT
 62
6
 10
7247.222
 20
-8508.362
 30
-1059.539
 70
    32
  0
VERTEX
  8
M63LALIFT
 62
6
 10
7247.275
 20
-8507.917
 30
-1059.539
 70
    32
  0
VERTEX
  8
M63LALIFT
 62
6
 10
7247.295
 20
-8507.577
 30
-1059.539
 70
    32
  0
VERTEX
  8
M63LALIFT
 62
6
 10
7247.233
 20
-8507.335
 30
-1059.539
 70
    32
  0
VERTEX
  8
M63LALIFT
 62
6
 10
7247.141
 20
-8507.011
 30
-1059.539
 70
    32
  0
VERTEX
  8
M63LALIFT
 62
6
 10
7246.628
 20
-8507.038
 30
-1059.539
 70
    32
  0
VERTEX
  8
M63LALIFT
 62
6
 10
7246.711
 20
-8506.761
 30
-1059.539
 70
    32
  0
VERTEX
  8
M63LALIFT
 62
6
 10
7246.939
 20
-8506.388
 30
-1059.539
 70
    32
  0
VERTEX
  8
M63LALIFT
 62
6
 10
7247.238
 20
-8505.809
 30
-1059.539
 70
    32
  0
VERTEX
  8
M63LALIFT
 62
6
 10
7247.266
 20
-8505.702
 30
-1059.539
 70
    32
  0
VERTEX
  8
M63LALIFT
 62
6
 10
7247.273
 20
-8505.674
 30
-1059.539
 70
    32
  0
VERTEX
  8
M63LALIFT
 62
6
 10
7247.534
 20
-8505.209
 30
-1059.539
 70
    32
  0
VERTEX
  8
M63LALIFT
 62
6
 10
7247.768
 20
-8504.845
 30
-1059.539
 70
    32
  0
VERTEX
  8
M63LALIFT
 62
6
 10
7247.843
 20
-8504.666
 30
-1059.539
 70
    32
  0
VERTEX
  8
M63LALIFT
 62
6
 10
7247.882
 20
-8504.214
 30
-1059.539
 70
    32
  0
VERTEX
  8
M63LALIFT
 62
6
 10
7247.891
 20
-8504.192
 30
-1059.539
 70
    32
  0
VERTEX
  8
M63LALIFT
 62
6
 10
7247.820
 20
-8503.980
 30
-1059.539
 70
    32
  0
VERTEX
  8
M63LALIFT
 62
6
 10
7247.788
 20
-8503.790
 30
-1059.539
 70
    32
  0
VERTEX
  8
M63LALIFT
 62
6
 10
7247.769
 20
-8503.783
 30
-1059.539
 70
    32
  0
VERTEX
  8
M63LALIFT
 62
6
 10
7247.602
 20
-8503.427
 30
-1059.539
 70
    32
  0
VERTEX
  8
M63LALIFT
 62
6
 10
7247.593
 20
-8503.405
 30
-1059.539
 70
    32
  0
VERTEX
  8
M63LALIFT
 62
6
 10
7247.512
 20
-8502.987
 30
-1059.539
 70
    32
  0
VERTEX
  8
M63LALIFT
 62
6
 10
7247.508
 20
-8502.917
 30
-1059.539
 70
    32
  0
VERTEX
  8
M63LALIFT
 62
6
 10
7247.573
 20
-8502.538
 30
-1059.539
 70
    32
  0
VERTEX
  8
M63LALIFT
 62
6
 10
7247.416
 20
-8502.514
 30
-1059.539
 70
    32
  0
VERTEX
  8
M63LALIFT
 62
6
 10
7247.323
 20
-8502.278
 30
-1059.539
 70
    32
  0
VERTEX
  8
M63LALIFT
 62
6
 10
7247.332
 20
-8502.142
 30
-1059.539
 70
    32
  0
VERTEX
  8
M63LALIFT
 62
6
 10
7247.139
 20
-8501.952
 30
-1059.539
 70
    32
  0
VERTEX
  8
M63LALIFT
 62
6
 10
7247.071
 20
-8501.877
 30
-1059.539
 70
    32
  0
VERTEX
  8
M63LALIFT
 62
6
 10
7247.103
 20
-8501.570
 30
-1059.539
 70
    32
  0
VERTEX
  8
M63LALIFT
 62
6
 10
7247.483
 20
-8501.106
 30
-1059.539
 70
    32
  0
VERTEX
  8
M63LALIFT
 62
6
 10
7247.429
 20
-8501.052
 30
-1059.539
 70
    32
  0
VERTEX
  8
M63LALIFT
 62
6
 10
7247.163
 20
-8500.923
 30
-1059.539
 70
    32
  0
VERTEX
  8
M63LALIFT
 62
6
 10
7247.230
 20
-8500.765
 30
-1059.539
 70
    32
  0
VERTEX
  8
M63LALIFT
 62
6
 10
7247.338
 20
-8500.390
 30
-1059.539
 70
    32
  0
VERTEX
  8
M63LALIFT
 62
6
 10
7247.351
 20
-8500.359
 30
-1059.539
 70
    32
  0
VERTEX
  8
M63LALIFT
 62
6
 10
7246.973
 20
-8500.244
 30
-1059.539
 70
    32
  0
VERTEX
  8
M63LALIFT
 62
6
 10
7246.803
 20
-8500.234
 30
-1059.539
 70
    32
  0
VERTEX
  8
M63LALIFT
 62
6
 10
7246.845
 20
-8499.919
 30
-1059.539
 70
    32
  0
VERTEX
  8
M63LALIFT
 62
6
 10
7246.896
 20
-8499.828
 30
-1059.539
 70
    32
  0
VERTEX
  8
M63LALIFT
 62
6
 10
7246.947
 20
-8499.531
 30
-1059.539
 70
    32
  0
VERTEX
  8
M63LALIFT
 62
6
 10
7246.957
 20
-8499.483
 30
-1059.539
 70
    32
  0
VERTEX
  8
M63LALIFT
 62
6
 10
7246.957
 20
-8499.478
 30
-1059.539
 70
    32
  0
VERTEX
  8
M63LALIFT
 62
6
 10
7247.116
 20
-8499.192
 30
-1059.539
 70
    32
  0
VERTEX
  8
M63LALIFT
 62
6
 10
7247.148
 20
-8499.125
 30
-1059.539
 70
    32
  0
VERTEX
  8
M63LALIFT
 62
6
 10
7246.814
 20
-8498.932
 30
-1059.539
 70
    32
  0
VERTEX
  8
M63LALIFT
 62
6
 10
7246.882
 20
-8498.880
 30
-1059.539
 70
    32
  0
VERTEX
  8
M63LALIFT
 62
6
 10
7247.280
 20
-8498.621
 30
-1059.539
 70
    32
  0
VERTEX
  8
M63LALIFT
 62
6
 10
7247.296
 20
-8498.465
 30
-1059.539
 70
    32
  0
VERTEX
  8
M63LALIFT
 62
6
 10
7247.299
 20
-8498.327
 30
-1059.539
 70
    32
  0
VERTEX
  8
M63LALIFT
 62
6
 10
7247.684
 20
-8498.060
 30
-1059.539
 70
    32
  0
VERTEX
  8
M63LALIFT
 62
6
 10
7247.720
 20
-8498.024
 30
-1059.539
 70
    32
  0
VERTEX
  8
M63LALIFT
 62
6
 10
7247.456
 20
-8497.845
 30
-1059.539
 70
    32
  0
VERTEX
  8
M63LALIFT
 62
6
 10
7247.480
 20
-8497.795
 30
-1059.539
 70
    32
  0
VERTEX
  8
M63LALIFT
 62
6
 10
7247.670
 20
-8497.652
 30
-1059.539
 70
    32
  0
VERTEX
  8
M63LALIFT
 62
6
 10
7247.827
 20
-8497.376
 30
-1059.539
 70
    32
  0
VERTEX
  8
M63LALIFT
 62
6
 10
7247.889
 20
-8497.258
 30
-1059.539
 70
    32
  0
VERTEX
  8
M63LALIFT
 62
6
 10
7247.895
 20
-8497.038
 30
-1059.539
 70
    32
  0
VERTEX
  8
M63LALIFT
 62
6
 10
7248.257
 20
-8496.627
 30
-1059.539
 70
    32
  0
VERTEX
  8
M63LALIFT
 62
6
 10
7248.335
 20
-8496.516
 30
-1059.539
 70
    32
  0
VERTEX
  8
M63LALIFT
 62
6
 10
7248.128
 20
-8496.395
 30
-1059.539
 70
    32
  0
VERTEX
  8
M63LALIFT
 62
6
 10
7248.166
 20
-8496.305
 30
-1059.539
 70
    32
  0
VERTEX
  8
M63LALIFT
 62
6
 10
7248.143
 20
-8496.053
 30
-1059.539
 70
    32
  0
VERTEX
  8
M63LALIFT
 62
6
 10
7248.126
 20
-8496.036
 30
-1059.539
 70
    32
  0
VERTEX
  8
M63LALIFT
 62
6
 10
7247.873
 20
-8495.945
 30
-1059.539
 70
    32
  0
VERTEX
  8
M63LALIFT
 62
6
 10
7247.901
 20
-8495.861
 30
-1059.539
 70
    32
  0
VERTEX
  8
M63LALIFT
 62
6
 10
7247.918
 20
-8495.619
 30
-1059.539
 70
    32
  0
VERTEX
  8
M63LALIFT
 62
6
 10
7247.905
 20
-8495.604
 30
-1059.539
 70
    32
  0
VERTEX
  8
M63LALIFT
 62
6
 10
7247.840
 20
-8495.399
 30
-1059.539
 70
    32
  0
VERTEX
  8
M63LALIFT
 62
6
 10
7247.833
 20
-8495.390
 30
-1059.539
 70
    32
  0
VERTEX
  8
M63LALIFT
 62
6
 10
7247.882
 20
-8495.327
 30
-1059.539
 70
    32
  0
VERTEX
  8
M63LALIFT
 62
6
 10
7248.326
 20
-8495.067
 30
-1059.539
 70
    32
  0
VERTEX
  8
M63LALIFT
 62
6
 10
7248.344
 20
-8494.985
 30
-1059.539
 70
    32
  0
VERTEX
  8
M63LALIFT
 62
6
 10
7248.269
 20
-8494.867
 30
-1059.539
 70
    32
  0
VERTEX
  8
M63LALIFT
 62
6
 10
7248.417
 20
-8494.735
 30
-1059.539
 70
    32
  0
VERTEX
  8
M63LALIFT
 62
6
 10
7248.558
 20
-8494.606
 30
-1059.539
 70
    32
  0
VERTEX
  8
M63LALIFT
 62
6
 10
7248.610
 20
-8494.448
 30
-1059.539
 70
    32
  0
VERTEX
  8
M63LALIFT
 62
6
 10
7248.629
 20
-8494.384
 30
-1059.539
 70
    32
  0
VERTEX
  8
M63LALIFT
 62
6
 10
7248.929
 20
-8494.122
 30
-1059.539
 70
    32
  0
VERTEX
  8
M63LALIFT
 62
6
 10
7248.941
 20
-8494.086
 30
-1059.539
 70
    32
  0
VERTEX
  8
M63LALIFT
 62
6
 10
7248.941
 20
-8494.081
 30
-1059.539
 70
    32
  0
VERTEX
  8
M63LALIFT
 62
6
 10
7248.861
 20
-8493.888
 30
-1059.539
 70
    32
  0
VERTEX
  8
M63LALIFT
 62
6
 10
7248.861
 20
-8493.880
 30
-1059.539
 70
    32
  0
VERTEX
  8
M63LALIFT
 62
6
 10
7248.965
 20
-8493.619
 30
-1059.539
 70
    32
  0
VERTEX
  8
M63LALIFT
 62
6
 10
7248.957
 20
-8493.589
 30
-1059.539
 70
    32
  0
VERTEX
  8
M63LALIFT
 62
6
 10
7248.907
 20
-8493.421
 30
-1059.539
 70
    32
  0
VERTEX
  8
M63LALIFT
 62
6
 10
7248.934
 20
-8493.359
 30
-1059.539
 70
    32
  0
VERTEX
  8
M63LALIFT
 62
6
 10
7248.993
 20
-8493.166
 30
-1059.539
 70
    32
  0
VERTEX
  8
M63LALIFT
 62
6
 10
7249.595
 20
-8492.802
 30
-1059.539
 70
    32
  0
VERTEX
  8
M63LALIFT
 62
6
 10
7249.703
 20
-8492.717
 30
-1059.539
 70
    32
  0
VERTEX
  8
M63LALIFT
 62
6
 10
7249.863
 20
-8492.498
 30
-1059.539
 70
    32
  0
VERTEX
  8
M63LALIFT
 62
6
 10
7249.863
 20
-8492.469
 30
-1059.539
 70
    32
  0
VERTEX
  8
M63LALIFT
 62
6
 10
7249.847
 20
-8492.467
 30
-1059.539
 70
    32
  0
VERTEX
  8
M63LALIFT
 62
6
 10
7249.198
 20
-8492.610
 30
-1059.539
 70
    32
  0
VERTEX
  8
M63LALIFT
 62
6
 10
7249.185
 20
-8492.538
 30
-1059.539
 70
    32
  0
SEQEND
  8
M63LALIFT
  0
POLYLINE
  8
M63LALIFT
 62
6
 66
     1
 70
     9
  0
VERTEX
  8
M63LALIFT
 62
6
 10
7247.169
 20
-8478.938
 30
-1054.823
 70
    32
  0
VERTEX
  8
M63LALIFT
 62
6
 10
7247.200
 20
-8479.008
 30
-1054.823
 70
    32
  0
VERTEX
  8
M63LALIFT
 62
6
 10
7247.086
 20
-8479.543
 30
-1054.823
 70
    32
  0
VERTEX
  8
M63LALIFT
 62
6
 10
7247.085
 20
-8479.579
 30
-1054.823
 70
    32
  0
VERTEX
  8
M63LALIFT
 62
6
 10
7247.027
 20
-8480.076
 30
-1054.823
 70
    32
  0
VERTEX
  8
M63LALIFT
 62
6
 10
7247.028
 20
-8480.081
 30
-1054.823
 70
    32
  0
VERTEX
  8
M63LALIFT
 62
6
 10
7247.012
 20
-8480.155
 30
-1054.823
 70
    32
  0
VERTEX
  8
M63LALIFT
 62
6
 10
7246.744
 20
-8480.601
 30
-1054.823
 70
    32
  0
VERTEX
  8
M63LALIFT
 62
6
 10
7246.690
 20
-8480.713
 30
-1054.823
 70
    32
  0
VERTEX
  8
M63LALIFT
 62
6
 10
7246.674
 20
-8481.081
 30
-1054.823
 70
    32
  0
VERTEX
  8
M63LALIFT
 62
6
 10
7246.575
 20
-8481.226
 30
-1054.823
 70
    32
  0
VERTEX
  8
M63LALIFT
 62
6
 10
7246.565
 20
-8481.541
 30
-1054.823
 70
    32
  0
VERTEX
  8
M63LALIFT
 62
6
 10
7245.897
 20
-8481.984
 30
-1054.823
 70
    32
  0
VERTEX
  8
M63LALIFT
 62
6
 10
7245.733
 20
-8482.144
 30
-1054.823
 70
    32
  0
VERTEX
  8
M63LALIFT
 62
6
 10
7245.613
 20
-8482.607
 30
-1054.823
 70
    32
  0
VERTEX
  8
M63LALIFT
 62
6
 10
7245.588
 20
-8482.650
 30
-1054.823
 70
    32
  0
VERTEX
  8
M63LALIFT
 62
6
 10
7245.821
 20
-8482.972
 30
-1054.823
 70
    32
  0
VERTEX
  8
M63LALIFT
 62
6
 10
7245.737
 20
-8483.055
 30
-1054.823
 70
    32
  0
VERTEX
  8
M63LALIFT
 62
6
 10
7245.624
 20
-8483.421
 30
-1054.823
 70
    32
  0
VERTEX
  8
M63LALIFT
 62
6
 10
7245.532
 20
-8483.596
 30
-1054.823
 70
    32
  0
VERTEX
  8
M63LALIFT
 62
6
 10
7245.559
 20
-8483.615
 30
-1054.823
 70
    32
  0
VERTEX
  8
M63LALIFT
 62
6
 10
7245.355
 20
-8484.089
 30
-1054.823
 70
    32
  0
VERTEX
  8
M63LALIFT
 62
6
 10
7245.398
 20
-8484.173
 30
-1054.823
 70
    32
  0
VERTEX
  8
M63LALIFT
 62
6
 10
7245.795
 20
-8484.137
 30
-1054.823
 70
    32
  0
VERTEX
  8
M63LALIFT
 62
6
 10
7246.075
 20
-8484.206
 30
-1054.823
 70
    32
  0
VERTEX
  8
M63LALIFT
 62
6
 10
7246.076
 20
-8484.266
 30
-1054.823
 70
    32
  0
VERTEX
  8
M63LALIFT
 62
6
 10
7245.905
 20
-8484.575
 30
-1054.823
 70
    32
  0
VERTEX
  8
M63LALIFT
 62
6
 10
7245.798
 20
-8484.771
 30
-1054.823
 70
    32
  0
VERTEX
  8
M63LALIFT
 62
6
 10
7245.773
 20
-8484.834
 30
-1054.823
 70
    32
  0
VERTEX
  8
M63LALIFT
 62
6
 10
7245.799
 20
-8485.246
 30
-1054.823
 70
    32
  0
VERTEX
  8
M63LALIFT
 62
6
 10
7245.826
 20
-8485.294
 30
-1054.823
 70
    32
  0
VERTEX
  8
M63LALIFT
 62
6
 10
7245.967
 20
-8485.633
 30
-1054.823
 70
    32
  0
VERTEX
  8
M63LALIFT
 62
6
 10
7246.018
 20
-8485.660
 30
-1054.823
 70
    32
  0
VERTEX
  8
M63LALIFT
 62
6
 10
7246.143
 20
-8485.986
 30
-1054.823
 70
    32
  0
VERTEX
  8
M63LALIFT
 62
6
 10
7246.144
 20
-8486.023
 30
-1054.823
 70
    32
  0
VERTEX
  8
M63LALIFT
 62
6
 10
7246.333
 20
-8486.142
 30
-1054.823
 70
    32
  0
VERTEX
  8
M63LALIFT
 62
6
 10
7246.473
 20
-8486.306
 30
-1054.823
 70
    32
  0
VERTEX
  8
M63LALIFT
 62
6
 10
7246.453
 20
-8486.329
 30
-1054.823
 70
    32
  0
VERTEX
  8
M63LALIFT
 62
6
 10
7246.414
 20
-8486.419
 30
-1054.823
 70
    32
  0
VERTEX
  8
M63LALIFT
 62
6
 10
7246.088
 20
-8486.897
 30
-1054.823
 70
    32
  0
VERTEX
  8
M63LALIFT
 62
6
 10
7246.064
 20
-8487.053
 30
-1054.823
 70
    32
  0
VERTEX
  8
M63LALIFT
 62
6
 10
7246.029
 20
-8487.383
 30
-1054.823
 70
    32
  0
VERTEX
  8
M63LALIFT
 62
6
 10
7245.994
 20
-8487.588
 30
-1054.823
 70
    32
  0
VERTEX
  8
M63LALIFT
 62
6
 10
7245.938
 20
-8487.841
 30
-1054.823
 70
    32
  0
VERTEX
  8
M63LALIFT
 62
6
 10
7245.831
 20
-8488.191
 30
-1054.823
 70
    32
  0
VERTEX
  8
M63LALIFT
 62
6
 10
7245.823
 20
-8488.348
 30
-1054.823
 70
    32
  0
VERTEX
  8
M63LALIFT
 62
6
 10
7245.623
 20
-8488.812
 30
-1054.823
 70
    32
  0
VERTEX
  8
M63LALIFT
 62
6
 10
7245.596
 20
-8488.862
 30
-1054.823
 70
    32
  0
VERTEX
  8
M63LALIFT
 62
6
 10
7245.531
 20
-8489.011
 30
-1054.823
 70
    32
  0
VERTEX
  8
M63LALIFT
 62
6
 10
7245.349
 20
-8489.264
 30
-1054.823
 70
    32
  0
VERTEX
  8
M63LALIFT
 62
6
 10
7245.336
 20
-8489.325
 30
-1054.823
 70
    32
  0
VERTEX
  8
M63LALIFT
 62
6
 10
7245.430
 20
-8489.594
 30
-1054.823
 70
    32
  0
VERTEX
  8
M63LALIFT
 62
6
 10
7245.324
 20
-8489.681
 30
-1054.823
 70
    32
  0
VERTEX
  8
M63LALIFT
 62
6
 10
7245.173
 20
-8489.985
 30
-1054.823
 70
    32
  0
VERTEX
  8
M63LALIFT
 62
6
 10
7245.140
 20
-8490.147
 30
-1054.823
 70
    32
  0
VERTEX
  8
M63LALIFT
 62
6
 10
7245.416
 20
-8490.346
 30
-1054.823
 70
    32
  0
VERTEX
  8
M63LALIFT
 62
6
 10
7245.499
 20
-8490.455
 30
-1054.823
 70
    32
  0
VERTEX
  8
M63LALIFT
 62
6
 10
7245.355
 20
-8490.697
 30
-1054.823
 70
    32
  0
VERTEX
  8
M63LALIFT
 62
6
 10
7245.326
 20
-8490.864
 30
-1054.823
 70
    32
  0
VERTEX
  8
M63LALIFT
 62
6
 10
7245.143
 20
-8491.090
 30
-1054.823
 70
    32
  0
VERTEX
  8
M63LALIFT
 62
6
 10
7244.786
 20
-8491.412
 30
-1054.823
 70
    32
  0
VERTEX
  8
M63LALIFT
 62
6
 10
7244.780
 20
-8491.471
 30
-1054.823
 70
    32
  0
VERTEX
  8
M63LALIFT
 62
6
 10
7244.643
 20
-8491.798
 30
-1054.823
 70
    32
  0
VERTEX
  8
M63LALIFT
 62
6
 10
7244.758
 20
-8492.111
 30
-1054.823
 70
    32
  0
VERTEX
  8
M63LALIFT
 62
6
 10
7244.759
 20
-8492.114
 30
-1054.823
 70
    32
  0
VERTEX
  8
M63LALIFT
 62
6
 10
7244.745
 20
-8492.125
 30
-1054.823
 70
    32
  0
VERTEX
  8
M63LALIFT
 62
6
 10
7243.463
 20
-8493.238
 30
-1054.823
 70
    32
  0
VERTEX
  8
M63LALIFT
 62
6
 10
7243.462
 20
-8493.241
 30
-1054.823
 70
    32
  0
VERTEX
  8
M63LALIFT
 62
6
 10
7243.437
 20
-8493.773
 30
-1054.823
 70
    32
  0
VERTEX
  8
M63LALIFT
 62
6
 10
7243.452
 20
-8493.869
 30
-1054.823
 70
    32
  0
VERTEX
  8
M63LALIFT
 62
6
 10
7243.471
 20
-8494.117
 30
-1054.823
 70
    32
  0
VERTEX
  8
M63LALIFT
 62
6
 10
7243.368
 20
-8494.229
 30
-1054.823
 70
    32
  0
VERTEX
  8
M63LALIFT
 62
6
 10
7243.515
 20
-8494.377
 30
-1054.823
 70
    32
  0
VERTEX
  8
M63LALIFT
 62
6
 10
7243.233
 20
-8494.580
 30
-1054.823
 70
    32
  0
VERTEX
  8
M63LALIFT
 62
6
 10
7243.854
 20
-8494.534
 30
-1054.823
 70
    32
  0
VERTEX
  8
M63LALIFT
 62
6
 10
7243.704
 20
-8494.625
 30
-1054.823
 70
    32
  0
VERTEX
  8
M63LALIFT
 62
6
 10
7242.871
 20
-8495.015
 30
-1054.823
 70
    32
  0
VERTEX
  8
M63LALIFT
 62
6
 10
7242.704
 20
-8495.092
 30
-1054.823
 70
    32
  0
VERTEX
  8
M63LALIFT
 62
6
 10
7242.429
 20
-8495.382
 30
-1054.823
 70
    32
  0
VERTEX
  8
M63LALIFT
 62
6
 10
7242.428
 20
-8495.444
 30
-1054.823
 70
    32
  0
VERTEX
  8
M63LALIFT
 62
6
 10
7242.464
 20
-8495.625
 30
-1054.823
 70
    32
  0
VERTEX
  8
M63LALIFT
 62
6
 10
7242.422
 20
-8495.713
 30
-1054.823
 70
    32
  0
VERTEX
  8
M63LALIFT
 62
6
 10
7242.163
 20
-8496.050
 30
-1054.823
 70
    32
  0
VERTEX
  8
M63LALIFT
 62
6
 10
7242.060
 20
-8496.263
 30
-1054.823
 70
    32
  0
VERTEX
  8
M63LALIFT
 62
6
 10
7242.181
 20
-8496.318
 30
-1054.823
 70
    32
  0
VERTEX
  8
M63LALIFT
 62
6
 10
7241.964
 20
-8496.649
 30
-1054.823
 70
    32
  0
VERTEX
  8
M63LALIFT
 62
6
 10
7241.955
 20
-8496.714
 30
-1054.823
 70
    32
  0
VERTEX
  8
M63LALIFT
 62
6
 10
7242.139
 20
-8496.810
 30
-1054.823
 70
    32
  0
VERTEX
  8
M63LALIFT
 62
6
 10
7242.286
 20
-8496.812
 30
-1054.823
 70
    32
  0
VERTEX
  8
M63LALIFT
 62
6
 10
7241.778
 20
-8497.198
 30
-1054.823
 70
    32
  0
VERTEX
  8
M63LALIFT
 62
6
 10
7241.421
 20
-8497.360
 30
-1054.823
 70
    32
  0
VERTEX
  8
M63LALIFT
 62
6
 10
7241.296
 20
-8497.467
 30
-1054.823
 70
    32
  0
VERTEX
  8
M63LALIFT
 62
6
 10
7241.339
 20
-8497.628
 30
-1054.823
 70
    32
  0
VERTEX
  8
M63LALIFT
 62
6
 10
7241.199
 20
-8497.787
 30
-1054.823
 70
    32
  0
VERTEX
  8
M63LALIFT
 62
6
 10
7241.094
 20
-8497.927
 30
-1054.823
 70
    32
  0
VERTEX
  8
M63LALIFT
 62
6
 10
7241.287
 20
-8498.050
 30
-1054.823
 70
    32
  0
VERTEX
  8
M63LALIFT
 62
6
 10
7241.166
 20
-8498.188
 30
-1054.823
 70
    32
  0
VERTEX
  8
M63LALIFT
 62
6
 10
7241.243
 20
-8498.355
 30
-1054.823
 70
    32
  0
VERTEX
  8
M63LALIFT
 62
6
 10
7241.367
 20
-8498.435
 30
-1054.823
 70
    32
  0
VERTEX
  8
M63LALIFT
 62
6
 10
7241.587
 20
-8498.541
 30
-1054.823
 70
    32
  0
VERTEX
  8
M63LALIFT
 62
6
 10
7241.508
 20
-8498.675
 30
-1054.823
 70
    32
  0
VERTEX
  8
M63LALIFT
 62
6
 10
7241.443
 20
-8498.867
 30
-1054.823
 70
    32
  0
VERTEX
  8
M63LALIFT
 62
6
 10
7241.421
 20
-8498.977
 30
-1054.823
 70
    32
  0
VERTEX
  8
M63LALIFT
 62
6
 10
7241.297
 20
-8499.226
 30
-1054.823
 70
    32
  0
VERTEX
  8
M63LALIFT
 62
6
 10
7241.271
 20
-8499.276
 30
-1054.823
 70
    32
  0
VERTEX
  8
M63LALIFT
 62
6
 10
7241.454
 20
-8499.482
 30
-1054.823
 70
    32
  0
VERTEX
  8
M63LALIFT
 62
6
 10
7241.431
 20
-8499.536
 30
-1054.823
 70
    32
  0
VERTEX
  8
M63LALIFT
 62
6
 10
7241.423
 20
-8499.790
 30
-1054.823
 70
    32
  0
VERTEX
  8
M63LALIFT
 62
6
 10
7241.429
 20
-8499.814
 30
-1054.823
 70
    32
  0
VERTEX
  8
M63LALIFT
 62
6
 10
7241.452
 20
-8500.083
 30
-1054.823
 70
    32
  0
VERTEX
  8
M63LALIFT
 62
6
 10
7241.450
 20
-8500.092
 30
-1054.823
 70
    32
  0
VERTEX
  8
M63LALIFT
 62
6
 10
7241.650
 20
-8500.332
 30
-1054.823
 70
    32
  0
VERTEX
  8
M63LALIFT
 62
6
 10
7241.662
 20
-8500.355
 30
-1054.823
 70
    32
  0
VERTEX
  8
M63LALIFT
 62
6
 10
7241.666
 20
-8500.672
 30
-1054.823
 70
    32
  0
VERTEX
  8
M63LALIFT
 62
6
 10
7241.668
 20
-8500.675
 30
-1054.823
 70
    32
  0
VERTEX
  8
M63LALIFT
 62
6
 10
7241.677
 20
-8500.739
 30
-1054.823
 70
    32
  0
VERTEX
  8
M63LALIFT
 62
6
 10
7241.712
 20
-8501.030
 30
-1054.823
 70
    32
  0
VERTEX
  8
M63LALIFT
 62
6
 10
7241.688
 20
-8501.073
 30
-1054.823
 70
    32
  0
VERTEX
  8
M63LALIFT
 62
6
 10
7241.625
 20
-8501.476
 30
-1054.823
 70
    32
  0
VERTEX
  8
M63LALIFT
 62
6
 10
7241.560
 20
-8501.622
 30
-1054.823
 70
    32
  0
VERTEX
  8
M63LALIFT
 62
6
 10
7241.450
 20
-8501.978
 30
-1054.823
 70
    32
  0
VERTEX
  8
M63LALIFT
 62
6
 10
7241.370
 20
-8502.234
 30
-1054.823
 70
    32
  0
VERTEX
  8
M63LALIFT
 62
6
 10
7241.337
 20
-8502.447
 30
-1054.823
 70
    32
  0
VERTEX
  8
M63LALIFT
 62
6
 10
7241.281
 20
-8502.763
 30
-1054.823
 70
    32
  0
VERTEX
  8
M63LALIFT
 62
6
 10
7241.267
 20
-8502.913
 30
-1054.823
 70
    32
  0
VERTEX
  8
M63LALIFT
 62
6
 10
7240.952
 20
-8503.344
 30
-1054.823
 70
    32
  0
VERTEX
  8
M63LALIFT
 62
6
 10
7240.216
 20
-8503.750
 30
-1054.823
 70
    32
  0
VERTEX
  8
M63LALIFT
 62
6
 10
7239.468
 20
-8504.190
 30
-1054.823
 70
    32
  0
VERTEX
  8
M63LALIFT
 62
6
 10
7239.255
 20
-8504.184
 30
-1054.823
 70
    32
  0
VERTEX
  8
M63LALIFT
 62
6
 10
7239.119
 20
-8504.208
 30
-1054.823
 70
    32
  0
VERTEX
  8
M63LALIFT
 62
6
 10
7238.648
 20
-8504.230
 30
-1054.823
 70
    32
  0
VERTEX
  8
M63LALIFT
 62
6
 10
7238.069
 20
-8504.396
 30
-1054.823
 70
    32
  0
VERTEX
  8
M63LALIFT
 62
6
 10
7237.946
 20
-8504.423
 30
-1054.823
 70
    32
  0
VERTEX
  8
M63LALIFT
 62
6
 10
7237.753
 20
-8504.468
 30
-1054.823
 70
    32
  0
VERTEX
  8
M63LALIFT
 62
6
 10
7236.713
 20
-8504.487
 30
-1054.823
 70
    32
  0
VERTEX
  8
M63LALIFT
 62
6
 10
7235.891
 20
-8504.353
 30
-1054.823
 70
    32
  0
VERTEX
  8
M63LALIFT
 62
6
 10
7235.877
 20
-8504.348
 30
-1054.823
 70
    32
  0
VERTEX
  8
M63LALIFT
 62
6
 10
7235.858
 20
-8504.353
 30
-1054.823
 70
    32
  0
VERTEX
  8
M63LALIFT
 62
6
 10
7235.149
 20
-8504.425
 30
-1054.823
 70
    32
  0
VERTEX
  8
M63LALIFT
 62
6
 10
7235.109
 20
-8504.290
 30
-1054.823
 70
    32
  0
VERTEX
  8
M63LALIFT
 62
6
 10
7234.760
 20
-8504.303
 30
-1054.823
 70
    32
  0
VERTEX
  8
M63LALIFT
 62
6
 10
7234.140
 20
-8504.388
 30
-1054.823
 70
    32
  0
VERTEX
  8
M63LALIFT
 62
6
 10
7234.087
 20
-8504.394
 30
-1054.823
 70
    32
  0
VERTEX
  8
M63LALIFT
 62
6
 10
7233.961
 20
-8504.296
 30
-1054.823
 70
    32
  0
VERTEX
  8
M63LALIFT
 62
6
 10
7233.713
 20
-8504.215
 30
-1054.823
 70
    32
  0
VERTEX
  8
M63LALIFT
 62
6
 10
7233.506
 20
-8504.232
 30
-1054.823
 70
    32
  0
VERTEX
  8
M63LALIFT
 62
6
 10
7232.558
 20
-8504.405
 30
-1054.823
 70
    32
  0
VERTEX
  8
M63LALIFT
 62
6
 10
7231.982
 20
-8504.305
 30
-1054.823
 70
    32
  0
VERTEX
  8
M63LALIFT
 62
6
 10
7231.947
 20
-8504.289
 30
-1054.823
 70
    32
  0
VERTEX
  8
M63LALIFT
 62
6
 10
7231.946
 20
-8504.283
 30
-1054.823
 70
    32
  0
VERTEX
  8
M63LALIFT
 62
6
 10
7231.590
 20
-8504.179
 30
-1054.823
 70
    32
  0
VERTEX
  8
M63LALIFT
 62
6
 10
7231.410
 20
-8504.219
 30
-1054.823
 70
    32
  0
VERTEX
  8
M63LALIFT
 62
6
 10
7231.446
 20
-8503.935
 30
-1054.823
 70
    32
  0
VERTEX
  8
M63LALIFT
 62
6
 10
7231.386
 20
-8503.898
 30
-1054.823
 70
    32
  0
VERTEX
  8
M63LALIFT
 62
6
 10
7231.098
 20
-8503.862
 30
-1054.823
 70
    32
  0
VERTEX
  8
M63LALIFT
 62
6
 10
7231.020
 20
-8503.783
 30
-1054.823
 70
    32
  0
VERTEX
  8
M63LALIFT
 62
6
 10
7230.855
 20
-8503.683
 30
-1054.823
 70
    32
  0
VERTEX
  8
M63LALIFT
 62
6
 10
7230.580
 20
-8503.696
 30
-1054.823
 70
    32
  0
VERTEX
  8
M63LALIFT
 62
6
 10
7230.458
 20
-8503.679
 30
-1054.823
 70
    32
  0
VERTEX
  8
M63LALIFT
 62
6
 10
7230.162
 20
-8503.632
 30
-1054.823
 70
    32
  0
VERTEX
  8
M63LALIFT
 62
6
 10
7230.100
 20
-8503.608
 30
-1054.823
 70
    32
  0
VERTEX
  8
M63LALIFT
 62
6
 10
7230.133
 20
-8503.311
 30
-1054.823
 70
    32
  0
VERTEX
  8
M63LALIFT
 62
6
 10
7230.056
 20
-8503.291
 30
-1054.823
 70
    32
  0
VERTEX
  8
M63LALIFT
 62
6
 10
7230.039
 20
-8503.032
 30
-1054.823
 70
    32
  0
VERTEX
  8
M63LALIFT
 62
6
 10
7230.024
 20
-8502.983
 30
-1054.823
 70
    32
  0
VERTEX
  8
M63LALIFT
 62
6
 10
7229.620
 20
-8503.022
 30
-1054.823
 70
    32
  0
VERTEX
  8
M63LALIFT
 62
6
 10
7229.446
 20
-8503.025
 30
-1054.823
 70
    32
  0
VERTEX
  8
M63LALIFT
 62
6
 10
7229.295
 20
-8503.015
 30
-1054.823
 70
    32
  0
VERTEX
  8
M63LALIFT
 62
6
 10
7228.733
 20
-8502.905
 30
-1054.823
 70
    32
  0
VERTEX
  8
M63LALIFT
 62
6
 10
7228.403
 20
-8502.848
 30
-1054.823
 70
    32
  0
VERTEX
  8
M63LALIFT
 62
6
 10
7228.054
 20
-8502.823
 30
-1054.823
 70
    32
  0
VERTEX
  8
M63LALIFT
 62
6
 10
7227.958
 20
-8502.660
 30
-1054.823
 70
    32
  0
VERTEX
  8
M63LALIFT
 62
6
 10
7227.813
 20
-8502.632
 30
-1054.823
 70
    32
  0
VERTEX
  8
M63LALIFT
 62
6
 10
7227.385
 20
-8502.543
 30
-1054.823
 70
    32
  0
VERTEX
  8
M63LALIFT
 62
6
 10
7227.230
 20
-8502.532
 30
-1054.823
 70
    32
  0
VERTEX
  8
M63LALIFT
 62
6
 10
7227.180
 20
-8502.535
 30
-1054.823
 70
    32
  0
VERTEX
  8
M63LALIFT
 62
6
 10
7226.755
 20
-8502.497
 30
-1054.823
 70
    32
  0
VERTEX
  8
M63LALIFT
 62
6
 10
7226.678
 20
-8502.466
 30
-1054.823
 70
    32
  0
VERTEX
  8
M63LALIFT
 62
6
 10
7226.287
 20
-8502.504
 30
-1054.823
 70
    32
  0
VERTEX
  8
M63LALIFT
 62
6
 10
7226.201
 20
-8502.425
 30
-1054.823
 70
    32
  0
VERTEX
  8
M63LALIFT
 62
6
 10
7226.023
 20
-8502.390
 30
-1054.823
 70
    32
  0
VERTEX
  8
M63LALIFT
 62
6
 10
7225.781
 20
-8502.387
 30
-1054.823
 70
    32
  0
VERTEX
  8
M63LALIFT
 62
6
 10
7225.628
 20
-8502.385
 30
-1054.823
 70
    32
  0
VERTEX
  8
M63LALIFT
 62
6
 10
7225.585
 20
-8502.249
 30
-1054.823
 70
    32
  0
VERTEX
  8
M63LALIFT
 62
6
 10
7225.440
 20
-8502.264
 30
-1054.823
 70
    32
  0
VERTEX
  8
M63LALIFT
 62
6
 10
7225.073
 20
-8502.244
 30
-1054.823
 70
    32
  0
VERTEX
  8
M63LALIFT
 62
6
 10
7225.045
 20
-8502.244
 30
-1054.823
 70
    32
  0
VERTEX
  8
M63LALIFT
 62
6
 10
7225.028
 20
-8502.242
 30
-1054.823
 70
    32
  0
VERTEX
  8
M63LALIFT
 62
6
 10
7224.890
 20
-8502.025
 30
-1054.823
 70
    32
  0
VERTEX
  8
M63LALIFT
 62
6
 10
7224.877
 20
-8502.026
 30
-1054.823
 70
    32
  0
VERTEX
  8
M63LALIFT
 62
6
 10
7224.807
 20
-8501.971
 30
-1054.823
 70
    32
  0
VERTEX
  8
M63LALIFT
 62
6
 10
7224.658
 20
-8501.779
 30
-1054.823
 70
    32
  0
VERTEX
  8
M63LALIFT
 62
6
 10
7224.648
 20
-8501.757
 30
-1054.823
 70
    32
  0
VERTEX
  8
M63LALIFT
 62
6
 10
7224.193
 20
-8501.001
 30
-1054.823
 70
    32
  0
VERTEX
  8
M63LALIFT
 62
6
 10
7223.875
 20
-8501.030
 30
-1054.823
 70
    32
  0
VERTEX
  8
M63LALIFT
 62
6
 10
7223.725
 20
-8500.952
 30
-1054.823
 70
    32
  0
VERTEX
  8
M63LALIFT
 62
6
 10
7223.566
 20
-8500.901
 30
-1054.823
 70
    32
  0
VERTEX
  8
M63LALIFT
 62
6
 10
7223.245
 20
-8500.601
 30
-1054.823
 70
    32
  0
VERTEX
  8
M63LALIFT
 62
6
 10
7223.059
 20
-8500.480
 30
-1054.823
 70
    32
  0
VERTEX
  8
M63LALIFT
 62
6
 10
7222.916
 20
-8500.323
 30
-1054.823
 70
    32
  0
VERTEX
  8
M63LALIFT
 62
6
 10
7222.882
 20
-8500.125
 30
-1054.823
 70
    32
  0
VERTEX
  8
M63LALIFT
 62
6
 10
7222.709
 20
-8499.987
 30
-1054.823
 70
    32
  0
VERTEX
  8
M63LALIFT
 62
6
 10
7222.558
 20
-8499.811
 30
-1054.823
 70
    32
  0
VERTEX
  8
M63LALIFT
 62
6
 10
7222.385
 20
-8499.706
 30
-1054.823
 70
    32
  0
VERTEX
  8
M63LALIFT
 62
6
 10
7222.257
 20
-8499.492
 30
-1054.823
 70
    32
  0
VERTEX
  8
M63LALIFT
 62
6
 10
7222.218
 20
-8499.350
 30
-1054.823
 70
    32
  0
VERTEX
  8
M63LALIFT
 62
6
 10
7222.174
 20
-8499.108
 30
-1054.823
 70
    32
  0
VERTEX
  8
M63LALIFT
 62
6
 10
7222.255
 20
-8498.896
 30
-1054.823
 70
    32
  0
VERTEX
  8
M63LALIFT
 62
6
 10
7221.964
 20
-8498.763
 30
-1054.823
 70
    32
  0
VERTEX
  8
M63LALIFT
 62
6
 10
7221.959
 20
-8498.580
 30
-1054.823
 70
    32
  0
VERTEX
  8
M63LALIFT
 62
6
 10
7221.669
 20
-8498.455
 30
-1054.823
 70
    32
  0
VERTEX
  8
M63LALIFT
 62
6
 10
7221.592
 20
-8498.349
 30
-1054.823
 70
    32
  0
VERTEX
  8
M63LALIFT
 62
6
 10
7221.088
 20
-8498.226
 30
-1054.823
 70
    32
  0
VERTEX
  8
M63LALIFT
 62
6
 10
7220.923
 20
-8498.245
 30
-1054.823
 70
    32
  0
VERTEX
  8
M63LALIFT
 62
6
 10
7221.027
 20
-8497.839
 30
-1054.823
 70
    32
  0
VERTEX
  8
M63LALIFT
 62
6
 10
7221.331
 20
-8497.583
 30
-1054.823
 70
    32
  0
VERTEX
  8
M63LALIFT
 62
6
 10
7221.392
 20
-8497.274
 30
-1054.823
 70
    32
  0
VERTEX
  8
M63LALIFT
 62
6
 10
7221.253
 20
-8497.162
 30
-1054.823
 70
    32
  0
VERTEX
  8
M63LALIFT
 62
6
 10
7221.173
 20
-8496.920
 30
-1054.823
 70
    32
  0
VERTEX
  8
M63LALIFT
 62
6
 10
7220.993
 20
-8496.808
 30
-1054.823
 70
    32
  0
VERTEX
  8
M63LALIFT
 62
6
 10
7220.974
 20
-8496.562
 30
-1054.823
 70
    32
  0
VERTEX
  8
M63LALIFT
 62
6
 10
7220.832
 20
-8496.414
 30
-1054.823
 70
    32
  0
VERTEX
  8
M63LALIFT
 62
6
 10
7220.714
 20
-8496.203
 30
-1054.823
 70
    32
  0
VERTEX
  8
M63LALIFT
 62
6
 10
7220.621
 20
-8496.059
 30
-1054.823
 70
    32
  0
VERTEX
  8
M63LALIFT
 62
6
 10
7220.391
 20
-8495.902
 30
-1054.823
 70
    32
  0
VERTEX
  8
M63LALIFT
 62
6
 10
7220.236
 20
-8495.794
 30
-1054.823
 70
    32
  0
VERTEX
  8
M63LALIFT
 62
6
 10
7220.000
 20
-8495.551
 30
-1054.823
 70
    32
  0
VERTEX
  8
M63LALIFT
 62
6
 10
7219.901
 20
-8495.458
 30
-1054.823
 70
    32
  0
VERTEX
  8
M63LALIFT
 62
6
 10
7219.808
 20
-8495.181
 30
-1054.823
 70
    32
  0
VERTEX
  8
M63LALIFT
 62
6
 10
7219.678
 20
-8495.095
 30
-1054.823
 70
    32
  0
VERTEX
  8
M63LALIFT
 62
6
 10
7219.541
 20
-8494.858
 30
-1054.823
 70
    32
  0
VERTEX
  8
M63LALIFT
 62
6
 10
7219.516
 20
-8494.729
 30
-1054.823
 70
    32
  0
VERTEX
  8
M63LALIFT
 62
6
 10
7219.490
 20
-8494.410
 30
-1054.823
 70
    32
  0
VERTEX
  8
M63LALIFT
 62
6
 10
7219.453
 20
-8494.245
 30
-1054.823
 70
    32
  0
VERTEX
  8
M63LALIFT
 62
6
 10
7219.386
 20
-8494.002
 30
-1054.823
 70
    32
  0
VERTEX
  8
M63LALIFT
 62
6
 10
7219.340
 20
-8493.789
 30
-1054.823
 70
    32
  0
VERTEX
  8
M63LALIFT
 62
6
 10
7219.216
 20
-8493.566
 30
-1054.823
 70
    32
  0
VERTEX
  8
M63LALIFT
 62
6
 10
7219.078
 20
-8493.396
 30
-1054.823
 70
    32
  0
VERTEX
  8
M63LALIFT
 62
6
 10
7219.112
 20
-8493.150
 30
-1054.823
 70
    32
  0
VERTEX
  8
M63LALIFT
 62
6
 10
7219.112
 20
-8492.878
 30
-1054.823
 70
    32
  0
VERTEX
  8
M63LALIFT
 62
6
 10
7218.990
 20
-8492.752
 30
-1054.823
 70
    32
  0
VERTEX
  8
M63LALIFT
 62
6
 10
7218.973
 20
-8492.453
 30
-1054.823
 70
    32
  0
VERTEX
  8
M63LALIFT
 62
6
 10
7218.931
 20
-8492.310
 30
-1054.823
 70
    32
  0
VERTEX
  8
M63LALIFT
 62
6
 10
7218.888
 20
-8491.974
 30
-1054.823
 70
    32
  0
VERTEX
  8
M63LALIFT
 62
6
 10
7218.824
 20
-8491.875
 30
-1054.823
 70
    32
  0
VERTEX
  8
M63LALIFT
 62
6
 10
7218.806
 20
-8491.440
 30
-1054.823
 70
    32
  0
VERTEX
  8
M63LALIFT
 62
6
 10
7218.780
 20
-8491.377
 30
-1054.823
 70
    32
  0
VERTEX
  8
M63LALIFT
 62
6
 10
7218.733
 20
-8490.982
 30
-1054.823
 70
    32
  0
VERTEX
  8
M63LALIFT
 62
6
 10
7218.728
 20
-8490.952
 30
-1054.823
 70
    32
  0
VERTEX
  8
M63LALIFT
 62
6
 10
7218.678
 20
-8490.654
 30
-1054.823
 70
    32
  0
VERTEX
  8
M63LALIFT
 62
6
 10
7218.649
 20
-8490.494
 30
-1054.823
 70
    32
  0
VERTEX
  8
M63LALIFT
 62
6
 10
7218.648
 20
-8490.478
 30
-1054.823
 70
    32
  0
VERTEX
  8
M63LALIFT
 62
6
 10
7218.536
 20
-8490.041
 30
-1054.823
 70
    32
  0
VERTEX
  8
M63LALIFT
 62
6
 10
7218.516
 20
-8489.983
 30
-1054.823
 70
    32
  0
VERTEX
  8
M63LALIFT
 62
6
 10
7218.395
 20
-8489.578
 30
-1054.823
 70
    32
  0
VERTEX
  8
M63LALIFT
 62
6
 10
7218.387
 20
-8489.478
 30
-1054.823
 70
    32
  0
VERTEX
  8
M63LALIFT
 62
6
 10
7218.324
 20
-8489.056
 30
-1054.823
 70
    32
  0
VERTEX
  8
M63LALIFT
 62
6
 10
7218.304
 20
-8488.896
 30
-1054.823
 70
    32
  0
VERTEX
  8
M63LALIFT
 62
6
 10
7218.244
 20
-8488.568
 30
-1054.823
 70
    32
  0
VERTEX
  8
M63LALIFT
 62
6
 10
7218.220
 20
-8488.323
 30
-1054.823
 70
    32
  0
VERTEX
  8
M63LALIFT
 62
6
 10
7218.184
 20
-8488.040
 30
-1054.823
 70
    32
  0
VERTEX
  8
M63LALIFT
 62
6
 10
7218.137
 20
-8487.789
 30
-1054.823
 70
    32
  0
VERTEX
  8
M63LALIFT
 62
6
 10
7218.155
 20
-8487.548
 30
-1054.823
 70
    32
  0
VERTEX
  8
M63LALIFT
 62
6
 10
7218.095
 20
-8487.195
 30
-1054.823
 70
    32
  0
VERTEX
  8
M63LALIFT
 62
6
 10
7218.092
 20
-8487.028
 30
-1054.823
 70
    32
  0
VERTEX
  8
M63LALIFT
 62
6
 10
7217.767
 20
-8486.727
 30
-1054.823
 70
    32
  0
VERTEX
  8
M63LALIFT
 62
6
 10
7217.656
 20
-8486.596
 30
-1054.823
 70
    32
  0
VERTEX
  8
M63LALIFT
 62
6
 10
7217.411
 20
-8486.257
 30
-1054.823
 70
    32
  0
VERTEX
  8
M63LALIFT
 62
6
 10
7217.031
 20
-8486.198
 30
-1054.823
 70
    32
  0
VERTEX
  8
M63LALIFT
 62
6
 10
7216.809
 20
-8485.848
 30
-1054.823
 70
    32
  0
VERTEX
  8
M63LALIFT
 62
6
 10
7214.838
 20
-8486.130
 30
-1054.823
 70
    32
  0
VERTEX
  8
M63LALIFT
 62
6
 10
7214.830
 20
-8486.118
 30
-1054.823
 70
    32
  0
VERTEX
  8
M63LALIFT
 62
6
 10
7214.965
 20
-8485.508
 30
-1054.823
 70
    32
  0
VERTEX
  8
M63LALIFT
 62
6
 10
7214.789
 20
-8485.440
 30
-1054.823
 70
    32
  0
VERTEX
  8
M63LALIFT
 62
6
 10
7214.982
 20
-8484.940
 30
-1054.823
 70
    32
  0
VERTEX
  8
M63LALIFT
 62
6
 10
7214.887
 20
-8484.745
 30
-1054.823
 70
    32
  0
VERTEX
  8
M63LALIFT
 62
6
 10
7215.146
 20
-8484.307
 30
-1054.823
 70
    32
  0
VERTEX
  8
M63LALIFT
 62
6
 10
7214.873
 20
-8484.056
 30
-1054.823
 70
    32
  0
VERTEX
  8
M63LALIFT
 62
6
 10
7214.988
 20
-8483.759
 30
-1054.823
 70
    32
  0
VERTEX
  8
M63LALIFT
 62
6
 10
7214.292
 20
-8483.541
 30
-1054.823
 70
    32
  0
VERTEX
  8
M63LALIFT
 62
6
 10
7214.216
 20
-8483.287
 30
-1054.823
 70
    32
  0
VERTEX
  8
M63LALIFT
 62
6
 10
7212.808
 20
-8483.558
 30
-1054.823
 70
    32
  0
VERTEX
  8
M63LALIFT
 62
6
 10
7212.423
 20
-8483.083
 30
-1054.823
 70
    32
  0
VERTEX
  8
M63LALIFT
 62
6
 10
7212.345
 20
-8482.977
 30
-1054.823
 70
    32
  0
VERTEX
  8
M63LALIFT
 62
6
 10
7212.063
 20
-8482.480
 30
-1054.823
 70
    32
  0
VERTEX
  8
M63LALIFT
 62
6
 10
7211.964
 20
-8482.347
 30
-1054.823
 70
    32
  0
VERTEX
  8
M63LALIFT
 62
6
 10
7211.605
 20
-8481.901
 30
-1054.823
 70
    32
  0
VERTEX
  8
M63LALIFT
 62
6
 10
7211.479
 20
-8481.749
 30
-1054.823
 70
    32
  0
VERTEX
  8
M63LALIFT
 62
6
 10
7211.143
 20
-8481.307
 30
-1054.823
 70
    32
  0
VERTEX
  8
M63LALIFT
 62
6
 10
7210.962
 20
-8481.086
 30
-1054.823
 70
    32
  0
VERTEX
  8
M63LALIFT
 62
6
 10
7210.582
 20
-8480.663
 30
-1054.823
 70
    32
  0
VERTEX
  8
M63LALIFT
 62
6
 10
7210.391
 20
-8480.440
 30
-1054.823
 70
    32
  0
VERTEX
  8
M63LALIFT
 62
6
 10
7210.033
 20
-8480.065
 30
-1054.823
 70
    32
  0
VERTEX
  8
M63LALIFT
 62
6
 10
7209.861
 20
-8479.837
 30
-1054.823
 70
    32
  0
VERTEX
  8
M63LALIFT
 62
6
 10
7209.555
 20
-8479.357
 30
-1054.823
 70
    32
  0
VERTEX
  8
M63LALIFT
 62
6
 10
7209.340
 20
-8478.995
 30
-1054.823
 70
    32
  0
VERTEX
  8
M63LALIFT
 62
6
 10
7208.858
 20
-8478.698
 30
-1054.823
 70
    32
  0
VERTEX
  8
M63LALIFT
 62
6
 10
7208.645
 20
-8478.354
 30
-1054.823
 70
    32
  0
VERTEX
  8
M63LALIFT
 62
6
 10
7207.004
 20
-8478.267
 30
-1054.823
 70
    32
  0
VERTEX
  8
M63LALIFT
 62
6
 10
7206.976
 20
-8478.136
 30
-1054.823
 70
    32
  0
VERTEX
  8
M63LALIFT
 62
6
 10
7206.395
 20
-8477.501
 30
-1054.823
 70
    32
  0
VERTEX
  8
M63LALIFT
 62
6
 10
7206.357
 20
-8477.302
 30
-1054.823
 70
    32
  0
VERTEX
  8
M63LALIFT
 62
6
 10
7205.812
 20
-8476.690
 30
-1054.823
 70
    32
  0
VERTEX
  8
M63LALIFT
 62
6
 10
7205.796
 20
-8476.382
 30
-1054.823
 70
    32
  0
VERTEX
  8
M63LALIFT
 62
6
 10
7205.394
 20
-8475.802
 30
-1054.823
 70
    32
  0
VERTEX
  8
M63LALIFT
 62
6
 10
7205.444
 20
-8475.349
 30
-1054.823
 70
    32
  0
VERTEX
  8
M63LALIFT
 62
6
 10
7205.469
 20
-8474.823
 30
-1054.823
 70
    32
  0
VERTEX
  8
M63LALIFT
 62
6
 10
7205.641
 20
-8473.816
 30
-1054.823
 70
    32
  0
VERTEX
  8
M63LALIFT
 62
6
 10
7205.683
 20
-8473.648
 30
-1054.823
 70
    32
  0
VERTEX
  8
M63LALIFT
 62
6
 10
7205.698
 20
-8473.168
 30
-1054.823
 70
    32
  0
VERTEX
  8
M63LALIFT
 62
6
 10
7206.697
 20
-8472.537
 30
-1054.823
 70
    32
  0
VERTEX
  8
M63LALIFT
 62
6
 10
7208.374
 20
-8471.360
 30
-1054.823
 70
    32
  0
VERTEX
  8
M63LALIFT
 62
6
 10
7209.570
 20
-8470.512
 30
-1054.823
 70
    32
  0
VERTEX
  8
M63LALIFT
 62
6
 10
7210.935
 20
-8469.504
 30
-1054.823
 70
    32
  0
VERTEX
  8
M63LALIFT
 62
6
 10
7212.549
 20
-8468.499
 30
-1054.823
 70
    32
  0
VERTEX
  8
M63LALIFT
 62
6
 10
7213.497
 20
-8467.674
 30
-1054.823
 70
    32
  0
VERTEX
  8
M63LALIFT
 62
6
 10
7215.852
 20
-8466.328
 30
-1054.823
 70
    32
  0
VERTEX
  8
M63LALIFT
 62
6
 10
7216.172
 20
-8466.126
 30
-1054.823
 70
    32
  0
VERTEX
  8
M63LALIFT
 62
6
 10
7216.241
 20
-8466.061
 30
-1054.823
 70
    32
  0
VERTEX
  8
M63LALIFT
 62
6
 10
7216.285
 20
-8466.010
 30
-1054.823
 70
    32
  0
VERTEX
  8
M63LALIFT
 62
6
 10
7217.308
 20
-8465.171
 30
-1054.823
 70
    32
  0
VERTEX
  8
M63LALIFT
 62
6
 10
7217.668
 20
-8464.445
 30
-1054.823
 70
    32
  0
VERTEX
  8
M63LALIFT
 62
6
 10
7217.865
 20
-8464.200
 30
-1054.823
 70
    32
  0
VERTEX
  8
M63LALIFT
 62
6
 10
7218.159
 20
-8463.663
 30
-1054.823
 70
    32
  0
VERTEX
  8
M63LALIFT
 62
6
 10
7219.242
 20
-8463.205
 30
-1054.823
 70
    32
  0
VERTEX
  8
M63LALIFT
 62
6
 10
7220.925
 20
-8462.515
 30
-1054.823
 70
    32
  0
VERTEX
  8
M63LALIFT
 62
6
 10
7221.229
 20
-8462.480
 30
-1054.823
 70
    32
  0
VERTEX
  8
M63LALIFT
 62
6
 10
7223.991
 20
-8462.183
 30
-1054.823
 70
    32
  0
VERTEX
  8
M63LALIFT
 62
6
 10
7224.412
 20
-8462.334
 30
-1054.823
 70
    32
  0
VERTEX
  8
M63LALIFT
 62
6
 10
7224.635
 20
-8462.474
 30
-1054.823
 70
    32
  0
VERTEX
  8
M63LALIFT
 62
6
 10
7225.496
 20
-8463.167
 30
-1054.823
 70
    32
  0
VERTEX
  8
M63LALIFT
 62
6
 10
7226.560
 20
-8463.678
 30
-1054.823
 70
    32
  0
VERTEX
  8
M63LALIFT
 62
6
 10
7227.020
 20
-8463.965
 30
-1054.823
 70
    32
  0
VERTEX
  8
M63LALIFT
 62
6
 10
7227.756
 20
-8464.142
 30
-1054.823
 70
    32
  0
VERTEX
  8
M63LALIFT
 62
6
 10
7228.613
 20
-8464.592
 30
-1054.823
 70
    32
  0
VERTEX
  8
M63LALIFT
 62
6
 10
7229.475
 20
-8465.022
 30
-1054.823
 70
    32
  0
VERTEX
  8
M63LALIFT
 62
6
 10
7230.135
 20
-8465.380
 30
-1054.823
 70
    32
  0
VERTEX
  8
M63LALIFT
 62
6
 10
7230.858
 20
-8465.808
 30
-1054.823
 70
    32
  0
VERTEX
  8
M63LALIFT
 62
6
 10
7231.251
 20
-8465.997
 30
-1054.823
 70
    32
  0
VERTEX
  8
M63LALIFT
 62
6
 10
7231.430
 20
-8466.039
 30
-1054.823
 70
    32
  0
VERTEX
  8
M63LALIFT
 62
6
 10
7232.065
 20
-8466.439
 30
-1054.823
 70
    32
  0
VERTEX
  8
M63LALIFT
 62
6
 10
7232.496
 20
-8466.559
 30
-1054.823
 70
    32
  0
VERTEX
  8
M63LALIFT
 62
6
 10
7232.741
 20
-8466.856
 30
-1054.823
 70
    32
  0
VERTEX
  8
M63LALIFT
 62
6
 10
7233.702
 20
-8467.060
 30
-1054.823
 70
    32
  0
VERTEX
  8
M63LALIFT
 62
6
 10
7233.791
 20
-8467.103
 30
-1054.823
 70
    32
  0
VERTEX
  8
M63LALIFT
 62
6
 10
7233.989
 20
-8467.105
 30
-1054.823
 70
    32
  0
VERTEX
  8
M63LALIFT
 62
6
 10
7234.564
 20
-8466.876
 30
-1054.823
 70
    32
  0
VERTEX
  8
M63LALIFT
 62
6
 10
7236.073
 20
-8466.296
 30
-1054.823
 70
    32
  0
VERTEX
  8
M63LALIFT
 62
6
 10
7236.209
 20
-8466.645
 30
-1054.823
 70
    32
  0
VERTEX
  8
M63LALIFT
 62
6
 10
7236.368
 20
-8466.596
 30
-1054.823
 70
    32
  0
VERTEX
  8
M63LALIFT
 62
6
 10
7236.916
 20
-8467.136
 30
-1054.823
 70
    32
  0
VERTEX
  8
M63LALIFT
 62
6
 10
7238.616
 20
-8466.532
 30
-1054.823
 70
    32
  0
VERTEX
  8
M63LALIFT
 62
6
 10
7238.620
 20
-8466.536
 30
-1054.823
 70
    32
  0
VERTEX
  8
M63LALIFT
 62
6
 10
7238.621
 20
-8466.538
 30
-1054.823
 70
    32
  0
VERTEX
  8
M63LALIFT
 62
6
 10
7238.957
 20
-8467.493
 30
-1054.823
 70
    32
  0
VERTEX
  8
M63LALIFT
 62
6
 10
7239.007
 20
-8467.565
 30
-1054.823
 70
    32
  0
VERTEX
  8
M63LALIFT
 62
6
 10
7239.276
 20
-8468.248
 30
-1054.823
 70
    32
  0
VERTEX
  8
M63LALIFT
 62
6
 10
7239.348
 20
-8468.388
 30
-1054.823
 70
    32
  0
VERTEX
  8
M63LALIFT
 62
6
 10
7239.563
 20
-8469.054
 30
-1054.823
 70
    32
  0
VERTEX
  8
M63LALIFT
 62
6
 10
7239.653
 20
-8469.241
 30
-1054.823
 70
    32
  0
VERTEX
  8
M63LALIFT
 62
6
 10
7239.822
 20
-8469.886
 30
-1054.823
 70
    32
  0
VERTEX
  8
M63LALIFT
 62
6
 10
7239.932
 20
-8470.108
 30
-1054.823
 70
    32
  0
VERTEX
  8
M63LALIFT
 62
6
 10
7239.943
 20
-8470.642
 30
-1054.823
 70
    32
  0
VERTEX
  8
M63LALIFT
 62
6
 10
7240.094
 20
-8470.866
 30
-1054.823
 70
    32
  0
VERTEX
  8
M63LALIFT
 62
6
 10
7239.825
 20
-8471.405
 30
-1054.823
 70
    32
  0
VERTEX
  8
M63LALIFT
 62
6
 10
7239.929
 20
-8471.552
 30
-1054.823
 70
    32
  0
VERTEX
  8
M63LALIFT
 62
6
 10
7240.115
 20
-8472.087
 30
-1054.823
 70
    32
  0
VERTEX
  8
M63LALIFT
 62
6
 10
7240.262
 20
-8472.284
 30
-1054.823
 70
    32
  0
VERTEX
  8
M63LALIFT
 62
6
 10
7240.329
 20
-8472.708
 30
-1054.823
 70
    32
  0
VERTEX
  8
M63LALIFT
 62
6
 10
7240.503
 20
-8472.938
 30
-1054.823
 70
    32
  0
VERTEX
  8
M63LALIFT
 62
6
 10
7240.716
 20
-8473.337
 30
-1054.823
 70
    32
  0
VERTEX
  8
M63LALIFT
 62
6
 10
7241.002
 20
-8473.618
 30
-1054.823
 70
    32
  0
VERTEX
  8
M63LALIFT
 62
6
 10
7241.196
 20
-8473.894
 30
-1054.823
 70
    32
  0
VERTEX
  8
M63LALIFT
 62
6
 10
7241.657
 20
-8474.315
 30
-1054.823
 70
    32
  0
VERTEX
  8
M63LALIFT
 62
6
 10
7241.760
 20
-8474.443
 30
-1054.823
 70
    32
  0
VERTEX
  8
M63LALIFT
 62
6
 10
7242.248
 20
-8474.975
 30
-1054.823
 70
    32
  0
VERTEX
  8
M63LALIFT
 62
6
 10
7242.252
 20
-8474.982
 30
-1054.823
 70
    32
  0
VERTEX
  8
M63LALIFT
 62
6
 10
7242.288
 20
-8475.036
 30
-1054.823
 70
    32
  0
VERTEX
  8
M63LALIFT
 62
6
 10
7242.555
 20
-8475.404
 30
-1054.823
 70
    32
  0
VERTEX
  8
M63LALIFT
 62
6
 10
7242.629
 20
-8475.443
 30
-1054.823
 70
    32
  0
VERTEX
  8
M63LALIFT
 62
6
 10
7242.906
 20
-8475.772
 30
-1054.823
 70
    32
  0
VERTEX
  8
M63LALIFT
 62
6
 10
7243.157
 20
-8475.788
 30
-1054.823
 70
    32
  0
VERTEX
  8
M63LALIFT
 62
6
 10
7243.476
 20
-8475.908
 30
-1054.823
 70
    32
  0
VERTEX
  8
M63LALIFT
 62
6
 10
7243.890
 20
-8476.026
 30
-1054.823
 70
    32
  0
VERTEX
  8
M63LALIFT
 62
6
 10
7244.038
 20
-8476.059
 30
-1054.823
 70
    32
  0
VERTEX
  8
M63LALIFT
 62
6
 10
7244.378
 20
-8476.046
 30
-1054.823
 70
    32
  0
VERTEX
  8
M63LALIFT
 62
6
 10
7244.785
 20
-8476.256
 30
-1054.823
 70
    32
  0
VERTEX
  8
M63LALIFT
 62
6
 10
7244.981
 20
-8476.323
 30
-1054.823
 70
    32
  0
VERTEX
  8
M63LALIFT
 62
6
 10
7245.493
 20
-8476.497
 30
-1054.823
 70
    32
  0
VERTEX
  8
M63LALIFT
 62
6
 10
7246.127
 20
-8476.720
 30
-1054.823
 70
    32
  0
VERTEX
  8
M63LALIFT
 62
6
 10
7246.173
 20
-8476.825
 30
-1054.823
 70
    32
  0
VERTEX
  8
M63LALIFT
 62
6
 10
7246.627
 20
-8476.993
 30
-1054.823
 70
    32
  0
VERTEX
  8
M63LALIFT
 62
6
 10
7246.717
 20
-8477.147
 30
-1054.823
 70
    32
  0
VERTEX
  8
M63LALIFT
 62
6
 10
7246.721
 20
-8477.163
 30
-1054.823
 70
    32
  0
VERTEX
  8
M63LALIFT
 62
6
 10
7246.980
 20
-8477.480
 30
-1054.823
 70
    32
  0
VERTEX
  8
M63LALIFT
 62
6
 10
7246.993
 20
-8477.539
 30
-1054.823
 70
    32
  0
VERTEX
  8
M63LALIFT
 62
6
 10
7247.184
 20
-8477.922
 30
-1054.823
 70
    32
  0
VERTEX
  8
M63LALIFT
 62
6
 10
7247.210
 20
-8478.028
 30
-1054.823
 70
    32
  0
VERTEX
  8
M63LALIFT
 62
6
 10
7247.259
 20
-8478.370
 30
-1054.823
 70
    32
  0
VERTEX
  8
M63LALIFT
 62
6
 10
7247.289
 20
-8478.470
 30
-1054.823
 70
    32
  0
SEQEND
  8
M63LALIFT
  0
POLYLINE
  8
M63LALIFT
 62
6
 66
     1
 70
     9
  0
VERTEX
  8
M63LALIFT
 62
6
 10
7241.523
 20
-8479.149
 30
-1050.108
 70
    32
  0
VERTEX
  8
M63LALIFT
 62
6
 10
7241.608
 20
-8478.982
 30
-1050.108
 70
    32
  0
VERTEX
  8
M63LALIFT
 62
6
 10
7241.451
 20
-8478.530
 30
-1050.108
 70
    32
  0
VERTEX
  8
M63LALIFT
 62
6
 10
7241.411
 20
-8478.450
 30
-1050.108
 70
    32
  0
VERTEX
  8
M63LALIFT
 62
6
 10
7241.071
 20
-8478.196
 30
-1050.108
 70
    32
  0
VERTEX
  8
M63LALIFT
 62
6
 10
7240.998
 20
-8478.065
 30
-1050.108
 70
    32
  0
VERTEX
  8
M63LALIFT
 62
6
 10
7240.715
 20
-8477.766
 30
-1050.108
 70
    32
  0
VERTEX
  8
M63LALIFT
 62
6
 10
7240.615
 20
-8477.527
 30
-1050.108
 70
    32
  0
VERTEX
  8
M63LALIFT
 62
6
 10
7240.357
 20
-8477.353
 30
-1050.108
 70
    32
  0
VERTEX
  8
M63LALIFT
 62
6
 10
7240.149
 20
-8477.103
 30
-1050.108
 70
    32
  0
VERTEX
  8
M63LALIFT
 62
6
 10
7239.995
 20
-8476.917
 30
-1050.108
 70
    32
  0
VERTEX
  8
M63LALIFT
 62
6
 10
7239.951
 20
-8476.564
 30
-1050.108
 70
    32
  0
VERTEX
  8
M63LALIFT
 62
6
 10
7239.883
 20
-8476.329
 30
-1050.108
 70
    32
  0
VERTEX
  8
M63LALIFT
 62
6
 10
7239.498
 20
-8476.030
 30
-1050.108
 70
    32
  0
VERTEX
  8
M63LALIFT
 62
6
 10
7239.298
 20
-8475.989
 30
-1050.108
 70
    32
  0
VERTEX
  8
M63LALIFT
 62
6
 10
7239.020
 20
-8475.533
 30
-1050.108
 70
    32
  0
VERTEX
  8
M63LALIFT
 62
6
 10
7238.990
 20
-8475.475
 30
-1050.108
 70
    32
  0
VERTEX
  8
M63LALIFT
 62
6
 10
7238.677
 20
-8474.966
 30
-1050.108
 70
    32
  0
VERTEX
  8
M63LALIFT
 62
6
 10
7238.670
 20
-8474.952
 30
-1050.108
 70
    32
  0
VERTEX
  8
M63LALIFT
 62
6
 10
7238.576
 20
-8474.795
 30
-1050.108
 70
    32
  0
VERTEX
  8
M63LALIFT
 62
6
 10
7238.226
 20
-8474.481
 30
-1050.108
 70
    32
  0
VERTEX
  8
M63LALIFT
 62
6
 10
7238.215
 20
-8474.395
 30
-1050.108
 70
    32
  0
VERTEX
  8
M63LALIFT
 62
6
 10
7237.972
 20
-8473.867
 30
-1050.108
 70
    32
  0
VERTEX
  8
M63LALIFT
 62
6
 10
7237.960
 20
-8473.732
 30
-1050.108
 70
    32
  0
VERTEX
  8
M63LALIFT
 62
6
 10
7237.619
 20
-8473.277
 30
-1050.108
 70
    32
  0
VERTEX
  8
M63LALIFT
 62
6
 10
7237.492
 20
-8473.128
 30
-1050.108
 70
    32
  0
VERTEX
  8
M63LALIFT
 62
6
 10
7237.144
 20
-8472.836
 30
-1050.108
 70
    32
  0
VERTEX
  8
M63LALIFT
 62
6
 10
7236.915
 20
-8472.557
 30
-1050.108
 70
    32
  0
VERTEX
  8
M63LALIFT
 62
6
 10
7237.050
 20
-8472.065
 30
-1050.108
 70
    32
  0
VERTEX
  8
M63LALIFT
 62
6
 10
7236.901
 20
-8471.793
 30
-1050.108
 70
    32
  0
VERTEX
  8
M63LALIFT
 62
6
 10
7236.685
 20
-8471.434
 30
-1050.108
 70
    32
  0
VERTEX
  8
M63LALIFT
 62
6
 10
7236.140
 20
-8471.218
 30
-1050.108
 70
    32
  0
VERTEX
  8
M63LALIFT
 62
6
 10
7235.892
 20
-8471.112
 30
-1050.108
 70
    32
  0
VERTEX
  8
M63LALIFT
 62
6
 10
7235.526
 20
-8470.547
 30
-1050.108
 70
    32
  0
VERTEX
  8
M63LALIFT
 62
6
 10
7235.450
 20
-8470.494
 30
-1050.108
 70
    32
  0
VERTEX
  8
M63LALIFT
 62
6
 10
7235.251
 20
-8470.488
 30
-1050.108
 70
    32
  0
VERTEX
  8
M63LALIFT
 62
6
 10
7233.870
 20
-8470.847
 30
-1050.108
 70
    32
  0
VERTEX
  8
M63LALIFT
 62
6
 10
7233.246
 20
-8470.586
 30
-1050.108
 70
    32
  0
VERTEX
  8
M63LALIFT
 62
6
 10
7233.060
 20
-8470.471
 30
-1050.108
 70
    32
  0
VERTEX
  8
M63LALIFT
 62
6
 10
7232.442
 20
-8470.453
 30
-1050.108
 70
    32
  0
VERTEX
  8
M63LALIFT
 62
6
 10
7231.301
 20
-8470.386
 30
-1050.108
 70
    32
  0
VERTEX
  8
M63LALIFT
 62
6
 10
7229.919
 20
-8470.314
 30
-1050.108
 70
    32
  0
VERTEX
  8
M63LALIFT
 62
6
 10
7229.457
 20
-8470.219
 30
-1050.108
 70
    32
  0
VERTEX
  8
M63LALIFT
 62
6
 10
7229.179
 20
-8470.154
 30
-1050.108
 70
    32
  0
VERTEX
  8
M63LALIFT
 62
6
 10
7228.831
 20
-8469.918
 30
-1050.108
 70
    32
  0
VERTEX
  8
M63LALIFT
 62
6
 10
7227.760
 20
-8469.589
 30
-1050.108
 70
    32
  0
VERTEX
  8
M63LALIFT
 62
6
 10
7226.707
 20
-8469.282
 30
-1050.108
 70
    32
  0
VERTEX
  8
M63LALIFT
 62
6
 10
7225.991
 20
-8469.442
 30
-1050.108
 70
    32
  0
VERTEX
  8
M63LALIFT
 62
6
 10
7225.588
 20
-8469.254
 30
-1050.108
 70
    32
  0
VERTEX
  8
M63LALIFT
 62
6
 10
7225.094
 20
-8468.890
 30
-1050.108
 70
    32
  0
VERTEX
  8
M63LALIFT
 62
6
 10
7223.608
 20
-8469.032
 30
-1050.108
 70
    32
  0
VERTEX
  8
M63LALIFT
 62
6
 10
7223.326
 20
-8468.880
 30
-1050.108
 70
    32
  0
VERTEX
  8
M63LALIFT
 62
6
 10
7223.301
 20
-8468.823
 30
-1050.108
 70
    32
  0
VERTEX
  8
M63LALIFT
 62
6
 10
7222.667
 20
-8468.223
 30
-1050.108
 70
    32
  0
VERTEX
  8
M63LALIFT
 62
6
 10
7222.378
 20
-8468.198
 30
-1050.108
 70
    32
  0
VERTEX
  8
M63LALIFT
 62
6
 10
7221.719
 20
-8467.891
 30
-1050.108
 70
    32
  0
VERTEX
  8
M63LALIFT
 62
6
 10
7221.424
 20
-8467.548
 30
-1050.108
 70
    32
  0
VERTEX
  8
M63LALIFT
 62
6
 10
7220.930
 20
-8467.296
 30
-1050.108
 70
    32
  0
VERTEX
  8
M63LALIFT
 62
6
 10
7220.185
 20
-8467.041
 30
-1050.108
 70
    32
  0
VERTEX
  8
M63LALIFT
 62
6
 10
7219.980
 20
-8466.871
 30
-1050.108
 70
    32
  0
VERTEX
  8
M63LALIFT
 62
6
 10
7219.116
 20
-8466.685
 30
-1050.108
 70
    32
  0
VERTEX
  8
M63LALIFT
 62
6
 10
7216.346
 20
-8467.044
 30
-1050.108
 70
    32
  0
VERTEX
  8
M63LALIFT
 62
6
 10
7215.782
 20
-8467.119
 30
-1050.108
 70
    32
  0
VERTEX
  8
M63LALIFT
 62
6
 10
7215.392
 20
-8467.321
 30
-1050.108
 70
    32
  0
VERTEX
  8
M63LALIFT
 62
6
 10
7212.789
 20
-8468.524
 30
-1050.108
 70
    32
  0
VERTEX
  8
M63LALIFT
 62
6
 10
7210.793
 20
-8469.294
 30
-1050.108
 70
    32
  0
VERTEX
  8
M63LALIFT
 62
6
 10
7209.453
 20
-8469.735
 30
-1050.108
 70
    32
  0
VERTEX
  8
M63LALIFT
 62
6
 10
7208.580
 20
-8470.398
 30
-1050.108
 70
    32
  0
VERTEX
  8
M63LALIFT
 62
6
 10
7206.601
 20
-8471.676
 30
-1050.108
 70
    32
  0
VERTEX
  8
M63LALIFT
 62
6
 10
7205.720
 20
-8471.812
 30
-1050.108
 70
    32
  0
VERTEX
  8
M63LALIFT
 62
6
 10
7202.482
 20
-8472.478
 30
-1050.108
 70
    32
  0
VERTEX
  8
M63LALIFT
 62
6
 10
7202.620
 20
-8473.204
 30
-1050.108
 70
    32
  0
VERTEX
  8
M63LALIFT
 62
6
 10
7202.713
 20
-8473.305
 30
-1050.108
 70
    32
  0
VERTEX
  8
M63LALIFT
 62
6
 10
7202.916
 20
-8474.231
 30
-1050.108
 70
    32
  0
VERTEX
  8
M63LALIFT
 62
6
 10
7203.474
 20
-8474.262
 30
-1050.108
 70
    32
  0
VERTEX
  8
M63LALIFT
 62
6
 10
7203.956
 20
-8475.039
 30
-1050.108
 70
    32
  0
VERTEX
  8
M63LALIFT
 62
6
 10
7204.168
 20
-8475.170
 30
-1050.108
 70
    32
  0
VERTEX
  8
M63LALIFT
 62
6
 10
7204.627
 20
-8475.943
 30
-1050.108
 70
    32
  0
VERTEX
  8
M63LALIFT
 62
6
 10
7204.792
 20
-8476.201
 30
-1050.108
 70
    32
  0
VERTEX
  8
M63LALIFT
 62
6
 10
7205.196
 20
-8476.739
 30
-1050.108
 70
    32
  0
VERTEX
  8
M63LALIFT
 62
6
 10
7205.402
 20
-8476.954
 30
-1050.108
 70
    32
  0
VERTEX
  8
M63LALIFT
 62
6
 10
7205.863
 20
-8477.494
 30
-1050.108
 70
    32
  0
VERTEX
  8
M63LALIFT
 62
6
 10
7206.088
 20
-8477.743
 30
-1050.108
 70
    32
  0
VERTEX
  8
M63LALIFT
 62
6
 10
7206.545
 20
-8478.302
 30
-1050.108
 70
    32
  0
VERTEX
  8
M63LALIFT
 62
6
 10
7206.750
 20
-8478.572
 30
-1050.108
 70
    32
  0
VERTEX
  8
M63LALIFT
 62
6
 10
7207.100
 20
-8478.992
 30
-1050.108
 70
    32
  0
VERTEX
  8
M63LALIFT
 62
6
 10
7207.324
 20
-8479.272
 30
-1050.108
 70
    32
  0
VERTEX
  8
M63LALIFT
 62
6
 10
7207.622
 20
-8479.672
 30
-1050.108
 70
    32
  0
VERTEX
  8
M63LALIFT
 62
6
 10
7207.804
 20
-8479.992
 30
-1050.108
 70
    32
  0
VERTEX
  8
M63LALIFT
 62
6
 10
7208.096
 20
-8480.392
 30
-1050.108
 70
    32
  0
VERTEX
  8
M63LALIFT
 62
6
 10
7208.352
 20
-8480.708
 30
-1050.108
 70
    32
  0
VERTEX
  8
M63LALIFT
 62
6
 10
7210.186
 20
-8480.355
 30
-1050.108
 70
    32
  0
VERTEX
  8
M63LALIFT
 62
6
 10
7211.816
 20
-8479.971
 30
-1050.108
 70
    32
  0
VERTEX
  8
M63LALIFT
 62
6
 10
7213.593
 20
-8479.727
 30
-1050.108
 70
    32
  0
VERTEX
  8
M63LALIFT
 62
6
 10
7214.505
 20
-8479.220
 30
-1050.108
 70
    32
  0
VERTEX
  8
M63LALIFT
 62
6
 10
7214.688
 20
-8479.458
 30
-1050.108
 70
    32
  0
VERTEX
  8
M63LALIFT
 62
6
 10
7215.044
 20
-8479.784
 30
-1050.108
 70
    32
  0
VERTEX
  8
M63LALIFT
 62
6
 10
7215.459
 20
-8479.891
 30
-1050.108
 70
    32
  0
VERTEX
  8
M63LALIFT
 62
6
 10
7215.864
 20
-8480.092
 30
-1050.108
 70
    32
  0
VERTEX
  8
M63LALIFT
 62
6
 10
7216.279
 20
-8480.364
 30
-1050.108
 70
    32
  0
VERTEX
  8
M63LALIFT
 62
6
 10
7216.547
 20
-8480.537
 30
-1050.108
 70
    32
  0
VERTEX
  8
M63LALIFT
 62
6
 10
7217.616
 20
-8480.324
 30
-1050.108
 70
    32
  0
VERTEX
  8
M63LALIFT
 62
6
 10
7218.335
 20
-8480.297
 30
-1050.108
 70
    32
  0
VERTEX
  8
M63LALIFT
 62
6
 10
7218.757
 20
-8480.394
 30
-1050.108
 70
    32
  0
VERTEX
  8
M63LALIFT
 62
6
 10
7218.963
 20
-8480.784
 30
-1050.108
 70
    32
  0
VERTEX
  8
M63LALIFT
 62
6
 10
7219.567
 20
-8480.868
 30
-1050.108
 70
    32
  0
VERTEX
  8
M63LALIFT
 62
6
 10
7220.073
 20
-8481.046
 30
-1050.108
 70
    32
  0
VERTEX
  8
M63LALIFT
 62
6
 10
7220.543
 20
-8481.363
 30
-1050.108
 70
    32
  0
VERTEX
  8
M63LALIFT
 62
6
 10
7220.634
 20
-8481.587
 30
-1050.108
 70
    32
  0
VERTEX
  8
M63LALIFT
 62
6
 10
7221.625
 20
-8481.885
 30
-1050.108
 70
    32
  0
VERTEX
  8
M63LALIFT
 62
6
 10
7221.634
 20
-8481.928
 30
-1050.108
 70
    32
  0
VERTEX
  8
M63LALIFT
 62
6
 10
7222.034
 20
-8482.197
 30
-1050.108
 70
    32
  0
VERTEX
  8
M63LALIFT
 62
6
 10
7222.236
 20
-8482.282
 30
-1050.108
 70
    32
  0
VERTEX
  8
M63LALIFT
 62
6
 10
7222.253
 20
-8482.316
 30
-1050.108
 70
    32
  0
VERTEX
  8
M63LALIFT
 62
6
 10
7222.941
 20
-8482.564
 30
-1050.108
 70
    32
  0
VERTEX
  8
M63LALIFT
 62
6
 10
7223.089
 20
-8482.668
 30
-1050.108
 70
    32
  0
VERTEX
  8
M63LALIFT
 62
6
 10
7223.613
 20
-8482.897
 30
-1050.108
 70
    32
  0
VERTEX
  8
M63LALIFT
 62
6
 10
7223.824
 20
-8483.086
 30
-1050.108
 70
    32
  0
VERTEX
  8
M63LALIFT
 62
6
 10
7224.034
 20
-8483.361
 30
-1050.108
 70
    32
  0
VERTEX
  8
M63LALIFT
 62
6
 10
7224.135
 20
-8483.633
 30
-1050.108
 70
    32
  0
VERTEX
  8
M63LALIFT
 62
6
 10
7224.074
 20
-8484.123
 30
-1050.108
 70
    32
  0
VERTEX
  8
M63LALIFT
 62
6
 10
7224.107
 20
-8484.321
 30
-1050.108
 70
    32
  0
VERTEX
  8
M63LALIFT
 62
6
 10
7224.431
 20
-8484.557
 30
-1050.108
 70
    32
  0
VERTEX
  8
M63LALIFT
 62
6
 10
7224.443
 20
-8484.806
 30
-1050.108
 70
    32
  0
VERTEX
  8
M63LALIFT
 62
6
 10
7224.547
 20
-8485.289
 30
-1050.108
 70
    32
  0
VERTEX
  8
M63LALIFT
 62
6
 10
7224.860
 20
-8485.312
 30
-1050.108
 70
    32
  0
VERTEX
  8
M63LALIFT
 62
6
 10
7224.957
 20
-8485.755
 30
-1050.108
 70
    32
  0
VERTEX
  8
M63LALIFT
 62
6
 10
7225.036
 20
-8485.912
 30
-1050.108
 70
    32
  0
VERTEX
  8
M63LALIFT
 62
6
 10
7225.152
 20
-8486.325
 30
-1050.108
 70
    32
  0
VERTEX
  8
M63LALIFT
 62
6
 10
7225.494
 20
-8486.329
 30
-1050.108
 70
    32
  0
VERTEX
  8
M63LALIFT
 62
6
 10
7225.626
 20
-8486.703
 30
-1050.108
 70
    32
  0
VERTEX
  8
M63LALIFT
 62
6
 10
7226.208
 20
-8486.642
 30
-1050.108
 70
    32
  0
VERTEX
  8
M63LALIFT
 62
6
 10
7226.308
 20
-8486.812
 30
-1050.108
 70
    32
  0
VERTEX
  8
M63LALIFT
 62
6
 10
7226.337
 20
-8487.198
 30
-1050.108
 70
    32
  0
VERTEX
  8
M63LALIFT
 62
6
 10
7226.233
 20
-8487.593
 30
-1050.108
 70
    32
  0
VERTEX
  8
M63LALIFT
 62
6
 10
7226.404
 20
-8487.763
 30
-1050.108
 70
    32
  0
VERTEX
  8
M63LALIFT
 62
6
 10
7225.834
 20
-8488.630
 30
-1050.108
 70
    32
  0
VERTEX
  8
M63LALIFT
 62
6
 10
7227.647
 20
-8487.467
 30
-1050.108
 70
    32
  0
VERTEX
  8
M63LALIFT
 62
6
 10
7228.377
 20
-8487.570
 30
-1050.108
 70
    32
  0
VERTEX
  8
M63LALIFT
 62
6
 10
7228.279
 20
-8487.718
 30
-1050.108
 70
    32
  0
VERTEX
  8
M63LALIFT
 62
6
 10
7228.388
 20
-8488.110
 30
-1050.108
 70
    32
  0
VERTEX
  8
M63LALIFT
 62
6
 10
7229.026
 20
-8488.182
 30
-1050.108
 70
    32
  0
VERTEX
  8
M63LALIFT
 62
6
 10
7228.088
 20
-8488.353
 30
-1050.108
 70
    32
  0
VERTEX
  8
M63LALIFT
 62
6
 10
7226.926
 20
-8489.048
 30
-1050.108
 70
    32
  0
VERTEX
  8
M63LALIFT
 62
6
 10
7226.708
 20
-8488.793
 30
-1050.108
 70
    32
  0
VERTEX
  8
M63LALIFT
 62
6
 10
7226.532
 20
-8488.695
 30
-1050.108
 70
    32
  0
VERTEX
  8
M63LALIFT
 62
6
 10
7225.779
 20
-8488.711
 30
-1050.108
 70
    32
  0
VERTEX
  8
M63LALIFT
 62
6
 10
7225.694
 20
-8488.713
 30
-1050.108
 70
    32
  0
VERTEX
  8
M63LALIFT
 62
6
 10
7223.431
 20
-8489.305
 30
-1050.108
 70
    32
  0
VERTEX
  8
M63LALIFT
 62
6
 10
7222.814
 20
-8489.925
 30
-1050.108
 70
    32
  0
VERTEX
  8
M63LALIFT
 62
6
 10
7221.605
 20
-8490.976
 30
-1050.108
 70
    32
  0
VERTEX
  8
M63LALIFT
 62
6
 10
7221.552
 20
-8491.073
 30
-1050.108
 70
    32
  0
VERTEX
  8
M63LALIFT
 62
6
 10
7221.547
 20
-8491.101
 30
-1050.108
 70
    32
  0
VERTEX
  8
M63LALIFT
 62
6
 10
7221.803
 20
-8491.315
 30
-1050.108
 70
    32
  0
VERTEX
  8
M63LALIFT
 62
6
 10
7222.067
 20
-8491.385
 30
-1050.108
 70
    32
  0
VERTEX
  8
M63LALIFT
 62
6
 10
7224.072
 20
-8490.446
 30
-1050.108
 70
    32
  0
VERTEX
  8
M63LALIFT
 62
6
 10
7224.886
 20
-8490.157
 30
-1050.108
 70
    32
  0
VERTEX
  8
M63LALIFT
 62
6
 10
7226.413
 20
-8489.927
 30
-1050.108
 70
    32
  0
VERTEX
  8
M63LALIFT
 62
6
 10
7226.596
 20
-8489.939
 30
-1050.108
 70
    32
  0
VERTEX
  8
M63LALIFT
 62
6
 10
7228.368
 20
-8488.925
 30
-1050.108
 70
    32
  0
VERTEX
  8
M63LALIFT
 62
6
 10
7229.454
 20
-8488.914
 30
-1050.108
 70
    32
  0
VERTEX
  8
M63LALIFT
 62
6
 10
7230.641
 20
-8488.932
 30
-1050.108
 70
    32
  0
VERTEX
  8
M63LALIFT
 62
6
 10
7230.876
 20
-8488.879
 30
-1050.108
 70
    32
  0
VERTEX
  8
M63LALIFT
 62
6
 10
7230.998
 20
-8488.871
 30
-1050.108
 70
    32
  0
VERTEX
  8
M63LALIFT
 62
6
 10
7231.297
 20
-8489.115
 30
-1050.108
 70
    32
  0
VERTEX
  8
M63LALIFT
 62
6
 10
7231.647
 20
-8489.047
 30
-1050.108
 70
    32
  0
VERTEX
  8
M63LALIFT
 62
6
 10
7232.174
 20
-8488.856
 30
-1050.108
 70
    32
  0
VERTEX
  8
M63LALIFT
 62
6
 10
7232.708
 20
-8488.708
 30
-1050.108
 70
    32
  0
VERTEX
  8
M63LALIFT
 62
6
 10
7233.205
 20
-8488.731
 30
-1050.108
 70
    32
  0
VERTEX
  8
M63LALIFT
 62
6
 10
7233.899
 20
-8488.677
 30
-1050.108
 70
    32
  0
VERTEX
  8
M63LALIFT
 62
6
 10
7234.389
 20
-8488.660
 30
-1050.108
 70
    32
  0
VERTEX
  8
M63LALIFT
 62
6
 10
7234.871
 20
-8488.880
 30
-1050.108
 70
    32
  0
VERTEX
  8
M63LALIFT
 62
6
 10
7235.017
 20
-8488.890
 30
-1050.108
 70
    32
  0
VERTEX
  8
M63LALIFT
 62
6
 10
7235.013
 20
-8488.932
 30
-1050.108
 70
    32
  0
VERTEX
  8
M63LALIFT
 62
6
 10
7235.959
 20
-8488.743
 30
-1050.108
 70
    32
  0
VERTEX
  8
M63LALIFT
 62
6
 10
7236.320
 20
-8488.914
 30
-1050.108
 70
    32
  0
VERTEX
  8
M63LALIFT
 62
6
 10
7236.158
 20
-8489.234
 30
-1050.108
 70
    32
  0
VERTEX
  8
M63LALIFT
 62
6
 10
7236.916
 20
-8488.889
 30
-1050.108
 70
    32
  0
VERTEX
  8
M63LALIFT
 62
6
 10
7237.867
 20
-8488.645
 30
-1050.108
 70
    32
  0
VERTEX
  8
M63LALIFT
 62
6
 10
7238.526
 20
-8488.204
 30
-1050.108
 70
    32
  0
VERTEX
  8
M63LALIFT
 62
6
 10
7238.778
 20
-8487.990
 30
-1050.108
 70
    32
  0
VERTEX
  8
M63LALIFT
 62
6
 10
7238.744
 20
-8487.936
 30
-1050.108
 70
    32
  0
VERTEX
  8
M63LALIFT
 62
6
 10
7239.031
 20
-8487.383
 30
-1050.108
 70
    32
  0
VERTEX
  8
M63LALIFT
 62
6
 10
7238.973
 20
-8487.192
 30
-1050.108
 70
    32
  0
VERTEX
  8
M63LALIFT
 62
6
 10
7238.862
 20
-8486.875
 30
-1050.108
 70
    32
  0
VERTEX
  8
M63LALIFT
 62
6
 10
7239.176
 20
-8486.444
 30
-1050.108
 70
    32
  0
VERTEX
  8
M63LALIFT
 62
6
 10
7239.247
 20
-8486.201
 30
-1050.108
 70
    32
  0
VERTEX
  8
M63LALIFT
 62
6
 10
7239.364
 20
-8485.693
 30
-1050.108
 70
    32
  0
VERTEX
  8
M63LALIFT
 62
6
 10
7239.495
 20
-8485.522
 30
-1050.108
 70
    32
  0
VERTEX
  8
M63LALIFT
 62
6
 10
7239.681
 20
-8485.292
 30
-1050.108
 70
    32
  0
VERTEX
  8
M63LALIFT
 62
6
 10
7240.027
 20
-8484.799
 30
-1050.108
 70
    32
  0
VERTEX
  8
M63LALIFT
 62
6
 10
7239.900
 20
-8484.740
 30
-1050.108
 70
    32
  0
VERTEX
  8
M63LALIFT
 62
6
 10
7239.934
 20
-8484.276
 30
-1050.108
 70
    32
  0
VERTEX
  8
M63LALIFT
 62
6
 10
7239.910
 20
-8484.108
 30
-1050.108
 70
    32
  0
VERTEX
  8
M63LALIFT
 62
6
 10
7239.797
 20
-8483.784
 30
-1050.108
 70
    32
  0
VERTEX
  8
M63LALIFT
 62
6
 10
7239.887
 20
-8483.537
 30
-1050.108
 70
    32
  0
VERTEX
  8
M63LALIFT
 62
6
 10
7239.955
 20
-8483.203
 30
-1050.108
 70
    32
  0
VERTEX
  8
M63LALIFT
 62
6
 10
7239.971
 20
-8482.892
 30
-1050.108
 70
    32
  0
VERTEX
  8
M63LALIFT
 62
6
 10
7240.019
 20
-8482.642
 30
-1050.108
 70
    32
  0
VERTEX
  8
M63LALIFT
 62
6
 10
7240.189
 20
-8482.154
 30
-1050.108
 70
    32
  0
VERTEX
  8
M63LALIFT
 62
6
 10
7240.271
 20
-8482.021
 30
-1050.108
 70
    32
  0
VERTEX
  8
M63LALIFT
 62
6
 10
7240.298
 20
-8481.477
 30
-1050.108
 70
    32
  0
VERTEX
  8
M63LALIFT
 62
6
 10
7240.294
 20
-8481.456
 30
-1050.108
 70
    32
  0
VERTEX
  8
M63LALIFT
 62
6
 10
7240.343
 20
-8481.380
 30
-1050.108
 70
    32
  0
VERTEX
  8
M63LALIFT
 62
6
 10
7241.010
 20
-8480.507
 30
-1050.108
 70
    32
  0
VERTEX
  8
M63LALIFT
 62
6
 10
7241.352
 20
-8479.981
 30
-1050.108
 70
    32
  0
VERTEX
  8
M63LALIFT
 62
6
 10
7241.358
 20
-8479.758
 30
-1050.108
 70
    32
  0
SEQEND
  8
M63LALIFT
  0
POLYLINE
  8
M63LALIFT
 62
3
 66
     1
 70
     9
  0
VERTEX
  8
M63LALIFT
 62
3
 10
7118.939
 20
-8623.892
 30
-1084.000
 70
    32
  0
VERTEX
  8
M63LALIFT
 62
3
 10
7116.390
 20
-8616.696
 30
-1084.000
 70
    32
  0
VERTEX
  8
M63LALIFT
 62
3
 10
7103.638
 20
-8594.197
 30
-1082.500
 70
    32
  0
VERTEX
  8
M63LALIFT
 62
3
 10
7088.915
 20
-8565.967
 30
-1082.000
 70
    32
  0
VERTEX
  8
M63LALIFT
 62
3
 10
7098.098
 20
-8560.930
 30
-1082.000
 70
    32
  0
VERTEX
  8
M63LALIFT
 62
3
 10
7120.256
 20
-8599.907
 30
-1082.500
 70
    32
  0
VERTEX
  8
M63LALIFT
 62
3
 10
7123.136
 20
-8602.489
 30
-1083.000
 70
    32
  0
SEQEND
  8
M63LALIFT
  0
TEXT
  8
M63LALIFT
 62
3
 10
7149.450
 20
-8348.570
 30
-1056.000
 40
8.005
  1
92C UPHOLE
 50
107.798
 41
 1.0 
  0
POLYLINE
  8
M63LALIFT
 62
3
 66
     1
 70
     9
  0
VERTEX
  8
M63LALIFT
 62
3
 10
7150.613
 20
-8359.361
 30
-1056.000
 70
    32
  0
VERTEX
  8
M63LALIFT
 62
3
 10
7141.344
 20
-8358.246
 30
-1056.000
 70
    32
  0
VERTEX
  8
M63LALIFT
 62
3
 10
7138.378
 20
-8354.155
 30
-1056.000
 70
    32
  0
VERTEX
  8
M63LALIFT
 62
3
 10
7134.670
 20
-8341.142
 30
-1056.000
 70
    32
  0
VERTEX
  8
M63LALIFT
 62
3
 10
7129.850
 20
-8325.154
 30
-1056.000
 70
    32
  0
VERTEX
  8
M63LALIFT
 62
3
 10
7123.548
 20
-8311.025
 30
-1056.000
 70
    32
  0
VERTEX
  8
M63LALIFT
 62
3
 10
7118.357
 20
-8294.664
 30
-1056.000
 70
    32
  0
VERTEX
  8
M63LALIFT
 62
3
 10
7113.538
 20
-8276.817
 30
-1056.000
 70
    32
  0
VERTEX
  8
M63LALIFT
 62
3
 10
7114.279
 20
-8265.663
 30
-1056.000
 70
    32
  0
VERTEX
  8
M63LALIFT
 62
3
 10
7122.806
 20
-8263.432
 30
-1056.000
 70
    32
  0
VERTEX
  8
M63LALIFT
 62
3
 10
7126.885
 20
-8267.893
 30
-1056.000
 70
    32
  0
VERTEX
  8
M63LALIFT
 62
3
 10
7132.816
 20
-8277.561
 30
-1056.000
 70
    32
  0
VERTEX
  8
M63LALIFT
 62
3
 10
7138.749
 20
-8295.037
 30
-1056.000
 70
    32
  0
VERTEX
  8
M63LALIFT
 62
3
 10
7143.939
 20
-8313.999
 30
-1056.000
 70
    32
  0
VERTEX
  8
M63LALIFT
 62
3
 10
7149.500
 20
-8331.103
 30
-1056.000
 70
    32
  0
VERTEX
  8
M63LALIFT
 62
3
 10
7153.578
 20
-8343.745
 30
-1056.000
 70
    32
  0
VERTEX
  8
M63LALIFT
 62
3
 10
7156.915
 20
-8354.527
 30
-1056.000
 70
    32
  0
SEQEND
  8
M63LALIFT
  0
POLYLINE
  8
M63LALIFT
 62
3
 66
     1
 70
     9
  0
VERTEX
  8
M63LALIFT
 62
3
 10
7150.885
 20
-8359.903
 30
-1068.000
 70
    32
  0
VERTEX
  8
M63LALIFT
 62
3
 10
7141.616
 20
-8358.788
 30
-1068.000
 70
    32
  0
VERTEX
  8
M63LALIFT
 62
3
 10
7138.650
 20
-8354.698
 30
-1068.000
 70
    32
  0
VERTEX
  8
M63LALIFT
 62
3
 10
7134.942
 20
-8341.684
 30
-1068.000
 70
    32
  0
VERTEX
  8
M63LALIFT
 62
3
 10
7130.122
 20
-8325.696
 30
-1068.000
 70
    32
  0
VERTEX
  8
M63LALIFT
 62
3
 10
7123.820
 20
-8311.567
 30
-1068.000
 70
    32
  0
VERTEX
  8
M63LALIFT
 62
3
 10
7118.629
 20
-8295.207
 30
-1068.000
 70
    32
  0
VERTEX
  8
M63LALIFT
 62
3
 10
7113.810
 20
-8277.360
 30
-1068.000
 70
    32
  0
VERTEX
  8
M63LALIFT
 62
3
 10
7114.551
 20
-8266.205
 30
-1068.000
 70
    32
  0
VERTEX
  8
M63LALIFT
 62
3
 10
7123.078
 20
-8263.974
 30
-1068.000
 70
    32
  0
VERTEX
  8
M63LALIFT
 62
3
 10
7127.157
 20
-8268.436
 30
-1068.000
 70
    32
  0
VERTEX
  8
M63LALIFT
 62
3
 10
7133.089
 20
-8278.103
 30
-1068.000
 70
    32
  0
VERTEX
  8
M63LALIFT
 62
3
 10
7139.021
 20
-8295.579
 30
-1068.000
 70
    32
  0
VERTEX
  8
M63LALIFT
 62
3
 10
7144.211
 20
-8314.541
 30
-1068.000
 70
    32
  0
VERTEX
  8
M63LALIFT
 62
3
 10
7149.772
 20
-8331.645
 30
-1068.000
 70
    32
  0
VERTEX
  8
M63LALIFT
 62
3
 10
7153.850
 20
-8344.287
 30
-1068.000
 70
    32
  0
VERTEX
  8
M63LALIFT
 62
3
 10
7157.187
 20
-8355.070
 30
-1068.000
 70
    32
  0
SEQEND
  8
M63LALIFT
  0
POLYLINE
  8
M63LALIFT
 62
7
 66
     1
 70
     9
  0
VERTEX
  8
M63LALIFT
 62
7
 10
6945.178
 20
-8798.175
 30
-1030.000
 70
    32
  0
VERTEX
  8
M63LALIFT
 62
7
 10
6948.433
 20
-8788.677
 30
-1030.000
 70
    32
  0
VERTEX
  8
M63LALIFT
 62
7
 10
6948.823
 20
-8782.890
 30
-1036.000
 70
    32
  0
VERTEX
  8
M63LALIFT
 62
7
 10
6954.746
 20
-8773.525
 30
-1043.000
 70
    32
  0
VERTEX
  8
M63LALIFT
 62
7
 10
6965.385
 20
-8767.141
 30
-1043.000
 70
    32
  0
VERTEX
  8
M63LALIFT
 62
7
 10
6977.061
 20
-8759.843
 30
-1043.000
 70
    32
  0
VERTEX
  8
M63LALIFT
 62
7
 10
6977.431
 20
-8757.231
 30
-1043.000
 70
    32
  0
VERTEX
  8
M63LALIFT
 62
7
 10
6976.848
 20
-8752.083
 30
-1043.000
 70
    32
  0
VERTEX
  8
M63LALIFT
 62
7
 10
6980.678
 20
-8748.136
 30
-1043.000
 70
    32
  0
VERTEX
  8
M63LALIFT
 62
7
 10
6982.771
 20
-8746.814
 30
-1043.000
 70
    32
  0
VERTEX
  8
M63LALIFT
 62
7
 10
6994.774
 20
-8749.912
 30
-1043.000
 70
    32
  0
VERTEX
  8
M63LALIFT
 62
7
 10
7010.452
 20
-8755.173
 30
-1043.000
 70
    32
  0
VERTEX
  8
M63LALIFT
 62
7
 10
7015.056
 20
-8752.738
 30
-1043.000
 70
    32
  0
VERTEX
  8
M63LALIFT
 62
7
 10
7018.890
 20
-8753.029
 30
-1043.000
 70
    32
  0
VERTEX
  8
M63LALIFT
 62
7
 10
7021.657
 20
-8747.640
 30
-1043.000
 70
    32
  0
VERTEX
  8
M63LALIFT
 62
7
 10
7020.535
 20
-8738.953
 30
-1043.000
 70
    32
  0
VERTEX
  8
M63LALIFT
 62
7
 10
7019.219
 20
-8737.364
 30
-1042.750
 70
    32
  0
VERTEX
  8
M63LALIFT
 62
7
 10
7019.807
 20
-8735.455
 30
-1043.000
 70
    32
  0
VERTEX
  8
M63LALIFT
 62
7
 10
7019.807
 20
-8735.455
 30
-1042.586
 70
    32
  0
VERTEX
  8
M63LALIFT
 62
7
 10
7025.682
 20
-8728.331
 30
-1042.186
 70
    32
  0
VERTEX
  8
M63LALIFT
 62
7
 10
7032.906
 20
-8722.535
 30
-1042.186
 70
    32
  0
VERTEX
  8
M63LALIFT
 62
7
 10
7040.233
 20
-8717.792
 30
-1041.186
 70
    32
  0
VERTEX
  8
M63LALIFT
 62
7
 10
7047.642
 20
-8713.360
 30
-1041.000
 70
    32
  0
VERTEX
  8
M63LALIFT
 62
7
 10
7053.521
 20
-8717.233
 30
-1041.000
 70
    32
  0
VERTEX
  8
M63LALIFT
 62
7
 10
7064.753
 20
-8714.764
 30
-1041.000
 70
    32
  0
VERTEX
  8
M63LALIFT
 62
7
 10
7063.734
 20
-8709.111
 30
-1041.000
 70
    32
  0
VERTEX
  8
M63LALIFT
 62
7
 10
7063.661
 20
-8702.569
 30
-1041.000
 70
    32
  0
VERTEX
  8
M63LALIFT
 62
7
 10
7072.357
 20
-8697.752
 30
-1040.000
 70
    32
  0
VERTEX
  8
M63LALIFT
 62
7
 10
7074.255
 20
-8691.975
 30
-1040.000
 70
    32
  0
VERTEX
  8
M63LALIFT
 62
7
 10
7069.641
 20
-8682.213
 30
-1040.000
 70
    32
  0
VERTEX
  8
M63LALIFT
 62
7
 10
7072.816
 20
-8679.261
 30
-1040.000
 70
    32
  0
VERTEX
  8
M63LALIFT
 62
7
 10
7081.985
 20
-8674.836
 30
-1040.000
 70
    32
  0
VERTEX
  8
M63LALIFT
 62
7
 10
7083.168
 20
-8669.646
 30
-1040.000
 70
    32
  0
VERTEX
  8
M63LALIFT
 62
7
 10
7095.930
 20
-8659.997
 30
-1040.000
 70
    32
  0
VERTEX
  8
M63LALIFT
 62
7
 10
7095.854
 20
-8658.243
 30
-1039.000
 70
    32
  0
VERTEX
  8
M63LALIFT
 62
7
 10
7095.470
 20
-8653.498
 30
-1039.000
 70
    32
  0
VERTEX
  8
M63LALIFT
 62
7
 10
7108.729
 20
-8641.899
 30
-1038.500
 70
    32
  0
VERTEX
  8
M63LALIFT
 62
7
 10
7124.655
 20
-8629.184
 30
-1035.300
 70
    32
  0
VERTEX
  8
M63LALIFT
 62
7
 10
7126.963
 20
-8628.590
 30
-1034.392
 70
    32
  0
VERTEX
  8
M63LALIFT
 62
7
 10
7131.670
 20
-8626.504
 30
-1034.392
 70
    32
  0
VERTEX
  8
M63LALIFT
 62
7
 10
7130.220
 20
-8618.733
 30
-1034.392
 70
    32
  0
VERTEX
  8
M63LALIFT
 62
7
 10
7123.616
 20
-8610.301
 30
-1034.392
 70
    32
  0
VERTEX
  8
M63LALIFT
 62
7
 10
7124.070
 20
-8602.716
 30
-1034.392
 70
    32
  0
VERTEX
  8
M63LALIFT
 62
7
 10
7119.773
 20
-8599.061
 30
-1033.000
 70
    32
  0
VERTEX
  8
M63LALIFT
 62
7
 10
7118.290
 20
-8592.046
 30
-1033.000
 70
    32
  0
VERTEX
  8
M63LALIFT
 62
7
 10
7114.457
 20
-8590.894
 30
-1033.000
 70
    32
  0
VERTEX
  8
M63LALIFT
 62
7
 10
7110.190
 20
-8580.430
 30
-1033.000
 70
    32
  0
VERTEX
  8
M63LALIFT
 62
7
 10
7104.635
 20
-8564.817
 30
-1033.000
 70
    32
  0
VERTEX
  8
M63LALIFT
 62
7
 10
7097.436
 20
-8549.361
 30
-1033.000
 70
    32
  0
VERTEX
  8
M63LALIFT
 62
7
 10
7090.827
 20
-8549.775
 30
-1033.000
 70
    32
  0
VERTEX
  8
M63LALIFT
 62
7
 10
7086.127
 20
-8553.979
 30
-1033.000
 70
    32
  0
VERTEX
  8
M63LALIFT
 62
7
 10
7089.380
 20
-8562.657
 30
-1033.000
 70
    32
  0
VERTEX
  8
M63LALIFT
 62
7
 10
7105.908
 20
-8595.888
 30
-1033.000
 70
    32
  0
VERTEX
  8
M63LALIFT
 62
7
 10
7106.851
 20
-8597.810
 30
-1034.392
 70
    32
  0
VERTEX
  8
M63LALIFT
 62
7
 10
7110.685
 20
-8612.693
 30
-1034.392
 70
    32
  0
VERTEX
  8
M63LALIFT
 62
7
 10
7110.250
 20
-8619.972
 30
-1034.392
 70
    32
  0
VERTEX
  8
M63LALIFT
 62
7
 10
7107.321
 20
-8623.451
 30
-1035.300
 70
    32
  0
VERTEX
  8
M63LALIFT
 62
7
 10
7103.749
 20
-8630.969
 30
-1035.999
 70
    32
  0
VERTEX
  8
M63LALIFT
 62
7
 10
7098.438
 20
-8636.431
 30
-1038.500
 70
    32
  0
VERTEX
  8
M63LALIFT
 62
7
 10
7095.465
 20
-8632.900
 30
-1039.000
 70
    32
  0
VERTEX
  8
M63LALIFT
 62
7
 10
7094.603
 20
-8620.508
 30
-1039.000
 70
    32
  0
VERTEX
  8
M63LALIFT
 62
7
 10
7085.788
 20
-8615.382
 30
-1039.000
 70
    32
  0
VERTEX
  8
M63LALIFT
 62
7
 10
7084.686
 20
-8632.894
 30
-1039.000
 70
    32
  0
VERTEX
  8
M63LALIFT
 62
7
 10
7082.692
 20
-8651.389
 30
-1039.000
 70
    32
  0
VERTEX
  8
M63LALIFT
 62
7
 10
7080.903
 20
-8660.056
 30
-1040.000
 70
    32
  0
VERTEX
  8
M63LALIFT
 62
7
 10
7077.221
 20
-8662.888
 30
-1040.000
 70
    32
  0
VERTEX
  8
M63LALIFT
 62
7
 10
7074.444
 20
-8663.422
 30
-1040.000
 70
    32
  0
VERTEX
  8
M63LALIFT
 62
7
 10
7069.904
 20
-8668.330
 30
-1040.000
 70
    32
  0
VERTEX
  8
M63LALIFT
 62
7
 10
7065.812
 20
-8670.462
 30
-1040.000
 70
    32
  0
VERTEX
  8
M63LALIFT
 62
7
 10
7064.928
 20
-8666.957
 30
-1040.000
 70
    32
  0
VERTEX
  8
M63LALIFT
 62
7
 10
7059.379
 20
-8666.443
 30
-1040.000
 70
    32
  0
VERTEX
  8
M63LALIFT
 62
7
 10
7056.836
 20
-8654.127
 30
-1040.000
 70
    32
  0
VERTEX
  8
M63LALIFT
 62
7
 10
7055.486
 20
-8641.591
 30
-1040.000
 70
    32
  0
VERTEX
  8
M63LALIFT
 62
7
 10
7051.580
 20
-8641.412
 30
-1040.000
 70
    32
  0
VERTEX
  8
M63LALIFT
 62
7
 10
7050.888
 20
-8644.930
 30
-1040.000
 70
    32
  0
VERTEX
  8
M63LALIFT
 62
7
 10
7048.188
 20
-8648.029
 30
-1040.000
 70
    32
  0
VERTEX
  8
M63LALIFT
 62
7
 10
7040.620
 20
-8652.241
 30
-1040.000
 70
    32
  0
VERTEX
  8
M63LALIFT
 62
7
 10
7041.948
 20
-8662.455
 30
-1040.000
 70
    32
  0
VERTEX
  8
M63LALIFT
 62
7
 10
7041.722
 20
-8679.175
 30
-1040.000
 70
    32
  0
VERTEX
  8
M63LALIFT
 62
7
 10
7042.283
 20
-8682.618
 30
-1040.000
 70
    32
  0
VERTEX
  8
M63LALIFT
 62
7
 10
7034.107
 20
-8687.863
 30
-1040.000
 70
    32
  0
VERTEX
  8
M63LALIFT
 62
7
 10
7035.727
 20
-8692.591
 30
-1040.000
 70
    32
  0
VERTEX
  8
M63LALIFT
 62
7
 10
7034.446
 20
-8695.588
 30
-1040.000
 70
    32
  0
VERTEX
  8
M63LALIFT
 62
7
 10
7033.655
 20
-8697.452
 30
-1041.041
 70
    32
  0
VERTEX
  8
M63LALIFT
 62
7
 10
7027.828
 20
-8700.727
 30
-1041.641
 70
    32
  0
VERTEX
  8
M63LALIFT
 62
7
 10
7025.630
 20
-8701.524
 30
-1041.186
 70
    32
  0
VERTEX
  8
M63LALIFT
 62
7
 10
7018.107
 20
-8720.214
 30
-1042.186
 70
    32
  0
VERTEX
  8
M63LALIFT
 62
7
 10
7010.549
 20
-8731.894
 30
-1041.186
 70
    32
  0
VERTEX
  8
M63LALIFT
 62
7
 10
7010.549
 20
-8731.894
 30
-1042.500
 70
    32
  0
VERTEX
  8
M63LALIFT
 62
7
 10
7009.865
 20
-8733.478
 30
-1042.750
 70
    32
  0
VERTEX
  8
M63LALIFT
 62
7
 10
6999.195
 20
-8734.319
 30
-1043.000
 70
    32
  0
VERTEX
  8
M63LALIFT
 62
7
 10
6997.610
 20
-8734.999
 30
-1043.000
 70
    32
  0
VERTEX
  8
M63LALIFT
 62
7
 10
6987.580
 20
-8728.466
 30
-1043.000
 70
    32
  0
VERTEX
  8
M63LALIFT
 62
7
 10
6980.712
 20
-8731.929
 30
-1043.000
 70
    32
  0
VERTEX
  8
M63LALIFT
 62
7
 10
6972.499
 20
-8729.707
 30
-1043.000
 70
    32
  0
VERTEX
  8
M63LALIFT
 62
7
 10
6965.027
 20
-8737.676
 30
-1043.000
 70
    32
  0
VERTEX
  8
M63LALIFT
 62
7
 10
6960.138
 20
-8747.866
 30
-1043.000
 70
    32
  0
VERTEX
  8
M63LALIFT
 62
7
 10
6959.953
 20
-8748.075
 30
-1043.000
 70
    32
  0
VERTEX
  8
M63LALIFT
 62
7
 10
6948.557
 20
-8749.366
 30
-1043.000
 70
    32
  0
VERTEX
  8
M63LALIFT
 62
7
 10
6944.151
 20
-8767.130
 30
-1043.000
 70
    32
  0
VERTEX
  8
M63LALIFT
 62
7
 10
6940.433
 20
-8779.558
 30
-1036.000
 70
    32
  0
VERTEX
  8
M63LALIFT
 62
7
 10
6936.835
 20
-8781.421
 30
-1030.000
 70
    32
  0
VERTEX
  8
M63LALIFT
 62
7
 10
6932.023
 20
-8781.365
 30
-1030.000
 70
    32
  0
VERTEX
  8
M63LALIFT
 62
7
 10
6924.436
 20
-8768.772
 30
-1031.000
 70
    32
  0
VERTEX
  8
M63LALIFT
 62
7
 10
6907.890
 20
-8777.975
 30
-1032.000
 70
    32
  0
VERTEX
  8
M63LALIFT
 62
7
 10
6898.012
 20
-8776.748
 30
-1032.000
 70
    32
  0
VERTEX
  8
M63LALIFT
 62
7
 10
6889.844
 20
-8781.428
 30
-1032.000
 70
    32
  0
VERTEX
  8
M63LALIFT
 62
7
 10
6876.763
 20
-8776.256
 30
-1031.000
 70
    32
  0
VERTEX
  8
M63LALIFT
 62
7
 10
6871.866
 20
-8772.222
 30
-1031.000
 70
    32
  0
VERTEX
  8
M63LALIFT
 62
7
 10
6862.051
 20
-8787.524
 30
-1031.500
 70
    32
  0
VERTEX
  8
M63LALIFT
 62
7
 10
6865.051
 20
-8795.367
 30
-1032.000
 70
    32
  0
VERTEX
  8
M63LALIFT
 62
7
 10
6864.449
 20
-8802.994
 30
-1031.400
 70
    32
  0
VERTEX
  8
M63LALIFT
 62
7
 10
6865.963
 20
-8814.421
 30
-1031.400
 70
    32
  0
VERTEX
  8
M63LALIFT
 62
7
 10
6878.921
 20
-8827.298
 30
-1031.400
 70
    32
  0
VERTEX
  8
M63LALIFT
 62
7
 10
6896.730
 20
-8820.381
 30
-1031.400
 70
    32
  0
VERTEX
  8
M63LALIFT
 62
7
 10
6903.898
 20
-8807.208
 30
-1031.400
 70
    32
  0
VERTEX
  8
M63LALIFT
 62
7
 10
6909.408
 20
-8801.273
 30
-1031.400
 70
    32
  0
VERTEX
  8
M63LALIFT
 62
7
 10
6921.217
 20
-8797.064
 30
-1032.000
 70
    32
  0
VERTEX
  8
M63LALIFT
 62
7
 10
6927.479
 20
-8799.622
 30
-1030.000
 70
    32
  0
VERTEX
  8
M63LALIFT
 62
7
 10
6929.880
 20
-8810.054
 30
-1030.000
 70
    32
  0
SEQEND
  8
M63LALIFT
  0
ENDSEC
  0
EOF
