999
********************************
999
*   DXF File - Entities Only   *
999
*        3D Data Format        *
999
*     Output from ENVISAGE     *
999
*     31-Dec-2007 15:33:15     *
999
********************************
  0
SECTION 
  2
HEADER
  9
$ACADVER
  1
AC1009
  9
$EXTMIN
 10
-290000.000
 20
-250000.000
 30
-4000.000
  9
$EXTMAX
 10
320000.000
 20
160000.000
 30
6000.000
  0
ENDSEC
  0
SECTION
  2
ENTITIES
  0
POLYLINE
  8
M63LXLIFT
 62
5
 66
     1
 70
     9
  0
VERTEX
  8
M63LXLIFT
 62
5
 10
7230.376
 20
-8361.213
 30
-1105.000
 70
    32
  0
VERTEX
  8
M63LXLIFT
 62
5
 10
7214.344
 20
-8352.182
 30
-1105.000
 70
    32
  0
VERTEX
  8
M63LXLIFT
 62
5
 10
7187.282
 20
-8344.578
 30
-1105.000
 70
    32
  0
VERTEX
  8
M63LXLIFT
 62
5
 10
7176.550
 20
-8348.231
 30
-1105.000
 70
    32
  0
VERTEX
  8
M63LXLIFT
 62
5
 10
7164.322
 20
-8371.766
 30
-1105.000
 70
    32
  0
VERTEX
  8
M63LXLIFT
 62
5
 10
7155.408
 20
-8361.173
 30
-1105.000
 70
    32
  0
VERTEX
  8
M63LXLIFT
 62
5
 10
7160.672
 20
-8353.067
 30
-1105.000
 70
    32
  0
VERTEX
  8
M63LXLIFT
 62
5
 10
7164.667
 20
-8343.782
 30
-1105.000
 70
    32
  0
VERTEX
  8
M63LXLIFT
 62
5
 10
7163.752
 20
-8330.522
 30
-1105.000
 70
    32
  0
VERTEX
  8
M63LXLIFT
 62
5
 10
7159.703
 20
-8313.752
 30
-1105.000
 70
    32
  0
VERTEX
  8
M63LXLIFT
 62
5
 10
7148.493
 20
-8284.278
 30
-1105.000
 70
    32
  0
VERTEX
  8
M63LXLIFT
 62
5
 10
7144.498
 20
-8274.728
 30
-1105.000
 70
    32
  0
VERTEX
  8
M63LXLIFT
 62
5
 10
7141.789
 20
-8257.564
 30
-1105.000
 70
    32
  0
VERTEX
  8
M63LXLIFT
 62
5
 10
7150.624
 20
-8251.622
 30
-1105.000
 70
    32
  0
VERTEX
  8
M63LXLIFT
 62
5
 10
7159.258
 20
-8264.246
 30
-1105.000
 70
    32
  0
VERTEX
  8
M63LXLIFT
 62
5
 10
7163.777
 20
-8277.082
 30
-1105.000
 70
    32
  0
VERTEX
  8
M63LXLIFT
 62
5
 10
7166.479
 20
-8287.363
 30
-1105.000
 70
    32
  0
VERTEX
  8
M63LXLIFT
 62
5
 10
7173.463
 20
-8312.199
 30
-1105.000
 70
    32
  0
VERTEX
  8
M63LXLIFT
 62
5
 10
7177.295
 20
-8322.354
 30
-1105.000
 70
    32
  0
VERTEX
  8
M63LXLIFT
 62
5
 10
7183.968
 20
-8330.031
 30
-1105.000
 70
    32
  0
VERTEX
  8
M63LXLIFT
 62
5
 10
7195.799
 20
-8335.625
 30
-1105.000
 70
    32
  0
VERTEX
  8
M63LXLIFT
 62
5
 10
7206.048
 20
-8338.536
 30
-1105.000
 70
    32
  0
VERTEX
  8
M63LXLIFT
 62
5
 10
7212.542
 20
-8334.044
 30
-1105.000
 70
    32
  0
VERTEX
  8
M63LXLIFT
 62
5
 10
7226.048
 20
-8340.779
 30
-1105.000
 70
    32
  0
SEQEND
  8
M63LXLIFT
  0
POLYLINE
  8
M63LXLIFT
 62
1
 66
     1
 70
     9
  0
VERTEX
  8
M63LXLIFT
 62
1
 10
7227.942
 20
-8355.590
 30
-1103.000
 70
    32
  0
VERTEX
  8
M63LXLIFT
 62
1
 10
7196.928
 20
-8346.573
 30
-1103.000
 70
    32
  0
VERTEX
  8
M63LXLIFT
 62
1
 10
7182.829
 20
-8347.445
 30
-1103.000
 70
    32
  0
VERTEX
  8
M63LXLIFT
 62
1
 10
7165.046
 20
-8369.675
 30
-1103.000
 70
    32
  0
VERTEX
  8
M63LXLIFT
 62
1
 10
7156.598
 20
-8357.850
 30
-1103.000
 70
    32
  0
VERTEX
  8
M63LXLIFT
 62
1
 10
7169.446
 20
-8340.227
 30
-1103.000
 70
    32
  0
VERTEX
  8
M63LXLIFT
 62
1
 10
7168.728
 20
-8328.616
 30
-1103.000
 70
    32
  0
VERTEX
  8
M63LXLIFT
 62
1
 10
7172.239
 20
-8323.077
 30
-1103.000
 70
    32
  0
VERTEX
  8
M63LXLIFT
 62
1
 10
7160.184
 20
-8285.900
 30
-1103.000
 70
    32
  0
VERTEX
  8
M63LXLIFT
 62
1
 10
7158.677
 20
-8264.245
 30
-1103.000
 70
    32
  0
VERTEX
  8
M63LXLIFT
 62
1
 10
7171.024
 20
-8259.862
 30
-1103.000
 70
    32
  0
VERTEX
  8
M63LXLIFT
 62
1
 10
7177.579
 20
-8271.308
 30
-1103.000
 70
    32
  0
VERTEX
  8
M63LXLIFT
 62
1
 10
7183.275
 20
-8309.130
 30
-1103.000
 70
    32
  0
VERTEX
  8
M63LXLIFT
 62
1
 10
7195.257
 20
-8329.689
 30
-1103.000
 70
    32
  0
VERTEX
  8
M63LXLIFT
 62
1
 10
7200.868
 20
-8334.664
 30
-1103.000
 70
    32
  0
VERTEX
  8
M63LXLIFT
 62
1
 10
7219.872
 20
-8332.021
 30
-1103.000
 70
    32
  0
SEQEND
  8
M63LXLIFT
  0
POLYLINE
  8
M63LXLIFT
 62
13
 66
     1
 70
     9
  0
VERTEX
  8
M63LXLIFT
 62
13
 10
7226.942
 20
-8356.590
 30
-1114.000
 70
    32
  0
VERTEX
  8
M63LXLIFT
 62
13
 10
7195.928
 20
-8347.573
 30
-1114.000
 70
    32
  0
VERTEX
  8
M63LXLIFT
 62
13
 10
7181.829
 20
-8348.445
 30
-1114.000
 70
    32
  0
VERTEX
  8
M63LXLIFT
 62
13
 10
7164.046
 20
-8370.675
 30
-1114.000
 70
    32
  0
VERTEX
  8
M63LXLIFT
 62
13
 10
7155.598
 20
-8358.850
 30
-1114.000
 70
    32
  0
VERTEX
  8
M63LXLIFT
 62
13
 10
7168.446
 20
-8341.227
 30
-1114.000
 70
    32
  0
VERTEX
  8
M63LXLIFT
 62
13
 10
7167.728
 20
-8329.616
 30
-1114.000
 70
    32
  0
VERTEX
  8
M63LXLIFT
 62
13
 10
7171.239
 20
-8324.077
 30
-1114.000
 70
    32
  0
VERTEX
  8
M63LXLIFT
 62
13
 10
7159.184
 20
-8286.900
 30
-1114.000
 70
    32
  0
VERTEX
  8
M63LXLIFT
 62
13
 10
7157.677
 20
-8265.245
 30
-1114.000
 70
    32
  0
VERTEX
  8
M63LXLIFT
 62
13
 10
7170.024
 20
-8260.862
 30
-1114.000
 70
    32
  0
VERTEX
  8
M63LXLIFT
 62
13
 10
7176.579
 20
-8272.308
 30
-1114.000
 70
    32
  0
VERTEX
  8
M63LXLIFT
 62
13
 10
7182.275
 20
-8310.130
 30
-1114.000
 70
    32
  0
VERTEX
  8
M63LXLIFT
 62
13
 10
7194.257
 20
-8330.689
 30
-1114.000
 70
    32
  0
VERTEX
  8
M63LXLIFT
 62
13
 10
7199.868
 20
-8335.664
 30
-1114.000
 70
    32
  0
VERTEX
  8
M63LXLIFT
 62
13
 10
7218.872
 20
-8333.021
 30
-1114.000
 70
    32
  0
SEQEND
  8
M63LXLIFT
  0
POLYLINE
  8
M63LXLIFT
 62
11
 66
     1
 70
     9
  0
VERTEX
  8
M63LXLIFT
 62
11
 10
7193.031
 20
-8538.884
 30
-1095.000
 70
    32
  0
VERTEX
  8
M63LXLIFT
 62
11
 10
7197.979
 20
-8540.672
 30
-1095.000
 70
    32
  0
VERTEX
  8
M63LXLIFT
 62
11
 10
7199.786
 20
-8540.479
 30
-1095.000
 70
    32
  0
VERTEX
  8
M63LXLIFT
 62
11
 10
7203.843
 20
-8537.402
 30
-1095.000
 70
    32
  0
VERTEX
  8
M63LXLIFT
 62
11
 10
7207.402
 20
-8528.896
 30
-1095.000
 70
    32
  0
VERTEX
  8
M63LXLIFT
 62
11
 10
7216.422
 20
-8532.923
 30
-1095.000
 70
    32
  0
VERTEX
  8
M63LXLIFT
 62
11
 10
7218.275
 20
-8536.581
 30
-1095.000
 70
    32
  0
VERTEX
  8
M63LXLIFT
 62
11
 10
7218.346
 20
-8544.306
 30
-1095.000
 70
    32
  0
VERTEX
  8
M63LXLIFT
 62
11
 10
7215.999
 20
-8546.059
 30
-1095.000
 70
    32
  0
VERTEX
  8
M63LXLIFT
 62
11
 10
7214.091
 20
-8550.329
 30
-1095.000
 70
    32
  0
VERTEX
  8
M63LXLIFT
 62
11
 10
7213.690
 20
-8559.617
 30
-1095.000
 70
    32
  0
VERTEX
  8
M63LXLIFT
 62
11
 10
7212.156
 20
-8560.012
 30
-1095.000
 70
    32
  0
VERTEX
  8
M63LXLIFT
 62
11
 10
7210.185
 20
-8563.472
 30
-1095.000
 70
    32
  0
VERTEX
  8
M63LXLIFT
 62
11
 10
7203.834
 20
-8564.461
 30
-1095.000
 70
    32
  0
VERTEX
  8
M63LXLIFT
 62
11
 10
7197.333
 20
-8556.801
 30
-1095.000
 70
    32
  0
VERTEX
  8
M63LXLIFT
 62
11
 10
7196.570
 20
-8557.118
 30
-1095.000
 70
    32
  0
SEQEND
  8
M63LXLIFT
  0
POLYLINE
  8
M63LXLIFT
 62
1
 66
     1
 70
     9
  0
VERTEX
  8
M63LXLIFT
 62
1
 10
7143.754
 20
-8564.847
 30
-1074.000
 70
    32
  0
VERTEX
  8
M63LXLIFT
 62
1
 10
7147.980
 20
-8554.463
 30
-1074.000
 70
    32
  0
VERTEX
  8
M63LXLIFT
 62
1
 10
7146.065
 20
-8541.609
 30
-1074.000
 70
    32
  0
VERTEX
  8
M63LXLIFT
 62
1
 10
7142.378
 20
-8524.082
 30
-1074.000
 70
    32
  0
VERTEX
  8
M63LXLIFT
 62
1
 10
7160.501
 20
-8508.362
 30
-1074.000
 70
    32
  0
VERTEX
  8
M63LXLIFT
 62
1
 10
7165.041
 20
-8511.309
 30
-1074.000
 70
    32
  0
VERTEX
  8
M63LXLIFT
 62
1
 10
7164.515
 20
-8520.067
 30
-1074.000
 70
    32
  0
VERTEX
  8
M63LXLIFT
 62
1
 10
7162.981
 20
-8550.396
 30
-1074.000
 70
    32
  0
VERTEX
  8
M63LXLIFT
 62
1
 10
7161.757
 20
-8561.687
 30
-1074.000
 70
    32
  0
VERTEX
  8
M63LXLIFT
 62
1
 10
7163.687
 20
-8566.894
 30
-1074.000
 70
    32
  0
VERTEX
  8
M63LXLIFT
 62
1
 10
7153.462
 20
-8571.483
 30
-1074.000
 70
    32
  0
SEQEND
  8
M63LXLIFT
  0
POLYLINE
  8
M63LXLIFT
 62
6
 66
     1
 70
     9
  0
VERTEX
  8
M63LXLIFT
 62
6
 10
7142.754
 20
-8565.847
 30
-1084.000
 70
    32
  0
VERTEX
  8
M63LXLIFT
 62
6
 10
7146.980
 20
-8555.463
 30
-1084.000
 70
    32
  0
VERTEX
  8
M63LXLIFT
 62
6
 10
7145.065
 20
-8542.609
 30
-1084.000
 70
    32
  0
VERTEX
  8
M63LXLIFT
 62
6
 10
7141.378
 20
-8525.082
 30
-1084.000
 70
    32
  0
VERTEX
  8
M63LXLIFT
 62
6
 10
7159.501
 20
-8509.362
 30
-1084.000
 70
    32
  0
VERTEX
  8
M63LXLIFT
 62
6
 10
7164.041
 20
-8512.309
 30
-1084.000
 70
    32
  0
VERTEX
  8
M63LXLIFT
 62
6
 10
7163.515
 20
-8521.067
 30
-1084.000
 70
    32
  0
VERTEX
  8
M63LXLIFT
 62
6
 10
7161.981
 20
-8551.396
 30
-1084.000
 70
    32
  0
VERTEX
  8
M63LXLIFT
 62
6
 10
7160.757
 20
-8562.687
 30
-1084.000
 70
    32
  0
VERTEX
  8
M63LXLIFT
 62
6
 10
7162.687
 20
-8567.894
 30
-1084.000
 70
    32
  0
VERTEX
  8
M63LXLIFT
 62
6
 10
7152.462
 20
-8572.483
 30
-1084.000
 70
    32
  0
SEQEND
  8
M63LXLIFT
  0
POLYLINE
  8
M63LXLIFT
 62
1
 66
     1
 70
     9
  0
VERTEX
  8
M63LXLIFT
 62
1
 10
7097.232
 20
-8684.208
 30
-1088.000
 70
    32
  0
VERTEX
  8
M63LXLIFT
 62
1
 10
7100.156
 20
-8690.331
 30
-1088.000
 70
    32
  0
VERTEX
  8
M63LXLIFT
 62
1
 10
7097.243
 20
-8707.256
 30
-1088.000
 70
    32
  0
VERTEX
  8
M63LXLIFT
 62
1
 10
7089.877
 20
-8711.166
 30
-1088.000
 70
    32
  0
VERTEX
  8
M63LXLIFT
 62
1
 10
7089.083
 20
-8714.312
 30
-1088.000
 70
    32
  0
VERTEX
  8
M63LXLIFT
 62
1
 10
7084.264
 20
-8720.302
 30
-1088.000
 70
    32
  0
VERTEX
  8
M63LXLIFT
 62
1
 10
7071.197
 20
-8722.851
 30
-1088.000
 70
    32
  0
VERTEX
  8
M63LXLIFT
 62
1
 10
7062.768
 20
-8720.832
 30
-1088.000
 70
    32
  0
VERTEX
  8
M63LXLIFT
 62
1
 10
7057.375
 20
-8715.484
 30
-1088.000
 70
    32
  0
VERTEX
  8
M63LXLIFT
 62
1
 10
7051.940
 20
-8714.044
 30
-1088.000
 70
    32
  0
VERTEX
  8
M63LXLIFT
 62
1
 10
7045.531
 20
-8707.258
 30
-1088.000
 70
    32
  0
VERTEX
  8
M63LXLIFT
 62
1
 10
7033.070
 20
-8711.427
 30
-1088.000
 70
    32
  0
VERTEX
  8
M63LXLIFT
 62
1
 10
7030.925
 20
-8708.848
 30
-1088.000
 70
    32
  0
VERTEX
  8
M63LXLIFT
 62
1
 10
7023.804
 20
-8710.969
 30
-1088.000
 70
    32
  0
VERTEX
  8
M63LXLIFT
 62
1
 10
7023.092
 20
-8706.300
 30
-1088.000
 70
    32
  0
VERTEX
  8
M63LXLIFT
 62
1
 10
7028.784
 20
-8703.681
 30
-1088.000
 70
    32
  0
VERTEX
  8
M63LXLIFT
 62
1
 10
7029.828
 20
-8701.651
 30
-1088.000
 70
    32
  0
VERTEX
  8
M63LXLIFT
 62
1
 10
7056.206
 20
-8694.763
 30
-1088.000
 70
    32
  0
VERTEX
  8
M63LXLIFT
 62
1
 10
7065.158
 20
-8694.473
 30
-1088.000
 70
    32
  0
VERTEX
  8
M63LXLIFT
 62
1
 10
7072.884
 20
-8690.309
 30
-1088.000
 70
    32
  0
VERTEX
  8
M63LXLIFT
 62
1
 10
7080.033
 20
-8682.890
 30
-1088.000
 70
    32
  0
VERTEX
  8
M63LXLIFT
 62
1
 10
7087.120
 20
-8681.331
 30
-1088.000
 70
    32
  0
SEQEND
  8
M63LXLIFT
  0
POLYLINE
  8
M63LXLIFT
 62
2
 66
     1
 70
     9
  0
VERTEX
  8
M63LXLIFT
 62
2
 10
7096.232
 20
-8685.208
 30
-1101.000
 70
    32
  0
VERTEX
  8
M63LXLIFT
 62
2
 10
7099.156
 20
-8691.331
 30
-1101.000
 70
    32
  0
VERTEX
  8
M63LXLIFT
 62
2
 10
7096.243
 20
-8708.256
 30
-1101.000
 70
    32
  0
VERTEX
  8
M63LXLIFT
 62
2
 10
7088.877
 20
-8712.166
 30
-1101.000
 70
    32
  0
VERTEX
  8
M63LXLIFT
 62
2
 10
7088.083
 20
-8715.312
 30
-1101.000
 70
    32
  0
VERTEX
  8
M63LXLIFT
 62
2
 10
7083.264
 20
-8721.302
 30
-1101.000
 70
    32
  0
VERTEX
  8
M63LXLIFT
 62
2
 10
7070.197
 20
-8723.851
 30
-1101.000
 70
    32
  0
VERTEX
  8
M63LXLIFT
 62
2
 10
7061.768
 20
-8721.832
 30
-1101.000
 70
    32
  0
VERTEX
  8
M63LXLIFT
 62
2
 10
7056.375
 20
-8716.484
 30
-1101.000
 70
    32
  0
VERTEX
  8
M63LXLIFT
 62
2
 10
7050.940
 20
-8715.044
 30
-1101.000
 70
    32
  0
VERTEX
  8
M63LXLIFT
 62
2
 10
7044.531
 20
-8708.258
 30
-1101.000
 70
    32
  0
VERTEX
  8
M63LXLIFT
 62
2
 10
7032.070
 20
-8712.427
 30
-1101.000
 70
    32
  0
VERTEX
  8
M63LXLIFT
 62
2
 10
7029.925
 20
-8709.848
 30
-1101.000
 70
    32
  0
VERTEX
  8
M63LXLIFT
 62
2
 10
7022.804
 20
-8711.969
 30
-1101.000
 70
    32
  0
VERTEX
  8
M63LXLIFT
 62
2
 10
7022.092
 20
-8707.300
 30
-1101.000
 70
    32
  0
VERTEX
  8
M63LXLIFT
 62
2
 10
7027.784
 20
-8704.681
 30
-1101.000
 70
    32
  0
VERTEX
  8
M63LXLIFT
 62
2
 10
7028.828
 20
-8702.651
 30
-1101.000
 70
    32
  0
VERTEX
  8
M63LXLIFT
 62
2
 10
7055.206
 20
-8695.763
 30
-1101.000
 70
    32
  0
VERTEX
  8
M63LXLIFT
 62
2
 10
7064.158
 20
-8695.473
 30
-1101.000
 70
    32
  0
VERTEX
  8
M63LXLIFT
 62
2
 10
7071.884
 20
-8691.309
 30
-1101.000
 70
    32
  0
VERTEX
  8
M63LXLIFT
 62
2
 10
7079.033
 20
-8683.890
 30
-1101.000
 70
    32
  0
VERTEX
  8
M63LXLIFT
 62
2
 10
7086.120
 20
-8682.331
 30
-1101.000
 70
    32
  0
SEQEND
  8
M63LXLIFT
  0
LINE
  8
M63LXLIFT
 62
13
 10
7182.449
 20
-8331.541
 30
-1114.050
 11
7180.123
 21
-8329.117
 31
-1136.050
  0
POLYLINE
  8
M63LXLIFT
 62
1
 66
     1
 70
     9
  0
VERTEX
  8
M63LXLIFT
 62
1
 10
7194.031
 20
-8537.884
 30
-1085.000
 70
    32
  0
VERTEX
  8
M63LXLIFT
 62
1
 10
7198.979
 20
-8539.672
 30
-1085.000
 70
    32
  0
VERTEX
  8
M63LXLIFT
 62
1
 10
7200.786
 20
-8539.479
 30
-1085.000
 70
    32
  0
VERTEX
  8
M63LXLIFT
 62
1
 10
7204.843
 20
-8536.402
 30
-1085.000
 70
    32
  0
VERTEX
  8
M63LXLIFT
 62
1
 10
7208.402
 20
-8527.896
 30
-1085.000
 70
    32
  0
VERTEX
  8
M63LXLIFT
 62
1
 10
7217.422
 20
-8531.923
 30
-1085.000
 70
    32
  0
VERTEX
  8
M63LXLIFT
 62
1
 10
7219.275
 20
-8535.581
 30
-1085.000
 70
    32
  0
VERTEX
  8
M63LXLIFT
 62
1
 10
7219.346
 20
-8543.306
 30
-1085.000
 70
    32
  0
VERTEX
  8
M63LXLIFT
 62
1
 10
7216.999
 20
-8545.059
 30
-1085.000
 70
    32
  0
VERTEX
  8
M63LXLIFT
 62
1
 10
7215.091
 20
-8549.329
 30
-1085.000
 70
    32
  0
VERTEX
  8
M63LXLIFT
 62
1
 10
7214.690
 20
-8558.617
 30
-1085.000
 70
    32
  0
VERTEX
  8
M63LXLIFT
 62
1
 10
7213.156
 20
-8559.012
 30
-1085.000
 70
    32
  0
VERTEX
  8
M63LXLIFT
 62
1
 10
7211.185
 20
-8562.472
 30
-1085.000
 70
    32
  0
VERTEX
  8
M63LXLIFT
 62
1
 10
7204.834
 20
-8563.461
 30
-1085.000
 70
    32
  0
VERTEX
  8
M63LXLIFT
 62
1
 10
7198.333
 20
-8555.801
 30
-1085.000
 70
    32
  0
VERTEX
  8
M63LXLIFT
 62
1
 10
7197.570
 20
-8556.118
 30
-1085.000
 70
    32
  0
SEQEND
  8
M63LXLIFT
  0
POLYLINE
  8
M63LXLIFT
 62
6
 66
     1
 70
     9
  0
VERTEX
  8
M63LXLIFT
 62
6
 10
7084.931
 20
-8682.999
 30
-1083.960
 70
    32
  0
VERTEX
  8
M63LXLIFT
 62
6
 10
7080.798
 20
-8684.127
 30
-1083.960
 70
    32
  0
VERTEX
  8
M63LXLIFT
 62
6
 10
7077.725
 20
-8684.965
 30
-1083.960
 70
    32
  0
VERTEX
  8
M63LXLIFT
 62
6
 10
7073.252
 20
-8690.044
 30
-1083.960
 70
    32
  0
VERTEX
  8
M63LXLIFT
 62
6
 10
7067.601
 20
-8693.541
 30
-1083.960
 70
    32
  0
VERTEX
  8
M63LXLIFT
 62
6
 10
7062.101
 20
-8696.945
 30
-1083.960
 70
    32
  0
VERTEX
  8
M63LXLIFT
 62
6
 10
7061.457
 20
-8697.344
 30
-1083.960
 70
    32
  0
VERTEX
  8
M63LXLIFT
 62
6
 10
7057.209
 20
-8694.974
 30
-1083.960
 70
    32
  0
VERTEX
  8
M63LXLIFT
 62
6
 10
7044.097
 20
-8687.657
 30
-1083.960
 70
    32
  0
VERTEX
  8
M63LXLIFT
 62
6
 10
7041.697
 20
-8686.318
 30
-1083.960
 70
    32
  0
VERTEX
  8
M63LXLIFT
 62
6
 10
7038.250
 20
-8684.930
 30
-1083.960
 70
    32
  0
VERTEX
  8
M63LXLIFT
 62
6
 10
7034.370
 20
-8687.701
 30
-1083.960
 70
    32
  0
VERTEX
  8
M63LXLIFT
 62
6
 10
7033.723
 20
-8688.163
 30
-1083.960
 70
    32
  0
VERTEX
  8
M63LXLIFT
 62
6
 10
7027.240
 20
-8692.794
 30
-1083.960
 70
    32
  0
VERTEX
  8
M63LXLIFT
 62
6
 10
7023.993
 20
-8695.113
 30
-1083.960
 70
    32
  0
VERTEX
  8
M63LXLIFT
 62
6
 10
7019.682
 20
-8702.588
 30
-1083.960
 70
    32
  0
VERTEX
  8
M63LXLIFT
 62
6
 10
7019.123
 20
-8705.189
 30
-1083.960
 70
    32
  0
VERTEX
  8
M63LXLIFT
 62
6
 10
7018.380
 20
-8708.647
 30
-1083.960
 70
    32
  0
VERTEX
  8
M63LXLIFT
 62
6
 10
7028.136
 20
-8710.138
 30
-1083.960
 70
    32
  0
VERTEX
  8
M63LXLIFT
 62
6
 10
7035.068
 20
-8714.536
 30
-1083.960
 70
    32
  0
VERTEX
  8
M63LXLIFT
 62
6
 10
7035.280
 20
-8714.671
 30
-1083.960
 70
    32
  0
VERTEX
  8
M63LXLIFT
 62
6
 10
7046.169
 20
-8715.365
 30
-1083.960
 70
    32
  0
VERTEX
  8
M63LXLIFT
 62
6
 10
7050.478
 20
-8719.918
 30
-1083.960
 70
    32
  0
VERTEX
  8
M63LXLIFT
 62
6
 10
7037.432
 20
-8729.168
 30
-1083.960
 70
    32
  0
VERTEX
  8
M63LXLIFT
 62
6
 10
7037.199
 20
-8729.333
 30
-1083.960
 70
    32
  0
VERTEX
  8
M63LXLIFT
 62
6
 10
7037.595
 20
-8730.182
 30
-1083.960
 70
    32
  0
VERTEX
  8
M63LXLIFT
 62
6
 10
7040.645
 20
-8736.717
 30
-1083.960
 70
    32
  0
VERTEX
  8
M63LXLIFT
 62
6
 10
7040.722
 20
-8736.883
 30
-1083.960
 70
    32
  0
VERTEX
  8
M63LXLIFT
 62
6
 10
7057.254
 20
-8735.737
 30
-1083.960
 70
    32
  0
VERTEX
  8
M63LXLIFT
 62
6
 10
7059.079
 20
-8732.653
 30
-1083.960
 70
    32
  0
VERTEX
  8
M63LXLIFT
 62
6
 10
7063.663
 20
-8724.906
 30
-1083.960
 70
    32
  0
VERTEX
  8
M63LXLIFT
 62
6
 10
7074.092
 20
-8723.783
 30
-1083.960
 70
    32
  0
VERTEX
  8
M63LXLIFT
 62
6
 10
7079.558
 20
-8723.194
 30
-1083.960
 70
    32
  0
VERTEX
  8
M63LXLIFT
 62
6
 10
7080.350
 20
-8723.109
 30
-1083.960
 70
    32
  0
VERTEX
  8
M63LXLIFT
 62
6
 10
7081.804
 20
-8722.952
 30
-1083.960
 70
    32
  0
VERTEX
  8
M63LXLIFT
 62
6
 10
7082.300
 20
-8722.018
 30
-1083.960
 70
    32
  0
VERTEX
  8
M63LXLIFT
 62
6
 10
7084.327
 20
-8721.767
 30
-1083.960
 70
    32
  0
VERTEX
  8
M63LXLIFT
 62
6
 10
7094.491
 20
-8718.700
 30
-1083.960
 70
    32
  0
VERTEX
  8
M63LXLIFT
 62
6
 10
7099.856
 20
-8719.041
 30
-1083.960
 70
    32
  0
VERTEX
  8
M63LXLIFT
 62
6
 10
7100.397
 20
-8719.076
 30
-1083.960
 70
    32
  0
VERTEX
  8
M63LXLIFT
 62
6
 10
7103.194
 20
-8710.337
 30
-1083.960
 70
    32
  0
VERTEX
  8
M63LXLIFT
 62
6
 10
7103.376
 20
-8709.770
 30
-1083.960
 70
    32
  0
VERTEX
  8
M63LXLIFT
 62
6
 10
7103.582
 20
-8709.128
 30
-1083.960
 70
    32
  0
VERTEX
  8
M63LXLIFT
 62
6
 10
7098.234
 20
-8705.058
 30
-1083.960
 70
    32
  0
VERTEX
  8
M63LXLIFT
 62
6
 10
7096.519
 20
-8703.753
 30
-1083.960
 70
    32
  0
VERTEX
  8
M63LXLIFT
 62
6
 10
7098.675
 20
-8692.832
 30
-1083.960
 70
    32
  0
VERTEX
  8
M63LXLIFT
 62
6
 10
7098.245
 20
-8691.940
 30
-1083.960
 70
    32
  0
VERTEX
  8
M63LXLIFT
 62
6
 10
7095.306
 20
-8685.829
 30
-1083.960
 70
    32
  0
SEQEND
  8
M63LXLIFT
  0
POLYLINE
  8
M63LXLIFT
 62
2
 66
     1
 70
     9
  0
VERTEX
  8
M63LXLIFT
 62
2
 10
7174.830
 20
-8553.957
 30
-1093.681
 70
    32
  0
VERTEX
  8
M63LXLIFT
 62
2
 10
7169.859
 20
-8559.281
 30
-1093.401
 70
    32
  0
VERTEX
  8
M63LXLIFT
 62
2
 10
7152.176
 20
-8564.212
 30
-1093.363
 70
    32
  0
VERTEX
  8
M63LXLIFT
 62
2
 10
7149.089
 20
-8562.314
 30
-1093.545
 70
    32
  0
VERTEX
  8
M63LXLIFT
 62
2
 10
7145.429
 20
-8557.725
 30
-1093.920
 70
    32
  0
VERTEX
  8
M63LXLIFT
 62
2
 10
7143.334
 20
-8550.174
 30
-1094.472
 70
    32
  0
VERTEX
  8
M63LXLIFT
 62
2
 10
7137.419
 20
-8544.872
 30
-1094.934
 70
    32
  0
VERTEX
  8
M63LXLIFT
 62
2
 10
7142.481
 20
-8533.689
 30
-1095.613
 70
    32
  0
VERTEX
  8
M63LXLIFT
 62
2
 10
7160.545
 20
-8528.122
 30
-1095.688
 70
    32
  0
VERTEX
  8
M63LXLIFT
 62
2
 10
7165.792
 20
-8534.701
 30
-1095.150
 70
    32
  0
VERTEX
  8
M63LXLIFT
 62
2
 10
7176.577
 20
-8540.886
 30
-1094.577
 70
    32
  0
SEQEND
  8
M63LXLIFT
  0
POLYLINE
  8
M63LXLIFT
 62
4
 66
     1
 70
     9
  0
VERTEX
  8
M63LXLIFT
 62
4
 10
7221.546
 20
-8496.330
 30
-1093.861
 70
    32
  0
VERTEX
  8
M63LXLIFT
 62
4
 10
7220.848
 20
-8489.081
 30
-1093.718
 70
    32
  0
VERTEX
  8
M63LXLIFT
 62
4
 10
7220.812
 20
-8488.711
 30
-1093.803
 70
    32
  0
VERTEX
  8
M63LXLIFT
 62
4
 10
7220.798
 20
-8488.623
 30
-1093.823
 70
    32
  0
VERTEX
  8
M63LXLIFT
 62
4
 10
7219.771
 20
-8482.346
 30
-1093.823
 70
    32
  0
VERTEX
  8
M63LXLIFT
 62
4
 10
7218.710
 20
-8475.855
 30
-1093.823
 70
    32
  0
VERTEX
  8
M63LXLIFT
 62
4
 10
7215.686
 20
-8465.758
 30
-1093.823
 70
    32
  0
VERTEX
  8
M63LXLIFT
 62
4
 10
7224.171
 20
-8463.140
 30
-1093.823
 70
    32
  0
VERTEX
  8
M63LXLIFT
 62
4
 10
7226.483
 20
-8468.151
 30
-1093.823
 70
    32
  0
VERTEX
  8
M63LXLIFT
 62
4
 10
7226.888
 20
-8469.030
 30
-1093.823
 70
    32
  0
VERTEX
  8
M63LXLIFT
 62
4
 10
7232.273
 20
-8471.979
 30
-1093.823
 70
    32
  0
VERTEX
  8
M63LXLIFT
 62
4
 10
7232.983
 20
-8481.102
 30
-1093.823
 70
    32
  0
VERTEX
  8
M63LXLIFT
 62
4
 10
7235.726
 20
-8484.983
 30
-1093.823
 70
    32
  0
VERTEX
  8
M63LXLIFT
 62
4
 10
7236.448
 20
-8486.005
 30
-1093.557
 70
    32
  0
VERTEX
  8
M63LXLIFT
 62
4
 10
7237.042
 20
-8486.804
 30
-1093.347
 70
    32
  0
VERTEX
  8
M63LXLIFT
 62
4
 10
7238.685
 20
-8489.015
 30
-1093.362
 70
    32
  0
VERTEX
  8
M63LXLIFT
 62
4
 10
7244.583
 20
-8494.176
 30
-1093.356
 70
    32
  0
VERTEX
  8
M63LXLIFT
 62
4
 10
7245.525
 20
-8495.000
 30
-1093.070
 70
    32
  0
VERTEX
  8
M63LXLIFT
 62
4
 10
7253.706
 20
-8502.160
 30
-1093.006
 70
    32
  0
VERTEX
  8
M63LXLIFT
 62
4
 10
7257.758
 20
-8502.431
 30
-1092.988
 70
    32
  0
VERTEX
  8
M63LXLIFT
 62
4
 10
7261.707
 20
-8495.885
 30
-1092.998
 70
    32
  0
VERTEX
  8
M63LXLIFT
 62
4
 10
7269.101
 20
-8496.655
 30
-1092.963
 70
    32
  0
VERTEX
  8
M63LXLIFT
 62
4
 10
7269.163
 20
-8496.661
 30
-1092.963
 70
    32
  0
VERTEX
  8
M63LXLIFT
 62
4
 10
7269.296
 20
-8501.196
 30
-1092.959
 70
    32
  0
VERTEX
  8
M63LXLIFT
 62
4
 10
7270.000
 20
-8501.448
 30
-1092.957
 70
    32
  0
VERTEX
  8
M63LXLIFT
 62
4
 10
7277.645
 20
-8504.182
 30
-1092.960
 70
    32
  0
VERTEX
  8
M63LXLIFT
 62
4
 10
7279.626
 20
-8504.777
 30
-1092.961
 70
    32
  0
VERTEX
  8
M63LXLIFT
 62
4
 10
7295.722
 20
-8509.615
 30
-1092.961
 70
    32
  0
VERTEX
  8
M63LXLIFT
 62
4
 10
7295.662
 20
-8518.169
 30
-1092.961
 70
    32
  0
VERTEX
  8
M63LXLIFT
 62
4
 10
7293.762
 20
-8521.604
 30
-1092.961
 70
    32
  0
VERTEX
  8
M63LXLIFT
 62
4
 10
7292.548
 20
-8523.799
 30
-1092.959
 70
    32
  0
VERTEX
  8
M63LXLIFT
 62
4
 10
7278.227
 20
-8521.398
 30
-1092.952
 70
    32
  0
VERTEX
  8
M63LXLIFT
 62
4
 10
7274.066
 20
-8530.758
 30
-1092.945
 70
    32
  0
VERTEX
  8
M63LXLIFT
 62
4
 10
7269.308
 20
-8538.115
 30
-1092.939
 70
    32
  0
VERTEX
  8
M63LXLIFT
 62
4
 10
7266.187
 20
-8539.928
 30
-1092.936
 70
    32
  0
VERTEX
  8
M63LXLIFT
 62
4
 10
7263.641
 20
-8540.491
 30
-1092.934
 70
    32
  0
VERTEX
  8
M63LXLIFT
 62
4
 10
7262.505
 20
-8538.721
 30
-1092.935
 70
    32
  0
VERTEX
  8
M63LXLIFT
 62
4
 10
7254.796
 20
-8526.709
 30
-1092.960
 70
    32
  0
VERTEX
  8
M63LXLIFT
 62
4
 10
7245.397
 20
-8521.715
 30
-1092.981
 70
    32
  0
VERTEX
  8
M63LXLIFT
 62
4
 10
7243.333
 20
-8517.157
 30
-1092.989
 70
    32
  0
VERTEX
  8
M63LXLIFT
 62
4
 10
7241.281
 20
-8512.626
 30
-1093.016
 70
    32
  0
VERTEX
  8
M63LXLIFT
 62
4
 10
7239.349
 20
-8508.360
 30
-1093.766
 70
    32
  0
VERTEX
  8
M63LXLIFT
 62
4
 10
7238.913
 20
-8507.398
 30
-1093.754
 70
    32
  0
VERTEX
  8
M63LXLIFT
 62
4
 10
7233.339
 20
-8501.087
 30
-1093.729
 70
    32
  0
SEQEND
  8
M63LXLIFT
  0
POLYLINE
  8
M63LXLIFT
 62
6
 66
     1
 70
     9
  0
VERTEX
  8
M63LXLIFT
 62
6
 10
6936.637
 20
-8858.610
 30
-1076.000
 70
    32
  0
VERTEX
  8
M63LXLIFT
 62
6
 10
6932.208
 20
-8845.739
 30
-1076.000
 70
    32
  0
VERTEX
  8
M63LXLIFT
 62
6
 10
6933.980
 20
-8828.174
 30
-1076.000
 70
    32
  0
VERTEX
  8
M63LXLIFT
 62
6
 10
6928.892
 20
-8823.617
 30
-1076.000
 70
    32
  0
VERTEX
  8
M63LXLIFT
 62
6
 10
6920.685
 20
-8826.737
 30
-1076.000
 70
    32
  0
VERTEX
  8
M63LXLIFT
 62
6
 10
6911.427
 20
-8832.716
 30
-1076.000
 70
    32
  0
VERTEX
  8
M63LXLIFT
 62
6
 10
6902.253
 20
-8838.146
 30
-1076.000
 70
    32
  0
VERTEX
  8
M63LXLIFT
 62
6
 10
6890.495
 20
-8843.324
 30
-1076.000
 70
    32
  0
VERTEX
  8
M63LXLIFT
 62
6
 10
6887.810
 20
-8839.334
 30
-1076.000
 70
    32
  0
VERTEX
  8
M63LXLIFT
 62
6
 10
6884.725
 20
-8834.242
 30
-1076.000
 70
    32
  0
VERTEX
  8
M63LXLIFT
 62
6
 10
6888.210
 20
-8831.074
 30
-1076.000
 70
    32
  0
VERTEX
  8
M63LXLIFT
 62
6
 10
6890.916
 20
-8822.536
 30
-1076.000
 70
    32
  0
VERTEX
  8
M63LXLIFT
 62
6
 10
6896.545
 20
-8819.850
 30
-1076.000
 70
    32
  0
VERTEX
  8
M63LXLIFT
 62
6
 10
6903.914
 20
-8818.536
 30
-1076.000
 70
    32
  0
VERTEX
  8
M63LXLIFT
 62
6
 10
6911.859
 20
-8815.332
 30
-1076.000
 70
    32
  0
VERTEX
  8
M63LXLIFT
 62
6
 10
6918.275
 20
-8811.550
 30
-1076.000
 70
    32
  0
VERTEX
  8
M63LXLIFT
 62
6
 10
6921.353
 20
-8809.105
 30
-1076.000
 70
    32
  0
VERTEX
  8
M63LXLIFT
 62
6
 10
6925.032
 20
-8804.213
 30
-1076.000
 70
    32
  0
VERTEX
  8
M63LXLIFT
 62
6
 10
6932.163
 20
-8801.489
 30
-1076.000
 70
    32
  0
VERTEX
  8
M63LXLIFT
 62
6
 10
6940.545
 20
-8792.701
 30
-1076.000
 70
    32
  0
VERTEX
  8
M63LXLIFT
 62
6
 10
6941.646
 20
-8789.345
 30
-1076.000
 70
    32
  0
VERTEX
  8
M63LXLIFT
 62
6
 10
6936.477
 20
-8770.601
 30
-1076.000
 70
    32
  0
VERTEX
  8
M63LXLIFT
 62
6
 10
6942.888
 20
-8768.011
 30
-1076.000
 70
    32
  0
VERTEX
  8
M63LXLIFT
 62
6
 10
6947.160
 20
-8774.185
 30
-1076.000
 70
    32
  0
VERTEX
  8
M63LXLIFT
 62
6
 10
6952.894
 20
-8776.822
 30
-1076.000
 70
    32
  0
VERTEX
  8
M63LXLIFT
 62
6
 10
6955.006
 20
-8793.738
 30
-1076.000
 70
    32
  0
VERTEX
  8
M63LXLIFT
 62
6
 10
6958.521
 20
-8795.057
 30
-1076.000
 70
    32
  0
VERTEX
  8
M63LXLIFT
 62
6
 10
6966.771
 20
-8789.259
 30
-1076.000
 70
    32
  0
VERTEX
  8
M63LXLIFT
 62
6
 10
6974.658
 20
-8784.204
 30
-1076.000
 70
    32
  0
VERTEX
  8
M63LXLIFT
 62
6
 10
6975.816
 20
-8780.781
 30
-1076.000
 70
    32
  0
VERTEX
  8
M63LXLIFT
 62
6
 10
6976.366
 20
-8777.231
 30
-1076.000
 70
    32
  0
VERTEX
  8
M63LXLIFT
 62
6
 10
6954.257
 20
-8772.304
 30
-1076.000
 70
    32
  0
VERTEX
  8
M63LXLIFT
 62
6
 10
6953.599
 20
-8767.062
 30
-1076.000
 70
    32
  0
VERTEX
  8
M63LXLIFT
 62
6
 10
6957.245
 20
-8762.920
 30
-1076.000
 70
    32
  0
VERTEX
  8
M63LXLIFT
 62
6
 10
6964.108
 20
-8761.665
 30
-1076.000
 70
    32
  0
VERTEX
  8
M63LXLIFT
 62
6
 10
6972.166
 20
-8754.569
 30
-1076.000
 70
    32
  0
VERTEX
  8
M63LXLIFT
 62
6
 10
6977.567
 20
-8756.851
 30
-1076.000
 70
    32
  0
VERTEX
  8
M63LXLIFT
 62
6
 10
6979.070
 20
-8756.557
 30
-1076.000
 70
    32
  0
VERTEX
  8
M63LXLIFT
 62
6
 10
6979.965
 20
-8739.500
 30
-1076.000
 70
    32
  0
VERTEX
  8
M63LXLIFT
 62
6
 10
6984.427
 20
-8737.816
 30
-1076.000
 70
    32
  0
VERTEX
  8
M63LXLIFT
 62
6
 10
6991.618
 20
-8738.741
 30
-1076.000
 70
    32
  0
VERTEX
  8
M63LXLIFT
 62
6
 10
7000.960
 20
-8729.299
 30
-1076.000
 70
    32
  0
VERTEX
  8
M63LXLIFT
 62
6
 10
7007.828
 20
-8734.924
 30
-1076.000
 70
    32
  0
VERTEX
  8
M63LXLIFT
 62
6
 10
7011.133
 20
-8745.251
 30
-1076.000
 70
    32
  0
VERTEX
  8
M63LXLIFT
 62
6
 10
7013.151
 20
-8753.450
 30
-1076.000
 70
    32
  0
VERTEX
  8
M63LXLIFT
 62
6
 10
7005.050
 20
-8756.425
 30
-1076.000
 70
    32
  0
VERTEX
  8
M63LXLIFT
 62
6
 10
6998.791
 20
-8758.937
 30
-1076.000
 70
    32
  0
VERTEX
  8
M63LXLIFT
 62
6
 10
6998.906
 20
-8761.662
 30
-1076.000
 70
    32
  0
VERTEX
  8
M63LXLIFT
 62
6
 10
7000.826
 20
-8762.996
 30
-1076.000
 70
    32
  0
VERTEX
  8
M63LXLIFT
 62
6
 10
7003.463
 20
-8764.164
 30
-1076.000
 70
    32
  0
VERTEX
  8
M63LXLIFT
 62
6
 10
7015.848
 20
-8761.662
 30
-1076.000
 70
    32
  0
VERTEX
  8
M63LXLIFT
 62
6
 10
7036.609
 20
-8753.364
 30
-1076.000
 70
    32
  0
VERTEX
  8
M63LXLIFT
 62
6
 10
7043.582
 20
-8747.190
 30
-1076.000
 70
    32
  0
VERTEX
  8
M63LXLIFT
 62
6
 10
7052.433
 20
-8743.570
 30
-1076.000
 70
    32
  0
VERTEX
  8
M63LXLIFT
 62
6
 10
7058.408
 20
-8741.872
 30
-1076.000
 70
    32
  0
VERTEX
  8
M63LXLIFT
 62
6
 10
7063.162
 20
-8747.753
 30
-1076.000
 70
    32
  0
VERTEX
  8
M63LXLIFT
 62
6
 10
7053.298
 20
-8754.895
 30
-1076.000
 70
    32
  0
VERTEX
  8
M63LXLIFT
 62
6
 10
7049.400
 20
-8758.735
 30
-1076.000
 70
    32
  0
VERTEX
  8
M63LXLIFT
 62
6
 10
7043.209
 20
-8760.813
 30
-1076.000
 70
    32
  0
VERTEX
  8
M63LXLIFT
 62
6
 10
7022.533
 20
-8769.240
 30
-1076.000
 70
    32
  0
VERTEX
  8
M63LXLIFT
 62
6
 10
7003.544
 20
-8779.102
 30
-1076.000
 70
    32
  0
VERTEX
  8
M63LXLIFT
 62
6
 10
6987.528
 20
-8786.997
 30
-1076.000
 70
    32
  0
VERTEX
  8
M63LXLIFT
 62
6
 10
6972.801
 20
-8798.737
 30
-1076.000
 70
    32
  0
VERTEX
  8
M63LXLIFT
 62
6
 10
6965.281
 20
-8806.516
 30
-1076.000
 70
    32
  0
VERTEX
  8
M63LXLIFT
 62
6
 10
6949.730
 20
-8824.969
 30
-1076.000
 70
    32
  0
VERTEX
  8
M63LXLIFT
 62
6
 10
6946.869
 20
-8828.149
 30
-1076.000
 70
    32
  0
VERTEX
  8
M63LXLIFT
 62
6
 10
6946.869
 20
-8828.149
 30
-1076.000
 70
    32
  0
VERTEX
  8
M63LXLIFT
 62
6
 10
6943.790
 20
-8842.266
 30
-1076.000
 70
    32
  0
VERTEX
  8
M63LXLIFT
 62
6
 10
6946.928
 20
-8852.050
 30
-1076.000
 70
    32
  0
VERTEX
  8
M63LXLIFT
 62
6
 10
6949.166
 20
-8855.627
 30
-1076.000
 70
    32
  0
SEQEND
  8
M63LXLIFT
  0
POLYLINE
  8
M63LXLIFT
 62
4
 66
     1
 70
     9
  0
VERTEX
  8
M63LXLIFT
 62
4
 10
6934.018
 20
-8830.150
 30
-1065.000
 70
    32
  0
VERTEX
  8
M63LXLIFT
 62
4
 10
6928.326
 20
-8825.385
 30
-1065.000
 70
    32
  0
VERTEX
  8
M63LXLIFT
 62
4
 10
6902.459
 20
-8840.391
 30
-1065.000
 70
    32
  0
VERTEX
  8
M63LXLIFT
 62
4
 10
6889.694
 20
-8845.749
 30
-1065.000
 70
    32
  0
VERTEX
  8
M63LXLIFT
 62
4
 10
6884.413
 20
-8836.204
 30
-1065.000
 70
    32
  0
VERTEX
  8
M63LXLIFT
 62
4
 10
6887.775
 20
-8833.947
 30
-1065.000
 70
    32
  0
VERTEX
  8
M63LXLIFT
 62
4
 10
6890.368
 20
-8825.157
 30
-1065.000
 70
    32
  0
VERTEX
  8
M63LXLIFT
 62
4
 10
6896.615
 20
-8820.885
 30
-1065.000
 70
    32
  0
VERTEX
  8
M63LXLIFT
 62
4
 10
6902.011
 20
-8821.390
 30
-1065.000
 70
    32
  0
VERTEX
  8
M63LXLIFT
 62
4
 10
6920.903
 20
-8811.301
 30
-1065.000
 70
    32
  0
VERTEX
  8
M63LXLIFT
 62
4
 10
6923.990
 20
-8806.297
 30
-1065.000
 70
    32
  0
VERTEX
  8
M63LXLIFT
 62
4
 10
6932.230
 20
-8803.397
 30
-1065.000
 70
    32
  0
VERTEX
  8
M63LXLIFT
 62
4
 10
6941.487
 20
-8792.977
 30
-1065.000
 70
    32
  0
VERTEX
  8
M63LXLIFT
 62
4
 10
6936.932
 20
-8772.849
 30
-1065.000
 70
    32
  0
VERTEX
  8
M63LXLIFT
 62
4
 10
6942.794
 20
-8770.280
 30
-1065.000
 70
    32
  0
VERTEX
  8
M63LXLIFT
 62
4
 10
6947.246
 20
-8776.176
 30
-1065.000
 70
    32
  0
VERTEX
  8
M63LXLIFT
 62
4
 10
6953.401
 20
-8778.306
 30
-1065.000
 70
    32
  0
VERTEX
  8
M63LXLIFT
 62
4
 10
6955.143
 20
-8796.246
 30
-1065.000
 70
    32
  0
VERTEX
  8
M63LXLIFT
 62
4
 10
6958.407
 20
-8797.119
 30
-1065.000
 70
    32
  0
VERTEX
  8
M63LXLIFT
 62
4
 10
6974.669
 20
-8786.127
 30
-1065.000
 70
    32
  0
VERTEX
  8
M63LXLIFT
 62
4
 10
6975.536
 20
-8779.591
 30
-1065.000
 70
    32
  0
VERTEX
  8
M63LXLIFT
 62
4
 10
6954.013
 20
-8774.688
 30
-1065.000
 70
    32
  0
VERTEX
  8
M63LXLIFT
 62
4
 10
6953.657
 20
-8769.161
 30
-1065.000
 70
    32
  0
VERTEX
  8
M63LXLIFT
 62
4
 10
6956.752
 20
-8765.354
 30
-1065.000
 70
    32
  0
VERTEX
  8
M63LXLIFT
 62
4
 10
6964.026
 20
-8764.257
 30
-1065.000
 70
    32
  0
VERTEX
  8
M63LXLIFT
 62
4
 10
6972.249
 20
-8757.328
 30
-1065.000
 70
    32
  0
VERTEX
  8
M63LXLIFT
 62
4
 10
6978.464
 20
-8758.650
 30
-1065.000
 70
    32
  0
VERTEX
  8
M63LXLIFT
 62
4
 10
6979.859
 20
-8742.004
 30
-1065.000
 70
    32
  0
VERTEX
  8
M63LXLIFT
 62
4
 10
6984.149
 20
-8740.265
 30
-1065.000
 70
    32
  0
VERTEX
  8
M63LXLIFT
 62
4
 10
6991.762
 20
-8740.666
 30
-1065.000
 70
    32
  0
VERTEX
  8
M63LXLIFT
 62
4
 10
7000.108
 20
-8731.681
 30
-1065.000
 70
    32
  0
VERTEX
  8
M63LXLIFT
 62
4
 10
7007.746
 20
-8737.306
 30
-1065.000
 70
    32
  0
VERTEX
  8
M63LXLIFT
 62
4
 10
7012.685
 20
-8755.732
 30
-1065.000
 70
    32
  0
VERTEX
  8
M63LXLIFT
 62
4
 10
6999.540
 20
-8760.277
 30
-1065.000
 70
    32
  0
VERTEX
  8
M63LXLIFT
 62
4
 10
6999.051
 20
-8763.914
 30
-1065.000
 70
    32
  0
VERTEX
  8
M63LXLIFT
 62
4
 10
7002.762
 20
-8765.987
 30
-1065.000
 70
    32
  0
VERTEX
  8
M63LXLIFT
 62
4
 10
7036.061
 20
-8755.884
 30
-1065.000
 70
    32
  0
VERTEX
  8
M63LXLIFT
 62
4
 10
7042.417
 20
-8749.238
 30
-1065.000
 70
    32
  0
VERTEX
  8
M63LXLIFT
 62
4
 10
7057.272
 20
-8744.198
 30
-1065.000
 70
    32
  0
VERTEX
  8
M63LXLIFT
 62
4
 10
7062.375
 20
-8749.942
 30
-1065.000
 70
    32
  0
VERTEX
  8
M63LXLIFT
 62
4
 10
7049.538
 20
-8761.579
 30
-1065.000
 70
    32
  0
VERTEX
  8
M63LXLIFT
 62
4
 10
6986.973
 20
-8789.191
 30
-1065.000
 70
    32
  0
VERTEX
  8
M63LXLIFT
 62
4
 10
6946.069
 20
-8829.904
 30
-1065.000
 70
    32
  0
SEQEND
  8
M63LXLIFT
  0
POLYLINE
  8
M63LXLIFT
 62
2
 66
     1
 70
     9
  0
VERTEX
  8
M63LXLIFT
 62
2
 10
6932.924
 20
-8845.031
 30
-1056.000
 70
    32
  0
VERTEX
  8
M63LXLIFT
 62
2
 10
6930.056
 20
-8837.938
 30
-1056.000
 70
    32
  0
VERTEX
  8
M63LXLIFT
 62
2
 10
6929.856
 20
-8819.414
 30
-1056.000
 70
    32
  0
VERTEX
  8
M63LXLIFT
 62
2
 10
6922.904
 20
-8814.990
 30
-1056.000
 70
    32
  0
VERTEX
  8
M63LXLIFT
 62
2
 10
6915.620
 20
-8817.478
 30
-1056.000
 70
    32
  0
VERTEX
  8
M63LXLIFT
 62
2
 10
6901.075
 20
-8832.262
 30
-1056.000
 70
    32
  0
VERTEX
  8
M63LXLIFT
 62
2
 10
6894.277
 20
-8834.702
 30
-1056.000
 70
    32
  0
VERTEX
  8
M63LXLIFT
 62
2
 10
6891.465
 20
-8834.409
 30
-1056.000
 70
    32
  0
VERTEX
  8
M63LXLIFT
 62
2
 10
6883.579
 20
-8835.905
 30
-1056.000
 70
    32
  0
VERTEX
  8
M63LXLIFT
 62
2
 10
6875.900
 20
-8816.851
 30
-1056.000
 70
    32
  0
VERTEX
  8
M63LXLIFT
 62
2
 10
6899.563
 20
-8812.729
 30
-1056.000
 70
    32
  0
VERTEX
  8
M63LXLIFT
 62
2
 10
6901.043
 20
-8811.054
 30
-1056.000
 70
    32
  0
VERTEX
  8
M63LXLIFT
 62
2
 10
6906.096
 20
-8805.799
 30
-1056.000
 70
    32
  0
VERTEX
  8
M63LXLIFT
 62
2
 10
6914.158
 20
-8803.284
 30
-1056.000
 70
    32
  0
VERTEX
  8
M63LXLIFT
 62
2
 10
6921.963
 20
-8796.135
 30
-1056.000
 70
    32
  0
VERTEX
  8
M63LXLIFT
 62
2
 10
6928.166
 20
-8790.704
 30
-1056.000
 70
    32
  0
VERTEX
  8
M63LXLIFT
 62
2
 10
6931.418
 20
-8782.341
 30
-1056.000
 70
    32
  0
VERTEX
  8
M63LXLIFT
 62
2
 10
6936.257
 20
-8778.965
 30
-1056.000
 70
    32
  0
VERTEX
  8
M63LXLIFT
 62
2
 10
6941.327
 20
-8776.509
 30
-1056.000
 70
    32
  0
VERTEX
  8
M63LXLIFT
 62
2
 10
6942.560
 20
-8767.628
 30
-1056.000
 70
    32
  0
VERTEX
  8
M63LXLIFT
 62
2
 10
6939.092
 20
-8756.669
 30
-1056.000
 70
    32
  0
VERTEX
  8
M63LXLIFT
 62
2
 10
6944.540
 20
-8751.841
 30
-1056.000
 70
    32
  0
VERTEX
  8
M63LXLIFT
 62
2
 10
6953.048
 20
-8760.820
 30
-1056.000
 70
    32
  0
VERTEX
  8
M63LXLIFT
 62
2
 10
6956.463
 20
-8762.133
 30
-1056.000
 70
    32
  0
VERTEX
  8
M63LXLIFT
 62
2
 10
6961.548
 20
-8755.146
 30
-1056.000
 70
    32
  0
VERTEX
  8
M63LXLIFT
 62
2
 10
6967.467
 20
-8751.209
 30
-1056.000
 70
    32
  0
VERTEX
  8
M63LXLIFT
 62
2
 10
6972.197
 20
-8735.236
 30
-1056.000
 70
    32
  0
VERTEX
  8
M63LXLIFT
 62
2
 10
6984.759
 20
-8733.052
 30
-1056.000
 70
    32
  0
VERTEX
  8
M63LXLIFT
 62
2
 10
6989.969
 20
-8725.540
 30
-1056.000
 70
    32
  0
VERTEX
  8
M63LXLIFT
 62
2
 10
6997.808
 20
-8730.849
 30
-1056.000
 70
    32
  0
VERTEX
  8
M63LXLIFT
 62
2
 10
7004.609
 20
-8732.230
 30
-1056.000
 70
    32
  0
VERTEX
  8
M63LXLIFT
 62
2
 10
7007.576
 20
-8729.575
 30
-1056.000
 70
    32
  0
VERTEX
  8
M63LXLIFT
 62
2
 10
7016.754
 20
-8737.752
 30
-1056.000
 70
    32
  0
VERTEX
  8
M63LXLIFT
 62
2
 10
7015.871
 20
-8745.133
 30
-1056.000
 70
    32
  0
VERTEX
  8
M63LXLIFT
 62
2
 10
7011.636
 20
-8750.511
 30
-1056.000
 70
    32
  0
VERTEX
  8
M63LXLIFT
 62
2
 10
7004.544
 20
-8751.927
 30
-1056.000
 70
    32
  0
VERTEX
  8
M63LXLIFT
 62
2
 10
7001.751
 20
-8751.474
 30
-1056.000
 70
    32
  0
VERTEX
  8
M63LXLIFT
 62
2
 10
6994.638
 20
-8755.012
 30
-1056.000
 70
    32
  0
VERTEX
  8
M63LXLIFT
 62
2
 10
6988.929
 20
-8767.884
 30
-1056.000
 70
    32
  0
VERTEX
  8
M63LXLIFT
 62
2
 10
6977.266
 20
-8774.037
 30
-1056.000
 70
    32
  0
VERTEX
  8
M63LXLIFT
 62
2
 10
6957.905
 20
-8795.099
 30
-1056.000
 70
    32
  0
VERTEX
  8
M63LXLIFT
 62
2
 10
6951.704
 20
-8805.851
 30
-1056.000
 70
    32
  0
VERTEX
  8
M63LXLIFT
 62
2
 10
6945.585
 20
-8819.971
 30
-1056.000
 70
    32
  0
VERTEX
  8
M63LXLIFT
 62
2
 10
6943.005
 20
-8829.829
 30
-1056.000
 70
    32
  0
VERTEX
  8
M63LXLIFT
 62
2
 10
6941.891
 20
-8836.502
 30
-1056.000
 70
    32
  0
VERTEX
  8
M63LXLIFT
 62
2
 10
6943.962
 20
-8844.644
 30
-1056.000
 70
    32
  0
SEQEND
  8
M63LXLIFT
  0
ENDSEC
  0
EOF
