999
********************************
999
*   DXF File - Entities Only   *
999
*        3D Data Format        *
999
*     Output from ENVISAGE     *
999
*     31-Dec-2007 15:35:11     *
999
********************************
  0
SECTION 
  2
HEADER
  9
$ACADVER
  1
AC1009
  9
$EXTMIN
 10
-290000.000
 20
-250000.000
 30
-4000.000
  9
$EXTMAX
 10
320000.000
 20
160000.000
 30
6000.000
  0
ENDSEC
  0
SECTION
  2
ENTITIES
  0
POLYLINE
  8
M66LXLIFT
 62
1
 66
     1
 70
     9
  0
VERTEX
  8
M66LXLIFT
 62
1
 10
7356.337
 20
-8374.911
 30
-1392.000
 70
    32
  0
VERTEX
  8
M66LXLIFT
 62
1
 10
7341.699
 20
-8364.762
 30
-1392.000
 70
    32
  0
VERTEX
  8
M66LXLIFT
 62
1
 10
7324.726
 20
-8342.395
 30
-1392.000
 70
    32
  0
VERTEX
  8
M66LXLIFT
 62
1
 10
7330.275
 20
-8335.656
 30
-1392.000
 70
    32
  0
VERTEX
  8
M66LXLIFT
 62
1
 10
7337.513
 20
-8324.649
 30
-1392.000
 70
    32
  0
VERTEX
  8
M66LXLIFT
 62
1
 10
7338.128
 20
-8316.052
 30
-1392.000
 70
    32
  0
VERTEX
  8
M66LXLIFT
 62
1
 10
7333.300
 20
-8308.791
 30
-1392.000
 70
    32
  0
VERTEX
  8
M66LXLIFT
 62
1
 10
7329.379
 20
-8305.330
 30
-1392.000
 70
    32
  0
VERTEX
  8
M66LXLIFT
 62
1
 10
7324.620
 20
-8275.522
 30
-1392.000
 70
    32
  0
VERTEX
  8
M66LXLIFT
 62
1
 10
7333.524
 20
-8270.263
 30
-1392.000
 70
    32
  0
VERTEX
  8
M66LXLIFT
 62
1
 10
7339.229
 20
-8287.431
 30
-1392.000
 70
    32
  0
VERTEX
  8
M66LXLIFT
 62
1
 10
7342.688
 20
-8289.054
 30
-1392.000
 70
    32
  0
VERTEX
  8
M66LXLIFT
 62
1
 10
7355.732
 20
-8324.594
 30
-1392.000
 70
    32
  0
VERTEX
  8
M66LXLIFT
 62
1
 10
7368.448
 20
-8323.094
 30
-1392.000
 70
    32
  0
VERTEX
  8
M66LXLIFT
 62
1
 10
7371.829
 20
-8316.513
 30
-1392.000
 70
    32
  0
VERTEX
  8
M66LXLIFT
 62
1
 10
7372.321
 20
-8300.398
 30
-1392.000
 70
    32
  0
VERTEX
  8
M66LXLIFT
 62
1
 10
7378.945
 20
-8296.792
 30
-1392.000
 70
    32
  0
VERTEX
  8
M66LXLIFT
 62
1
 10
7383.430
 20
-8300.280
 30
-1392.000
 70
    32
  0
VERTEX
  8
M66LXLIFT
 62
1
 10
7384.309
 20
-8304.642
 30
-1392.000
 70
    32
  0
VERTEX
  8
M66LXLIFT
 62
1
 10
7393.342
 20
-8312.006
 30
-1392.000
 70
    32
  0
VERTEX
  8
M66LXLIFT
 62
1
 10
7384.121
 20
-8352.816
 30
-1392.000
 70
    32
  0
VERTEX
  8
M66LXLIFT
 62
1
 10
7387.056
 20
-8358.514
 30
-1392.000
 70
    32
  0
VERTEX
  8
M66LXLIFT
 62
1
 10
7384.945
 20
-8363.849
 30
-1392.000
 70
    32
  0
VERTEX
  8
M66LXLIFT
 62
1
 10
7384.460
 20
-8367.678
 30
-1392.000
 70
    32
  0
VERTEX
  8
M66LXLIFT
 62
1
 10
7387.061
 20
-8375.465
 30
-1392.000
 70
    32
  0
VERTEX
  8
M66LXLIFT
 62
1
 10
7383.142
 20
-8382.654
 30
-1392.000
 70
    32
  0
VERTEX
  8
M66LXLIFT
 62
1
 10
7385.264
 20
-8386.332
 30
-1392.000
 70
    32
  0
VERTEX
  8
M66LXLIFT
 62
1
 10
7378.529
 20
-8394.583
 30
-1392.000
 70
    32
  0
VERTEX
  8
M66LXLIFT
 62
1
 10
7370.100
 20
-8397.649
 30
-1392.000
 70
    32
  0
VERTEX
  8
M66LXLIFT
 62
1
 10
7362.611
 20
-8391.665
 30
-1392.000
 70
    32
  0
SEQEND
  8
M66LXLIFT
  0
POLYLINE
  8
M66LXLIFT
 62
3
 66
     1
 70
     9
  0
VERTEX
  8
M66LXLIFT
 62
3
 10
7361.611
 20
-8392.665
 30
-1403.000
 70
    32
  0
VERTEX
  8
M66LXLIFT
 62
3
 10
7369.100
 20
-8398.649
 30
-1403.000
 70
    32
  0
VERTEX
  8
M66LXLIFT
 62
3
 10
7377.529
 20
-8395.583
 30
-1403.000
 70
    32
  0
VERTEX
  8
M66LXLIFT
 62
3
 10
7384.264
 20
-8387.332
 30
-1403.000
 70
    32
  0
VERTEX
  8
M66LXLIFT
 62
3
 10
7382.142
 20
-8383.654
 30
-1403.000
 70
    32
  0
VERTEX
  8
M66LXLIFT
 62
3
 10
7386.061
 20
-8376.465
 30
-1403.000
 70
    32
  0
VERTEX
  8
M66LXLIFT
 62
3
 10
7383.460
 20
-8368.678
 30
-1403.000
 70
    32
  0
VERTEX
  8
M66LXLIFT
 62
3
 10
7383.945
 20
-8364.849
 30
-1403.000
 70
    32
  0
VERTEX
  8
M66LXLIFT
 62
3
 10
7386.056
 20
-8359.514
 30
-1403.000
 70
    32
  0
VERTEX
  8
M66LXLIFT
 62
3
 10
7383.121
 20
-8353.816
 30
-1403.000
 70
    32
  0
VERTEX
  8
M66LXLIFT
 62
3
 10
7392.342
 20
-8313.006
 30
-1403.000
 70
    32
  0
VERTEX
  8
M66LXLIFT
 62
3
 10
7383.309
 20
-8305.642
 30
-1403.000
 70
    32
  0
VERTEX
  8
M66LXLIFT
 62
3
 10
7382.430
 20
-8301.280
 30
-1403.000
 70
    32
  0
VERTEX
  8
M66LXLIFT
 62
3
 10
7377.945
 20
-8297.792
 30
-1403.000
 70
    32
  0
VERTEX
  8
M66LXLIFT
 62
3
 10
7371.321
 20
-8301.398
 30
-1403.000
 70
    32
  0
VERTEX
  8
M66LXLIFT
 62
3
 10
7370.829
 20
-8317.513
 30
-1403.000
 70
    32
  0
VERTEX
  8
M66LXLIFT
 62
3
 10
7367.448
 20
-8324.094
 30
-1403.000
 70
    32
  0
VERTEX
  8
M66LXLIFT
 62
3
 10
7354.732
 20
-8325.594
 30
-1403.000
 70
    32
  0
VERTEX
  8
M66LXLIFT
 62
3
 10
7341.688
 20
-8290.054
 30
-1403.000
 70
    32
  0
VERTEX
  8
M66LXLIFT
 62
3
 10
7338.229
 20
-8288.431
 30
-1403.000
 70
    32
  0
VERTEX
  8
M66LXLIFT
 62
3
 10
7332.524
 20
-8271.263
 30
-1403.000
 70
    32
  0
VERTEX
  8
M66LXLIFT
 62
3
 10
7323.620
 20
-8276.522
 30
-1403.000
 70
    32
  0
VERTEX
  8
M66LXLIFT
 62
3
 10
7328.379
 20
-8306.330
 30
-1403.000
 70
    32
  0
VERTEX
  8
M66LXLIFT
 62
3
 10
7332.300
 20
-8309.791
 30
-1403.000
 70
    32
  0
VERTEX
  8
M66LXLIFT
 62
3
 10
7337.128
 20
-8317.052
 30
-1403.000
 70
    32
  0
VERTEX
  8
M66LXLIFT
 62
3
 10
7336.513
 20
-8325.649
 30
-1403.000
 70
    32
  0
VERTEX
  8
M66LXLIFT
 62
3
 10
7329.275
 20
-8336.656
 30
-1403.000
 70
    32
  0
VERTEX
  8
M66LXLIFT
 62
3
 10
7323.726
 20
-8343.395
 30
-1403.000
 70
    32
  0
VERTEX
  8
M66LXLIFT
 62
3
 10
7340.699
 20
-8365.762
 30
-1403.000
 70
    32
  0
VERTEX
  8
M66LXLIFT
 62
3
 10
7355.337
 20
-8375.911
 30
-1403.000
 70
    32
  0
SEQEND
  8
M66LXLIFT
  0
POLYLINE
  8
M66LXLIFT
 62
3
 66
     1
 70
     9
  0
VERTEX
  8
M66LXLIFT
 62
3
 10
7426.744
 20
-8454.084
 30
-1416.000
 70
    32
  0
VERTEX
  8
M66LXLIFT
 62
3
 10
7415.716
 20
-8402.271
 30
-1416.000
 70
    32
  0
VERTEX
  8
M66LXLIFT
 62
3
 10
7407.497
 20
-8376.766
 30
-1416.000
 70
    32
  0
VERTEX
  8
M66LXLIFT
 62
3
 10
7392.370
 20
-8351.959
 30
-1416.000
 70
    32
  0
VERTEX
  8
M66LXLIFT
 62
3
 10
7393.247
 20
-8344.225
 30
-1416.000
 70
    32
  0
VERTEX
  8
M66LXLIFT
 62
3
 10
7400.511
 20
-8319.154
 30
-1416.000
 70
    32
  0
VERTEX
  8
M66LXLIFT
 62
3
 10
7381.055
 20
-8311.812
 30
-1416.000
 70
    32
  0
VERTEX
  8
M66LXLIFT
 62
3
 10
7370.666
 20
-8315.499
 30
-1416.000
 70
    32
  0
VERTEX
  8
M66LXLIFT
 62
3
 10
7368.025
 20
-8322.017
 30
-1416.000
 70
    32
  0
VERTEX
  8
M66LXLIFT
 62
3
 10
7359.793
 20
-8321.504
 30
-1416.000
 70
    32
  0
VERTEX
  8
M66LXLIFT
 62
3
 10
7353.666
 20
-8324.904
 30
-1416.000
 70
    32
  0
VERTEX
  8
M66LXLIFT
 62
3
 10
7345.191
 20
-8333.734
 30
-1416.000
 70
    32
  0
VERTEX
  8
M66LXLIFT
 62
3
 10
7341.851
 20
-8352.547
 30
-1416.000
 70
    32
  0
VERTEX
  8
M66LXLIFT
 62
3
 10
7367.930
 20
-8373.690
 30
-1416.000
 70
    32
  0
VERTEX
  8
M66LXLIFT
 62
3
 10
7382.683
 20
-8381.315
 30
-1416.000
 70
    32
  0
VERTEX
  8
M66LXLIFT
 62
3
 10
7385.567
 20
-8387.929
 30
-1416.000
 70
    32
  0
VERTEX
  8
M66LXLIFT
 62
3
 10
7382.934
 20
-8398.478
 30
-1416.000
 70
    32
  0
VERTEX
  8
M66LXLIFT
 62
3
 10
7378.123
 20
-8400.695
 30
-1416.000
 70
    32
  0
VERTEX
  8
M66LXLIFT
 62
3
 10
7382.580
 20
-8413.029
 30
-1416.000
 70
    32
  0
VERTEX
  8
M66LXLIFT
 62
3
 10
7394.099
 20
-8415.497
 30
-1416.000
 70
    32
  0
VERTEX
  8
M66LXLIFT
 62
3
 10
7403.207
 20
-8425.841
 30
-1416.000
 70
    32
  0
VERTEX
  8
M66LXLIFT
 62
3
 10
7412.049
 20
-8458.744
 30
-1416.000
 70
    32
  0
SEQEND
  8
M66LXLIFT
  0
POLYLINE
  8
M66LXLIFT
 62
1
 66
     1
 70
     9
  0
VERTEX
  8
M66LXLIFT
 62
1
 10
7252.157
 20
-8767.870
 30
-1308.000
 70
    32
  0
VERTEX
  8
M66LXLIFT
 62
1
 10
7252.490
 20
-8760.164
 30
-1308.000
 70
    32
  0
VERTEX
  8
M66LXLIFT
 62
1
 10
7257.766
 20
-8751.954
 30
-1308.000
 70
    32
  0
VERTEX
  8
M66LXLIFT
 62
1
 10
7256.335
 20
-8719.535
 30
-1308.000
 70
    32
  0
VERTEX
  8
M66LXLIFT
 62
1
 10
7250.374
 20
-8710.595
 30
-1308.000
 70
    32
  0
VERTEX
  8
M66LXLIFT
 62
1
 10
7246.396
 20
-8696.557
 30
-1308.000
 70
    32
  0
VERTEX
  8
M66LXLIFT
 62
1
 10
7257.393
 20
-8690.748
 30
-1308.000
 70
    32
  0
VERTEX
  8
M66LXLIFT
 62
1
 10
7261.213
 20
-8696.241
 30
-1308.000
 70
    32
  0
VERTEX
  8
M66LXLIFT
 62
1
 10
7274.447
 20
-8699.764
 30
-1308.000
 70
    32
  0
VERTEX
  8
M66LXLIFT
 62
1
 10
7278.100
 20
-8717.282
 30
-1308.000
 70
    32
  0
VERTEX
  8
M66LXLIFT
 62
1
 10
7281.689
 20
-8729.109
 30
-1308.000
 70
    32
  0
VERTEX
  8
M66LXLIFT
 62
1
 10
7281.625
 20
-8743.549
 30
-1308.000
 70
    32
  0
VERTEX
  8
M66LXLIFT
 62
1
 10
7284.331
 20
-8750.055
 30
-1308.000
 70
    32
  0
VERTEX
  8
M66LXLIFT
 62
1
 10
7285.626
 20
-8760.493
 30
-1308.000
 70
    32
  0
VERTEX
  8
M66LXLIFT
 62
1
 10
7284.272
 20
-8773.582
 30
-1308.000
 70
    32
  0
VERTEX
  8
M66LXLIFT
 62
1
 10
7284.195
 20
-8780.888
 30
-1308.000
 70
    32
  0
VERTEX
  8
M66LXLIFT
 62
1
 10
7278.908
 20
-8787.267
 30
-1308.000
 70
    32
  0
VERTEX
  8
M66LXLIFT
 62
1
 10
7271.948
 20
-8785.859
 30
-1308.000
 70
    32
  0
VERTEX
  8
M66LXLIFT
 62
1
 10
7269.325
 20
-8779.618
 30
-1308.000
 70
    32
  0
VERTEX
  8
M66LXLIFT
 62
1
 10
7265.106
 20
-8773.869
 30
-1308.000
 70
    32
  0
VERTEX
  8
M66LXLIFT
 62
1
 10
7260.276
 20
-8775.591
 30
-1308.000
 70
    32
  0
SEQEND
  8
M66LXLIFT
  0
POLYLINE
  8
M66LXLIFT
 62
6
 66
     1
 70
     9
  0
VERTEX
  8
M66LXLIFT
 62
6
 10
7251.157
 20
-8768.870
 30
-1323.000
 70
    32
  0
VERTEX
  8
M66LXLIFT
 62
6
 10
7251.490
 20
-8761.164
 30
-1323.000
 70
    32
  0
VERTEX
  8
M66LXLIFT
 62
6
 10
7256.766
 20
-8752.954
 30
-1323.000
 70
    32
  0
VERTEX
  8
M66LXLIFT
 62
6
 10
7255.335
 20
-8720.535
 30
-1323.000
 70
    32
  0
VERTEX
  8
M66LXLIFT
 62
6
 10
7249.374
 20
-8711.595
 30
-1323.000
 70
    32
  0
VERTEX
  8
M66LXLIFT
 62
6
 10
7245.396
 20
-8697.557
 30
-1323.000
 70
    32
  0
VERTEX
  8
M66LXLIFT
 62
6
 10
7256.393
 20
-8691.748
 30
-1323.000
 70
    32
  0
VERTEX
  8
M66LXLIFT
 62
6
 10
7260.213
 20
-8697.241
 30
-1323.000
 70
    32
  0
VERTEX
  8
M66LXLIFT
 62
6
 10
7273.447
 20
-8700.764
 30
-1323.000
 70
    32
  0
VERTEX
  8
M66LXLIFT
 62
6
 10
7277.100
 20
-8718.282
 30
-1323.000
 70
    32
  0
VERTEX
  8
M66LXLIFT
 62
6
 10
7280.689
 20
-8730.109
 30
-1323.000
 70
    32
  0
VERTEX
  8
M66LXLIFT
 62
6
 10
7280.625
 20
-8744.549
 30
-1323.000
 70
    32
  0
VERTEX
  8
M66LXLIFT
 62
6
 10
7283.331
 20
-8751.055
 30
-1323.000
 70
    32
  0
VERTEX
  8
M66LXLIFT
 62
6
 10
7284.626
 20
-8761.493
 30
-1323.000
 70
    32
  0
VERTEX
  8
M66LXLIFT
 62
6
 10
7283.272
 20
-8774.582
 30
-1323.000
 70
    32
  0
VERTEX
  8
M66LXLIFT
 62
6
 10
7283.195
 20
-8781.888
 30
-1323.000
 70
    32
  0
VERTEX
  8
M66LXLIFT
 62
6
 10
7277.908
 20
-8788.267
 30
-1323.000
 70
    32
  0
VERTEX
  8
M66LXLIFT
 62
6
 10
7270.948
 20
-8786.859
 30
-1323.000
 70
    32
  0
VERTEX
  8
M66LXLIFT
 62
6
 10
7268.325
 20
-8780.618
 30
-1323.000
 70
    32
  0
VERTEX
  8
M66LXLIFT
 62
6
 10
7264.106
 20
-8774.869
 30
-1323.000
 70
    32
  0
VERTEX
  8
M66LXLIFT
 62
6
 10
7259.276
 20
-8776.591
 30
-1323.000
 70
    32
  0
SEQEND
  8
M66LXLIFT
  0
POLYLINE
  8
M66LXLIFT
 62
2
 66
     1
 70
     9
  0
VERTEX
  8
M66LXLIFT
 62
2
 10
7283.582
 20
-8887.946
 30
-1389.000
 70
    32
  0
VERTEX
  8
M66LXLIFT
 62
2
 10
7286.483
 20
-8908.286
 30
-1389.000
 70
    32
  0
VERTEX
  8
M66LXLIFT
 62
2
 10
7292.061
 20
-8928.410
 30
-1389.000
 70
    32
  0
VERTEX
  8
M66LXLIFT
 62
2
 10
7293.173
 20
-8935.884
 30
-1389.000
 70
    32
  0
VERTEX
  8
M66LXLIFT
 62
2
 10
7298.797
 20
-8942.670
 30
-1389.000
 70
    32
  0
VERTEX
  8
M66LXLIFT
 62
2
 10
7298.646
 20
-8949.759
 30
-1389.000
 70
    32
  0
VERTEX
  8
M66LXLIFT
 62
2
 10
7304.933
 20
-8963.257
 30
-1389.000
 70
    32
  0
VERTEX
  8
M66LXLIFT
 62
2
 10
7306.929
 20
-8978.044
 30
-1389.000
 70
    32
  0
VERTEX
  8
M66LXLIFT
 62
2
 10
7303.163
 20
-8987.345
 30
-1389.000
 70
    32
  0
VERTEX
  8
M66LXLIFT
 62
2
 10
7288.025
 20
-8992.434
 30
-1389.000
 70
    32
  0
VERTEX
  8
M66LXLIFT
 62
2
 10
7276.063
 20
-8985.928
 30
-1389.000
 70
    32
  0
VERTEX
  8
M66LXLIFT
 62
2
 10
7260.615
 20
-8954.712
 30
-1389.000
 70
    32
  0
VERTEX
  8
M66LXLIFT
 62
2
 10
7263.348
 20
-8926.429
 30
-1389.000
 70
    32
  0
VERTEX
  8
M66LXLIFT
 62
2
 10
7262.541
 20
-8915.352
 30
-1389.000
 70
    32
  0
VERTEX
  8
M66LXLIFT
 62
2
 10
7268.035
 20
-8902.603
 30
-1389.000
 70
    32
  0
VERTEX
  8
M66LXLIFT
 62
2
 10
7270.308
 20
-8883.818
 30
-1389.000
 70
    32
  0
SEQEND
  8
M66LXLIFT
  0
POLYLINE
  8
M66LXLIFT
 62
1
 66
     1
 70
     9
  0
VERTEX
  8
M66LXLIFT
 62
1
 10
7285.662
 20
-8915.982
 30
-1360.000
 70
    32
  0
VERTEX
  8
M66LXLIFT
 62
1
 10
7294.390
 20
-8955.442
 30
-1360.000
 70
    32
  0
VERTEX
  8
M66LXLIFT
 62
1
 10
7293.029
 20
-8969.473
 30
-1360.000
 70
    32
  0
VERTEX
  8
M66LXLIFT
 62
1
 10
7293.587
 20
-8998.656
 30
-1360.000
 70
    32
  0
VERTEX
  8
M66LXLIFT
 62
1
 10
7290.684
 20
-9020.692
 30
-1360.000
 70
    32
  0
VERTEX
  8
M66LXLIFT
 62
1
 10
7280.729
 20
-9021.723
 30
-1360.000
 70
    32
  0
VERTEX
  8
M66LXLIFT
 62
1
 10
7283.963
 20
-8993.622
 30
-1360.000
 70
    32
  0
VERTEX
  8
M66LXLIFT
 62
1
 10
7267.777
 20
-8991.203
 30
-1360.000
 70
    32
  0
VERTEX
  8
M66LXLIFT
 62
1
 10
7258.758
 20
-9003.876
 30
-1360.000
 70
    32
  0
VERTEX
  8
M66LXLIFT
 62
1
 10
7248.635
 20
-9006.646
 30
-1360.000
 70
    32
  0
VERTEX
  8
M66LXLIFT
 62
1
 10
7256.403
 20
-8986.441
 30
-1360.000
 70
    32
  0
VERTEX
  8
M66LXLIFT
 62
1
 10
7254.955
 20
-8966.636
 30
-1360.000
 70
    32
  0
VERTEX
  8
M66LXLIFT
 62
1
 10
7261.208
 20
-8951.287
 30
-1360.000
 70
    32
  0
VERTEX
  8
M66LXLIFT
 62
1
 10
7269.536
 20
-8918.809
 30
-1360.000
 70
    32
  0
VERTEX
  8
M66LXLIFT
 62
1
 10
7273.664
 20
-8911.556
 30
-1360.000
 70
    32
  0
SEQEND
  8
M66LXLIFT
  0
POLYLINE
  8
M66LXLIFT
 62
2
 66
     1
 70
     9
  0
VERTEX
  8
M66LXLIFT
 62
2
 10
7284.662
 20
-8916.982
 30
-1371.000
 70
    32
  0
VERTEX
  8
M66LXLIFT
 62
2
 10
7293.390
 20
-8956.442
 30
-1371.000
 70
    32
  0
VERTEX
  8
M66LXLIFT
 62
2
 10
7292.029
 20
-8970.473
 30
-1371.000
 70
    32
  0
VERTEX
  8
M66LXLIFT
 62
2
 10
7292.587
 20
-8999.656
 30
-1371.000
 70
    32
  0
VERTEX
  8
M66LXLIFT
 62
2
 10
7289.684
 20
-9021.692
 30
-1371.000
 70
    32
  0
VERTEX
  8
M66LXLIFT
 62
2
 10
7279.729
 20
-9022.723
 30
-1371.000
 70
    32
  0
VERTEX
  8
M66LXLIFT
 62
2
 10
7282.963
 20
-8994.622
 30
-1371.000
 70
    32
  0
VERTEX
  8
M66LXLIFT
 62
2
 10
7266.777
 20
-8992.203
 30
-1371.000
 70
    32
  0
VERTEX
  8
M66LXLIFT
 62
2
 10
7257.758
 20
-9004.876
 30
-1371.000
 70
    32
  0
VERTEX
  8
M66LXLIFT
 62
2
 10
7247.635
 20
-9007.646
 30
-1371.000
 70
    32
  0
VERTEX
  8
M66LXLIFT
 62
2
 10
7255.403
 20
-8987.441
 30
-1371.000
 70
    32
  0
VERTEX
  8
M66LXLIFT
 62
2
 10
7253.955
 20
-8967.636
 30
-1371.000
 70
    32
  0
VERTEX
  8
M66LXLIFT
 62
2
 10
7260.208
 20
-8952.287
 30
-1371.000
 70
    32
  0
VERTEX
  8
M66LXLIFT
 62
2
 10
7268.536
 20
-8919.809
 30
-1371.000
 70
    32
  0
VERTEX
  8
M66LXLIFT
 62
2
 10
7272.664
 20
-8912.556
 30
-1371.000
 70
    32
  0
SEQEND
  8
M66LXLIFT
  0
POLYLINE
  8
M66LXLIFT
 62
2
 66
     1
 70
     9
  0
VERTEX
  8
M66LXLIFT
 62
2
 10
7284.074
 20
-8886.361
 30
-1404.000
 70
    32
  0
VERTEX
  8
M66LXLIFT
 62
2
 10
7284.993
 20
-8904.108
 30
-1404.000
 70
    32
  0
VERTEX
  8
M66LXLIFT
 62
2
 10
7288.663
 20
-8915.120
 30
-1404.000
 70
    32
  0
VERTEX
  8
M66LXLIFT
 62
2
 10
7314.745
 20
-8949.696
 30
-1404.000
 70
    32
  0
VERTEX
  8
M66LXLIFT
 62
2
 10
7310.432
 20
-8958.633
 30
-1404.000
 70
    32
  0
VERTEX
  8
M66LXLIFT
 62
2
 10
7314.882
 20
-8971.035
 30
-1404.000
 70
    32
  0
VERTEX
  8
M66LXLIFT
 62
2
 10
7308.589
 20
-8995.035
 30
-1404.000
 70
    32
  0
VERTEX
  8
M66LXLIFT
 62
2
 10
7310.017
 20
-9011.226
 30
-1404.000
 70
    32
  0
VERTEX
  8
M66LXLIFT
 62
2
 10
7299.743
 20
-9009.279
 30
-1404.000
 70
    32
  0
VERTEX
  8
M66LXLIFT
 62
2
 10
7278.089
 20
-8992.210
 30
-1404.000
 70
    32
  0
VERTEX
  8
M66LXLIFT
 62
2
 10
7277.588
 20
-8986.073
 30
-1404.000
 70
    32
  0
VERTEX
  8
M66LXLIFT
 62
2
 10
7265.640
 20
-8980.128
 30
-1404.000
 70
    32
  0
VERTEX
  8
M66LXLIFT
 62
2
 10
7265.639
 20
-8973.632
 30
-1404.000
 70
    32
  0
VERTEX
  8
M66LXLIFT
 62
2
 10
7258.188
 20
-8964.898
 30
-1404.000
 70
    32
  0
VERTEX
  8
M66LXLIFT
 62
2
 10
7253.224
 20
-8963.259
 30
-1404.000
 70
    32
  0
VERTEX
  8
M66LXLIFT
 62
2
 10
7257.325
 20
-8950.250
 30
-1404.000
 70
    32
  0
VERTEX
  8
M66LXLIFT
 62
2
 10
7260.404
 20
-8925.089
 30
-1404.000
 70
    32
  0
VERTEX
  8
M66LXLIFT
 62
2
 10
7257.322
 20
-8917.013
 30
-1404.000
 70
    32
  0
VERTEX
  8
M66LXLIFT
 62
2
 10
7268.772
 20
-8893.864
 30
-1404.000
 70
    32
  0
VERTEX
  8
M66LXLIFT
 62
2
 10
7271.741
 20
-8882.749
 30
-1404.000
 70
    32
  0
SEQEND
  8
M66LXLIFT
  0
POLYLINE
  8
M66LXLIFT
 62
1
 66
     1
 70
     9
  0
VERTEX
  8
M66LXLIFT
 62
1
 10
7258.129
 20
-8999.073
 30
-1324.000
 70
    32
  0
VERTEX
  8
M66LXLIFT
 62
1
 10
7256.656
 20
-8995.139
 30
-1324.000
 70
    32
  0
VERTEX
  8
M66LXLIFT
 62
1
 10
7254.510
 20
-8985.398
 30
-1324.000
 70
    32
  0
VERTEX
  8
M66LXLIFT
 62
1
 10
7254.507
 20
-8985.393
 30
-1324.000
 70
    32
  0
VERTEX
  8
M66LXLIFT
 62
1
 10
7238.981
 20
-8975.407
 30
-1324.000
 70
    32
  0
VERTEX
  8
M66LXLIFT
 62
1
 10
7247.519
 20
-8954.442
 30
-1324.000
 70
    32
  0
VERTEX
  8
M66LXLIFT
 62
1
 10
7247.793
 20
-8950.179
 30
-1324.000
 70
    32
  0
VERTEX
  8
M66LXLIFT
 62
1
 10
7246.436
 20
-8945.407
 30
-1324.000
 70
    32
  0
VERTEX
  8
M66LXLIFT
 62
1
 10
7242.358
 20
-8942.540
 30
-1324.000
 70
    32
  0
VERTEX
  8
M66LXLIFT
 62
1
 10
7239.170
 20
-8943.658
 30
-1324.000
 70
    32
  0
VERTEX
  8
M66LXLIFT
 62
1
 10
7237.102
 20
-8947.262
 30
-1324.000
 70
    32
  0
VERTEX
  8
M66LXLIFT
 62
1
 10
7231.997
 20
-8962.696
 30
-1324.000
 70
    32
  0
VERTEX
  8
M66LXLIFT
 62
1
 10
7221.997
 20
-8960.428
 30
-1324.000
 70
    32
  0
VERTEX
  8
M66LXLIFT
 62
1
 10
7224.297
 20
-8952.073
 30
-1324.000
 70
    32
  0
VERTEX
  8
M66LXLIFT
 62
1
 10
7223.210
 20
-8947.596
 30
-1324.000
 70
    32
  0
VERTEX
  8
M66LXLIFT
 62
1
 10
7229.945
 20
-8929.292
 30
-1324.000
 70
    32
  0
VERTEX
  8
M66LXLIFT
 62
1
 10
7237.101
 20
-8924.572
 30
-1324.000
 70
    32
  0
VERTEX
  8
M66LXLIFT
 62
1
 10
7238.302
 20
-8921.496
 30
-1324.000
 70
    32
  0
VERTEX
  8
M66LXLIFT
 62
1
 10
7235.969
 20
-8913.083
 30
-1324.000
 70
    32
  0
VERTEX
  8
M66LXLIFT
 62
1
 10
7233.928
 20
-8898.147
 30
-1324.000
 70
    32
  0
VERTEX
  8
M66LXLIFT
 62
1
 10
7233.608
 20
-8897.190
 30
-1324.000
 70
    32
  0
VERTEX
  8
M66LXLIFT
 62
1
 10
7238.390
 20
-8895.166
 30
-1324.000
 70
    32
  0
VERTEX
  8
M66LXLIFT
 62
1
 10
7249.041
 20
-8895.206
 30
-1324.000
 70
    32
  0
VERTEX
  8
M66LXLIFT
 62
1
 10
7253.485
 20
-8898.706
 30
-1324.000
 70
    32
  0
VERTEX
  8
M66LXLIFT
 62
1
 10
7261.566
 20
-8901.589
 30
-1324.000
 70
    32
  0
VERTEX
  8
M66LXLIFT
 62
1
 10
7263.625
 20
-8914.060
 30
-1324.000
 70
    32
  0
VERTEX
  8
M66LXLIFT
 62
1
 10
7265.872
 20
-8918.085
 30
-1324.000
 70
    32
  0
VERTEX
  8
M66LXLIFT
 62
1
 10
7261.590
 20
-8926.866
 30
-1324.000
 70
    32
  0
VERTEX
  8
M66LXLIFT
 62
1
 10
7263.892
 20
-8942.189
 30
-1324.000
 70
    32
  0
VERTEX
  8
M66LXLIFT
 62
1
 10
7264.491
 20
-8948.983
 30
-1324.000
 70
    32
  0
VERTEX
  8
M66LXLIFT
 62
1
 10
7267.098
 20
-8953.747
 30
-1324.000
 70
    32
  0
VERTEX
  8
M66LXLIFT
 62
1
 10
7272.149
 20
-8974.080
 30
-1324.000
 70
    32
  0
VERTEX
  8
M66LXLIFT
 62
1
 10
7265.685
 20
-8988.593
 30
-1324.000
 70
    32
  0
VERTEX
  8
M66LXLIFT
 62
1
 10
7266.426
 20
-8992.225
 30
-1324.000
 70
    32
  0
VERTEX
  8
M66LXLIFT
 62
1
 10
7267.708
 20
-8996.564
 30
-1324.000
 70
    32
  0
SEQEND
  8
M66LXLIFT
  0
LINE
  8
M66LXLIFT
 62
3
 10
7397.389
 20
-8395.205
 30
-1416.000
 11
7405.695
 21
-8386.614
 31
-1431.000
  0
POLYLINE
  8
M66LXLIFT
 62
7
 66
     1
 70
     9
  0
VERTEX
  8
M66LXLIFT
 62
7
 10
7257.129
 20
-9000.073
 30
-1334.000
 70
    32
  0
VERTEX
  8
M66LXLIFT
 62
7
 10
7255.656
 20
-8996.139
 30
-1334.000
 70
    32
  0
VERTEX
  8
M66LXLIFT
 62
7
 10
7253.510
 20
-8986.398
 30
-1334.000
 70
    32
  0
VERTEX
  8
M66LXLIFT
 62
7
 10
7253.507
 20
-8986.393
 30
-1334.000
 70
    32
  0
VERTEX
  8
M66LXLIFT
 62
7
 10
7237.981
 20
-8976.407
 30
-1334.000
 70
    32
  0
VERTEX
  8
M66LXLIFT
 62
7
 10
7246.519
 20
-8955.442
 30
-1334.000
 70
    32
  0
VERTEX
  8
M66LXLIFT
 62
7
 10
7246.793
 20
-8951.179
 30
-1334.000
 70
    32
  0
VERTEX
  8
M66LXLIFT
 62
7
 10
7245.436
 20
-8946.407
 30
-1334.000
 70
    32
  0
VERTEX
  8
M66LXLIFT
 62
7
 10
7241.358
 20
-8943.540
 30
-1334.000
 70
    32
  0
VERTEX
  8
M66LXLIFT
 62
7
 10
7238.170
 20
-8944.658
 30
-1334.000
 70
    32
  0
VERTEX
  8
M66LXLIFT
 62
7
 10
7236.102
 20
-8948.262
 30
-1334.000
 70
    32
  0
VERTEX
  8
M66LXLIFT
 62
7
 10
7230.997
 20
-8963.696
 30
-1334.000
 70
    32
  0
VERTEX
  8
M66LXLIFT
 62
7
 10
7220.997
 20
-8961.428
 30
-1334.000
 70
    32
  0
VERTEX
  8
M66LXLIFT
 62
7
 10
7223.297
 20
-8953.073
 30
-1334.000
 70
    32
  0
VERTEX
  8
M66LXLIFT
 62
7
 10
7222.210
 20
-8948.596
 30
-1334.000
 70
    32
  0
VERTEX
  8
M66LXLIFT
 62
7
 10
7228.945
 20
-8930.292
 30
-1334.000
 70
    32
  0
VERTEX
  8
M66LXLIFT
 62
7
 10
7236.101
 20
-8925.572
 30
-1334.000
 70
    32
  0
VERTEX
  8
M66LXLIFT
 62
7
 10
7237.302
 20
-8922.496
 30
-1334.000
 70
    32
  0
VERTEX
  8
M66LXLIFT
 62
7
 10
7234.969
 20
-8914.083
 30
-1334.000
 70
    32
  0
VERTEX
  8
M66LXLIFT
 62
7
 10
7232.928
 20
-8899.147
 30
-1334.000
 70
    32
  0
VERTEX
  8
M66LXLIFT
 62
7
 10
7232.608
 20
-8898.190
 30
-1334.000
 70
    32
  0
VERTEX
  8
M66LXLIFT
 62
7
 10
7237.390
 20
-8896.166
 30
-1334.000
 70
    32
  0
VERTEX
  8
M66LXLIFT
 62
7
 10
7248.041
 20
-8896.206
 30
-1334.000
 70
    32
  0
VERTEX
  8
M66LXLIFT
 62
7
 10
7252.485
 20
-8899.706
 30
-1334.000
 70
    32
  0
VERTEX
  8
M66LXLIFT
 62
7
 10
7260.566
 20
-8902.589
 30
-1334.000
 70
    32
  0
VERTEX
  8
M66LXLIFT
 62
7
 10
7262.625
 20
-8915.060
 30
-1334.000
 70
    32
  0
VERTEX
  8
M66LXLIFT
 62
7
 10
7264.872
 20
-8919.085
 30
-1334.000
 70
    32
  0
VERTEX
  8
M66LXLIFT
 62
7
 10
7260.590
 20
-8927.866
 30
-1334.000
 70
    32
  0
VERTEX
  8
M66LXLIFT
 62
7
 10
7262.892
 20
-8943.189
 30
-1334.000
 70
    32
  0
VERTEX
  8
M66LXLIFT
 62
7
 10
7263.491
 20
-8949.983
 30
-1334.000
 70
    32
  0
VERTEX
  8
M66LXLIFT
 62
7
 10
7266.098
 20
-8954.747
 30
-1334.000
 70
    32
  0
VERTEX
  8
M66LXLIFT
 62
7
 10
7271.149
 20
-8975.080
 30
-1334.000
 70
    32
  0
VERTEX
  8
M66LXLIFT
 62
7
 10
7264.685
 20
-8989.593
 30
-1334.000
 70
    32
  0
VERTEX
  8
M66LXLIFT
 62
7
 10
7265.426
 20
-8993.225
 30
-1334.000
 70
    32
  0
VERTEX
  8
M66LXLIFT
 62
7
 10
7266.708
 20
-8997.564
 30
-1334.000
 70
    32
  0
SEQEND
  8
M66LXLIFT
  0
POLYLINE
  8
M66LXLIFT
 62
4
 66
     1
 70
     9
  0
VERTEX
  8
M66LXLIFT
 62
4
 10
7305.015
 20
-8734.072
 30
-1298.221
 70
    32
  0
VERTEX
  8
M66LXLIFT
 62
4
 10
7296.574
 20
-8740.584
 30
-1300.160
 70
    32
  0
VERTEX
  8
M66LXLIFT
 62
4
 10
7290.686
 20
-8754.449
 30
-1302.129
 70
    32
  0
VERTEX
  8
M66LXLIFT
 62
4
 10
7281.711
 20
-8756.014
 30
-1302.742
 70
    32
  0
VERTEX
  8
M66LXLIFT
 62
4
 10
7281.166
 20
-8776.591
 30
-1301.862
 70
    32
  0
VERTEX
  8
M66LXLIFT
 62
4
 10
7276.804
 20
-8792.299
 30
-1301.326
 70
    32
  0
VERTEX
  8
M66LXLIFT
 62
4
 10
7269.278
 20
-8788.787
 30
-1301.326
 70
    32
  0
VERTEX
  8
M66LXLIFT
 62
4
 10
7269.722
 20
-8775.658
 30
-1301.748
 70
    32
  0
VERTEX
  8
M66LXLIFT
 62
4
 10
7262.431
 20
-8768.306
 30
-1302.074
 70
    32
  0
VERTEX
  8
M66LXLIFT
 62
4
 10
7261.359
 20
-8761.540
 30
-1302.377
 70
    32
  0
VERTEX
  8
M66LXLIFT
 62
4
 10
7257.729
 20
-8756.824
 30
-1302.584
 70
    32
  0
VERTEX
  8
M66LXLIFT
 62
4
 10
7255.894
 20
-8747.686
 30
-1302.447
 70
    32
  0
VERTEX
  8
M66LXLIFT
 62
4
 10
7265.256
 20
-8744.151
 30
-1302.237
 70
    32
  0
VERTEX
  8
M66LXLIFT
 62
4
 10
7265.998
 20
-8726.944
 30
-1300.492
 70
    32
  0
VERTEX
  8
M66LXLIFT
 62
4
 10
7258.245
 20
-8692.549
 30
-1297.419
 70
    32
  0
VERTEX
  8
M66LXLIFT
 62
4
 10
7269.267
 20
-8689.353
 30
-1297.419
 70
    32
  0
VERTEX
  8
M66LXLIFT
 62
4
 10
7278.111
 20
-8710.849
 30
-1298.889
 70
    32
  0
VERTEX
  8
M66LXLIFT
 62
4
 10
7283.270
 20
-8719.342
 30
-1299.776
 70
    32
  0
VERTEX
  8
M66LXLIFT
 62
4
 10
7285.199
 20
-8721.863
 30
-1296.163
 70
    32
  0
VERTEX
  8
M66LXLIFT
 62
4
 10
7287.209
 20
-8727.586
 30
-1297.769
 70
    32
  0
VERTEX
  8
M66LXLIFT
 62
4
 10
7292.181
 20
-8718.223
 30
-1298.584
 70
    32
  0
SEQEND
  8
M66LXLIFT
  0
POLYLINE
  8
M66LXLIFT
 62
6
 66
     1
 70
     9
  0
VERTEX
  8
M66LXLIFT
 62
6
 10
7297.179
 20
-8887.244
 30
-1371.250
 70
    32
  0
VERTEX
  8
M66LXLIFT
 62
6
 10
7294.996
 20
-8892.986
 30
-1370.807
 70
    32
  0
VERTEX
  8
M66LXLIFT
 62
6
 10
7291.371
 20
-8897.531
 30
-1370.829
 70
    32
  0
VERTEX
  8
M66LXLIFT
 62
6
 10
7284.656
 20
-8915.656
 30
-1368.721
 70
    32
  0
VERTEX
  8
M66LXLIFT
 62
6
 10
7285.201
 20
-8924.702
 30
-1368.211
 70
    32
  0
VERTEX
  8
M66LXLIFT
 62
6
 10
7289.651
 20
-8933.345
 30
-1368.211
 70
    32
  0
VERTEX
  8
M66LXLIFT
 62
6
 10
7293.688
 20
-8952.049
 30
-1368.211
 70
    32
  0
VERTEX
  8
M66LXLIFT
 62
6
 10
7292.071
 20
-8971.705
 30
-1368.211
 70
    32
  0
VERTEX
  8
M66LXLIFT
 62
6
 10
7292.885
 20
-9001.172
 30
-1368.211
 70
    32
  0
VERTEX
  8
M66LXLIFT
 62
6
 10
7289.902
 20
-9021.777
 30
-1368.211
 70
    32
  0
VERTEX
  8
M66LXLIFT
 62
6
 10
7279.960
 20
-9022.852
 30
-1368.211
 70
    32
  0
VERTEX
  8
M66LXLIFT
 62
6
 10
7282.978
 20
-8994.256
 30
-1368.211
 70
    32
  0
VERTEX
  8
M66LXLIFT
 62
6
 10
7266.796
 20
-8992.312
 30
-1368.211
 70
    32
  0
VERTEX
  8
M66LXLIFT
 62
6
 10
7258.005
 20
-9005.779
 30
-1368.211
 70
    32
  0
VERTEX
  8
M66LXLIFT
 62
6
 10
7247.626
 20
-9008.893
 30
-1368.211
 70
    32
  0
VERTEX
  8
M66LXLIFT
 62
6
 10
7256.019
 20
-8986.405
 30
-1368.211
 70
    32
  0
VERTEX
  8
M66LXLIFT
 62
6
 10
7254.441
 20
-8968.303
 30
-1368.211
 70
    32
  0
VERTEX
  8
M66LXLIFT
 62
6
 10
7259.151
 20
-8956.062
 30
-1368.213
 70
    32
  0
VERTEX
  8
M66LXLIFT
 62
6
 10
7268.251
 20
-8919.264
 30
-1368.397
 70
    32
  0
VERTEX
  8
M66LXLIFT
 62
6
 10
7277.667
 20
-8899.406
 30
-1370.633
 70
    32
  0
VERTEX
  8
M66LXLIFT
 62
6
 10
7284.970
 20
-8888.886
 30
-1371.613
 70
    32
  0
VERTEX
  8
M66LXLIFT
 62
6
 10
7286.488
 20
-8883.507
 30
-1372.423
 70
    32
  0
SEQEND
  8
M66LXLIFT
  0
POLYLINE
  8
M66LXLIFT
 62
6
 66
     1
 70
     9
  0
VERTEX
  8
M66LXLIFT
 62
6
 10
7377.604
 20
-8619.575
 30
-1279.880
 70
    32
  0
VERTEX
  8
M66LXLIFT
 62
6
 10
7383.535
 20
-8611.962
 30
-1279.880
 70
    32
  0
VERTEX
  8
M66LXLIFT
 62
6
 10
7392.957
 20
-8605.976
 30
-1279.880
 70
    32
  0
VERTEX
  8
M66LXLIFT
 62
6
 10
7393.255
 20
-8590.174
 30
-1279.880
 70
    32
  0
VERTEX
  8
M66LXLIFT
 62
6
 10
7397.730
 20
-8590.288
 30
-1279.880
 70
    32
  0
VERTEX
  8
M66LXLIFT
 62
6
 10
7407.622
 20
-8571.338
 30
-1279.880
 70
    32
  0
VERTEX
  8
M66LXLIFT
 62
6
 10
7424.517
 20
-8558.968
 30
-1279.880
 70
    32
  0
VERTEX
  8
M66LXLIFT
 62
6
 10
7429.072
 20
-8549.081
 30
-1279.880
 70
    32
  0
VERTEX
  8
M66LXLIFT
 62
6
 10
7435.485
 20
-8554.106
 30
-1279.880
 70
    32
  0
VERTEX
  8
M66LXLIFT
 62
6
 10
7429.235
 20
-8571.470
 30
-1279.880
 70
    32
  0
VERTEX
  8
M66LXLIFT
 62
6
 10
7430.894
 20
-8587.323
 30
-1279.880
 70
    32
  0
VERTEX
  8
M66LXLIFT
 62
6
 10
7440.082
 20
-8596.570
 30
-1279.880
 70
    32
  0
VERTEX
  8
M66LXLIFT
 62
6
 10
7438.800
 20
-8615.800
 30
-1279.880
 70
    32
  0
VERTEX
  8
M66LXLIFT
 62
6
 10
7436.500
 20
-8621.700
 30
-1279.880
 70
    32
  0
VERTEX
  8
M66LXLIFT
 62
6
 10
7431.629
 20
-8622.408
 30
-1279.880
 70
    32
  0
VERTEX
  8
M66LXLIFT
 62
6
 10
7427.687
 20
-8632.375
 30
-1279.880
 70
    32
  0
VERTEX
  8
M66LXLIFT
 62
6
 10
7420.528
 20
-8642.502
 30
-1279.880
 70
    32
  0
VERTEX
  8
M66LXLIFT
 62
6
 10
7422.084
 20
-8653.675
 30
-1279.880
 70
    32
  0
VERTEX
  8
M66LXLIFT
 62
6
 10
7420.422
 20
-8661.904
 30
-1279.880
 70
    32
  0
VERTEX
  8
M66LXLIFT
 62
6
 10
7415.386
 20
-8661.069
 30
-1279.880
 70
    32
  0
VERTEX
  8
M66LXLIFT
 62
6
 10
7408.505
 20
-8669.517
 30
-1279.880
 70
    32
  0
VERTEX
  8
M66LXLIFT
 62
6
 10
7408.764
 20
-8680.814
 30
-1279.880
 70
    32
  0
VERTEX
  8
M66LXLIFT
 62
6
 10
7396.120
 20
-8690.800
 30
-1279.880
 70
    32
  0
VERTEX
  8
M66LXLIFT
 62
6
 10
7391.306
 20
-8701.183
 30
-1279.880
 70
    32
  0
VERTEX
  8
M66LXLIFT
 62
6
 10
7382.546
 20
-8694.255
 30
-1279.880
 70
    32
  0
VERTEX
  8
M66LXLIFT
 62
6
 10
7388.387
 20
-8680.488
 30
-1279.880
 70
    32
  0
VERTEX
  8
M66LXLIFT
 62
6
 10
7384.492
 20
-8673.410
 30
-1279.880
 70
    32
  0
VERTEX
  8
M66LXLIFT
 62
6
 10
7381.026
 20
-8670.969
 30
-1279.880
 70
    32
  0
VERTEX
  8
M66LXLIFT
 62
6
 10
7378.831
 20
-8664.836
 30
-1279.880
 70
    32
  0
VERTEX
  8
M66LXLIFT
 62
6
 10
7380.962
 20
-8647.485
 30
-1279.880
 70
    32
  0
VERTEX
  8
M66LXLIFT
 62
6
 10
7379.172
 20
-8637.528
 30
-1279.972
 70
    32
  0
SEQEND
  8
M66LXLIFT
  0
POLYLINE
  8
M66LXLIFT
 62
7
 66
     1
 70
     9
  0
VERTEX
  8
M66LXLIFT
 62
7
 10
7442.063
 20
-8659.045
 30
-1417.545
 70
    32
  0
VERTEX
  8
M66LXLIFT
 62
7
 10
7474.999
 20
-8665.593
 30
-1417.388
 70
    32
  0
VERTEX
  8
M66LXLIFT
 62
7
 10
7484.913
 20
-8658.531
 30
-1416.829
 70
    32
  0
VERTEX
  8
M66LXLIFT
 62
7
 10
7492.857
 20
-8651.305
 30
-1416.521
 70
    32
  0
VERTEX
  8
M66LXLIFT
 62
7
 10
7495.262
 20
-8647.600
 30
-1416.355
 70
    32
  0
VERTEX
  8
M66LXLIFT
 62
7
 10
7500.265
 20
-8631.277
 30
-1416.027
 70
    32
  0
VERTEX
  8
M66LXLIFT
 62
7
 10
7500.611
 20
-8618.663
 30
-1416.467
 70
    32
  0
VERTEX
  8
M66LXLIFT
 62
7
 10
7498.031
 20
-8609.298
 30
-1416.768
 70
    32
  0
VERTEX
  8
M66LXLIFT
 62
7
 10
7500.301
 20
-8609.586
 30
-1416.779
 70
    32
  0
VERTEX
  8
M66LXLIFT
 62
7
 10
7500.032
 20
-8603.339
 30
-1416.799
 70
    32
  0
VERTEX
  8
M66LXLIFT
 62
7
 10
7507.556
 20
-8602.209
 30
-1416.799
 70
    32
  0
VERTEX
  8
M66LXLIFT
 62
7
 10
7512.563
 20
-8606.303
 30
-1416.799
 70
    32
  0
VERTEX
  8
M66LXLIFT
 62
7
 10
7515.546
 20
-8610.826
 30
-1416.799
 70
    32
  0
VERTEX
  8
M66LXLIFT
 62
7
 10
7512.347
 20
-8617.236
 30
-1416.623
 70
    32
  0
VERTEX
  8
M66LXLIFT
 62
7
 10
7507.629
 20
-8644.630
 30
-1416.085
 70
    32
  0
VERTEX
  8
M66LXLIFT
 62
7
 10
7500.252
 20
-8658.601
 30
-1416.517
 70
    32
  0
VERTEX
  8
M66LXLIFT
 62
7
 10
7500.673
 20
-8663.242
 30
-1416.602
 70
    32
  0
VERTEX
  8
M66LXLIFT
 62
7
 10
7496.939
 20
-8665.473
 30
-1416.723
 70
    32
  0
VERTEX
  8
M66LXLIFT
 62
7
 10
7499.034
 20
-8672.369
 30
-1416.704
 70
    32
  0
VERTEX
  8
M66LXLIFT
 62
7
 10
7495.178
 20
-8680.479
 30
-1416.891
 70
    32
  0
VERTEX
  8
M66LXLIFT
 62
7
 10
7506.832
 20
-8690.194
 30
-1416.098
 70
    32
  0
VERTEX
  8
M66LXLIFT
 62
7
 10
7501.975
 20
-8698.362
 30
-1416.521
 70
    32
  0
VERTEX
  8
M66LXLIFT
 62
7
 10
7479.897
 20
-8706.621
 30
-1417.516
 70
    32
  0
VERTEX
  8
M66LXLIFT
 62
7
 10
7475.855
 20
-8702.829
 30
-1417.556
 70
    32
  0
VERTEX
  8
M66LXLIFT
 62
7
 10
7482.929
 20
-8691.708
 30
-1417.391
 70
    32
  0
VERTEX
  8
M66LXLIFT
 62
7
 10
7479.897
 20
-8682.355
 30
-1417.402
 70
    32
  0
VERTEX
  8
M66LXLIFT
 62
7
 10
7468.932
 20
-8674.494
 30
-1417.418
 70
    32
  0
VERTEX
  8
M66LXLIFT
 62
7
 10
7456.199
 20
-8671.967
 30
-1417.491
 70
    32
  0
VERTEX
  8
M66LXLIFT
 62
7
 10
7448.099
 20
-8675.514
 30
-1417.504
 70
    32
  0
VERTEX
  8
M66LXLIFT
 62
7
 10
7445.285
 20
-8674.591
 30
-1417.510
 70
    32
  0
VERTEX
  8
M66LXLIFT
 62
7
 10
7442.983
 20
-8684.063
 30
-1417.500
 70
    32
  0
VERTEX
  8
M66LXLIFT
 62
7
 10
7443.689
 20
-8689.551
 30
-1417.490
 70
    32
  0
VERTEX
  8
M66LXLIFT
 62
7
 10
7453.953
 20
-8700.771
 30
-1417.484
 70
    32
  0
VERTEX
  8
M66LXLIFT
 62
7
 10
7460.607
 20
-8704.169
 30
-1417.484
 70
    32
  0
VERTEX
  8
M66LXLIFT
 62
7
 10
7462.669
 20
-8712.187
 30
-1417.484
 70
    32
  0
VERTEX
  8
M66LXLIFT
 62
7
 10
7455.047
 20
-8721.903
 30
-1417.484
 70
    32
  0
VERTEX
  8
M66LXLIFT
 62
7
 10
7451.131
 20
-8721.436
 30
-1417.484
 70
    32
  0
VERTEX
  8
M66LXLIFT
 62
7
 10
7448.567
 20
-8718.651
 30
-1417.484
 70
    32
  0
VERTEX
  8
M66LXLIFT
 62
7
 10
7437.407
 20
-8718.515
 30
-1417.484
 70
    32
  0
VERTEX
  8
M66LXLIFT
 62
7
 10
7434.194
 20
-8702.846
 30
-1417.501
 70
    32
  0
VERTEX
  8
M66LXLIFT
 62
7
 10
7432.777
 20
-8685.078
 30
-1417.527
 70
    32
  0
VERTEX
  8
M66LXLIFT
 62
7
 10
7424.727
 20
-8663.053
 30
-1417.984
 70
    32
  0
SEQEND
  8
M66LXLIFT
  0
POLYLINE
  8
M66LXLIFT
 62
2
 66
     1
 70
     9
  0
VERTEX
  8
M66LXLIFT
 62
2
 10
7349.738
 20
-8411.964
 30
-1384.073
 70
    32
  0
VERTEX
  8
M66LXLIFT
 62
2
 10
7353.372
 20
-8389.673
 30
-1382.873
 70
    32
  0
VERTEX
  8
M66LXLIFT
 62
2
 10
7344.650
 20
-8367.119
 30
-1381.683
 70
    32
  0
VERTEX
  8
M66LXLIFT
 62
2
 10
7337.060
 20
-8360.079
 30
-1381.860
 70
    32
  0
VERTEX
  8
M66LXLIFT
 62
2
 10
7326.157
 20
-8343.649
 30
-1382.982
 70
    32
  0
VERTEX
  8
M66LXLIFT
 62
2
 10
7316.454
 20
-8337.264
 30
-1382.983
 70
    32
  0
VERTEX
  8
M66LXLIFT
 62
2
 10
7324.894
 20
-8310.546
 30
-1382.975
 70
    32
  0
VERTEX
  8
M66LXLIFT
 62
2
 10
7320.076
 20
-8305.584
 30
-1382.975
 70
    32
  0
VERTEX
  8
M66LXLIFT
 62
2
 10
7322.482
 20
-8291.537
 30
-1382.971
 70
    32
  0
VERTEX
  8
M66LXLIFT
 62
2
 10
7320.479
 20
-8285.692
 30
-1382.970
 70
    32
  0
VERTEX
  8
M66LXLIFT
 62
2
 10
7330.854
 20
-8281.759
 30
-1382.970
 70
    32
  0
VERTEX
  8
M66LXLIFT
 62
2
 10
7338.393
 20
-8294.341
 30
-1382.970
 70
    32
  0
VERTEX
  8
M66LXLIFT
 62
2
 10
7340.346
 20
-8293.909
 30
-1382.970
 70
    32
  0
VERTEX
  8
M66LXLIFT
 62
2
 10
7349.470
 20
-8310.829
 30
-1382.970
 70
    32
  0
VERTEX
  8
M66LXLIFT
 62
2
 10
7354.525
 20
-8312.679
 30
-1382.970
 70
    32
  0
VERTEX
  8
M66LXLIFT
 62
2
 10
7356.790
 20
-8319.105
 30
-1382.970
 70
    32
  0
VERTEX
  8
M66LXLIFT
 62
2
 10
7360.804
 20
-8321.577
 30
-1382.876
 70
    32
  0
VERTEX
  8
M66LXLIFT
 62
2
 10
7364.443
 20
-8318.526
 30
-1382.924
 70
    32
  0
VERTEX
  8
M66LXLIFT
 62
2
 10
7363.983
 20
-8314.515
 30
-1382.946
 70
    32
  0
VERTEX
  8
M66LXLIFT
 62
2
 10
7366.354
 20
-8306.989
 30
-1382.970
 70
    32
  0
VERTEX
  8
M66LXLIFT
 62
2
 10
7380.399
 20
-8298.342
 30
-1382.970
 70
    32
  0
VERTEX
  8
M66LXLIFT
 62
2
 10
7392.741
 20
-8310.147
 30
-1382.969
 70
    32
  0
VERTEX
  8
M66LXLIFT
 62
2
 10
7372.370
 20
-8332.360
 30
-1382.902
 70
    32
  0
VERTEX
  8
M66LXLIFT
 62
2
 10
7371.039
 20
-8336.205
 30
-1382.884
 70
    32
  0
VERTEX
  8
M66LXLIFT
 62
2
 10
7377.684
 20
-8360.733
 30
-1381.121
 70
    32
  0
VERTEX
  8
M66LXLIFT
 62
2
 10
7374.088
 20
-8375.089
 30
-1381.960
 70
    32
  0
VERTEX
  8
M66LXLIFT
 62
2
 10
7359.673
 20
-8412.721
 30
-1384.122
 70
    32
  0
SEQEND
  8
M66LXLIFT
  0
POLYLINE
  8
M66LXLIFT
 62
4
 66
     1
 70
     9
  0
VERTEX
  8
M66LXLIFT
 62
4
 10
7365.165
 20
-8398.842
 30
-1371.328
 70
    32
  0
VERTEX
  8
M66LXLIFT
 62
4
 10
7372.155
 20
-8382.950
 30
-1371.682
 70
    32
  0
VERTEX
  8
M66LXLIFT
 62
4
 10
7367.975
 20
-8369.065
 30
-1372.147
 70
    32
  0
VERTEX
  8
M66LXLIFT
 62
4
 10
7366.490
 20
-8364.132
 30
-1372.045
 70
    32
  0
VERTEX
  8
M66LXLIFT
 62
4
 10
7365.578
 20
-8359.598
 30
-1371.961
 70
    32
  0
VERTEX
  8
M66LXLIFT
 62
4
 10
7365.405
 20
-8358.738
 30
-1371.767
 70
    32
  0
VERTEX
  8
M66LXLIFT
 62
4
 10
7366.564
 20
-8351.360
 30
-1370.214
 70
    32
  0
VERTEX
  8
M66LXLIFT
 62
4
 10
7366.629
 20
-8350.948
 30
-1370.212
 70
    32
  0
VERTEX
  8
M66LXLIFT
 62
4
 10
7356.302
 20
-8333.895
 30
-1370.252
 70
    32
  0
VERTEX
  8
M66LXLIFT
 62
4
 10
7356.011
 20
-8333.414
 30
-1370.256
 70
    32
  0
VERTEX
  8
M66LXLIFT
 62
4
 10
7355.154
 20
-8331.333
 30
-1370.271
 70
    32
  0
VERTEX
  8
M66LXLIFT
 62
4
 10
7347.516
 20
-8315.689
 30
-1370.391
 70
    32
  0
VERTEX
  8
M66LXLIFT
 62
4
 10
7336.900
 20
-8308.862
 30
-1370.464
 70
    32
  0
VERTEX
  8
M66LXLIFT
 62
4
 10
7330.219
 20
-8299.972
 30
-1370.539
 70
    32
  0
VERTEX
  8
M66LXLIFT
 62
4
 10
7325.817
 20
-8285.343
 30
-1370.643
 70
    32
  0
VERTEX
  8
M66LXLIFT
 62
4
 10
7318.523
 20
-8288.629
 30
-1370.643
 70
    32
  0
VERTEX
  8
M66LXLIFT
 62
4
 10
7318.577
 20
-8303.637
 30
-1370.550
 70
    32
  0
VERTEX
  8
M66LXLIFT
 62
4
 10
7320.993
 20
-8309.085
 30
-1370.509
 70
    32
  0
VERTEX
  8
M66LXLIFT
 62
4
 10
7323.991
 20
-8315.842
 30
-1370.504
 70
    32
  0
VERTEX
  8
M66LXLIFT
 62
4
 10
7323.507
 20
-8319.541
 30
-1370.522
 70
    32
  0
VERTEX
  8
M66LXLIFT
 62
4
 10
7310.999
 20
-8334.983
 30
-1370.700
 70
    32
  0
VERTEX
  8
M66LXLIFT
 62
4
 10
7328.976
 20
-8360.416
 30
-1370.615
 70
    32
  0
VERTEX
  8
M66LXLIFT
 62
4
 10
7330.706
 20
-8362.862
 30
-1371.218
 70
    32
  0
VERTEX
  8
M66LXLIFT
 62
4
 10
7332.735
 20
-8365.733
 30
-1371.304
 70
    32
  0
VERTEX
  8
M66LXLIFT
 62
4
 10
7344.451
 20
-8381.228
 30
-1371.785
 70
    32
  0
VERTEX
  8
M66LXLIFT
 62
4
 10
7347.022
 20
-8387.475
 30
-1371.930
 70
    32
  0
VERTEX
  8
M66LXLIFT
 62
4
 10
7352.122
 20
-8399.863
 30
-1371.494
 70
    32
  0
VERTEX
  8
M66LXLIFT
 62
4
 10
7352.016
 20
-8400.622
 30
-1371.474
 70
    32
  0
VERTEX
  8
M66LXLIFT
 62
4
 10
7351.473
 20
-8404.479
 30
-1372.361
 70
    32
  0
VERTEX
  8
M66LXLIFT
 62
4
 10
7350.596
 20
-8409.705
 30
-1373.568
 70
    32
  0
VERTEX
  8
M66LXLIFT
 62
4
 10
7347.351
 20
-8426.596
 30
-1377.481
 70
    32
  0
VERTEX
  8
M66LXLIFT
 62
4
 10
7341.558
 20
-8455.877
 30
-1384.269
 70
    32
  0
VERTEX
  8
M66LXLIFT
 62
4
 10
7338.305
 20
-8466.428
 30
-1386.752
 70
    32
  0
VERTEX
  8
M66LXLIFT
 62
4
 10
7324.885
 20
-8530.353
 30
-1401.597
 70
    32
  0
VERTEX
  8
M66LXLIFT
 62
4
 10
7331.122
 20
-8554.407
 30
-1405.595
 70
    32
  0
VERTEX
  8
M66LXLIFT
 62
4
 10
7334.422
 20
-8537.585
 30
-1401.931
 70
    32
  0
VERTEX
  8
M66LXLIFT
 62
4
 10
7337.065
 20
-8522.045
 30
-1398.574
 70
    32
  0
VERTEX
  8
M66LXLIFT
 62
4
 10
7341.239
 20
-8501.124
 30
-1394.012
 70
    32
  0
VERTEX
  8
M66LXLIFT
 62
4
 10
7348.009
 20
-8468.655
 30
-1386.911
 70
    32
  0
VERTEX
  8
M66LXLIFT
 62
4
 10
7348.754
 20
-8465.633
 30
-1386.242
 70
    32
  0
VERTEX
  8
M66LXLIFT
 62
4
 10
7357.393
 20
-8430.556
 30
-1378.057
 70
    32
  0
VERTEX
  8
M66LXLIFT
 62
4
 10
7362.336
 20
-8410.765
 30
-1373.436
 70
    32
  0
VERTEX
  8
M66LXLIFT
 62
4
 10
7362.516
 20
-8410.238
 30
-1373.311
 70
    32
  0
VERTEX
  8
M66LXLIFT
 62
4
 10
7364.562
 20
-8401.438
 30
-1371.261
 70
    32
  0
VERTEX
  8
M66LXLIFT
 62
4
 10
7365.165
 20
-8398.842
 30
-1371.328
 70
    32
  0
SEQEND
  8
M66LXLIFT
  0
POLYLINE
  8
M66LXLIFT
 62
7
 66
     1
 70
     9
  0
VERTEX
  8
M66LXLIFT
 62
7
 10
7335.955
 20
-8558.316
 30
-1268.128
 70
    32
  0
VERTEX
  8
M66LXLIFT
 62
7
 10
7334.627
 20
-8549.970
 30
-1269.304
 70
    32
  0
VERTEX
  8
M66LXLIFT
 62
7
 10
7332.138
 20
-8538.375
 30
-1271.003
 70
    32
  0
VERTEX
  8
M66LXLIFT
 62
7
 10
7327.758
 20
-8520.675
 30
-1273.657
 70
    32
  0
VERTEX
  8
M66LXLIFT
 62
7
 10
7322.622
 20
-8508.057
 30
-1275.757
 70
    32
  0
VERTEX
  8
M66LXLIFT
 62
7
 10
7315.474
 20
-8490.495
 30
-1279.375
 70
    32
  0
VERTEX
  8
M66LXLIFT
 62
7
 10
7312.589
 20
-8483.407
 30
-1280.835
 70
    32
  0
VERTEX
  8
M66LXLIFT
 62
7
 10
7301.791
 20
-8456.879
 30
-1285.293
 70
    32
  0
VERTEX
  8
M66LXLIFT
 62
7
 10
7301.580
 20
-8456.360
 30
-1285.373
 70
    32
  0
VERTEX
  8
M66LXLIFT
 62
7
 10
7301.798
 20
-8456.848
 30
-1285.297
 70
    32
  0
VERTEX
  8
M66LXLIFT
 62
7
 10
7286.328
 20
-8422.221
 30
-1290.713
 70
    32
  0
VERTEX
  8
M66LXLIFT
 62
7
 10
7278.146
 20
-8412.914
 30
-1292.318
 70
    32
  0
VERTEX
  8
M66LXLIFT
 62
7
 10
7274.734
 20
-8411.224
 30
-1292.681
 70
    32
  0
VERTEX
  8
M66LXLIFT
 62
7
 10
7269.091
 20
-8408.429
 30
-1292.799
 70
    32
  0
VERTEX
  8
M66LXLIFT
 62
7
 10
7267.319
 20
-8402.315
 30
-1292.858
 70
    32
  0
VERTEX
  8
M66LXLIFT
 62
7
 10
7269.443
 20
-8399.030
 30
-1292.832
 70
    32
  0
VERTEX
  8
M66LXLIFT
 62
7
 10
7269.844
 20
-8394.432
 30
-1292.844
 70
    32
  0
VERTEX
  8
M66LXLIFT
 62
7
 10
7277.992
 20
-8388.371
 30
-1292.717
 70
    32
  0
VERTEX
  8
M66LXLIFT
 62
7
 10
7279.802
 20
-8366.744
 30
-1292.774
 70
    32
  0
VERTEX
  8
M66LXLIFT
 62
7
 10
7280.115
 20
-8363.004
 30
-1292.852
 70
    32
  0
VERTEX
  8
M66LXLIFT
 62
7
 10
7280.407
 20
-8357.875
 30
-1292.959
 70
    32
  0
VERTEX
  8
M66LXLIFT
 62
7
 10
7280.825
 20
-8354.632
 30
-1293.026
 70
    32
  0
VERTEX
  8
M66LXLIFT
 62
7
 10
7281.111
 20
-8352.415
 30
-1293.026
 70
    32
  0
VERTEX
  8
M66LXLIFT
 62
7
 10
7281.380
 20
-8350.326
 30
-1293.026
 70
    32
  0
VERTEX
  8
M66LXLIFT
 62
7
 10
7280.186
 20
-8341.445
 30
-1293.026
 70
    32
  0
VERTEX
  8
M66LXLIFT
 62
7
 10
7280.645
 20
-8340.411
 30
-1293.026
 70
    32
  0
VERTEX
  8
M66LXLIFT
 62
7
 10
7280.497
 20
-8339.906
 30
-1293.026
 70
    32
  0
VERTEX
  8
M66LXLIFT
 62
7
 10
7278.067
 20
-8331.645
 30
-1293.026
 70
    32
  0
VERTEX
  8
M66LXLIFT
 62
7
 10
7275.904
 20
-8324.292
 30
-1293.026
 70
    32
  0
VERTEX
  8
M66LXLIFT
 62
7
 10
7276.670
 20
-8323.186
 30
-1293.026
 70
    32
  0
VERTEX
  8
M66LXLIFT
 62
7
 10
7275.278
 20
-8320.565
 30
-1293.026
 70
    32
  0
VERTEX
  8
M66LXLIFT
 62
7
 10
7272.664
 20
-8315.642
 30
-1293.026
 70
    32
  0
VERTEX
  8
M66LXLIFT
 62
7
 10
7264.673
 20
-8308.729
 30
-1293.026
 70
    32
  0
VERTEX
  8
M66LXLIFT
 62
7
 10
7272.645
 20
-8300.204
 30
-1293.026
 70
    32
  0
VERTEX
  8
M66LXLIFT
 62
7
 10
7278.000
 20
-8305.247
 30
-1293.026
 70
    32
  0
VERTEX
  8
M66LXLIFT
 62
7
 10
7281.278
 20
-8303.399
 30
-1293.026
 70
    32
  0
VERTEX
  8
M66LXLIFT
 62
7
 10
7286.286
 20
-8302.602
 30
-1293.026
 70
    32
  0
VERTEX
  8
M66LXLIFT
 62
7
 10
7286.410
 20
-8302.815
 30
-1293.026
 70
    32
  0
VERTEX
  8
M66LXLIFT
 62
7
 10
7291.449
 20
-8311.483
 30
-1293.026
 70
    32
  0
VERTEX
  8
M66LXLIFT
 62
7
 10
7294.022
 20
-8310.742
 30
-1293.026
 70
    32
  0
VERTEX
  8
M66LXLIFT
 62
7
 10
7296.614
 20
-8315.354
 30
-1293.026
 70
    32
  0
VERTEX
  8
M66LXLIFT
 62
7
 10
7303.656
 20
-8315.513
 30
-1293.026
 70
    32
  0
VERTEX
  8
M66LXLIFT
 62
7
 10
7306.051
 20
-8319.213
 30
-1293.026
 70
    32
  0
VERTEX
  8
M66LXLIFT
 62
7
 10
7306.402
 20
-8319.678
 30
-1293.026
 70
    32
  0
VERTEX
  8
M66LXLIFT
 62
7
 10
7313.430
 20
-8328.983
 30
-1293.026
 70
    32
  0
VERTEX
  8
M66LXLIFT
 62
7
 10
7310.555
 20
-8338.353
 30
-1293.026
 70
    32
  0
VERTEX
  8
M66LXLIFT
 62
7
 10
7311.747
 20
-8345.225
 30
-1293.026
 70
    32
  0
VERTEX
  8
M66LXLIFT
 62
7
 10
7312.139
 20
-8347.489
 30
-1293.026
 70
    32
  0
VERTEX
  8
M66LXLIFT
 62
7
 10
7312.293
 20
-8348.376
 30
-1293.026
 70
    32
  0
VERTEX
  8
M66LXLIFT
 62
7
 10
7312.170
 20
-8348.695
 30
-1293.026
 70
    32
  0
VERTEX
  8
M66LXLIFT
 62
7
 10
7313.781
 20
-8355.562
 30
-1293.026
 70
    32
  0
VERTEX
  8
M66LXLIFT
 62
7
 10
7315.448
 20
-8362.670
 30
-1292.880
 70
    32
  0
VERTEX
  8
M66LXLIFT
 62
7
 10
7311.355
 20
-8370.088
 30
-1292.724
 70
    32
  0
VERTEX
  8
M66LXLIFT
 62
7
 10
7309.464
 20
-8379.420
 30
-1292.529
 70
    32
  0
VERTEX
  8
M66LXLIFT
 62
7
 10
7304.494
 20
-8380.470
 30
-1292.505
 70
    32
  0
VERTEX
  8
M66LXLIFT
 62
7
 10
7301.812
 20
-8383.506
 30
-1292.440
 70
    32
  0
VERTEX
  8
M66LXLIFT
 62
7
 10
7299.135
 20
-8389.023
 30
-1292.324
 70
    32
  0
VERTEX
  8
M66LXLIFT
 62
7
 10
7298.926
 20
-8389.215
 30
-1292.320
 70
    32
  0
VERTEX
  8
M66LXLIFT
 62
7
 10
7297.937
 20
-8390.120
 30
-1292.335
 70
    32
  0
VERTEX
  8
M66LXLIFT
 62
7
 10
7296.967
 20
-8394.301
 30
-1292.335
 70
    32
  0
VERTEX
  8
M66LXLIFT
 62
7
 10
7296.641
 20
-8394.625
 30
-1292.340
 70
    32
  0
VERTEX
  8
M66LXLIFT
 62
7
 10
7295.142
 20
-8400.178
 30
-1292.345
 70
    32
  0
VERTEX
  8
M66LXLIFT
 62
7
 10
7293.432
 20
-8407.383
 30
-1292.346
 70
    32
  0
VERTEX
  8
M66LXLIFT
 62
7
 10
7293.372
 20
-8408.153
 30
-1292.344
 70
    32
  0
VERTEX
  8
M66LXLIFT
 62
7
 10
7293.431
 20
-8408.689
 30
-1292.341
 70
    32
  0
VERTEX
  8
M66LXLIFT
 62
7
 10
7293.599
 20
-8410.228
 30
-1292.119
 70
    32
  0
VERTEX
  8
M66LXLIFT
 62
7
 10
7297.931
 20
-8420.752
 30
-1290.487
 70
    32
  0
VERTEX
  8
M66LXLIFT
 62
7
 10
7297.925
 20
-8420.856
 30
-1290.473
 70
    32
  0
VERTEX
  8
M66LXLIFT
 62
7
 10
7305.630
 20
-8439.786
 30
-1287.540
 70
    32
  0
VERTEX
  8
M66LXLIFT
 62
7
 10
7306.601
 20
-8442.171
 30
-1287.139
 70
    32
  0
VERTEX
  8
M66LXLIFT
 62
7
 10
7321.871
 20
-8479.687
 30
-1280.835
 70
    32
  0
VERTEX
  8
M66LXLIFT
 62
7
 10
7324.519
 20
-8486.191
 30
-1279.495
 70
    32
  0
VERTEX
  8
M66LXLIFT
 62
7
 10
7336.621
 20
-8515.923
 30
-1273.370
 70
    32
  0
VERTEX
  8
M66LXLIFT
 62
7
 10
7336.631
 20
-8515.918
 30
-1273.371
 70
    32
  0
VERTEX
  8
M66LXLIFT
 62
7
 10
7343.704
 20
-8533.306
 30
-1270.444
 70
    32
  0
VERTEX
  8
M66LXLIFT
 62
7
 10
7350.302
 20
-8532.320
 30
-1269.888
 70
    32
  0
SEQEND
  8
M66LXLIFT
  0
POLYLINE
  8
M66LXLIFT
 62
5
 66
     1
 70
     9
  0
VERTEX
  8
M66LXLIFT
 62
5
 10
7500.611
 20
-8618.663
 30
-1388.467
 70
    32
  0
VERTEX
  8
M66LXLIFT
 62
5
 10
7499.688
 20
-8617.755
 30
-1388.000
 70
    32
  0
VERTEX
  8
M66LXLIFT
 62
5
 10
7492.037
 20
-8599.335
 30
-1388.000
 70
    32
  0
VERTEX
  8
M66LXLIFT
 62
5
 10
7491.524
 20
-8593.443
 30
-1388.000
 70
    32
  0
VERTEX
  8
M66LXLIFT
 62
5
 10
7492.833
 20
-8587.591
 30
-1388.000
 70
    32
  0
VERTEX
  8
M66LXLIFT
 62
5
 10
7488.246
 20
-8582.045
 30
-1388.000
 70
    32
  0
VERTEX
  8
M66LXLIFT
 62
5
 10
7476.063
 20
-8573.635
 30
-1388.000
 70
    32
  0
VERTEX
  8
M66LXLIFT
 62
5
 10
7464.951
 20
-8564.577
 30
-1388.000
 70
    32
  0
VERTEX
  8
M66LXLIFT
 62
5
 10
7470.123
 20
-8556.629
 30
-1388.000
 70
    32
  0
VERTEX
  8
M66LXLIFT
 62
5
 10
7488.640
 20
-8567.637
 30
-1388.000
 70
    32
  0
VERTEX
  8
M66LXLIFT
 62
5
 10
7492.990
 20
-8572.651
 30
-1388.000
 70
    32
  0
VERTEX
  8
M66LXLIFT
 62
5
 10
7503.212
 20
-8588.805
 30
-1388.000
 70
    32
  0
VERTEX
  8
M66LXLIFT
 62
5
 10
7505.829
 20
-8594.499
 30
-1388.000
 70
    32
  0
VERTEX
  8
M66LXLIFT
 62
5
 10
7517.724
 20
-8604.904
 30
-1388.000
 70
    32
  0
VERTEX
  8
M66LXLIFT
 62
5
 10
7514.014
 20
-8611.447
 30
-1388.000
 70
    32
  0
VERTEX
  8
M66LXLIFT
 62
5
 10
7512.347
 20
-8617.236
 30
-1388.623
 70
    32
  0
SEQEND
  8
M66LXLIFT
  0
LINE
  8
M66LXLIFT
 62
7
 10
7292.883
 20
-8360.950
 30
-1293.000
 11
7338.952
 21
-8341.747
 31
-1371.000
  0
POLYLINE
  8
M66LXLIFT
 62
4
 66
     1
 70
     9
  0
VERTEX
  8
M66LXLIFT
 62
4
 10
7258.629
 20
-8872.461
 30
-1305.906
 70
    32
  0
VERTEX
  8
M66LXLIFT
 62
4
 10
7252.413
 20
-8880.751
 30
-1305.906
 70
    32
  0
VERTEX
  8
M66LXLIFT
 62
4
 10
7247.593
 20
-8887.180
 30
-1305.906
 70
    32
  0
VERTEX
  8
M66LXLIFT
 62
4
 10
7244.729
 20
-8891.762
 30
-1305.906
 70
    32
  0
VERTEX
  8
M66LXLIFT
 62
4
 10
7237.327
 20
-8899.636
 30
-1305.906
 70
    32
  0
VERTEX
  8
M66LXLIFT
 62
4
 10
7236.579
 20
-8899.972
 30
-1305.906
 70
    32
  0
VERTEX
  8
M66LXLIFT
 62
4
 10
7223.426
 20
-8905.883
 30
-1303.761
 70
    32
  0
VERTEX
  8
M66LXLIFT
 62
4
 10
7212.054
 20
-8913.195
 30
-1301.614
 70
    32
  0
VERTEX
  8
M66LXLIFT
 62
4
 10
7211.495
 20
-8913.554
 30
-1301.490
 70
    32
  0
VERTEX
  8
M66LXLIFT
 62
4
 10
7210.497
 20
-8916.134
 30
-1300.927
 70
    32
  0
VERTEX
  8
M66LXLIFT
 62
4
 10
7208.257
 20
-8921.922
 30
-1300.771
 70
    32
  0
VERTEX
  8
M66LXLIFT
 62
4
 10
7202.180
 20
-8929.299
 30
-1300.493
 70
    32
  0
VERTEX
  8
M66LXLIFT
 62
4
 10
7207.467
 20
-8942.009
 30
-1300.398
 70
    32
  0
VERTEX
  8
M66LXLIFT
 62
4
 10
7206.437
 20
-8946.548
 30
-1300.293
 70
    32
  0
VERTEX
  8
M66LXLIFT
 62
4
 10
7209.133
 20
-8956.293
 30
-1300.187
 70
    32
  0
VERTEX
  8
M66LXLIFT
 62
4
 10
7209.337
 20
-8967.201
 30
-1300.000
 70
    32
  0
VERTEX
  8
M66LXLIFT
 62
4
 10
7203.380
 20
-8981.463
 30
-1299.604
 70
    32
  0
VERTEX
  8
M66LXLIFT
 62
4
 10
7195.175
 20
-8994.759
 30
-1299.170
 70
    32
  0
VERTEX
  8
M66LXLIFT
 62
4
 10
7199.268
 20
-8999.867
 30
-1299.180
 70
    32
  0
VERTEX
  8
M66LXLIFT
 62
4
 10
7200.285
 20
-9001.137
 30
-1299.146
 70
    32
  0
VERTEX
  8
M66LXLIFT
 62
4
 10
7200.129
 20
-9002.548
 30
-1299.096
 70
    32
  0
VERTEX
  8
M66LXLIFT
 62
4
 10
7194.195
 20
-9023.548
 30
-1298.319
 70
    32
  0
VERTEX
  8
M66LXLIFT
 62
4
 10
7203.807
 20
-9026.673
 30
-1298.301
 70
    32
  0
VERTEX
  8
M66LXLIFT
 62
4
 10
7206.876
 20
-9021.289
 30
-1298.515
 70
    32
  0
VERTEX
  8
M66LXLIFT
 62
4
 10
7207.438
 20
-9019.576
 30
-1298.579
 70
    32
  0
VERTEX
  8
M66LXLIFT
 62
4
 10
7214.281
 20
-8999.042
 30
-1299.348
 70
    32
  0
VERTEX
  8
M66LXLIFT
 62
4
 10
7223.695
 20
-8985.052
 30
-1299.916
 70
    32
  0
VERTEX
  8
M66LXLIFT
 62
4
 10
7243.208
 20
-8981.865
 30
-1300.207
 70
    32
  0
VERTEX
  8
M66LXLIFT
 62
4
 10
7251.373
 20
-8978.419
 30
-1300.401
 70
    32
  0
VERTEX
  8
M66LXLIFT
 62
4
 10
7250.640
 20
-8963.548
 30
-1300.905
 70
    32
  0
VERTEX
  8
M66LXLIFT
 62
4
 10
7243.675
 20
-8959.981
 30
-1300.963
 70
    32
  0
VERTEX
  8
M66LXLIFT
 62
4
 10
7241.500
 20
-8958.867
 30
-1300.929
 70
    32
  0
VERTEX
  8
M66LXLIFT
 62
4
 10
7237.720
 20
-8930.628
 30
-1301.335
 70
    32
  0
VERTEX
  8
M66LXLIFT
 62
4
 10
7236.820
 20
-8923.905
 30
-1302.421
 70
    32
  0
VERTEX
  8
M66LXLIFT
 62
4
 10
7237.240
 20
-8923.012
 30
-1302.624
 70
    32
  0
VERTEX
  8
M66LXLIFT
 62
4
 10
7242.008
 20
-8919.147
 30
-1303.824
 70
    32
  0
VERTEX
  8
M66LXLIFT
 62
4
 10
7243.273
 20
-8916.748
 30
-1304.384
 70
    32
  0
VERTEX
  8
M66LXLIFT
 62
4
 10
7247.569
 20
-8908.600
 30
-1305.906
 70
    32
  0
VERTEX
  8
M66LXLIFT
 62
4
 10
7250.371
 20
-8903.285
 30
-1305.906
 70
    32
  0
VERTEX
  8
M66LXLIFT
 62
4
 10
7255.626
 20
-8895.952
 30
-1305.906
 70
    32
  0
VERTEX
  8
M66LXLIFT
 62
4
 10
7256.561
 20
-8894.648
 30
-1305.906
 70
    32
  0
VERTEX
  8
M66LXLIFT
 62
4
 10
7258.243
 20
-8892.629
 30
-1305.906
 70
    32
  0
VERTEX
  8
M66LXLIFT
 62
4
 10
7265.258
 20
-8880.986
 30
-1305.906
 70
    32
  0
VERTEX
  8
M66LXLIFT
 62
4
 10
7266.959
 20
-8878.644
 30
-1305.906
 70
    32
  0
VERTEX
  8
M66LXLIFT
 62
4
 10
7258.629
 20
-8872.461
 30
-1305.906
 70
    32
  0
SEQEND
  8
M66LXLIFT
  0
POLYLINE
  8
M66LXLIFT
 62
6
 66
     1
 70
     9
  0
VERTEX
  8
M66LXLIFT
 62
6
 10
7166.794
 20
-9012.869
 30
-1320.000
 70
    32
  0
VERTEX
  8
M66LXLIFT
 62
6
 10
7162.855
 20
-9010.738
 30
-1320.000
 70
    32
  0
VERTEX
  8
M66LXLIFT
 62
6
 10
7152.668
 20
-9028.786
 30
-1320.000
 70
    32
  0
VERTEX
  8
M66LXLIFT
 62
6
 10
7142.693
 20
-9020.408
 30
-1320.000
 70
    32
  0
VERTEX
  8
M66LXLIFT
 62
6
 10
7142.047
 20
-9018.689
 30
-1320.000
 70
    32
  0
VERTEX
  8
M66LXLIFT
 62
6
 10
7140.919
 20
-9017.221
 30
-1320.000
 70
    32
  0
VERTEX
  8
M66LXLIFT
 62
6
 10
7131.597
 20
-9018.685
 30
-1320.000
 70
    32
  0
VERTEX
  8
M66LXLIFT
 62
6
 10
7126.931
 20
-9021.048
 30
-1320.000
 70
    32
  0
VERTEX
  8
M66LXLIFT
 62
6
 10
7125.306
 20
-9024.502
 30
-1320.000
 70
    32
  0
VERTEX
  8
M66LXLIFT
 62
6
 10
7122.556
 20
-9025.675
 30
-1320.000
 70
    32
  0
VERTEX
  8
M66LXLIFT
 62
6
 10
7116.369
 20
-9023.896
 30
-1320.000
 70
    32
  0
VERTEX
  8
M66LXLIFT
 62
6
 10
7108.924
 20
-9027.066
 30
-1320.000
 70
    32
  0
VERTEX
  8
M66LXLIFT
 62
6
 10
7105.508
 20
-9018.275
 30
-1320.000
 70
    32
  0
VERTEX
  8
M66LXLIFT
 62
6
 10
7119.595
 20
-9013.124
 30
-1320.000
 70
    32
  0
VERTEX
  8
M66LXLIFT
 62
6
 10
7121.604
 20
-9008.358
 30
-1320.000
 70
    32
  0
VERTEX
  8
M66LXLIFT
 62
6
 10
7127.299
 20
-9002.809
 30
-1320.000
 70
    32
  0
VERTEX
  8
M66LXLIFT
 62
6
 10
7131.600
 20
-8989.603
 30
-1320.000
 70
    32
  0
VERTEX
  8
M66LXLIFT
 62
6
 10
7137.925
 20
-8987.952
 30
-1320.000
 70
    32
  0
VERTEX
  8
M66LXLIFT
 62
6
 10
7143.357
 20
-8983.672
 30
-1320.000
 70
    32
  0
VERTEX
  8
M66LXLIFT
 62
6
 10
7145.823
 20
-8983.022
 30
-1320.000
 70
    32
  0
VERTEX
  8
M66LXLIFT
 62
6
 10
7156.494
 20
-8986.870
 30
-1320.000
 70
    32
  0
VERTEX
  8
M66LXLIFT
 62
6
 10
7161.193
 20
-8984.408
 30
-1320.000
 70
    32
  0
VERTEX
  8
M66LXLIFT
 62
6
 10
7162.244
 20
-8983.536
 30
-1320.000
 70
    32
  0
SEQEND
  8
M66LXLIFT
  0
POLYLINE
  8
M66LXLIFT
 62
7
 66
     1
 70
     9
  0
VERTEX
  8
M66LXLIFT
 62
7
 10
7160.229
 20
-9015.201
 30
-1312.000
 70
    32
  0
VERTEX
  8
M66LXLIFT
 62
7
 10
7152.668
 20
-9028.786
 30
-1312.000
 70
    32
  0
VERTEX
  8
M66LXLIFT
 62
7
 10
7142.693
 20
-9020.408
 30
-1312.000
 70
    32
  0
VERTEX
  8
M66LXLIFT
 62
7
 10
7142.047
 20
-9018.689
 30
-1312.000
 70
    32
  0
VERTEX
  8
M66LXLIFT
 62
7
 10
7140.919
 20
-9017.221
 30
-1312.000
 70
    32
  0
VERTEX
  8
M66LXLIFT
 62
7
 10
7131.597
 20
-9018.685
 30
-1312.000
 70
    32
  0
VERTEX
  8
M66LXLIFT
 62
7
 10
7126.931
 20
-9021.048
 30
-1312.000
 70
    32
  0
VERTEX
  8
M66LXLIFT
 62
7
 10
7125.306
 20
-9024.502
 30
-1312.000
 70
    32
  0
VERTEX
  8
M66LXLIFT
 62
7
 10
7122.556
 20
-9025.675
 30
-1312.000
 70
    32
  0
VERTEX
  8
M66LXLIFT
 62
7
 10
7116.369
 20
-9023.896
 30
-1312.000
 70
    32
  0
VERTEX
  8
M66LXLIFT
 62
7
 10
7108.924
 20
-9027.066
 30
-1312.000
 70
    32
  0
VERTEX
  8
M66LXLIFT
 62
7
 10
7105.508
 20
-9018.275
 30
-1312.000
 70
    32
  0
VERTEX
  8
M66LXLIFT
 62
7
 10
7119.595
 20
-9013.124
 30
-1312.000
 70
    32
  0
VERTEX
  8
M66LXLIFT
 62
7
 10
7121.604
 20
-9008.358
 30
-1312.000
 70
    32
  0
VERTEX
  8
M66LXLIFT
 62
7
 10
7127.299
 20
-9002.809
 30
-1312.000
 70
    32
  0
VERTEX
  8
M66LXLIFT
 62
7
 10
7131.600
 20
-8989.603
 30
-1312.000
 70
    32
  0
VERTEX
  8
M66LXLIFT
 62
7
 10
7137.925
 20
-8987.952
 30
-1312.000
 70
    32
  0
VERTEX
  8
M66LXLIFT
 62
7
 10
7143.357
 20
-8983.672
 30
-1312.000
 70
    32
  0
VERTEX
  8
M66LXLIFT
 62
7
 10
7145.823
 20
-8983.022
 30
-1312.000
 70
    32
  0
VERTEX
  8
M66LXLIFT
 62
7
 10
7156.494
 20
-8986.870
 30
-1312.000
 70
    32
  0
SEQEND
  8
M66LXLIFT
  0
POLYLINE
  8
M66LXLIFT
 62
7
 66
     1
 70
     9
  0
VERTEX
  8
M66LXLIFT
 62
7
 10
7500.611
 20
-8618.663
 30
-1396.467
 70
    32
  0
VERTEX
  8
M66LXLIFT
 62
7
 10
7499.688
 20
-8617.755
 30
-1396.000
 70
    32
  0
VERTEX
  8
M66LXLIFT
 62
7
 10
7492.037
 20
-8599.335
 30
-1396.000
 70
    32
  0
VERTEX
  8
M66LXLIFT
 62
7
 10
7491.524
 20
-8593.443
 30
-1396.000
 70
    32
  0
VERTEX
  8
M66LXLIFT
 62
7
 10
7492.833
 20
-8587.591
 30
-1396.000
 70
    32
  0
VERTEX
  8
M66LXLIFT
 62
7
 10
7488.246
 20
-8582.045
 30
-1396.000
 70
    32
  0
VERTEX
  8
M66LXLIFT
 62
7
 10
7476.063
 20
-8573.635
 30
-1396.000
 70
    32
  0
VERTEX
  8
M66LXLIFT
 62
7
 10
7464.951
 20
-8564.577
 30
-1396.000
 70
    32
  0
VERTEX
  8
M66LXLIFT
 62
7
 10
7470.123
 20
-8556.629
 30
-1396.000
 70
    32
  0
VERTEX
  8
M66LXLIFT
 62
7
 10
7488.640
 20
-8567.637
 30
-1396.000
 70
    32
  0
VERTEX
  8
M66LXLIFT
 62
7
 10
7492.990
 20
-8572.651
 30
-1396.000
 70
    32
  0
VERTEX
  8
M66LXLIFT
 62
7
 10
7503.212
 20
-8588.805
 30
-1396.000
 70
    32
  0
VERTEX
  8
M66LXLIFT
 62
7
 10
7505.829
 20
-8594.499
 30
-1396.000
 70
    32
  0
VERTEX
  8
M66LXLIFT
 62
7
 10
7517.724
 20
-8604.904
 30
-1396.000
 70
    32
  0
VERTEX
  8
M66LXLIFT
 62
7
 10
7514.014
 20
-8611.447
 30
-1396.000
 70
    32
  0
VERTEX
  8
M66LXLIFT
 62
7
 10
7512.347
 20
-8617.236
 30
-1396.623
 70
    32
  0
SEQEND
  8
M66LXLIFT
  0
LINE
  8
M66LXLIFT
 62
1
 10
7269.631
 20
-8750.993
 30
-1323.000
 11
7317.457
 21
-8773.998
 31
-1363.000
  0
TEXT
  8
M66LXLIFT
 62
1
 10
7293.544
 20
-8758.355
 30
-1343.000
 40
2.362
  1
UPH
 41
 1.0 
  0
ENDSEC
  0
EOF
