999
********************************
999
*   DXF File - Entities Only   *
999
*        3D Data Format        *
999
*     Output from ENVISAGE     *
999
*     31-Dec-2007 15:36:53     *
999
********************************
  0
SECTION 
  2
HEADER
  9
$ACADVER
  1
AC1009
  9
$EXTMIN
 10
-290000.000
 20
-250000.000
 30
-4000.000
  9
$EXTMAX
 10
320000.000
 20
160000.000
 30
6000.000
  0
ENDSEC
  0
SECTION
  2
ENTITIES
  0
POLYLINE
  8
M68LXLIFT
 62
3
 66
     1
 70
     9
  0
VERTEX
  8
M68LXLIFT
 62
3
 10
7384.929
 20
-8347.051
 30
-1481.000
 70
    32
  0
VERTEX
  8
M68LXLIFT
 62
3
 10
7404.413
 20
-8374.915
 30
-1481.000
 70
    32
  0
VERTEX
  8
M68LXLIFT
 62
3
 10
7413.042
 20
-8395.681
 30
-1481.000
 70
    32
  0
VERTEX
  8
M68LXLIFT
 62
3
 10
7418.912
 20
-8409.730
 30
-1481.000
 70
    32
  0
VERTEX
  8
M68LXLIFT
 62
3
 10
7426.774
 20
-8408.197
 30
-1481.000
 70
    32
  0
VERTEX
  8
M68LXLIFT
 62
3
 10
7430.335
 20
-8412.770
 30
-1481.000
 70
    32
  0
VERTEX
  8
M68LXLIFT
 62
3
 10
7435.119
 20
-8421.589
 30
-1481.000
 70
    32
  0
VERTEX
  8
M68LXLIFT
 62
3
 10
7443.555
 20
-8430.292
 30
-1481.000
 70
    32
  0
VERTEX
  8
M68LXLIFT
 62
3
 10
7456.788
 20
-8440.105
 30
-1481.000
 70
    32
  0
VERTEX
  8
M68LXLIFT
 62
3
 10
7467.019
 20
-8449.874
 30
-1481.000
 70
    32
  0
VERTEX
  8
M68LXLIFT
 62
3
 10
7479.750
 20
-8437.738
 30
-1481.000
 70
    32
  0
VERTEX
  8
M68LXLIFT
 62
3
 10
7480.357
 20
-8428.921
 30
-1481.000
 70
    32
  0
VERTEX
  8
M68LXLIFT
 62
3
 10
7473.566
 20
-8412.487
 30
-1481.000
 70
    32
  0
VERTEX
  8
M68LXLIFT
 62
3
 10
7467.525
 20
-8393.839
 30
-1481.000
 70
    32
  0
VERTEX
  8
M68LXLIFT
 62
3
 10
7456.619
 20
-8387.549
 30
-1481.000
 70
    32
  0
VERTEX
  8
M68LXLIFT
 62
3
 10
7448.593
 20
-8362.479
 30
-1481.000
 70
    32
  0
VERTEX
  8
M68LXLIFT
 62
3
 10
7438.154
 20
-8347.477
 30
-1481.000
 70
    32
  0
VERTEX
  8
M68LXLIFT
 62
3
 10
7438.392
 20
-8332.779
 30
-1481.000
 70
    32
  0
VERTEX
  8
M68LXLIFT
 62
3
 10
7429.963
 20
-8320.441
 30
-1481.000
 70
    32
  0
VERTEX
  8
M68LXLIFT
 62
3
 10
7415.142
 20
-8320.185
 30
-1481.000
 70
    32
  0
SEQEND
  8
M68LXLIFT
  0
POLYLINE
  8
M68LXLIFT
 62
3
 66
     1
 70
     9
  0
VERTEX
  8
M68LXLIFT
 62
3
 10
7422.163
 20
-8474.408
 30
-1451.000
 70
    32
  0
VERTEX
  8
M68LXLIFT
 62
3
 10
7440.860
 20
-8456.944
 30
-1451.000
 70
    32
  0
VERTEX
  8
M68LXLIFT
 62
3
 10
7438.361
 20
-8444.196
 30
-1451.000
 70
    32
  0
VERTEX
  8
M68LXLIFT
 62
3
 10
7436.852
 20
-8422.001
 30
-1451.000
 70
    32
  0
VERTEX
  8
M68LXLIFT
 62
3
 10
7439.167
 20
-8406.598
 30
-1451.000
 70
    32
  0
VERTEX
  8
M68LXLIFT
 62
3
 10
7425.103
 20
-8375.528
 30
-1451.000
 70
    32
  0
VERTEX
  8
M68LXLIFT
 62
3
 10
7420.274
 20
-8375.112
 30
-1451.000
 70
    32
  0
VERTEX
  8
M68LXLIFT
 62
3
 10
7419.457
 20
-8365.603
 30
-1451.000
 70
    32
  0
VERTEX
  8
M68LXLIFT
 62
3
 10
7421.341
 20
-8348.324
 30
-1451.000
 70
    32
  0
VERTEX
  8
M68LXLIFT
 62
3
 10
7417.484
 20
-8345.411
 30
-1451.000
 70
    32
  0
VERTEX
  8
M68LXLIFT
 62
3
 10
7418.892
 20
-8338.840
 30
-1451.000
 70
    32
  0
VERTEX
  8
M68LXLIFT
 62
3
 10
7432.802
 20
-8318.397
 30
-1451.000
 70
    32
  0
VERTEX
  8
M68LXLIFT
 62
3
 10
7426.976
 20
-8307.508
 30
-1451.000
 70
    32
  0
VERTEX
  8
M68LXLIFT
 62
3
 10
7415.087
 20
-8313.321
 30
-1451.000
 70
    32
  0
VERTEX
  8
M68LXLIFT
 62
3
 10
7399.263
 20
-8311.324
 30
-1451.000
 70
    32
  0
VERTEX
  8
M68LXLIFT
 62
3
 10
7396.023
 20
-8293.964
 30
-1451.000
 70
    32
  0
VERTEX
  8
M68LXLIFT
 62
3
 10
7385.632
 20
-8293.907
 30
-1451.000
 70
    32
  0
VERTEX
  8
M68LXLIFT
 62
3
 10
7387.599
 20
-8309.150
 30
-1451.000
 70
    32
  0
VERTEX
  8
M68LXLIFT
 62
3
 10
7378.852
 20
-8303.996
 30
-1451.000
 70
    32
  0
VERTEX
  8
M68LXLIFT
 62
3
 10
7373.431
 20
-8293.350
 30
-1451.000
 70
    32
  0
VERTEX
  8
M68LXLIFT
 62
3
 10
7365.309
 20
-8260.532
 30
-1451.000
 70
    32
  0
VERTEX
  8
M68LXLIFT
 62
3
 10
7355.170
 20
-8261.826
 30
-1451.000
 70
    32
  0
VERTEX
  8
M68LXLIFT
 62
3
 10
7350.612
 20
-8270.343
 30
-1451.000
 70
    32
  0
VERTEX
  8
M68LXLIFT
 62
3
 10
7343.684
 20
-8275.149
 30
-1451.000
 70
    32
  0
VERTEX
  8
M68LXLIFT
 62
3
 10
7343.899
 20
-8287.206
 30
-1451.000
 70
    32
  0
VERTEX
  8
M68LXLIFT
 62
3
 10
7340.305
 20
-8291.909
 30
-1451.000
 70
    32
  0
VERTEX
  8
M68LXLIFT
 62
3
 10
7346.378
 20
-8310.537
 30
-1451.000
 70
    32
  0
VERTEX
  8
M68LXLIFT
 62
3
 10
7354.778
 20
-8327.733
 30
-1451.000
 70
    32
  0
VERTEX
  8
M68LXLIFT
 62
3
 10
7358.729
 20
-8346.758
 30
-1451.000
 70
    32
  0
VERTEX
  8
M68LXLIFT
 62
3
 10
7370.757
 20
-8370.343
 30
-1451.000
 70
    32
  0
VERTEX
  8
M68LXLIFT
 62
3
 10
7376.792
 20
-8388.339
 30
-1451.000
 70
    32
  0
VERTEX
  8
M68LXLIFT
 62
3
 10
7376.839
 20
-8394.798
 30
-1451.000
 70
    32
  0
VERTEX
  8
M68LXLIFT
 62
3
 10
7374.935
 20
-8404.056
 30
-1451.000
 70
    32
  0
VERTEX
  8
M68LXLIFT
 62
3
 10
7383.916
 20
-8417.950
 30
-1451.000
 70
    32
  0
VERTEX
  8
M68LXLIFT
 62
3
 10
7400.727
 20
-8435.931
 30
-1451.000
 70
    32
  0
VERTEX
  8
M68LXLIFT
 62
3
 10
7408.670
 20
-8445.547
 30
-1451.000
 70
    32
  0
VERTEX
  8
M68LXLIFT
 62
3
 10
7414.012
 20
-8461.757
 30
-1451.000
 70
    32
  0
VERTEX
  8
M68LXLIFT
 62
3
 10
7411.734
 20
-8473.720
 30
-1451.000
 70
    32
  0
SEQEND
  8
M68LXLIFT
  0
POLYLINE
  8
M68LXLIFT
 62
3
 66
     1
 70
     9
  0
VERTEX
  8
M68LXLIFT
 62
3
 10
7513.812
 20
-8460.872
 30
-1536.000
 70
    32
  0
VERTEX
  8
M68LXLIFT
 62
3
 10
7510.297
 20
-8447.466
 30
-1536.000
 70
    32
  0
VERTEX
  8
M68LXLIFT
 62
3
 10
7506.335
 20
-8431.428
 30
-1536.000
 70
    32
  0
VERTEX
  8
M68LXLIFT
 62
3
 10
7489.392
 20
-8401.976
 30
-1536.000
 70
    32
  0
VERTEX
  8
M68LXLIFT
 62
3
 10
7483.970
 20
-8384.730
 30
-1536.000
 70
    32
  0
VERTEX
  8
M68LXLIFT
 62
3
 10
7491.496
 20
-8376.192
 30
-1536.000
 70
    32
  0
VERTEX
  8
M68LXLIFT
 62
3
 10
7491.876
 20
-8368.096
 30
-1536.000
 70
    32
  0
VERTEX
  8
M68LXLIFT
 62
3
 10
7475.975
 20
-8358.537
 30
-1536.000
 70
    32
  0
VERTEX
  8
M68LXLIFT
 62
3
 10
7484.856
 20
-8351.066
 30
-1536.000
 70
    32
  0
VERTEX
  8
M68LXLIFT
 62
3
 10
7473.888
 20
-8335.364
 30
-1536.000
 70
    32
  0
VERTEX
  8
M68LXLIFT
 62
3
 10
7465.616
 20
-8340.726
 30
-1536.000
 70
    32
  0
VERTEX
  8
M68LXLIFT
 62
3
 10
7466.497
 20
-8347.870
 30
-1536.000
 70
    32
  0
VERTEX
  8
M68LXLIFT
 62
3
 10
7463.083
 20
-8351.655
 30
-1536.000
 70
    32
  0
VERTEX
  8
M68LXLIFT
 62
3
 10
7454.470
 20
-8348.695
 30
-1536.000
 70
    32
  0
VERTEX
  8
M68LXLIFT
 62
3
 10
7450.573
 20
-8342.946
 30
-1536.000
 70
    32
  0
VERTEX
  8
M68LXLIFT
 62
3
 10
7445.134
 20
-8332.092
 30
-1536.000
 70
    32
  0
VERTEX
  8
M68LXLIFT
 62
3
 10
7430.843
 20
-8315.048
 30
-1536.000
 70
    32
  0
VERTEX
  8
M68LXLIFT
 62
3
 10
7401.863
 20
-8294.569
 30
-1536.000
 70
    32
  0
VERTEX
  8
M68LXLIFT
 62
3
 10
7385.785
 20
-8302.851
 30
-1536.000
 70
    32
  0
VERTEX
  8
M68LXLIFT
 62
3
 10
7385.407
 20
-8311.825
 30
-1536.000
 70
    32
  0
VERTEX
  8
M68LXLIFT
 62
3
 10
7398.655
 20
-8320.637
 30
-1536.000
 70
    32
  0
VERTEX
  8
M68LXLIFT
 62
3
 10
7404.091
 20
-8330.174
 30
-1536.000
 70
    32
  0
VERTEX
  8
M68LXLIFT
 62
3
 10
7404.760
 20
-8337.038
 30
-1536.000
 70
    32
  0
VERTEX
  8
M68LXLIFT
 62
3
 10
7408.183
 20
-8342.594
 30
-1536.000
 70
    32
  0
VERTEX
  8
M68LXLIFT
 62
3
 10
7414.950
 20
-8344.858
 30
-1536.000
 70
    32
  0
VERTEX
  8
M68LXLIFT
 62
3
 10
7423.086
 20
-8353.017
 30
-1536.000
 70
    32
  0
VERTEX
  8
M68LXLIFT
 62
3
 10
7427.856
 20
-8369.106
 30
-1536.000
 70
    32
  0
VERTEX
  8
M68LXLIFT
 62
3
 10
7439.251
 20
-8380.856
 30
-1536.000
 70
    32
  0
VERTEX
  8
M68LXLIFT
 62
3
 10
7453.314
 20
-8392.352
 30
-1536.000
 70
    32
  0
VERTEX
  8
M68LXLIFT
 62
3
 10
7464.791
 20
-8420.099
 30
-1536.000
 70
    32
  0
VERTEX
  8
M68LXLIFT
 62
3
 10
7474.539
 20
-8439.141
 30
-1536.000
 70
    32
  0
VERTEX
  8
M68LXLIFT
 62
3
 10
7479.359
 20
-8454.421
 30
-1536.000
 70
    32
  0
VERTEX
  8
M68LXLIFT
 62
3
 10
7497.786
 20
-8462.955
 30
-1536.000
 70
    32
  0
SEQEND
  8
M68LXLIFT
  0
POLYLINE
  8
M68LXLIFT
 62
3
 66
     1
 70
     9
  0
VERTEX
  8
M68LXLIFT
 62
3
 10
7428.469
 20
-8520.380
 30
-1431.000
 70
    32
  0
VERTEX
  8
M68LXLIFT
 62
3
 10
7419.600
 20
-8507.943
 30
-1431.000
 70
    32
  0
VERTEX
  8
M68LXLIFT
 62
3
 10
7419.569
 20
-8497.728
 30
-1431.000
 70
    32
  0
VERTEX
  8
M68LXLIFT
 62
3
 10
7428.787
 20
-8468.620
 30
-1431.000
 70
    32
  0
VERTEX
  8
M68LXLIFT
 62
3
 10
7433.577
 20
-8460.699
 30
-1431.000
 70
    32
  0
VERTEX
  8
M68LXLIFT
 62
3
 10
7435.050
 20
-8445.493
 30
-1431.000
 70
    32
  0
VERTEX
  8
M68LXLIFT
 62
3
 10
7413.377
 20
-8375.162
 30
-1431.000
 70
    32
  0
VERTEX
  8
M68LXLIFT
 62
3
 10
7414.729
 20
-8371.715
 30
-1431.000
 70
    32
  0
VERTEX
  8
M68LXLIFT
 62
3
 10
7395.342
 20
-8346.989
 30
-1431.000
 70
    32
  0
VERTEX
  8
M68LXLIFT
 62
3
 10
7404.479
 20
-8334.344
 30
-1431.000
 70
    32
  0
VERTEX
  8
M68LXLIFT
 62
3
 10
7411.964
 20
-8332.308
 30
-1431.000
 70
    32
  0
VERTEX
  8
M68LXLIFT
 62
3
 10
7424.770
 20
-8319.857
 30
-1431.000
 70
    32
  0
VERTEX
  8
M68LXLIFT
 62
3
 10
7422.586
 20
-8310.723
 30
-1431.000
 70
    32
  0
VERTEX
  8
M68LXLIFT
 62
3
 10
7414.420
 20
-8305.900
 30
-1431.000
 70
    32
  0
VERTEX
  8
M68LXLIFT
 62
3
 10
7405.907
 20
-8305.852
 30
-1431.000
 70
    32
  0
VERTEX
  8
M68LXLIFT
 62
3
 10
7401.097
 20
-8313.018
 30
-1431.000
 70
    32
  0
VERTEX
  8
M68LXLIFT
 62
3
 10
7393.385
 20
-8315.336
 30
-1431.000
 70
    32
  0
VERTEX
  8
M68LXLIFT
 62
3
 10
7382.961
 20
-8311.892
 30
-1431.000
 70
    32
  0
VERTEX
  8
M68LXLIFT
 62
3
 10
7380.305
 20
-8314.344
 30
-1431.000
 70
    32
  0
VERTEX
  8
M68LXLIFT
 62
3
 10
7384.567
 20
-8321.134
 30
-1431.000
 70
    32
  0
VERTEX
  8
M68LXLIFT
 62
3
 10
7377.497
 20
-8321.975
 30
-1431.000
 70
    32
  0
VERTEX
  8
M68LXLIFT
 62
3
 10
7373.998
 20
-8316.919
 30
-1431.000
 70
    32
  0
VERTEX
  8
M68LXLIFT
 62
3
 10
7377.232
 20
-8288.049
 30
-1431.000
 70
    32
  0
VERTEX
  8
M68LXLIFT
 62
3
 10
7374.934
 20
-8277.020
 30
-1431.000
 70
    32
  0
VERTEX
  8
M68LXLIFT
 62
3
 10
7368.203
 20
-8271.330
 30
-1431.000
 70
    32
  0
VERTEX
  8
M68LXLIFT
 62
3
 10
7354.520
 20
-8272.887
 30
-1431.000
 70
    32
  0
VERTEX
  8
M68LXLIFT
 62
3
 10
7350.790
 20
-8285.839
 30
-1431.000
 70
    32
  0
VERTEX
  8
M68LXLIFT
 62
3
 10
7342.365
 20
-8296.954
 30
-1431.000
 70
    32
  0
VERTEX
  8
M68LXLIFT
 62
3
 10
7339.402
 20
-8308.885
 30
-1431.000
 70
    32
  0
VERTEX
  8
M68LXLIFT
 62
3
 10
7348.771
 20
-8326.778
 30
-1431.000
 70
    32
  0
VERTEX
  8
M68LXLIFT
 62
3
 10
7351.608
 20
-8340.262
 30
-1431.000
 70
    32
  0
VERTEX
  8
M68LXLIFT
 62
3
 10
7351.747
 20
-8347.422
 30
-1431.000
 70
    32
  0
VERTEX
  8
M68LXLIFT
 62
3
 10
7357.390
 20
-8356.909
 30
-1431.000
 70
    32
  0
VERTEX
  8
M68LXLIFT
 62
3
 10
7387.257
 20
-8385.587
 30
-1431.000
 70
    32
  0
VERTEX
  8
M68LXLIFT
 62
3
 10
7387.966
 20
-8394.517
 30
-1431.000
 70
    32
  0
VERTEX
  8
M68LXLIFT
 62
3
 10
7397.934
 20
-8413.057
 30
-1431.000
 70
    32
  0
VERTEX
  8
M68LXLIFT
 62
3
 10
7399.825
 20
-8427.037
 30
-1431.000
 70
    32
  0
VERTEX
  8
M68LXLIFT
 62
3
 10
7410.389
 20
-8452.612
 30
-1431.000
 70
    32
  0
VERTEX
  8
M68LXLIFT
 62
3
 10
7411.530
 20
-8460.224
 30
-1431.000
 70
    32
  0
VERTEX
  8
M68LXLIFT
 62
3
 10
7407.552
 20
-8487.675
 30
-1431.000
 70
    32
  0
VERTEX
  8
M68LXLIFT
 62
3
 10
7405.867
 20
-8502.602
 30
-1431.000
 70
    32
  0
VERTEX
  8
M68LXLIFT
 62
3
 10
7407.259
 20
-8529.729
 30
-1431.000
 70
    32
  0
SEQEND
  8
M68LXLIFT
  0
POLYLINE
  8
M68LXLIFT
 62
3
 66
     1
 70
     9
  0
VERTEX
  8
M68LXLIFT
 62
3
 10
7391.329
 20
-8343.872
 30
-1487.000
 70
    32
  0
VERTEX
  8
M68LXLIFT
 62
3
 10
7402.209
 20
-8353.481
 30
-1487.000
 70
    32
  0
VERTEX
  8
M68LXLIFT
 62
3
 10
7400.210
 20
-8366.867
 30
-1487.000
 70
    32
  0
VERTEX
  8
M68LXLIFT
 62
3
 10
7417.352
 20
-8410.577
 30
-1487.000
 70
    32
  0
VERTEX
  8
M68LXLIFT
 62
3
 10
7425.603
 20
-8409.851
 30
-1487.000
 70
    32
  0
VERTEX
  8
M68LXLIFT
 62
3
 10
7427.511
 20
-8419.960
 30
-1487.000
 70
    32
  0
VERTEX
  8
M68LXLIFT
 62
3
 10
7431.839
 20
-8428.903
 30
-1487.000
 70
    32
  0
VERTEX
  8
M68LXLIFT
 62
3
 10
7443.195
 20
-8439.582
 30
-1487.000
 70
    32
  0
VERTEX
  8
M68LXLIFT
 62
3
 10
7452.742
 20
-8443.488
 30
-1487.000
 70
    32
  0
VERTEX
  8
M68LXLIFT
 62
3
 10
7458.085
 20
-8445.176
 30
-1487.000
 70
    32
  0
VERTEX
  8
M68LXLIFT
 62
3
 10
7464.212
 20
-8456.941
 30
-1487.000
 70
    32
  0
VERTEX
  8
M68LXLIFT
 62
3
 10
7468.201
 20
-8458.001
 30
-1487.000
 70
    32
  0
VERTEX
  8
M68LXLIFT
 62
3
 10
7473.648
 20
-8453.121
 30
-1487.000
 70
    32
  0
VERTEX
  8
M68LXLIFT
 62
3
 10
7473.571
 20
-8438.441
 30
-1487.000
 70
    32
  0
VERTEX
  8
M68LXLIFT
 62
3
 10
7481.235
 20
-8423.089
 30
-1487.000
 70
    32
  0
VERTEX
  8
M68LXLIFT
 62
3
 10
7474.839
 20
-8415.487
 30
-1487.000
 70
    32
  0
VERTEX
  8
M68LXLIFT
 62
3
 10
7470.438
 20
-8399.449
 30
-1487.000
 70
    32
  0
VERTEX
  8
M68LXLIFT
 62
3
 10
7458.211
 20
-8379.308
 30
-1487.000
 70
    32
  0
VERTEX
  8
M68LXLIFT
 62
3
 10
7454.062
 20
-8371.331
 30
-1487.000
 70
    32
  0
VERTEX
  8
M68LXLIFT
 62
3
 10
7447.545
 20
-8346.221
 30
-1487.000
 70
    32
  0
VERTEX
  8
M68LXLIFT
 62
3
 10
7447.373
 20
-8335.352
 30
-1487.000
 70
    32
  0
VERTEX
  8
M68LXLIFT
 62
3
 10
7435.809
 20
-8331.979
 30
-1487.000
 70
    32
  0
VERTEX
  8
M68LXLIFT
 62
3
 10
7432.771
 20
-8325.912
 30
-1487.000
 70
    32
  0
SEQEND
  8
M68LXLIFT
  0
POLYLINE
  8
M68LXLIFT
 62
1
 66
     1
 70
     9
  0
VERTEX
  8
M68LXLIFT
 62
1
 10
7526.318
 20
-8392.749
 30
-1436.000
 70
    32
  0
VERTEX
  8
M68LXLIFT
 62
1
 10
7504.512
 20
-8368.753
 30
-1436.000
 70
    32
  0
VERTEX
  8
M68LXLIFT
 62
1
 10
7499.353
 20
-8365.285
 30
-1436.000
 70
    32
  0
VERTEX
  8
M68LXLIFT
 62
1
 10
7480.038
 20
-8370.887
 30
-1436.000
 70
    32
  0
VERTEX
  8
M68LXLIFT
 62
1
 10
7475.919
 20
-8360.797
 30
-1436.000
 70
    32
  0
VERTEX
  8
M68LXLIFT
 62
1
 10
7470.010
 20
-8350.961
 30
-1436.000
 70
    32
  0
VERTEX
  8
M68LXLIFT
 62
1
 10
7466.171
 20
-8340.658
 30
-1436.000
 70
    32
  0
VERTEX
  8
M68LXLIFT
 62
1
 10
7459.870
 20
-8329.578
 30
-1436.000
 70
    32
  0
VERTEX
  8
M68LXLIFT
 62
1
 10
7443.642
 20
-8316.000
 30
-1436.000
 70
    32
  0
VERTEX
  8
M68LXLIFT
 62
1
 10
7438.550
 20
-8315.673
 30
-1436.000
 70
    32
  0
VERTEX
  8
M68LXLIFT
 62
1
 10
7428.973
 20
-8305.643
 30
-1436.000
 70
    32
  0
VERTEX
  8
M68LXLIFT
 62
1
 10
7430.216
 20
-8301.179
 30
-1436.000
 70
    32
  0
VERTEX
  8
M68LXLIFT
 62
1
 10
7429.069
 20
-8281.352
 30
-1436.000
 70
    32
  0
VERTEX
  8
M68LXLIFT
 62
1
 10
7433.259
 20
-8272.785
 30
-1436.000
 70
    32
  0
VERTEX
  8
M68LXLIFT
 62
1
 10
7438.658
 20
-8256.366
 30
-1436.000
 70
    32
  0
VERTEX
  8
M68LXLIFT
 62
1
 10
7425.267
 20
-8226.768
 30
-1436.000
 70
    32
  0
VERTEX
  8
M68LXLIFT
 62
1
 10
7414.563
 20
-8204.932
 30
-1436.000
 70
    32
  0
VERTEX
  8
M68LXLIFT
 62
1
 10
7406.232
 20
-8194.949
 30
-1436.000
 70
    32
  0
VERTEX
  8
M68LXLIFT
 62
1
 10
7416.277
 20
-8184.810
 30
-1436.000
 70
    32
  0
VERTEX
  8
M68LXLIFT
 62
1
 10
7433.784
 20
-8212.722
 30
-1436.000
 70
    32
  0
VERTEX
  8
M68LXLIFT
 62
1
 10
7438.977
 20
-8227.282
 30
-1436.000
 70
    32
  0
VERTEX
  8
M68LXLIFT
 62
1
 10
7457.093
 20
-8253.963
 30
-1436.000
 70
    32
  0
VERTEX
  8
M68LXLIFT
 62
1
 10
7457.677
 20
-8262.437
 30
-1436.000
 70
    32
  0
VERTEX
  8
M68LXLIFT
 62
1
 10
7468.550
 20
-8283.044
 30
-1436.000
 70
    32
  0
VERTEX
  8
M68LXLIFT
 62
1
 10
7474.615
 20
-8307.622
 30
-1436.000
 70
    32
  0
VERTEX
  8
M68LXLIFT
 62
1
 10
7485.976
 20
-8327.419
 30
-1436.000
 70
    32
  0
VERTEX
  8
M68LXLIFT
 62
1
 10
7495.087
 20
-8342.646
 30
-1436.000
 70
    32
  0
VERTEX
  8
M68LXLIFT
 62
1
 10
7516.083
 20
-8366.154
 30
-1436.000
 70
    32
  0
VERTEX
  8
M68LXLIFT
 62
1
 10
7537.136
 20
-8386.537
 30
-1436.000
 70
    32
  0
SEQEND
  8
M68LXLIFT
  0
POLYLINE
  8
M68LXLIFT
 62
1
 66
     1
 70
     9
  0
VERTEX
  8
M68LXLIFT
 62
1
 10
7531.749
 20
-8261.765
 30
-1531.000
 70
    32
  0
VERTEX
  8
M68LXLIFT
 62
1
 10
7513.162
 20
-8277.219
 30
-1531.000
 70
    32
  0
VERTEX
  8
M68LXLIFT
 62
1
 10
7517.782
 20
-8289.901
 30
-1531.000
 70
    32
  0
VERTEX
  8
M68LXLIFT
 62
1
 10
7518.499
 20
-8295.079
 30
-1531.000
 70
    32
  0
VERTEX
  8
M68LXLIFT
 62
1
 10
7524.072
 20
-8309.462
 30
-1531.000
 70
    32
  0
VERTEX
  8
M68LXLIFT
 62
1
 10
7535.237
 20
-8320.616
 30
-1531.000
 70
    32
  0
VERTEX
  8
M68LXLIFT
 62
1
 10
7528.054
 20
-8326.256
 30
-1531.000
 70
    32
  0
VERTEX
  8
M68LXLIFT
 62
1
 10
7517.803
 20
-8315.293
 30
-1531.000
 70
    32
  0
VERTEX
  8
M68LXLIFT
 62
1
 10
7505.034
 20
-8314.258
 30
-1531.000
 70
    32
  0
VERTEX
  8
M68LXLIFT
 62
1
 10
7499.659
 20
-8307.865
 30
-1531.000
 70
    32
  0
VERTEX
  8
M68LXLIFT
 62
1
 10
7496.941
 20
-8296.827
 30
-1531.000
 70
    32
  0
VERTEX
  8
M68LXLIFT
 62
1
 10
7501.855
 20
-8289.930
 30
-1531.000
 70
    32
  0
VERTEX
  8
M68LXLIFT
 62
1
 10
7497.282
 20
-8275.122
 30
-1531.000
 70
    32
  0
VERTEX
  8
M68LXLIFT
 62
1
 10
7468.928
 20
-8264.510
 30
-1531.000
 70
    32
  0
VERTEX
  8
M68LXLIFT
 62
1
 10
7471.763
 20
-8255.002
 30
-1531.000
 70
    32
  0
VERTEX
  8
M68LXLIFT
 62
1
 10
7495.408
 20
-8258.498
 30
-1531.000
 70
    32
  0
VERTEX
  8
M68LXLIFT
 62
1
 10
7488.103
 20
-8246.192
 30
-1531.000
 70
    32
  0
VERTEX
  8
M68LXLIFT
 62
1
 10
7490.877
 20
-8239.810
 30
-1531.000
 70
    32
  0
VERTEX
  8
M68LXLIFT
 62
1
 10
7475.093
 20
-8210.144
 30
-1531.000
 70
    32
  0
VERTEX
  8
M68LXLIFT
 62
1
 10
7491.679
 20
-8195.100
 30
-1531.000
 70
    32
  0
VERTEX
  8
M68LXLIFT
 62
1
 10
7506.837
 20
-8226.998
 30
-1531.000
 70
    32
  0
VERTEX
  8
M68LXLIFT
 62
1
 10
7520.896
 20
-8249.276
 30
-1531.000
 70
    32
  0
SEQEND
  8
M68LXLIFT
  0
POLYLINE
  8
M68LXLIFT
 62
6
 66
     1
 70
     9
  0
VERTEX
  8
M68LXLIFT
 62
6
 10
7536.136
 20
-8387.537
 30
-1444.000
 70
    32
  0
VERTEX
  8
M68LXLIFT
 62
6
 10
7515.083
 20
-8367.154
 30
-1444.000
 70
    32
  0
VERTEX
  8
M68LXLIFT
 62
6
 10
7494.087
 20
-8343.646
 30
-1444.000
 70
    32
  0
VERTEX
  8
M68LXLIFT
 62
6
 10
7484.976
 20
-8328.419
 30
-1444.000
 70
    32
  0
VERTEX
  8
M68LXLIFT
 62
6
 10
7473.615
 20
-8308.622
 30
-1444.000
 70
    32
  0
VERTEX
  8
M68LXLIFT
 62
6
 10
7467.550
 20
-8284.044
 30
-1444.000
 70
    32
  0
VERTEX
  8
M68LXLIFT
 62
6
 10
7456.677
 20
-8263.437
 30
-1444.000
 70
    32
  0
VERTEX
  8
M68LXLIFT
 62
6
 10
7456.093
 20
-8254.963
 30
-1444.000
 70
    32
  0
VERTEX
  8
M68LXLIFT
 62
6
 10
7437.977
 20
-8228.282
 30
-1444.000
 70
    32
  0
VERTEX
  8
M68LXLIFT
 62
6
 10
7432.784
 20
-8213.722
 30
-1444.000
 70
    32
  0
VERTEX
  8
M68LXLIFT
 62
6
 10
7415.277
 20
-8185.810
 30
-1444.000
 70
    32
  0
VERTEX
  8
M68LXLIFT
 62
6
 10
7405.232
 20
-8195.949
 30
-1444.000
 70
    32
  0
VERTEX
  8
M68LXLIFT
 62
6
 10
7413.563
 20
-8205.932
 30
-1444.000
 70
    32
  0
VERTEX
  8
M68LXLIFT
 62
6
 10
7424.267
 20
-8227.768
 30
-1444.000
 70
    32
  0
VERTEX
  8
M68LXLIFT
 62
6
 10
7437.658
 20
-8257.366
 30
-1444.000
 70
    32
  0
VERTEX
  8
M68LXLIFT
 62
6
 10
7432.259
 20
-8273.785
 30
-1444.000
 70
    32
  0
VERTEX
  8
M68LXLIFT
 62
6
 10
7428.069
 20
-8282.352
 30
-1444.000
 70
    32
  0
VERTEX
  8
M68LXLIFT
 62
6
 10
7429.216
 20
-8302.179
 30
-1444.000
 70
    32
  0
VERTEX
  8
M68LXLIFT
 62
6
 10
7427.973
 20
-8306.643
 30
-1444.000
 70
    32
  0
VERTEX
  8
M68LXLIFT
 62
6
 10
7437.550
 20
-8316.673
 30
-1444.000
 70
    32
  0
VERTEX
  8
M68LXLIFT
 62
6
 10
7442.642
 20
-8317.000
 30
-1444.000
 70
    32
  0
VERTEX
  8
M68LXLIFT
 62
6
 10
7458.870
 20
-8330.578
 30
-1444.000
 70
    32
  0
VERTEX
  8
M68LXLIFT
 62
6
 10
7465.171
 20
-8341.658
 30
-1444.000
 70
    32
  0
VERTEX
  8
M68LXLIFT
 62
6
 10
7469.010
 20
-8351.961
 30
-1444.000
 70
    32
  0
VERTEX
  8
M68LXLIFT
 62
6
 10
7474.919
 20
-8361.797
 30
-1444.000
 70
    32
  0
VERTEX
  8
M68LXLIFT
 62
6
 10
7479.038
 20
-8371.887
 30
-1444.000
 70
    32
  0
VERTEX
  8
M68LXLIFT
 62
6
 10
7498.353
 20
-8366.285
 30
-1444.000
 70
    32
  0
VERTEX
  8
M68LXLIFT
 62
6
 10
7503.512
 20
-8369.753
 30
-1444.000
 70
    32
  0
VERTEX
  8
M68LXLIFT
 62
6
 10
7525.318
 20
-8393.749
 30
-1444.000
 70
    32
  0
SEQEND
  8
M68LXLIFT
  0
POLYLINE
  8
M68LXLIFT
 62
6
 66
     1
 70
     9
  0
VERTEX
  8
M68LXLIFT
 62
6
 10
7433.858
 20
-8282.746
 30
-1484.000
 70
    32
  0
VERTEX
  8
M68LXLIFT
 62
6
 10
7434.071
 20
-8265.098
 30
-1484.000
 70
    32
  0
VERTEX
  8
M68LXLIFT
 62
6
 10
7442.396
 20
-8253.537
 30
-1484.000
 70
    32
  0
VERTEX
  8
M68LXLIFT
 62
6
 10
7442.686
 20
-8244.300
 30
-1484.000
 70
    32
  0
VERTEX
  8
M68LXLIFT
 62
6
 10
7447.636
 20
-8243.864
 30
-1484.000
 70
    32
  0
VERTEX
  8
M68LXLIFT
 62
6
 10
7452.969
 20
-8242.040
 30
-1484.000
 70
    32
  0
VERTEX
  8
M68LXLIFT
 62
6
 10
7456.700
 20
-8244.945
 30
-1484.000
 70
    32
  0
VERTEX
  8
M68LXLIFT
 62
6
 10
7458.065
 20
-8255.354
 30
-1484.000
 70
    32
  0
VERTEX
  8
M68LXLIFT
 62
6
 10
7464.228
 20
-8261.482
 30
-1484.000
 70
    32
  0
VERTEX
  8
M68LXLIFT
 62
6
 10
7466.101
 20
-8271.398
 30
-1484.000
 70
    32
  0
VERTEX
  8
M68LXLIFT
 62
6
 10
7471.263
 20
-8277.511
 30
-1484.000
 70
    32
  0
VERTEX
  8
M68LXLIFT
 62
6
 10
7474.392
 20
-8296.818
 30
-1484.000
 70
    32
  0
VERTEX
  8
M68LXLIFT
 62
6
 10
7479.963
 20
-8304.493
 30
-1484.000
 70
    32
  0
VERTEX
  8
M68LXLIFT
 62
6
 10
7481.105
 20
-8310.671
 30
-1484.000
 70
    32
  0
VERTEX
  8
M68LXLIFT
 62
6
 10
7465.108
 20
-8317.021
 30
-1484.000
 70
    32
  0
VERTEX
  8
M68LXLIFT
 62
6
 10
7456.551
 20
-8296.641
 30
-1484.000
 70
    32
  0
VERTEX
  8
M68LXLIFT
 62
6
 10
7443.400
 20
-8291.165
 30
-1484.000
 70
    32
  0
SEQEND
  8
M68LXLIFT
  0
POLYLINE
  8
M68LXLIFT
 62
6
 66
     1
 70
     9
  0
VERTEX
  8
M68LXLIFT
 62
6
 10
7445.569
 20
-8288.209
 30
-1476.000
 70
    32
  0
VERTEX
  8
M68LXLIFT
 62
6
 10
7462.627
 20
-8296.676
 30
-1476.000
 70
    32
  0
VERTEX
  8
M68LXLIFT
 62
6
 10
7471.546
 20
-8308.644
 30
-1476.000
 70
    32
  0
VERTEX
  8
M68LXLIFT
 62
6
 10
7479.470
 20
-8340.721
 30
-1476.000
 70
    32
  0
VERTEX
  8
M68LXLIFT
 62
6
 10
7480.169
 20
-8345.583
 30
-1476.000
 70
    32
  0
VERTEX
  8
M68LXLIFT
 62
6
 10
7490.022
 20
-8340.128
 30
-1476.000
 70
    32
  0
VERTEX
  8
M68LXLIFT
 62
6
 10
7496.515
 20
-8344.798
 30
-1476.000
 70
    32
  0
VERTEX
  8
M68LXLIFT
 62
6
 10
7503.803
 20
-8338.860
 30
-1476.000
 70
    32
  0
VERTEX
  8
M68LXLIFT
 62
6
 10
7492.781
 20
-8328.478
 30
-1476.000
 70
    32
  0
VERTEX
  8
M68LXLIFT
 62
6
 10
7475.108
 20
-8283.190
 30
-1476.000
 70
    32
  0
VERTEX
  8
M68LXLIFT
 62
6
 10
7458.911
 20
-8268.574
 30
-1476.000
 70
    32
  0
VERTEX
  8
M68LXLIFT
 62
6
 10
7452.069
 20
-8240.410
 30
-1476.000
 70
    32
  0
VERTEX
  8
M68LXLIFT
 62
6
 10
7441.736
 20
-8219.280
 30
-1476.000
 70
    32
  0
VERTEX
  8
M68LXLIFT
 62
6
 10
7434.403
 20
-8191.486
 30
-1476.000
 70
    32
  0
VERTEX
  8
M68LXLIFT
 62
6
 10
7429.926
 20
-8191.675
 30
-1476.000
 70
    32
  0
VERTEX
  8
M68LXLIFT
 62
6
 10
7418.897
 20
-8172.830
 30
-1476.000
 70
    32
  0
VERTEX
  8
M68LXLIFT
 62
6
 10
7407.168
 20
-8179.150
 30
-1476.000
 70
    32
  0
VERTEX
  8
M68LXLIFT
 62
6
 10
7414.845
 20
-8186.556
 30
-1476.000
 70
    32
  0
VERTEX
  8
M68LXLIFT
 62
6
 10
7430.019
 20
-8211.622
 30
-1476.000
 70
    32
  0
VERTEX
  8
M68LXLIFT
 62
6
 10
7441.597
 20
-8238.192
 30
-1476.000
 70
    32
  0
VERTEX
  8
M68LXLIFT
 62
6
 10
7444.590
 20
-8253.092
 30
-1476.000
 70
    32
  0
VERTEX
  8
M68LXLIFT
 62
6
 10
7439.080
 20
-8260.659
 30
-1476.000
 70
    32
  0
VERTEX
  8
M68LXLIFT
 62
6
 10
7437.251
 20
-8265.669
 30
-1476.000
 70
    32
  0
VERTEX
  8
M68LXLIFT
 62
6
 10
7437.089
 20
-8270.410
 30
-1476.000
 70
    32
  0
VERTEX
  8
M68LXLIFT
 62
6
 10
7435.149
 20
-8273.524
 30
-1476.000
 70
    32
  0
VERTEX
  8
M68LXLIFT
 62
6
 10
7436.129
 20
-8284.443
 30
-1476.000
 70
    32
  0
SEQEND
  8
M68LXLIFT
  0
POLYLINE
  8
M68LXLIFT
 62
7
 66
     1
 70
     9
  0
VERTEX
  8
M68LXLIFT
 62
7
 10
7519.896
 20
-8250.276
 30
-1541.000
 70
    32
  0
VERTEX
  8
M68LXLIFT
 62
7
 10
7505.837
 20
-8227.998
 30
-1541.000
 70
    32
  0
VERTEX
  8
M68LXLIFT
 62
7
 10
7490.679
 20
-8196.100
 30
-1541.000
 70
    32
  0
VERTEX
  8
M68LXLIFT
 62
7
 10
7474.093
 20
-8211.144
 30
-1541.000
 70
    32
  0
VERTEX
  8
M68LXLIFT
 62
7
 10
7489.877
 20
-8240.810
 30
-1541.000
 70
    32
  0
VERTEX
  8
M68LXLIFT
 62
7
 10
7487.103
 20
-8247.192
 30
-1541.000
 70
    32
  0
VERTEX
  8
M68LXLIFT
 62
7
 10
7494.408
 20
-8259.498
 30
-1541.000
 70
    32
  0
VERTEX
  8
M68LXLIFT
 62
7
 10
7470.763
 20
-8256.002
 30
-1541.000
 70
    32
  0
VERTEX
  8
M68LXLIFT
 62
7
 10
7467.928
 20
-8265.510
 30
-1541.000
 70
    32
  0
VERTEX
  8
M68LXLIFT
 62
7
 10
7496.282
 20
-8276.122
 30
-1541.000
 70
    32
  0
VERTEX
  8
M68LXLIFT
 62
7
 10
7500.855
 20
-8290.930
 30
-1541.000
 70
    32
  0
VERTEX
  8
M68LXLIFT
 62
7
 10
7495.941
 20
-8297.827
 30
-1541.000
 70
    32
  0
VERTEX
  8
M68LXLIFT
 62
7
 10
7498.659
 20
-8308.865
 30
-1541.000
 70
    32
  0
VERTEX
  8
M68LXLIFT
 62
7
 10
7504.034
 20
-8315.258
 30
-1541.000
 70
    32
  0
VERTEX
  8
M68LXLIFT
 62
7
 10
7516.803
 20
-8316.293
 30
-1541.000
 70
    32
  0
VERTEX
  8
M68LXLIFT
 62
7
 10
7527.054
 20
-8327.256
 30
-1541.000
 70
    32
  0
VERTEX
  8
M68LXLIFT
 62
7
 10
7534.237
 20
-8321.616
 30
-1541.000
 70
    32
  0
VERTEX
  8
M68LXLIFT
 62
7
 10
7523.072
 20
-8310.462
 30
-1541.000
 70
    32
  0
VERTEX
  8
M68LXLIFT
 62
7
 10
7517.499
 20
-8296.079
 30
-1541.000
 70
    32
  0
VERTEX
  8
M68LXLIFT
 62
7
 10
7516.782
 20
-8290.901
 30
-1541.000
 70
    32
  0
VERTEX
  8
M68LXLIFT
 62
7
 10
7512.162
 20
-8278.219
 30
-1541.000
 70
    32
  0
VERTEX
  8
M68LXLIFT
 62
7
 10
7530.749
 20
-8262.765
 30
-1541.000
 70
    32
  0
SEQEND
  8
M68LXLIFT
  0
POLYLINE
  8
M68LXLIFT
 62
7
 66
     1
 70
     9
  0
VERTEX
  8
M68LXLIFT
 62
7
 10
7572.712
 20
-8316.801
 30
-1548.000
 70
    32
  0
VERTEX
  8
M68LXLIFT
 62
7
 10
7529.046
 20
-8265.562
 30
-1548.000
 70
    32
  0
VERTEX
  8
M68LXLIFT
 62
7
 10
7518.759
 20
-8239.599
 30
-1548.000
 70
    32
  0
VERTEX
  8
M68LXLIFT
 62
7
 10
7528.229
 20
-8231.586
 30
-1548.000
 70
    32
  0
VERTEX
  8
M68LXLIFT
 62
7
 10
7523.715
 20
-8220.210
 30
-1548.000
 70
    32
  0
VERTEX
  8
M68LXLIFT
 62
7
 10
7512.161
 20
-8206.045
 30
-1548.000
 70
    32
  0
VERTEX
  8
M68LXLIFT
 62
7
 10
7502.832
 20
-8221.238
 30
-1548.000
 70
    32
  0
VERTEX
  8
M68LXLIFT
 62
7
 10
7486.345
 20
-8233.186
 30
-1548.000
 70
    32
  0
VERTEX
  8
M68LXLIFT
 62
7
 10
7477.887
 20
-8235.892
 30
-1548.000
 70
    32
  0
VERTEX
  8
M68LXLIFT
 62
7
 10
7500.803
 20
-8259.796
 30
-1548.000
 70
    32
  0
VERTEX
  8
M68LXLIFT
 62
7
 10
7516.819
 20
-8277.981
 30
-1548.000
 70
    32
  0
VERTEX
  8
M68LXLIFT
 62
7
 10
7522.437
 20
-8289.529
 30
-1548.000
 70
    32
  0
VERTEX
  8
M68LXLIFT
 62
7
 10
7538.153
 20
-8299.128
 30
-1548.000
 70
    32
  0
VERTEX
  8
M68LXLIFT
 62
7
 10
7568.760
 20
-8322.844
 30
-1548.000
 70
    32
  0
SEQEND
  8
M68LXLIFT
  0
POLYLINE
  8
M68LXLIFT
 62
1
 66
     1
 70
     9
  0
VERTEX
  8
M68LXLIFT
 62
1
 10
7560.002
 20
-8200.523
 30
-1530.000
 70
    32
  0
VERTEX
  8
M68LXLIFT
 62
1
 10
7549.741
 20
-8180.218
 30
-1530.000
 70
    32
  0
VERTEX
  8
M68LXLIFT
 62
1
 10
7552.196
 20
-8172.976
 30
-1530.000
 70
    32
  0
VERTEX
  8
M68LXLIFT
 62
1
 10
7551.807
 20
-8147.533
 30
-1530.000
 70
    32
  0
VERTEX
  8
M68LXLIFT
 62
1
 10
7561.502
 20
-8148.137
 30
-1530.000
 70
    32
  0
VERTEX
  8
M68LXLIFT
 62
1
 10
7566.132
 20
-8170.601
 30
-1530.000
 70
    32
  0
VERTEX
  8
M68LXLIFT
 62
1
 10
7585.379
 20
-8189.405
 30
-1530.000
 70
    32
  0
VERTEX
  8
M68LXLIFT
 62
1
 10
7594.020
 20
-8208.292
 30
-1530.000
 70
    32
  0
VERTEX
  8
M68LXLIFT
 62
1
 10
7591.244
 20
-8213.796
 30
-1530.000
 70
    32
  0
VERTEX
  8
M68LXLIFT
 62
1
 10
7594.674
 20
-8246.184
 30
-1530.000
 70
    32
  0
VERTEX
  8
M68LXLIFT
 62
1
 10
7590.959
 20
-8248.987
 30
-1530.000
 70
    32
  0
VERTEX
  8
M68LXLIFT
 62
1
 10
7581.008
 20
-8250.666
 30
-1530.000
 70
    32
  0
VERTEX
  8
M68LXLIFT
 62
1
 10
7578.081
 20
-8246.495
 30
-1530.000
 70
    32
  0
VERTEX
  8
M68LXLIFT
 62
1
 10
7578.865
 20
-8238.205
 30
-1530.000
 70
    32
  0
VERTEX
  8
M68LXLIFT
 62
1
 10
7575.897
 20
-8219.986
 30
-1530.000
 70
    32
  0
VERTEX
  8
M68LXLIFT
 62
1
 10
7577.852
 20
-8215.871
 30
-1530.000
 70
    32
  0
VERTEX
  8
M68LXLIFT
 62
1
 10
7575.691
 20
-8209.363
 30
-1530.000
 70
    32
  0
VERTEX
  8
M68LXLIFT
 62
1
 10
7568.026
 20
-8206.347
 30
-1530.000
 70
    32
  0
SEQEND
  8
M68LXLIFT
  0
POLYLINE
  8
M68LXLIFT
 62
13
 66
     1
 70
     9
  0
VERTEX
  8
M68LXLIFT
 62
13
 10
7559.002
 20
-8201.523
 30
-1540.000
 70
    32
  0
VERTEX
  8
M68LXLIFT
 62
13
 10
7548.741
 20
-8181.218
 30
-1540.000
 70
    32
  0
VERTEX
  8
M68LXLIFT
 62
13
 10
7551.196
 20
-8173.976
 30
-1540.000
 70
    32
  0
VERTEX
  8
M68LXLIFT
 62
13
 10
7550.807
 20
-8148.533
 30
-1540.000
 70
    32
  0
VERTEX
  8
M68LXLIFT
 62
13
 10
7560.502
 20
-8149.137
 30
-1540.000
 70
    32
  0
VERTEX
  8
M68LXLIFT
 62
13
 10
7565.132
 20
-8171.601
 30
-1540.000
 70
    32
  0
VERTEX
  8
M68LXLIFT
 62
13
 10
7584.379
 20
-8190.405
 30
-1540.000
 70
    32
  0
VERTEX
  8
M68LXLIFT
 62
13
 10
7593.020
 20
-8209.292
 30
-1540.000
 70
    32
  0
VERTEX
  8
M68LXLIFT
 62
13
 10
7590.244
 20
-8214.796
 30
-1540.000
 70
    32
  0
VERTEX
  8
M68LXLIFT
 62
13
 10
7593.674
 20
-8247.184
 30
-1540.000
 70
    32
  0
VERTEX
  8
M68LXLIFT
 62
13
 10
7589.959
 20
-8249.987
 30
-1540.000
 70
    32
  0
VERTEX
  8
M68LXLIFT
 62
13
 10
7580.008
 20
-8251.666
 30
-1540.000
 70
    32
  0
VERTEX
  8
M68LXLIFT
 62
13
 10
7577.081
 20
-8247.495
 30
-1540.000
 70
    32
  0
VERTEX
  8
M68LXLIFT
 62
13
 10
7577.865
 20
-8239.205
 30
-1540.000
 70
    32
  0
VERTEX
  8
M68LXLIFT
 62
13
 10
7574.897
 20
-8220.986
 30
-1540.000
 70
    32
  0
VERTEX
  8
M68LXLIFT
 62
13
 10
7576.852
 20
-8216.871
 30
-1540.000
 70
    32
  0
VERTEX
  8
M68LXLIFT
 62
13
 10
7574.691
 20
-8210.363
 30
-1540.000
 70
    32
  0
VERTEX
  8
M68LXLIFT
 62
13
 10
7567.026
 20
-8207.347
 30
-1540.000
 70
    32
  0
SEQEND
  8
M68LXLIFT
  0
POLYLINE
  8
M68LXLIFT
 62
3
 66
     1
 70
     9
  0
VERTEX
  8
M68LXLIFT
 62
3
 10
7368.608
 20
-8295.683
 30
-1500.000
 70
    32
  0
VERTEX
  8
M68LXLIFT
 62
3
 10
7389.149
 20
-8318.680
 30
-1500.000
 70
    32
  0
VERTEX
  8
M68LXLIFT
 62
3
 10
7389.613
 20
-8333.288
 30
-1500.000
 70
    32
  0
VERTEX
  8
M68LXLIFT
 62
3
 10
7389.870
 20
-8343.543
 30
-1500.000
 70
    32
  0
VERTEX
  8
M68LXLIFT
 62
3
 10
7395.430
 20
-8347.267
 30
-1500.000
 70
    32
  0
VERTEX
  8
M68LXLIFT
 62
3
 10
7402.745
 20
-8363.085
 30
-1500.000
 70
    32
  0
VERTEX
  8
M68LXLIFT
 62
3
 10
7412.317
 20
-8382.039
 30
-1500.000
 70
    32
  0
VERTEX
  8
M68LXLIFT
 62
3
 10
7425.423
 20
-8396.348
 30
-1500.000
 70
    32
  0
VERTEX
  8
M68LXLIFT
 62
3
 10
7428.813
 20
-8427.226
 30
-1500.000
 70
    32
  0
VERTEX
  8
M68LXLIFT
 62
3
 10
7454.515
 20
-8443.360
 30
-1500.000
 70
    32
  0
VERTEX
  8
M68LXLIFT
 62
3
 10
7460.547
 20
-8446.398
 30
-1500.000
 70
    32
  0
VERTEX
  8
M68LXLIFT
 62
3
 10
7463.222
 20
-8454.608
 30
-1500.000
 70
    32
  0
VERTEX
  8
M68LXLIFT
 62
3
 10
7468.127
 20
-8456.736
 30
-1500.000
 70
    32
  0
VERTEX
  8
M68LXLIFT
 62
3
 10
7472.593
 20
-8452.597
 30
-1500.000
 70
    32
  0
VERTEX
  8
M68LXLIFT
 62
3
 10
7472.700
 20
-8441.077
 30
-1500.000
 70
    32
  0
VERTEX
  8
M68LXLIFT
 62
3
 10
7481.443
 20
-8422.052
 30
-1500.000
 70
    32
  0
VERTEX
  8
M68LXLIFT
 62
3
 10
7471.376
 20
-8414.250
 30
-1500.000
 70
    32
  0
VERTEX
  8
M68LXLIFT
 62
3
 10
7471.362
 20
-8403.152
 30
-1500.000
 70
    32
  0
VERTEX
  8
M68LXLIFT
 62
3
 10
7464.329
 20
-8388.000
 30
-1500.000
 70
    32
  0
VERTEX
  8
M68LXLIFT
 62
3
 10
7456.646
 20
-8378.400
 30
-1500.000
 70
    32
  0
VERTEX
  8
M68LXLIFT
 62
3
 10
7446.827
 20
-8346.873
 30
-1500.000
 70
    32
  0
VERTEX
  8
M68LXLIFT
 62
3
 10
7446.793
 20
-8335.020
 30
-1500.000
 70
    32
  0
VERTEX
  8
M68LXLIFT
 62
3
 10
7432.398
 20
-8330.373
 30
-1500.000
 70
    32
  0
VERTEX
  8
M68LXLIFT
 62
3
 10
7432.133
 20
-8323.754
 30
-1500.000
 70
    32
  0
VERTEX
  8
M68LXLIFT
 62
3
 10
7426.692
 20
-8324.560
 30
-1500.000
 70
    32
  0
VERTEX
  8
M68LXLIFT
 62
3
 10
7420.911
 20
-8311.213
 30
-1500.000
 70
    32
  0
VERTEX
  8
M68LXLIFT
 62
3
 10
7400.294
 20
-8310.711
 30
-1500.000
 70
    32
  0
VERTEX
  8
M68LXLIFT
 62
3
 10
7384.040
 20
-8300.538
 30
-1500.000
 70
    32
  0
VERTEX
  8
M68LXLIFT
 62
3
 10
7377.095
 20
-8291.479
 30
-1500.000
 70
    32
  0
SEQEND
  8
M68LXLIFT
  0
POLYLINE
  8
M68LXLIFT
 62
3
 66
     1
 70
     9
  0
VERTEX
  8
M68LXLIFT
 62
3
 10
7400.240
 20
-8371.134
 30
-1475.000
 70
    32
  0
VERTEX
  8
M68LXLIFT
 62
3
 10
7406.523
 20
-8375.963
 30
-1475.000
 70
    32
  0
VERTEX
  8
M68LXLIFT
 62
3
 10
7410.350
 20
-8393.863
 30
-1475.000
 70
    32
  0
VERTEX
  8
M68LXLIFT
 62
3
 10
7416.591
 20
-8402.572
 30
-1475.000
 70
    32
  0
VERTEX
  8
M68LXLIFT
 62
3
 10
7424.166
 20
-8404.886
 30
-1475.000
 70
    32
  0
VERTEX
  8
M68LXLIFT
 62
3
 10
7432.365
 20
-8416.627
 30
-1475.000
 70
    32
  0
VERTEX
  8
M68LXLIFT
 62
3
 10
7440.027
 20
-8430.864
 30
-1475.000
 70
    32
  0
VERTEX
  8
M68LXLIFT
 62
3
 10
7454.869
 20
-8426.045
 30
-1475.000
 70
    32
  0
VERTEX
  8
M68LXLIFT
 62
3
 10
7466.594
 20
-8424.238
 30
-1475.000
 70
    32
  0
VERTEX
  8
M68LXLIFT
 62
3
 10
7443.564
 20
-8372.432
 30
-1475.000
 70
    32
  0
VERTEX
  8
M68LXLIFT
 62
3
 10
7435.054
 20
-8338.267
 30
-1475.000
 70
    32
  0
VERTEX
  8
M68LXLIFT
 62
3
 10
7419.149
 20
-8327.391
 30
-1475.000
 70
    32
  0
VERTEX
  8
M68LXLIFT
 62
3
 10
7410.235
 20
-8317.618
 30
-1475.000
 70
    32
  0
VERTEX
  8
M68LXLIFT
 62
3
 10
7398.383
 20
-8311.822
 30
-1475.000
 70
    32
  0
VERTEX
  8
M68LXLIFT
 62
3
 10
7392.340
 20
-8298.565
 30
-1475.000
 70
    32
  0
VERTEX
  8
M68LXLIFT
 62
3
 10
7380.369
 20
-8257.772
 30
-1475.000
 70
    32
  0
VERTEX
  8
M68LXLIFT
 62
3
 10
7365.747
 20
-8253.407
 30
-1475.000
 70
    32
  0
VERTEX
  8
M68LXLIFT
 62
3
 10
7343.766
 20
-8272.962
 30
-1475.000
 70
    32
  0
VERTEX
  8
M68LXLIFT
 62
3
 10
7346.747
 20
-8283.910
 30
-1475.000
 70
    32
  0
VERTEX
  8
M68LXLIFT
 62
3
 10
7369.842
 20
-8315.540
 30
-1475.000
 70
    32
  0
VERTEX
  8
M68LXLIFT
 62
3
 10
7371.890
 20
-8331.812
 30
-1475.000
 70
    32
  0
VERTEX
  8
M68LXLIFT
 62
3
 10
7389.194
 20
-8346.582
 30
-1475.000
 70
    32
  0
SEQEND
  8
M68LXLIFT
  0
POLYLINE
  8
M68LXLIFT
 62
3
 66
     1
 70
     9
  0
VERTEX
  8
M68LXLIFT
 62
3
 10
7385.597
 20
-8341.377
 30
-1487.000
 70
    32
  0
VERTEX
  8
M68LXLIFT
 62
3
 10
7390.873
 20
-8343.996
 30
-1487.000
 70
    32
  0
VERTEX
  8
M68LXLIFT
 62
3
 10
7401.319
 20
-8337.434
 30
-1487.000
 70
    32
  0
VERTEX
  8
M68LXLIFT
 62
3
 10
7412.455
 20
-8332.222
 30
-1487.000
 70
    32
  0
VERTEX
  8
M68LXLIFT
 62
3
 10
7415.937
 20
-8321.676
 30
-1487.000
 70
    32
  0
VERTEX
  8
M68LXLIFT
 62
3
 10
7406.753
 20
-8315.626
 30
-1487.000
 70
    32
  0
VERTEX
  8
M68LXLIFT
 62
3
 10
7399.407
 20
-8313.470
 30
-1487.000
 70
    32
  0
VERTEX
  8
M68LXLIFT
 62
3
 10
7395.248
 20
-8302.419
 30
-1487.000
 70
    32
  0
VERTEX
  8
M68LXLIFT
 62
3
 10
7391.633
 20
-8296.898
 30
-1487.000
 70
    32
  0
VERTEX
  8
M68LXLIFT
 62
3
 10
7387.915
 20
-8292.554
 30
-1487.000
 70
    32
  0
VERTEX
  8
M68LXLIFT
 62
3
 10
7387.337
 20
-8281.002
 30
-1487.000
 70
    32
  0
VERTEX
  8
M68LXLIFT
 62
3
 10
7386.026
 20
-8264.833
 30
-1487.000
 70
    32
  0
VERTEX
  8
M68LXLIFT
 62
3
 10
7374.217
 20
-8267.694
 30
-1487.000
 70
    32
  0
VERTEX
  8
M68LXLIFT
 62
3
 10
7371.546
 20
-8279.168
 30
-1487.000
 70
    32
  0
VERTEX
  8
M68LXLIFT
 62
3
 10
7373.042
 20
-8292.667
 30
-1487.000
 70
    32
  0
VERTEX
  8
M68LXLIFT
 62
3
 10
7374.001
 20
-8302.393
 30
-1487.000
 70
    32
  0
VERTEX
  8
M68LXLIFT
 62
3
 10
7372.625
 20
-8318.499
 30
-1487.000
 70
    32
  0
VERTEX
  8
M68LXLIFT
 62
3
 10
7369.150
 20
-8325.410
 30
-1487.000
 70
    32
  0
VERTEX
  8
M68LXLIFT
 62
3
 10
7370.417
 20
-8332.483
 30
-1487.000
 70
    32
  0
VERTEX
  8
M68LXLIFT
 62
3
 10
7368.683
 20
-8346.220
 30
-1487.000
 70
    32
  0
SEQEND
  8
M68LXLIFT
  0
POLYLINE
  8
M68LXLIFT
 62
1
 66
     1
 70
     9
  0
VERTEX
  8
M68LXLIFT
 62
1
 10
7498.504
 20
-8424.992
 30
-1515.000
 70
    32
  0
VERTEX
  8
M68LXLIFT
 62
1
 10
7511.238
 20
-8420.004
 30
-1515.000
 70
    32
  0
VERTEX
  8
M68LXLIFT
 62
1
 10
7514.975
 20
-8412.565
 30
-1515.000
 70
    32
  0
VERTEX
  8
M68LXLIFT
 62
1
 10
7514.895
 20
-8403.276
 30
-1515.000
 70
    32
  0
VERTEX
  8
M68LXLIFT
 62
1
 10
7520.447
 20
-8398.098
 30
-1515.000
 70
    32
  0
VERTEX
  8
M68LXLIFT
 62
1
 10
7530.865
 20
-8399.806
 30
-1515.000
 70
    32
  0
VERTEX
  8
M68LXLIFT
 62
1
 10
7540.916
 20
-8396.072
 30
-1515.000
 70
    32
  0
VERTEX
  8
M68LXLIFT
 62
1
 10
7545.683
 20
-8405.014
 30
-1515.000
 70
    32
  0
VERTEX
  8
M68LXLIFT
 62
1
 10
7538.857
 20
-8413.023
 30
-1515.000
 70
    32
  0
VERTEX
  8
M68LXLIFT
 62
1
 10
7539.374
 20
-8421.872
 30
-1515.000
 70
    32
  0
VERTEX
  8
M68LXLIFT
 62
1
 10
7530.415
 20
-8426.762
 30
-1515.000
 70
    32
  0
VERTEX
  8
M68LXLIFT
 62
1
 10
7518.764
 20
-8423.564
 30
-1515.000
 70
    32
  0
VERTEX
  8
M68LXLIFT
 62
1
 10
7506.124
 20
-8436.841
 30
-1515.000
 70
    32
  0
SEQEND
  8
M68LXLIFT
  0
POLYLINE
  8
M68LXLIFT
 62
2
 66
     1
 70
     9
  0
VERTEX
  8
M68LXLIFT
 62
2
 10
7497.504
 20
-8425.992
 30
-1525.000
 70
    32
  0
VERTEX
  8
M68LXLIFT
 62
2
 10
7510.238
 20
-8421.004
 30
-1525.000
 70
    32
  0
VERTEX
  8
M68LXLIFT
 62
2
 10
7513.975
 20
-8413.565
 30
-1525.000
 70
    32
  0
VERTEX
  8
M68LXLIFT
 62
2
 10
7513.895
 20
-8404.276
 30
-1525.000
 70
    32
  0
VERTEX
  8
M68LXLIFT
 62
2
 10
7519.447
 20
-8399.098
 30
-1525.000
 70
    32
  0
VERTEX
  8
M68LXLIFT
 62
2
 10
7529.865
 20
-8400.806
 30
-1525.000
 70
    32
  0
VERTEX
  8
M68LXLIFT
 62
2
 10
7539.916
 20
-8397.072
 30
-1525.000
 70
    32
  0
VERTEX
  8
M68LXLIFT
 62
2
 10
7544.683
 20
-8406.014
 30
-1525.000
 70
    32
  0
VERTEX
  8
M68LXLIFT
 62
2
 10
7537.857
 20
-8414.023
 30
-1525.000
 70
    32
  0
VERTEX
  8
M68LXLIFT
 62
2
 10
7538.374
 20
-8422.872
 30
-1525.000
 70
    32
  0
VERTEX
  8
M68LXLIFT
 62
2
 10
7529.415
 20
-8427.762
 30
-1525.000
 70
    32
  0
VERTEX
  8
M68LXLIFT
 62
2
 10
7517.764
 20
-8424.564
 30
-1525.000
 70
    32
  0
VERTEX
  8
M68LXLIFT
 62
2
 10
7505.124
 20
-8437.841
 30
-1525.000
 70
    32
  0
SEQEND
  8
M68LXLIFT
  0
POLYLINE
  8
M68LXLIFT
 62
8
 66
     1
 70
     9
  0
VERTEX
  8
M68LXLIFT
 62
8
 10
7549.476
 20
-8576.506
 30
-1501.000
 70
    32
  0
VERTEX
  8
M68LXLIFT
 62
8
 10
7548.886
 20
-8597.299
 30
-1501.000
 70
    32
  0
VERTEX
  8
M68LXLIFT
 62
8
 10
7535.021
 20
-8605.891
 30
-1501.000
 70
    32
  0
VERTEX
  8
M68LXLIFT
 62
8
 10
7528.744
 20
-8609.087
 30
-1501.000
 70
    32
  0
VERTEX
  8
M68LXLIFT
 62
8
 10
7526.123
 20
-8619.753
 30
-1501.000
 70
    32
  0
VERTEX
  8
M68LXLIFT
 62
8
 10
7537.207
 20
-8633.278
 30
-1501.000
 70
    32
  0
VERTEX
  8
M68LXLIFT
 62
8
 10
7546.059
 20
-8634.078
 30
-1501.000
 70
    32
  0
VERTEX
  8
M68LXLIFT
 62
8
 10
7556.815
 20
-8643.230
 30
-1501.000
 70
    32
  0
VERTEX
  8
M68LXLIFT
 62
8
 10
7561.764
 20
-8666.553
 30
-1501.000
 70
    32
  0
VERTEX
  8
M68LXLIFT
 62
8
 10
7566.714
 20
-8678.216
 30
-1501.000
 70
    32
  0
VERTEX
  8
M68LXLIFT
 62
8
 10
7566.775
 20
-8693.458
 30
-1501.000
 70
    32
  0
VERTEX
  8
M68LXLIFT
 62
8
 10
7562.755
 20
-8699.791
 30
-1501.000
 70
    32
  0
VERTEX
  8
M68LXLIFT
 62
8
 10
7558.663
 20
-8705.738
 30
-1501.000
 70
    32
  0
VERTEX
  8
M68LXLIFT
 62
8
 10
7558.832
 20
-8715.729
 30
-1501.000
 70
    32
  0
VERTEX
  8
M68LXLIFT
 62
8
 10
7552.645
 20
-8725.897
 30
-1501.000
 70
    32
  0
VERTEX
  8
M68LXLIFT
 62
8
 10
7539.575
 20
-8730.149
 30
-1501.000
 70
    32
  0
VERTEX
  8
M68LXLIFT
 62
8
 10
7541.236
 20
-8739.784
 30
-1501.000
 70
    32
  0
VERTEX
  8
M68LXLIFT
 62
8
 10
7554.400
 20
-8743.820
 30
-1501.000
 70
    32
  0
VERTEX
  8
M68LXLIFT
 62
8
 10
7559.084
 20
-8742.156
 30
-1501.000
 70
    32
  0
VERTEX
  8
M68LXLIFT
 62
8
 10
7565.610
 20
-8746.141
 30
-1501.000
 70
    32
  0
VERTEX
  8
M68LXLIFT
 62
8
 10
7571.825
 20
-8745.631
 30
-1501.000
 70
    32
  0
VERTEX
  8
M68LXLIFT
 62
8
 10
7579.928
 20
-8736.108
 30
-1501.000
 70
    32
  0
VERTEX
  8
M68LXLIFT
 62
8
 10
7595.670
 20
-8732.920
 30
-1501.000
 70
    32
  0
VERTEX
  8
M68LXLIFT
 62
8
 10
7599.238
 20
-8728.028
 30
-1501.000
 70
    32
  0
VERTEX
  8
M68LXLIFT
 62
8
 10
7595.341
 20
-8722.279
 30
-1501.000
 70
    32
  0
VERTEX
  8
M68LXLIFT
 62
8
 10
7573.396
 20
-8712.000
 30
-1501.000
 70
    32
  0
VERTEX
  8
M68LXLIFT
 62
8
 10
7570.732
 20
-8707.740
 30
-1501.000
 70
    32
  0
VERTEX
  8
M68LXLIFT
 62
8
 10
7574.140
 20
-8695.930
 30
-1501.000
 70
    32
  0
VERTEX
  8
M68LXLIFT
 62
8
 10
7581.324
 20
-8684.461
 30
-1501.000
 70
    32
  0
VERTEX
  8
M68LXLIFT
 62
8
 10
7589.382
 20
-8677.501
 30
-1501.000
 70
    32
  0
VERTEX
  8
M68LXLIFT
 62
8
 10
7586.556
 20
-8665.885
 30
-1501.000
 70
    32
  0
VERTEX
  8
M68LXLIFT
 62
8
 10
7582.237
 20
-8660.015
 30
-1501.000
 70
    32
  0
VERTEX
  8
M68LXLIFT
 62
8
 10
7576.805
 20
-8645.526
 30
-1501.000
 70
    32
  0
VERTEX
  8
M68LXLIFT
 62
8
 10
7585.573
 20
-8629.451
 30
-1501.000
 70
    32
  0
VERTEX
  8
M68LXLIFT
 62
8
 10
7570.096
 20
-8620.891
 30
-1501.000
 70
    32
  0
VERTEX
  8
M68LXLIFT
 62
8
 10
7568.177
 20
-8613.100
 30
-1501.000
 70
    32
  0
VERTEX
  8
M68LXLIFT
 62
8
 10
7566.909
 20
-8605.588
 30
-1501.000
 70
    32
  0
VERTEX
  8
M68LXLIFT
 62
8
 10
7560.104
 20
-8596.424
 30
-1501.000
 70
    32
  0
VERTEX
  8
M68LXLIFT
 62
8
 10
7563.911
 20
-8588.932
 30
-1501.000
 70
    32
  0
SEQEND
  8
M68LXLIFT
  0
POLYLINE
  8
M68LXLIFT
 62
8
 66
     1
 70
     9
  0
VERTEX
  8
M68LXLIFT
 62
8
 10
7588.808
 20
-8673.534
 30
-1501.000
 70
    32
  0
VERTEX
  8
M68LXLIFT
 62
8
 10
7591.819
 20
-8682.481
 30
-1501.000
 70
    32
  0
VERTEX
  8
M68LXLIFT
 62
8
 10
7598.719
 20
-8694.104
 30
-1501.000
 70
    32
  0
VERTEX
  8
M68LXLIFT
 62
8
 10
7597.775
 20
-8701.745
 30
-1501.000
 70
    32
  0
VERTEX
  8
M68LXLIFT
 62
8
 10
7593.951
 20
-8703.090
 30
-1501.000
 70
    32
  0
VERTEX
  8
M68LXLIFT
 62
8
 10
7582.018
 20
-8705.934
 30
-1501.000
 70
    32
  0
VERTEX
  8
M68LXLIFT
 62
8
 10
7580.080
 20
-8715.756
 30
-1501.000
 70
    32
  0
VERTEX
  8
M68LXLIFT
 62
8
 10
7593.211
 20
-8720.477
 30
-1501.000
 70
    32
  0
VERTEX
  8
M68LXLIFT
 62
8
 10
7596.905
 20
-8729.018
 30
-1501.000
 70
    32
  0
VERTEX
  8
M68LXLIFT
 62
8
 10
7603.457
 20
-8729.684
 30
-1501.000
 70
    32
  0
VERTEX
  8
M68LXLIFT
 62
8
 10
7602.460
 20
-8737.255
 30
-1501.000
 70
    32
  0
VERTEX
  8
M68LXLIFT
 62
8
 10
7570.889
 20
-8743.808
 30
-1501.000
 70
    32
  0
VERTEX
  8
M68LXLIFT
 62
8
 10
7568.511
 20
-8747.362
 30
-1501.000
 70
    32
  0
VERTEX
  8
M68LXLIFT
 62
8
 10
7562.127
 20
-8749.979
 30
-1501.000
 70
    32
  0
VERTEX
  8
M68LXLIFT
 62
8
 10
7554.991
 20
-8759.763
 30
-1501.000
 70
    32
  0
VERTEX
  8
M68LXLIFT
 62
8
 10
7554.411
 20
-8765.700
 30
-1501.000
 70
    32
  0
VERTEX
  8
M68LXLIFT
 62
8
 10
7546.644
 20
-8775.960
 30
-1501.000
 70
    32
  0
VERTEX
  8
M68LXLIFT
 62
8
 10
7517.218
 20
-8777.484
 30
-1501.000
 70
    32
  0
VERTEX
  8
M68LXLIFT
 62
8
 10
7511.996
 20
-8775.375
 30
-1501.000
 70
    32
  0
VERTEX
  8
M68LXLIFT
 62
8
 10
7503.146
 20
-8781.283
 30
-1501.000
 70
    32
  0
VERTEX
  8
M68LXLIFT
 62
8
 10
7494.189
 20
-8780.782
 30
-1501.000
 70
    32
  0
VERTEX
  8
M68LXLIFT
 62
8
 10
7489.346
 20
-8782.235
 30
-1501.000
 70
    32
  0
VERTEX
  8
M68LXLIFT
 62
8
 10
7486.760
 20
-8774.288
 30
-1501.000
 70
    32
  0
VERTEX
  8
M68LXLIFT
 62
8
 10
7494.753
 20
-8763.308
 30
-1501.000
 70
    32
  0
VERTEX
  8
M68LXLIFT
 62
8
 10
7508.673
 20
-8755.664
 30
-1501.000
 70
    32
  0
VERTEX
  8
M68LXLIFT
 62
8
 10
7520.724
 20
-8751.082
 30
-1501.000
 70
    32
  0
VERTEX
  8
M68LXLIFT
 62
8
 10
7534.326
 20
-8730.480
 30
-1501.000
 70
    32
  0
VERTEX
  8
M68LXLIFT
 62
8
 10
7541.647
 20
-8730.125
 30
-1501.000
 70
    32
  0
VERTEX
  8
M68LXLIFT
 62
8
 10
7552.148
 20
-8724.072
 30
-1501.000
 70
    32
  0
VERTEX
  8
M68LXLIFT
 62
8
 10
7557.901
 20
-8715.662
 30
-1501.000
 70
    32
  0
VERTEX
  8
M68LXLIFT
 62
8
 10
7560.488
 20
-8705.241
 30
-1501.000
 70
    32
  0
VERTEX
  8
M68LXLIFT
 62
8
 10
7569.574
 20
-8671.219
 30
-1501.000
 70
    32
  0
SEQEND
  8
M68LXLIFT
  0
POLYLINE
  8
M68LXLIFT
 62
13
 66
     1
 70
     9
  0
VERTEX
  8
M68LXLIFT
 62
13
 10
7525.331
 20
-8564.477
 30
-1458.000
 70
    32
  0
VERTEX
  8
M68LXLIFT
 62
13
 10
7551.470
 20
-8598.099
 30
-1458.000
 70
    32
  0
VERTEX
  8
M68LXLIFT
 62
13
 10
7546.137
 20
-8606.192
 30
-1458.000
 70
    32
  0
VERTEX
  8
M68LXLIFT
 62
13
 10
7544.223
 20
-8618.525
 30
-1458.000
 70
    32
  0
VERTEX
  8
M68LXLIFT
 62
13
 10
7538.033
 20
-8627.375
 30
-1458.000
 70
    32
  0
VERTEX
  8
M68LXLIFT
 62
13
 10
7536.103
 20
-8634.001
 30
-1458.000
 70
    32
  0
VERTEX
  8
M68LXLIFT
 62
13
 10
7540.424
 20
-8652.848
 30
-1458.000
 70
    32
  0
VERTEX
  8
M68LXLIFT
 62
13
 10
7555.440
 20
-8678.143
 30
-1458.000
 70
    32
  0
VERTEX
  8
M68LXLIFT
 62
13
 10
7567.720
 20
-8698.355
 30
-1458.000
 70
    32
  0
VERTEX
  8
M68LXLIFT
 62
13
 10
7556.160
 20
-8708.397
 30
-1458.000
 70
    32
  0
VERTEX
  8
M68LXLIFT
 62
13
 10
7541.202
 20
-8715.833
 30
-1458.000
 70
    32
  0
VERTEX
  8
M68LXLIFT
 62
13
 10
7524.146
 20
-8719.903
 30
-1458.000
 70
    32
  0
VERTEX
  8
M68LXLIFT
 62
13
 10
7522.226
 20
-8730.041
 30
-1458.000
 70
    32
  0
VERTEX
  8
M68LXLIFT
 62
13
 10
7515.581
 20
-8733.624
 30
-1458.000
 70
    32
  0
VERTEX
  8
M68LXLIFT
 62
13
 10
7507.398
 20
-8733.420
 30
-1458.000
 70
    32
  0
VERTEX
  8
M68LXLIFT
 62
13
 10
7495.739
 20
-8721.758
 30
-1458.000
 70
    32
  0
VERTEX
  8
M68LXLIFT
 62
13
 10
7510.210
 20
-8697.642
 30
-1458.000
 70
    32
  0
VERTEX
  8
M68LXLIFT
 62
13
 10
7515.739
 20
-8678.732
 30
-1458.000
 70
    32
  0
VERTEX
  8
M68LXLIFT
 62
13
 10
7521.225
 20
-8656.994
 30
-1458.000
 70
    32
  0
VERTEX
  8
M68LXLIFT
 62
13
 10
7523.782
 20
-8630.208
 30
-1458.000
 70
    32
  0
VERTEX
  8
M68LXLIFT
 62
13
 10
7520.975
 20
-8618.908
 30
-1458.000
 70
    32
  0
VERTEX
  8
M68LXLIFT
 62
13
 10
7523.550
 20
-8610.366
 30
-1458.000
 70
    32
  0
VERTEX
  8
M68LXLIFT
 62
13
 10
7525.096
 20
-8598.421
 30
-1458.000
 70
    32
  0
VERTEX
  8
M68LXLIFT
 62
13
 10
7522.385
 20
-8590.018
 30
-1458.000
 70
    32
  0
VERTEX
  8
M68LXLIFT
 62
13
 10
7518.321
 20
-8575.156
 30
-1458.000
 70
    32
  0
SEQEND
  8
M68LXLIFT
  0
POLYLINE
  8
M68LXLIFT
 62
1
 66
     1
 70
     9
  0
VERTEX
  8
M68LXLIFT
 62
1
 10
7526.850
 20
-8561.765
 30
-1428.000
 70
    32
  0
VERTEX
  8
M68LXLIFT
 62
1
 10
7547.698
 20
-8587.256
 30
-1428.000
 70
    32
  0
VERTEX
  8
M68LXLIFT
 62
1
 10
7558.709
 20
-8603.685
 30
-1428.000
 70
    32
  0
VERTEX
  8
M68LXLIFT
 62
1
 10
7552.680
 20
-8612.875
 30
-1428.000
 70
    32
  0
VERTEX
  8
M68LXLIFT
 62
1
 10
7537.589
 20
-8621.002
 30
-1428.000
 70
    32
  0
VERTEX
  8
M68LXLIFT
 62
1
 10
7539.217
 20
-8653.675
 30
-1428.000
 70
    32
  0
VERTEX
  8
M68LXLIFT
 62
1
 10
7554.958
 20
-8671.696
 30
-1428.000
 70
    32
  0
VERTEX
  8
M68LXLIFT
 62
1
 10
7568.149
 20
-8681.410
 30
-1428.000
 70
    32
  0
VERTEX
  8
M68LXLIFT
 62
1
 10
7568.144
 20
-8691.432
 30
-1428.000
 70
    32
  0
VERTEX
  8
M68LXLIFT
 62
1
 10
7562.059
 20
-8700.113
 30
-1428.000
 70
    32
  0
VERTEX
  8
M68LXLIFT
 62
1
 10
7539.726
 20
-8702.167
 30
-1428.000
 70
    32
  0
VERTEX
  8
M68LXLIFT
 62
1
 10
7509.661
 20
-8713.488
 30
-1428.000
 70
    32
  0
VERTEX
  8
M68LXLIFT
 62
1
 10
7495.567
 20
-8702.146
 30
-1428.000
 70
    32
  0
VERTEX
  8
M68LXLIFT
 62
1
 10
7495.989
 20
-8698.634
 30
-1428.000
 70
    32
  0
VERTEX
  8
M68LXLIFT
 62
1
 10
7514.124
 20
-8692.055
 30
-1428.000
 70
    32
  0
VERTEX
  8
M68LXLIFT
 62
1
 10
7516.747
 20
-8686.215
 30
-1428.000
 70
    32
  0
VERTEX
  8
M68LXLIFT
 62
1
 10
7515.968
 20
-8677.338
 30
-1428.000
 70
    32
  0
VERTEX
  8
M68LXLIFT
 62
1
 10
7518.211
 20
-8669.254
 30
-1428.000
 70
    32
  0
VERTEX
  8
M68LXLIFT
 62
1
 10
7521.982
 20
-8650.105
 30
-1428.000
 70
    32
  0
VERTEX
  8
M68LXLIFT
 62
1
 10
7526.418
 20
-8593.025
 30
-1428.000
 70
    32
  0
VERTEX
  8
M68LXLIFT
 62
1
 10
7518.722
 20
-8568.911
 30
-1428.000
 70
    32
  0
SEQEND
  8
M68LXLIFT
  0
POLYLINE
  8
M68LXLIFT
 62
8
 66
     1
 70
     9
  0
VERTEX
  8
M68LXLIFT
 62
8
 10
7513.538
 20
-8585.144
 30
-1474.000
 70
    32
  0
VERTEX
  8
M68LXLIFT
 62
8
 10
7507.393
 20
-8591.431
 30
-1474.000
 70
    32
  0
VERTEX
  8
M68LXLIFT
 62
8
 10
7504.532
 20
-8597.989
 30
-1474.000
 70
    32
  0
VERTEX
  8
M68LXLIFT
 62
8
 10
7507.264
 20
-8613.855
 30
-1474.000
 70
    32
  0
VERTEX
  8
M68LXLIFT
 62
8
 10
7510.527
 20
-8618.762
 30
-1474.000
 70
    32
  0
VERTEX
  8
M68LXLIFT
 62
8
 10
7529.518
 20
-8615.652
 30
-1474.000
 70
    32
  0
VERTEX
  8
M68LXLIFT
 62
8
 10
7551.659
 20
-8633.482
 30
-1474.000
 70
    32
  0
VERTEX
  8
M68LXLIFT
 62
8
 10
7547.503
 20
-8647.507
 30
-1474.000
 70
    32
  0
VERTEX
  8
M68LXLIFT
 62
8
 10
7534.908
 20
-8658.219
 30
-1474.000
 70
    32
  0
VERTEX
  8
M68LXLIFT
 62
8
 10
7535.754
 20
-8671.439
 30
-1474.000
 70
    32
  0
VERTEX
  8
M68LXLIFT
 62
8
 10
7541.965
 20
-8675.882
 30
-1474.000
 70
    32
  0
VERTEX
  8
M68LXLIFT
 62
8
 10
7549.885
 20
-8669.906
 30
-1474.000
 70
    32
  0
VERTEX
  8
M68LXLIFT
 62
8
 10
7564.421
 20
-8668.618
 30
-1474.000
 70
    32
  0
VERTEX
  8
M68LXLIFT
 62
8
 10
7566.165
 20
-8658.393
 30
-1474.000
 70
    32
  0
VERTEX
  8
M68LXLIFT
 62
8
 10
7571.394
 20
-8656.868
 30
-1474.000
 70
    32
  0
VERTEX
  8
M68LXLIFT
 62
8
 10
7574.368
 20
-8659.352
 30
-1474.000
 70
    32
  0
VERTEX
  8
M68LXLIFT
 62
8
 10
7574.331
 20
-8664.550
 30
-1474.000
 70
    32
  0
VERTEX
  8
M68LXLIFT
 62
8
 10
7582.504
 20
-8685.441
 30
-1474.000
 70
    32
  0
VERTEX
  8
M68LXLIFT
 62
8
 10
7578.661
 20
-8698.569
 30
-1474.000
 70
    32
  0
VERTEX
  8
M68LXLIFT
 62
8
 10
7565.897
 20
-8699.290
 30
-1474.000
 70
    32
  0
VERTEX
  8
M68LXLIFT
 62
8
 10
7552.026
 20
-8699.857
 30
-1474.000
 70
    32
  0
VERTEX
  8
M68LXLIFT
 62
8
 10
7532.858
 20
-8696.172
 30
-1474.000
 70
    32
  0
VERTEX
  8
M68LXLIFT
 62
8
 10
7525.408
 20
-8713.121
 30
-1474.000
 70
    32
  0
VERTEX
  8
M68LXLIFT
 62
8
 10
7515.378
 20
-8718.049
 30
-1474.000
 70
    32
  0
VERTEX
  8
M68LXLIFT
 62
8
 10
7518.427
 20
-8728.067
 30
-1474.000
 70
    32
  0
VERTEX
  8
M68LXLIFT
 62
8
 10
7530.974
 20
-8731.139
 30
-1474.000
 70
    32
  0
VERTEX
  8
M68LXLIFT
 62
8
 10
7550.153
 20
-8726.238
 30
-1474.000
 70
    32
  0
VERTEX
  8
M68LXLIFT
 62
8
 10
7558.762
 20
-8727.881
 30
-1474.000
 70
    32
  0
VERTEX
  8
M68LXLIFT
 62
8
 10
7569.783
 20
-8725.724
 30
-1474.000
 70
    32
  0
VERTEX
  8
M68LXLIFT
 62
8
 10
7581.996
 20
-8734.768
 30
-1474.000
 70
    32
  0
VERTEX
  8
M68LXLIFT
 62
8
 10
7586.781
 20
-8725.658
 30
-1474.000
 70
    32
  0
VERTEX
  8
M68LXLIFT
 62
8
 10
7592.436
 20
-8726.010
 30
-1474.000
 70
    32
  0
VERTEX
  8
M68LXLIFT
 62
8
 10
7598.070
 20
-8712.631
 30
-1474.000
 70
    32
  0
VERTEX
  8
M68LXLIFT
 62
8
 10
7589.547
 20
-8674.077
 30
-1474.000
 70
    32
  0
VERTEX
  8
M68LXLIFT
 62
8
 10
7579.911
 20
-8651.101
 30
-1474.000
 70
    32
  0
VERTEX
  8
M68LXLIFT
 62
8
 10
7574.733
 20
-8621.352
 30
-1474.000
 70
    32
  0
VERTEX
  8
M68LXLIFT
 62
8
 10
7574.970
 20
-8612.044
 30
-1474.000
 70
    32
  0
VERTEX
  8
M68LXLIFT
 62
8
 10
7564.702
 20
-8601.643
 30
-1474.000
 70
    32
  0
VERTEX
  8
M68LXLIFT
 62
8
 10
7558.524
 20
-8590.247
 30
-1474.000
 70
    32
  0
VERTEX
  8
M68LXLIFT
 62
8
 10
7543.740
 20
-8578.525
 30
-1474.000
 70
    32
  0
VERTEX
  8
M68LXLIFT
 62
8
 10
7528.269
 20
-8584.698
 30
-1474.000
 70
    32
  0
VERTEX
  8
M68LXLIFT
 62
8
 10
7523.309
 20
-8581.621
 30
-1474.000
 70
    32
  0
SEQEND
  8
M68LXLIFT
  0
POLYLINE
  8
M68LXLIFT
 62
8
 66
     1
 70
     9
  0
VERTEX
  8
M68LXLIFT
 62
8
 10
7570.986
 20
-8710.409
 30
-1489.000
 70
    32
  0
VERTEX
  8
M68LXLIFT
 62
8
 10
7581.558
 20
-8716.840
 30
-1489.000
 70
    32
  0
VERTEX
  8
M68LXLIFT
 62
8
 10
7595.301
 20
-8720.769
 30
-1489.000
 70
    32
  0
VERTEX
  8
M68LXLIFT
 62
8
 10
7597.904
 20
-8728.155
 30
-1489.000
 70
    32
  0
VERTEX
  8
M68LXLIFT
 62
8
 10
7606.546
 20
-8729.113
 30
-1489.000
 70
    32
  0
VERTEX
  8
M68LXLIFT
 62
8
 10
7607.317
 20
-8734.800
 30
-1489.000
 70
    32
  0
VERTEX
  8
M68LXLIFT
 62
8
 10
7578.698
 20
-8742.205
 30
-1489.000
 70
    32
  0
VERTEX
  8
M68LXLIFT
 62
8
 10
7572.391
 20
-8746.964
 30
-1489.000
 70
    32
  0
VERTEX
  8
M68LXLIFT
 62
8
 10
7566.644
 20
-8745.471
 30
-1489.000
 70
    32
  0
VERTEX
  8
M68LXLIFT
 62
8
 10
7559.448
 20
-8758.819
 30
-1489.000
 70
    32
  0
VERTEX
  8
M68LXLIFT
 62
8
 10
7551.799
 20
-8773.609
 30
-1489.000
 70
    32
  0
VERTEX
  8
M68LXLIFT
 62
8
 10
7546.257
 20
-8776.031
 30
-1489.000
 70
    32
  0
VERTEX
  8
M68LXLIFT
 62
8
 10
7516.085
 20
-8774.379
 30
-1489.000
 70
    32
  0
VERTEX
  8
M68LXLIFT
 62
8
 10
7505.145
 20
-8780.434
 30
-1489.000
 70
    32
  0
VERTEX
  8
M68LXLIFT
 62
8
 10
7497.873
 20
-8779.542
 30
-1489.000
 70
    32
  0
VERTEX
  8
M68LXLIFT
 62
8
 10
7491.260
 20
-8782.002
 30
-1489.000
 70
    32
  0
VERTEX
  8
M68LXLIFT
 62
8
 10
7488.846
 20
-8773.264
 30
-1489.000
 70
    32
  0
VERTEX
  8
M68LXLIFT
 62
8
 10
7497.014
 20
-8761.932
 30
-1489.000
 70
    32
  0
VERTEX
  8
M68LXLIFT
 62
8
 10
7530.533
 20
-8742.800
 30
-1489.000
 70
    32
  0
VERTEX
  8
M68LXLIFT
 62
8
 10
7537.483
 20
-8735.247
 30
-1489.000
 70
    32
  0
VERTEX
  8
M68LXLIFT
 62
8
 10
7536.221
 20
-8729.930
 30
-1489.000
 70
    32
  0
VERTEX
  8
M68LXLIFT
 62
8
 10
7544.174
 20
-8729.538
 30
-1489.000
 70
    32
  0
VERTEX
  8
M68LXLIFT
 62
8
 10
7553.553
 20
-8723.892
 30
-1489.000
 70
    32
  0
VERTEX
  8
M68LXLIFT
 62
8
 10
7560.181
 20
-8714.602
 30
-1489.000
 70
    32
  0
VERTEX
  8
M68LXLIFT
 62
8
 10
7560.510
 20
-8706.874
 30
-1489.000
 70
    32
  0
SEQEND
  8
M68LXLIFT
  0
POLYLINE
  8
M68LXLIFT
 62
8
 66
     1
 70
     9
  0
VERTEX
  8
M68LXLIFT
 62
8
 10
7566.418
 20
-8673.160
 30
-1528.000
 70
    32
  0
VERTEX
  8
M68LXLIFT
 62
8
 10
7571.519
 20
-8676.130
 30
-1528.000
 70
    32
  0
VERTEX
  8
M68LXLIFT
 62
8
 10
7577.525
 20
-8688.317
 30
-1528.000
 70
    32
  0
VERTEX
  8
M68LXLIFT
 62
8
 10
7575.056
 20
-8696.999
 30
-1528.000
 70
    32
  0
VERTEX
  8
M68LXLIFT
 62
8
 10
7567.836
 20
-8702.007
 30
-1528.000
 70
    32
  0
VERTEX
  8
M68LXLIFT
 62
8
 10
7559.546
 20
-8707.492
 30
-1528.000
 70
    32
  0
VERTEX
  8
M68LXLIFT
 62
8
 10
7555.089
 20
-8714.704
 30
-1528.000
 70
    32
  0
VERTEX
  8
M68LXLIFT
 62
8
 10
7546.770
 20
-8722.191
 30
-1528.000
 70
    32
  0
VERTEX
  8
M68LXLIFT
 62
8
 10
7547.898
 20
-8729.809
 30
-1528.000
 70
    32
  0
VERTEX
  8
M68LXLIFT
 62
8
 10
7546.241
 20
-8733.589
 30
-1528.000
 70
    32
  0
VERTEX
  8
M68LXLIFT
 62
8
 10
7538.086
 20
-8743.481
 30
-1528.000
 70
    32
  0
VERTEX
  8
M68LXLIFT
 62
8
 10
7541.464
 20
-8757.870
 30
-1528.000
 70
    32
  0
VERTEX
  8
M68LXLIFT
 62
8
 10
7546.605
 20
-8756.521
 30
-1528.000
 70
    32
  0
VERTEX
  8
M68LXLIFT
 62
8
 10
7556.244
 20
-8768.276
 30
-1528.000
 70
    32
  0
VERTEX
  8
M68LXLIFT
 62
8
 10
7544.240
 20
-8782.832
 30
-1528.000
 70
    32
  0
VERTEX
  8
M68LXLIFT
 62
8
 10
7549.382
 20
-8787.752
 30
-1528.000
 70
    32
  0
VERTEX
  8
M68LXLIFT
 62
8
 10
7560.650
 20
-8786.069
 30
-1528.000
 70
    32
  0
VERTEX
  8
M68LXLIFT
 62
8
 10
7564.185
 20
-8781.862
 30
-1528.000
 70
    32
  0
VERTEX
  8
M68LXLIFT
 62
8
 10
7573.145
 20
-8783.241
 30
-1528.000
 70
    32
  0
VERTEX
  8
M68LXLIFT
 62
8
 10
7584.129
 20
-8774.184
 30
-1528.000
 70
    32
  0
VERTEX
  8
M68LXLIFT
 62
8
 10
7588.807
 20
-8770.763
 30
-1528.000
 70
    32
  0
VERTEX
  8
M68LXLIFT
 62
8
 10
7592.928
 20
-8768.644
 30
-1528.000
 70
    32
  0
VERTEX
  8
M68LXLIFT
 62
8
 10
7603.380
 20
-8751.739
 30
-1528.000
 70
    32
  0
VERTEX
  8
M68LXLIFT
 62
8
 10
7616.277
 20
-8754.547
 30
-1528.000
 70
    32
  0
VERTEX
  8
M68LXLIFT
 62
8
 10
7627.286
 20
-8754.269
 30
-1528.000
 70
    32
  0
VERTEX
  8
M68LXLIFT
 62
8
 10
7628.138
 20
-8745.048
 30
-1528.000
 70
    32
  0
VERTEX
  8
M68LXLIFT
 62
8
 10
7620.193
 20
-8736.414
 30
-1528.000
 70
    32
  0
VERTEX
  8
M68LXLIFT
 62
8
 10
7603.558
 20
-8734.337
 30
-1528.000
 70
    32
  0
VERTEX
  8
M68LXLIFT
 62
8
 10
7587.662
 20
-8726.533
 30
-1528.000
 70
    32
  0
VERTEX
  8
M68LXLIFT
 62
8
 10
7578.304
 20
-8715.006
 30
-1528.000
 70
    32
  0
VERTEX
  8
M68LXLIFT
 62
8
 10
7582.121
 20
-8705.197
 30
-1528.000
 70
    32
  0
VERTEX
  8
M68LXLIFT
 62
8
 10
7590.576
 20
-8702.117
 30
-1528.000
 70
    32
  0
VERTEX
  8
M68LXLIFT
 62
8
 10
7592.249
 20
-8703.605
 30
-1528.000
 70
    32
  0
VERTEX
  8
M68LXLIFT
 62
8
 10
7596.384
 20
-8700.485
 30
-1528.000
 70
    32
  0
VERTEX
  8
M68LXLIFT
 62
8
 10
7593.885
 20
-8692.362
 30
-1528.000
 70
    32
  0
VERTEX
  8
M68LXLIFT
 62
8
 10
7585.853
 20
-8677.634
 30
-1528.000
 70
    32
  0
VERTEX
  8
M68LXLIFT
 62
8
 10
7585.570
 20
-8671.138
 30
-1528.000
 70
    32
  0
VERTEX
  8
M68LXLIFT
 62
8
 10
7592.933
 20
-8666.902
 30
-1528.000
 70
    32
  0
VERTEX
  8
M68LXLIFT
 62
8
 10
7598.216
 20
-8653.788
 30
-1528.000
 70
    32
  0
VERTEX
  8
M68LXLIFT
 62
8
 10
7595.677
 20
-8649.984
 30
-1528.000
 70
    32
  0
VERTEX
  8
M68LXLIFT
 62
8
 10
7587.716
 20
-8647.742
 30
-1528.000
 70
    32
  0
VERTEX
  8
M68LXLIFT
 62
8
 10
7579.829
 20
-8634.665
 30
-1528.000
 70
    32
  0
VERTEX
  8
M68LXLIFT
 62
8
 10
7588.469
 20
-8610.548
 30
-1528.000
 70
    32
  0
VERTEX
  8
M68LXLIFT
 62
8
 10
7577.195
 20
-8604.206
 30
-1528.000
 70
    32
  0
VERTEX
  8
M68LXLIFT
 62
8
 10
7574.563
 20
-8598.823
 30
-1528.000
 70
    32
  0
VERTEX
  8
M68LXLIFT
 62
8
 10
7567.332
 20
-8594.050
 30
-1528.000
 70
    32
  0
VERTEX
  8
M68LXLIFT
 62
8
 10
7547.974
 20
-8603.816
 30
-1528.000
 70
    32
  0
VERTEX
  8
M68LXLIFT
 62
8
 10
7543.852
 20
-8599.228
 30
-1528.000
 70
    32
  0
VERTEX
  8
M68LXLIFT
 62
8
 10
7544.225
 20
-8594.766
 30
-1528.000
 70
    32
  0
VERTEX
  8
M68LXLIFT
 62
8
 10
7541.603
 20
-8586.626
 30
-1528.000
 70
    32
  0
VERTEX
  8
M68LXLIFT
 62
8
 10
7533.619
 20
-8588.581
 30
-1528.000
 70
    32
  0
VERTEX
  8
M68LXLIFT
 62
8
 10
7534.456
 20
-8617.095
 30
-1528.000
 70
    32
  0
VERTEX
  8
M68LXLIFT
 62
8
 10
7537.253
 20
-8631.153
 30
-1528.000
 70
    32
  0
VERTEX
  8
M68LXLIFT
 62
8
 10
7551.104
 20
-8641.930
 30
-1528.000
 70
    32
  0
VERTEX
  8
M68LXLIFT
 62
8
 10
7557.208
 20
-8639.524
 30
-1528.000
 70
    32
  0
VERTEX
  8
M68LXLIFT
 62
8
 10
7558.851
 20
-8643.014
 30
-1528.000
 70
    32
  0
VERTEX
  8
M68LXLIFT
 62
8
 10
7565.813
 20
-8639.851
 30
-1528.000
 70
    32
  0
VERTEX
  8
M68LXLIFT
 62
8
 10
7569.839
 20
-8653.641
 30
-1528.000
 70
    32
  0
VERTEX
  8
M68LXLIFT
 62
8
 10
7563.160
 20
-8663.740
 30
-1528.000
 70
    32
  0
SEQEND
  8
M68LXLIFT
  0
POLYLINE
  8
M68LXLIFT
 62
8
 66
     1
 70
     9
  0
VERTEX
  8
M68LXLIFT
 62
8
 10
7544.469
 20
-8782.990
 30
-1549.000
 70
    32
  0
VERTEX
  8
M68LXLIFT
 62
8
 10
7557.503
 20
-8766.446
 30
-1549.000
 70
    32
  0
VERTEX
  8
M68LXLIFT
 62
8
 10
7550.771
 20
-8758.107
 30
-1549.000
 70
    32
  0
VERTEX
  8
M68LXLIFT
 62
8
 10
7543.971
 20
-8756.529
 30
-1549.000
 70
    32
  0
VERTEX
  8
M68LXLIFT
 62
8
 10
7539.592
 20
-8742.125
 30
-1549.000
 70
    32
  0
VERTEX
  8
M68LXLIFT
 62
8
 10
7546.511
 20
-8736.134
 30
-1549.000
 70
    32
  0
VERTEX
  8
M68LXLIFT
 62
8
 10
7548.194
 20
-8722.766
 30
-1549.000
 70
    32
  0
VERTEX
  8
M68LXLIFT
 62
8
 10
7555.355
 20
-8715.493
 30
-1549.000
 70
    32
  0
VERTEX
  8
M68LXLIFT
 62
8
 10
7558.459
 20
-8708.092
 30
-1549.000
 70
    32
  0
VERTEX
  8
M68LXLIFT
 62
8
 10
7577.736
 20
-8694.427
 30
-1549.000
 70
    32
  0
VERTEX
  8
M68LXLIFT
 62
8
 10
7578.891
 20
-8687.066
 30
-1549.000
 70
    32
  0
VERTEX
  8
M68LXLIFT
 62
8
 10
7576.312
 20
-8681.753
 30
-1549.000
 70
    32
  0
VERTEX
  8
M68LXLIFT
 62
8
 10
7588.066
 20
-8677.944
 30
-1549.000
 70
    32
  0
VERTEX
  8
M68LXLIFT
 62
8
 10
7596.580
 20
-8695.497
 30
-1549.000
 70
    32
  0
VERTEX
  8
M68LXLIFT
 62
8
 10
7597.244
 20
-8700.166
 30
-1549.000
 70
    32
  0
VERTEX
  8
M68LXLIFT
 62
8
 10
7595.072
 20
-8702.244
 30
-1549.000
 70
    32
  0
VERTEX
  8
M68LXLIFT
 62
8
 10
7595.002
 20
-8702.297
 30
-1549.000
 70
    32
  0
VERTEX
  8
M68LXLIFT
 62
8
 10
7586.452
 20
-8702.919
 30
-1549.000
 70
    32
  0
VERTEX
  8
M68LXLIFT
 62
8
 10
7582.051
 20
-8705.249
 30
-1549.000
 70
    32
  0
VERTEX
  8
M68LXLIFT
 62
8
 10
7580.404
 20
-8712.542
 30
-1549.000
 70
    32
  0
VERTEX
  8
M68LXLIFT
 62
8
 10
7591.303
 20
-8728.735
 30
-1549.000
 70
    32
  0
VERTEX
  8
M68LXLIFT
 62
8
 10
7608.850
 20
-8736.394
 30
-1549.000
 70
    32
  0
VERTEX
  8
M68LXLIFT
 62
8
 10
7623.549
 20
-8737.071
 30
-1549.000
 70
    32
  0
VERTEX
  8
M68LXLIFT
 62
8
 10
7627.277
 20
-8744.927
 30
-1549.000
 70
    32
  0
VERTEX
  8
M68LXLIFT
 62
8
 10
7629.580
 20
-8745.939
 30
-1549.000
 70
    32
  0
VERTEX
  8
M68LXLIFT
 62
8
 10
7627.465
 20
-8755.235
 30
-1549.000
 70
    32
  0
VERTEX
  8
M68LXLIFT
 62
8
 10
7614.171
 20
-8754.816
 30
-1549.000
 70
    32
  0
VERTEX
  8
M68LXLIFT
 62
8
 10
7604.381
 20
-8751.754
 30
-1549.000
 70
    32
  0
VERTEX
  8
M68LXLIFT
 62
8
 10
7597.882
 20
-8763.257
 30
-1549.000
 70
    32
  0
VERTEX
  8
M68LXLIFT
 62
8
 10
7592.581
 20
-8770.226
 30
-1549.000
 70
    32
  0
VERTEX
  8
M68LXLIFT
 62
8
 10
7584.393
 20
-8774.534
 30
-1549.000
 70
    32
  0
VERTEX
  8
M68LXLIFT
 62
8
 10
7575.005
 20
-8782.937
 30
-1549.000
 70
    32
  0
VERTEX
  8
M68LXLIFT
 62
8
 10
7563.204
 20
-8782.602
 30
-1549.000
 70
    32
  0
VERTEX
  8
M68LXLIFT
 62
8
 10
7560.339
 20
-8787.843
 30
-1549.000
 70
    32
  0
VERTEX
  8
M68LXLIFT
 62
8
 10
7554.634
 20
-8788.299
 30
-1549.000
 70
    32
  0
VERTEX
  8
M68LXLIFT
 62
8
 10
7552.620
 20
-8790.148
 30
-1549.000
 70
    32
  0
SEQEND
  8
M68LXLIFT
  0
POLYLINE
  8
M68LXLIFT
 62
1
 66
     1
 70
     9
  0
VERTEX
  8
M68LXLIFT
 62
1
 10
7524.309
 20
-8580.621
 30
-1464.000
 70
    32
  0
VERTEX
  8
M68LXLIFT
 62
1
 10
7529.269
 20
-8583.698
 30
-1464.000
 70
    32
  0
VERTEX
  8
M68LXLIFT
 62
1
 10
7544.740
 20
-8577.525
 30
-1464.000
 70
    32
  0
VERTEX
  8
M68LXLIFT
 62
1
 10
7559.524
 20
-8589.247
 30
-1464.000
 70
    32
  0
VERTEX
  8
M68LXLIFT
 62
1
 10
7565.702
 20
-8600.643
 30
-1464.000
 70
    32
  0
VERTEX
  8
M68LXLIFT
 62
1
 10
7575.970
 20
-8611.044
 30
-1464.000
 70
    32
  0
VERTEX
  8
M68LXLIFT
 62
1
 10
7575.733
 20
-8620.352
 30
-1464.000
 70
    32
  0
VERTEX
  8
M68LXLIFT
 62
1
 10
7580.911
 20
-8650.101
 30
-1464.000
 70
    32
  0
VERTEX
  8
M68LXLIFT
 62
1
 10
7590.547
 20
-8673.077
 30
-1464.000
 70
    32
  0
VERTEX
  8
M68LXLIFT
 62
1
 10
7599.070
 20
-8711.631
 30
-1464.000
 70
    32
  0
VERTEX
  8
M68LXLIFT
 62
1
 10
7593.436
 20
-8725.010
 30
-1464.000
 70
    32
  0
VERTEX
  8
M68LXLIFT
 62
1
 10
7587.781
 20
-8724.658
 30
-1464.000
 70
    32
  0
VERTEX
  8
M68LXLIFT
 62
1
 10
7582.996
 20
-8733.768
 30
-1464.000
 70
    32
  0
VERTEX
  8
M68LXLIFT
 62
1
 10
7570.783
 20
-8724.724
 30
-1464.000
 70
    32
  0
VERTEX
  8
M68LXLIFT
 62
1
 10
7559.762
 20
-8726.881
 30
-1464.000
 70
    32
  0
VERTEX
  8
M68LXLIFT
 62
1
 10
7551.153
 20
-8725.238
 30
-1464.000
 70
    32
  0
VERTEX
  8
M68LXLIFT
 62
1
 10
7531.974
 20
-8730.139
 30
-1464.000
 70
    32
  0
VERTEX
  8
M68LXLIFT
 62
1
 10
7519.427
 20
-8727.067
 30
-1464.000
 70
    32
  0
VERTEX
  8
M68LXLIFT
 62
1
 10
7516.378
 20
-8717.049
 30
-1464.000
 70
    32
  0
VERTEX
  8
M68LXLIFT
 62
1
 10
7526.408
 20
-8712.121
 30
-1464.000
 70
    32
  0
VERTEX
  8
M68LXLIFT
 62
1
 10
7533.858
 20
-8695.172
 30
-1464.000
 70
    32
  0
VERTEX
  8
M68LXLIFT
 62
1
 10
7553.026
 20
-8698.857
 30
-1464.000
 70
    32
  0
VERTEX
  8
M68LXLIFT
 62
1
 10
7566.897
 20
-8698.290
 30
-1464.000
 70
    32
  0
VERTEX
  8
M68LXLIFT
 62
1
 10
7579.661
 20
-8697.569
 30
-1464.000
 70
    32
  0
VERTEX
  8
M68LXLIFT
 62
1
 10
7583.504
 20
-8684.441
 30
-1464.000
 70
    32
  0
VERTEX
  8
M68LXLIFT
 62
1
 10
7575.331
 20
-8663.550
 30
-1464.000
 70
    32
  0
VERTEX
  8
M68LXLIFT
 62
1
 10
7575.368
 20
-8658.352
 30
-1464.000
 70
    32
  0
VERTEX
  8
M68LXLIFT
 62
1
 10
7572.394
 20
-8655.868
 30
-1464.000
 70
    32
  0
VERTEX
  8
M68LXLIFT
 62
1
 10
7567.165
 20
-8657.393
 30
-1464.000
 70
    32
  0
VERTEX
  8
M68LXLIFT
 62
1
 10
7565.421
 20
-8667.618
 30
-1464.000
 70
    32
  0
VERTEX
  8
M68LXLIFT
 62
1
 10
7550.885
 20
-8668.906
 30
-1464.000
 70
    32
  0
VERTEX
  8
M68LXLIFT
 62
1
 10
7542.965
 20
-8674.882
 30
-1464.000
 70
    32
  0
VERTEX
  8
M68LXLIFT
 62
1
 10
7536.754
 20
-8670.439
 30
-1464.000
 70
    32
  0
VERTEX
  8
M68LXLIFT
 62
1
 10
7535.908
 20
-8657.219
 30
-1464.000
 70
    32
  0
VERTEX
  8
M68LXLIFT
 62
1
 10
7548.503
 20
-8646.507
 30
-1464.000
 70
    32
  0
VERTEX
  8
M68LXLIFT
 62
1
 10
7552.659
 20
-8632.482
 30
-1464.000
 70
    32
  0
VERTEX
  8
M68LXLIFT
 62
1
 10
7530.518
 20
-8614.652
 30
-1464.000
 70
    32
  0
VERTEX
  8
M68LXLIFT
 62
1
 10
7511.527
 20
-8617.762
 30
-1464.000
 70
    32
  0
VERTEX
  8
M68LXLIFT
 62
1
 10
7508.264
 20
-8612.855
 30
-1464.000
 70
    32
  0
VERTEX
  8
M68LXLIFT
 62
1
 10
7505.532
 20
-8596.989
 30
-1464.000
 70
    32
  0
VERTEX
  8
M68LXLIFT
 62
1
 10
7508.393
 20
-8590.431
 30
-1464.000
 70
    32
  0
VERTEX
  8
M68LXLIFT
 62
1
 10
7514.538
 20
-8584.144
 30
-1464.000
 70
    32
  0
SEQEND
  8
M68LXLIFT
  0
POLYLINE
  8
M68LXLIFT
 62
13
 66
     1
 70
     9
  0
VERTEX
  8
M68LXLIFT
 62
13
 10
7517.722
 20
-8569.911
 30
-1439.000
 70
    32
  0
VERTEX
  8
M68LXLIFT
 62
13
 10
7525.418
 20
-8594.025
 30
-1439.000
 70
    32
  0
VERTEX
  8
M68LXLIFT
 62
13
 10
7520.982
 20
-8651.105
 30
-1439.000
 70
    32
  0
VERTEX
  8
M68LXLIFT
 62
13
 10
7517.211
 20
-8670.254
 30
-1439.000
 70
    32
  0
VERTEX
  8
M68LXLIFT
 62
13
 10
7514.968
 20
-8678.338
 30
-1439.000
 70
    32
  0
VERTEX
  8
M68LXLIFT
 62
13
 10
7515.747
 20
-8687.215
 30
-1439.000
 70
    32
  0
VERTEX
  8
M68LXLIFT
 62
13
 10
7513.124
 20
-8693.055
 30
-1439.000
 70
    32
  0
VERTEX
  8
M68LXLIFT
 62
13
 10
7494.989
 20
-8699.634
 30
-1439.000
 70
    32
  0
VERTEX
  8
M68LXLIFT
 62
13
 10
7494.567
 20
-8703.146
 30
-1439.000
 70
    32
  0
VERTEX
  8
M68LXLIFT
 62
13
 10
7508.661
 20
-8714.488
 30
-1439.000
 70
    32
  0
VERTEX
  8
M68LXLIFT
 62
13
 10
7538.726
 20
-8703.167
 30
-1439.000
 70
    32
  0
VERTEX
  8
M68LXLIFT
 62
13
 10
7561.059
 20
-8701.113
 30
-1439.000
 70
    32
  0
VERTEX
  8
M68LXLIFT
 62
13
 10
7567.144
 20
-8692.432
 30
-1439.000
 70
    32
  0
VERTEX
  8
M68LXLIFT
 62
13
 10
7567.149
 20
-8682.410
 30
-1439.000
 70
    32
  0
VERTEX
  8
M68LXLIFT
 62
13
 10
7553.958
 20
-8672.696
 30
-1439.000
 70
    32
  0
VERTEX
  8
M68LXLIFT
 62
13
 10
7538.217
 20
-8654.675
 30
-1439.000
 70
    32
  0
VERTEX
  8
M68LXLIFT
 62
13
 10
7536.589
 20
-8622.002
 30
-1439.000
 70
    32
  0
VERTEX
  8
M68LXLIFT
 62
13
 10
7551.680
 20
-8613.875
 30
-1439.000
 70
    32
  0
VERTEX
  8
M68LXLIFT
 62
13
 10
7557.709
 20
-8604.685
 30
-1439.000
 70
    32
  0
VERTEX
  8
M68LXLIFT
 62
13
 10
7546.698
 20
-8588.256
 30
-1439.000
 70
    32
  0
VERTEX
  8
M68LXLIFT
 62
13
 10
7525.850
 20
-8562.765
 30
-1439.000
 70
    32
  0
SEQEND
  8
M68LXLIFT
  0
POLYLINE
  8
M68LXLIFT
 62
27
 66
     1
 70
     9
  0
VERTEX
  8
M68LXLIFT
 62
27
 10
7544.558
 20
-8557.890
 30
-1466.000
 70
    32
  0
VERTEX
  8
M68LXLIFT
 62
27
 10
7579.489
 20
-8583.778
 30
-1466.000
 70
    32
  0
VERTEX
  8
M68LXLIFT
 62
27
 10
7616.768
 20
-8613.943
 30
-1466.000
 70
    32
  0
VERTEX
  8
M68LXLIFT
 62
27
 10
7606.660
 20
-8622.559
 30
-1466.000
 70
    32
  0
VERTEX
  8
M68LXLIFT
 62
27
 10
7633.944
 20
-8657.407
 30
-1466.000
 70
    32
  0
VERTEX
  8
M68LXLIFT
 62
27
 10
7624.721
 20
-8662.386
 30
-1466.000
 70
    32
  0
VERTEX
  8
M68LXLIFT
 62
27
 10
7603.252
 20
-8640.199
 30
-1466.000
 70
    32
  0
VERTEX
  8
M68LXLIFT
 62
27
 10
7585.790
 20
-8619.388
 30
-1466.000
 70
    32
  0
VERTEX
  8
M68LXLIFT
 62
27
 10
7578.016
 20
-8596.548
 30
-1466.000
 70
    32
  0
VERTEX
  8
M68LXLIFT
 62
27
 10
7537.391
 20
-8569.236
 30
-1466.000
 70
    32
  0
SEQEND
  8
M68LXLIFT
  0
POLYLINE
  8
M68LXLIFT
 62
1
 66
     1
 70
     9
  0
VERTEX
  8
M68LXLIFT
 62
1
 10
7545.558
 20
-8556.890
 30
-1455.000
 70
    32
  0
VERTEX
  8
M68LXLIFT
 62
1
 10
7580.489
 20
-8582.778
 30
-1455.000
 70
    32
  0
VERTEX
  8
M68LXLIFT
 62
1
 10
7617.768
 20
-8612.943
 30
-1455.000
 70
    32
  0
VERTEX
  8
M68LXLIFT
 62
1
 10
7607.660
 20
-8621.559
 30
-1455.000
 70
    32
  0
VERTEX
  8
M68LXLIFT
 62
1
 10
7634.944
 20
-8656.407
 30
-1455.000
 70
    32
  0
VERTEX
  8
M68LXLIFT
 62
1
 10
7625.721
 20
-8661.386
 30
-1455.000
 70
    32
  0
VERTEX
  8
M68LXLIFT
 62
1
 10
7604.252
 20
-8639.199
 30
-1455.000
 70
    32
  0
VERTEX
  8
M68LXLIFT
 62
1
 10
7586.790
 20
-8618.388
 30
-1455.000
 70
    32
  0
VERTEX
  8
M68LXLIFT
 62
1
 10
7579.016
 20
-8595.548
 30
-1455.000
 70
    32
  0
VERTEX
  8
M68LXLIFT
 62
1
 10
7538.391
 20
-8568.236
 30
-1455.000
 70
    32
  0
SEQEND
  8
M68LXLIFT
  0
POLYLINE
  8
M68LXLIFT
 62
2
 66
     1
 70
     9
  0
VERTEX
  8
M68LXLIFT
 62
2
 10
7397.455
 20
-8950.961
 30
-1543.000
 70
    32
  0
VERTEX
  8
M68LXLIFT
 62
2
 10
7399.327
 20
-8967.603
 30
-1543.000
 70
    32
  0
VERTEX
  8
M68LXLIFT
 62
2
 10
7405.890
 20
-8971.283
 30
-1543.000
 70
    32
  0
VERTEX
  8
M68LXLIFT
 62
2
 10
7412.964
 20
-8984.191
 30
-1543.000
 70
    32
  0
VERTEX
  8
M68LXLIFT
 62
2
 10
7434.285
 20
-9050.532
 30
-1543.000
 70
    32
  0
VERTEX
  8
M68LXLIFT
 62
2
 10
7427.953
 20
-9056.388
 30
-1543.000
 70
    32
  0
VERTEX
  8
M68LXLIFT
 62
2
 10
7415.271
 20
-9065.019
 30
-1543.000
 70
    32
  0
VERTEX
  8
M68LXLIFT
 62
2
 10
7410.661
 20
-9077.557
 30
-1543.000
 70
    32
  0
VERTEX
  8
M68LXLIFT
 62
2
 10
7407.768
 20
-9079.633
 30
-1543.000
 70
    32
  0
VERTEX
  8
M68LXLIFT
 62
2
 10
7400.983
 20
-9080.571
 30
-1543.000
 70
    32
  0
VERTEX
  8
M68LXLIFT
 62
2
 10
7399.651
 20
-9065.271
 30
-1543.000
 70
    32
  0
VERTEX
  8
M68LXLIFT
 62
2
 10
7393.615
 20
-9056.862
 30
-1543.000
 70
    32
  0
VERTEX
  8
M68LXLIFT
 62
2
 10
7390.268
 20
-9054.020
 30
-1543.000
 70
    32
  0
VERTEX
  8
M68LXLIFT
 62
2
 10
7363.457
 20
-9039.914
 30
-1543.000
 70
    32
  0
VERTEX
  8
M68LXLIFT
 62
2
 10
7358.148
 20
-9031.874
 30
-1543.000
 70
    32
  0
VERTEX
  8
M68LXLIFT
 62
2
 10
7352.082
 20
-9031.404
 30
-1543.000
 70
    32
  0
VERTEX
  8
M68LXLIFT
 62
2
 10
7350.336
 20
-8992.281
 30
-1543.000
 70
    32
  0
VERTEX
  8
M68LXLIFT
 62
2
 10
7353.339
 20
-8981.788
 30
-1543.000
 70
    32
  0
VERTEX
  8
M68LXLIFT
 62
2
 10
7354.125
 20
-8973.725
 30
-1543.000
 70
    32
  0
VERTEX
  8
M68LXLIFT
 62
2
 10
7352.619
 20
-8953.307
 30
-1543.000
 70
    32
  0
SEQEND
  8
M68LXLIFT
  0
POLYLINE
  8
M68LXLIFT
 62
6
 66
     1
 70
     9
  0
VERTEX
  8
M68LXLIFT
 62
6
 10
7437.747
 20
-8901.458
 30
-1539.000
 70
    32
  0
VERTEX
  8
M68LXLIFT
 62
6
 10
7404.847
 20
-8891.526
 30
-1539.000
 70
    32
  0
VERTEX
  8
M68LXLIFT
 62
6
 10
7380.588
 20
-8876.283
 30
-1539.000
 70
    32
  0
VERTEX
  8
M68LXLIFT
 62
6
 10
7364.750
 20
-8894.942
 30
-1539.000
 70
    32
  0
VERTEX
  8
M68LXLIFT
 62
6
 10
7373.934
 20
-8907.261
 30
-1539.000
 70
    32
  0
VERTEX
  8
M68LXLIFT
 62
6
 10
7381.647
 20
-8908.590
 30
-1539.000
 70
    32
  0
VERTEX
  8
M68LXLIFT
 62
6
 10
7394.586
 20
-8907.956
 30
-1539.000
 70
    32
  0
VERTEX
  8
M68LXLIFT
 62
6
 10
7399.907
 20
-8901.742
 30
-1539.000
 70
    32
  0
VERTEX
  8
M68LXLIFT
 62
6
 10
7408.903
 20
-8903.753
 30
-1539.000
 70
    32
  0
VERTEX
  8
M68LXLIFT
 62
6
 10
7414.937
 20
-8907.669
 30
-1539.000
 70
    32
  0
VERTEX
  8
M68LXLIFT
 62
6
 10
7413.863
 20
-8912.659
 30
-1539.000
 70
    32
  0
VERTEX
  8
M68LXLIFT
 62
6
 10
7402.595
 20
-8920.611
 30
-1539.000
 70
    32
  0
VERTEX
  8
M68LXLIFT
 62
6
 10
7403.782
 20
-8930.494
 30
-1539.000
 70
    32
  0
VERTEX
  8
M68LXLIFT
 62
6
 10
7412.829
 20
-8925.428
 30
-1539.000
 70
    32
  0
VERTEX
  8
M68LXLIFT
 62
6
 10
7420.111
 20
-8917.734
 30
-1539.000
 70
    32
  0
VERTEX
  8
M68LXLIFT
 62
6
 10
7440.976
 20
-8912.880
 30
-1539.000
 70
    32
  0
SEQEND
  8
M68LXLIFT
  0
POLYLINE
  8
M68LXLIFT
 62
6
 66
     1
 70
     9
  0
VERTEX
  8
M68LXLIFT
 62
6
 10
7437.556
 20
-8901.932
 30
-1558.000
 70
    32
  0
VERTEX
  8
M68LXLIFT
 62
6
 10
7425.315
 20
-8901.599
 30
-1558.000
 70
    32
  0
VERTEX
  8
M68LXLIFT
 62
6
 10
7380.787
 20
-8878.443
 30
-1558.000
 70
    32
  0
VERTEX
  8
M68LXLIFT
 62
6
 10
7363.753
 20
-8896.245
 30
-1558.000
 70
    32
  0
VERTEX
  8
M68LXLIFT
 62
6
 10
7371.494
 20
-8907.671
 30
-1558.000
 70
    32
  0
VERTEX
  8
M68LXLIFT
 62
6
 10
7377.835
 20
-8908.057
 30
-1558.000
 70
    32
  0
VERTEX
  8
M68LXLIFT
 62
6
 10
7387.902
 20
-8910.030
 30
-1558.000
 70
    32
  0
VERTEX
  8
M68LXLIFT
 62
6
 10
7399.281
 20
-8903.974
 30
-1558.000
 70
    32
  0
VERTEX
  8
M68LXLIFT
 62
6
 10
7413.237
 20
-8908.622
 30
-1558.000
 70
    32
  0
VERTEX
  8
M68LXLIFT
 62
6
 10
7412.516
 20
-8914.226
 30
-1558.000
 70
    32
  0
VERTEX
  8
M68LXLIFT
 62
6
 10
7399.361
 20
-8925.801
 30
-1558.000
 70
    32
  0
VERTEX
  8
M68LXLIFT
 62
6
 10
7361.100
 20
-8920.134
 30
-1558.000
 70
    32
  0
VERTEX
  8
M68LXLIFT
 62
6
 10
7361.379
 20
-8944.120
 30
-1558.000
 70
    32
  0
VERTEX
  8
M68LXLIFT
 62
6
 10
7374.656
 20
-8956.760
 30
-1558.000
 70
    32
  0
VERTEX
  8
M68LXLIFT
 62
6
 10
7385.964
 20
-8950.318
 30
-1558.000
 70
    32
  0
VERTEX
  8
M68LXLIFT
 62
6
 10
7391.091
 20
-8956.238
 30
-1558.000
 70
    32
  0
VERTEX
  8
M68LXLIFT
 62
6
 10
7400.048
 20
-8950.909
 30
-1558.000
 70
    32
  0
VERTEX
  8
M68LXLIFT
 62
6
 10
7397.000
 20
-8941.331
 30
-1558.000
 70
    32
  0
VERTEX
  8
M68LXLIFT
 62
6
 10
7402.679
 20
-8937.486
 30
-1558.000
 70
    32
  0
VERTEX
  8
M68LXLIFT
 62
6
 10
7410.177
 20
-8943.488
 30
-1558.000
 70
    32
  0
VERTEX
  8
M68LXLIFT
 62
6
 10
7418.581
 20
-8941.216
 30
-1558.000
 70
    32
  0
VERTEX
  8
M68LXLIFT
 62
6
 10
7423.007
 20
-8941.396
 30
-1558.000
 70
    32
  0
VERTEX
  8
M68LXLIFT
 62
6
 10
7424.986
 20
-8939.792
 30
-1558.000
 70
    32
  0
VERTEX
  8
M68LXLIFT
 62
6
 10
7425.856
 20
-8936.717
 30
-1558.000
 70
    32
  0
VERTEX
  8
M68LXLIFT
 62
6
 10
7432.846
 20
-8931.113
 30
-1558.000
 70
    32
  0
VERTEX
  8
M68LXLIFT
 62
6
 10
7436.860
 20
-8916.316
 30
-1558.000
 70
    32
  0
VERTEX
  8
M68LXLIFT
 62
6
 10
7439.890
 20
-8913.919
 30
-1558.000
 70
    32
  0
SEQEND
  8
M68LXLIFT
  0
POLYLINE
  8
M68LXLIFT
 62
1
 66
     1
 70
     9
  0
VERTEX
  8
M68LXLIFT
 62
1
 10
7388.825
 20
-8923.316
 30
-1441.000
 70
    32
  0
VERTEX
  8
M68LXLIFT
 62
1
 10
7372.083
 20
-8961.211
 30
-1441.000
 70
    32
  0
VERTEX
  8
M68LXLIFT
 62
1
 10
7372.977
 20
-8963.515
 30
-1441.000
 70
    32
  0
VERTEX
  8
M68LXLIFT
 62
1
 10
7371.945
 20
-8975.958
 30
-1441.000
 70
    32
  0
VERTEX
  8
M68LXLIFT
 62
1
 10
7375.002
 20
-8985.796
 30
-1441.000
 70
    32
  0
VERTEX
  8
M68LXLIFT
 62
1
 10
7369.888
 20
-8991.523
 30
-1441.000
 70
    32
  0
VERTEX
  8
M68LXLIFT
 62
1
 10
7368.519
 20
-8996.352
 30
-1441.000
 70
    32
  0
VERTEX
  8
M68LXLIFT
 62
1
 10
7359.453
 20
-8995.816
 30
-1441.000
 70
    32
  0
VERTEX
  8
M68LXLIFT
 62
1
 10
7358.017
 20
-8987.499
 30
-1441.000
 70
    32
  0
VERTEX
  8
M68LXLIFT
 62
1
 10
7349.850
 20
-8982.386
 30
-1441.000
 70
    32
  0
VERTEX
  8
M68LXLIFT
 62
1
 10
7355.348
 20
-8966.824
 30
-1441.000
 70
    32
  0
VERTEX
  8
M68LXLIFT
 62
1
 10
7353.283
 20
-8959.991
 30
-1441.000
 70
    32
  0
VERTEX
  8
M68LXLIFT
 62
1
 10
7357.243
 20
-8948.611
 30
-1441.000
 70
    32
  0
VERTEX
  8
M68LXLIFT
 62
1
 10
7354.092
 20
-8937.071
 30
-1441.000
 70
    32
  0
VERTEX
  8
M68LXLIFT
 62
1
 10
7360.317
 20
-8930.487
 30
-1441.000
 70
    32
  0
VERTEX
  8
M68LXLIFT
 62
1
 10
7364.375
 20
-8917.368
 30
-1441.000
 70
    32
  0
VERTEX
  8
M68LXLIFT
 62
1
 10
7380.993
 20
-8912.177
 30
-1441.000
 70
    32
  0
SEQEND
  8
M68LXLIFT
  0
POLYLINE
  8
M68LXLIFT
 62
6
 66
     1
 70
     9
  0
VERTEX
  8
M68LXLIFT
 62
6
 10
7437.682
 20
-8903.266
 30
-1546.000
 70
    32
  0
VERTEX
  8
M68LXLIFT
 62
6
 10
7403.842
 20
-8890.194
 30
-1546.000
 70
    32
  0
VERTEX
  8
M68LXLIFT
 62
6
 10
7356.829
 20
-8864.183
 30
-1546.000
 70
    32
  0
VERTEX
  8
M68LXLIFT
 62
6
 10
7347.199
 20
-8867.600
 30
-1546.000
 70
    32
  0
VERTEX
  8
M68LXLIFT
 62
6
 10
7331.130
 20
-8861.026
 30
-1546.000
 70
    32
  0
VERTEX
  8
M68LXLIFT
 62
6
 10
7329.594
 20
-8870.214
 30
-1546.000
 70
    32
  0
VERTEX
  8
M68LXLIFT
 62
6
 10
7364.808
 20
-8890.939
 30
-1546.000
 70
    32
  0
VERTEX
  8
M68LXLIFT
 62
6
 10
7383.071
 20
-8915.435
 30
-1546.000
 70
    32
  0
VERTEX
  8
M68LXLIFT
 62
6
 10
7378.617
 20
-8917.695
 30
-1546.000
 70
    32
  0
VERTEX
  8
M68LXLIFT
 62
6
 10
7366.091
 20
-8915.378
 30
-1546.000
 70
    32
  0
VERTEX
  8
M68LXLIFT
 62
6
 10
7352.758
 20
-8913.889
 30
-1546.000
 70
    32
  0
VERTEX
  8
M68LXLIFT
 62
6
 10
7348.796
 20
-8922.048
 30
-1546.000
 70
    32
  0
VERTEX
  8
M68LXLIFT
 62
6
 10
7345.990
 20
-8923.285
 30
-1546.000
 70
    32
  0
VERTEX
  8
M68LXLIFT
 62
6
 10
7349.250
 20
-8927.315
 30
-1546.000
 70
    32
  0
VERTEX
  8
M68LXLIFT
 62
6
 10
7356.492
 20
-8936.039
 30
-1546.000
 70
    32
  0
VERTEX
  8
M68LXLIFT
 62
6
 10
7370.858
 20
-8936.858
 30
-1546.000
 70
    32
  0
VERTEX
  8
M68LXLIFT
 62
6
 10
7372.852
 20
-8940.083
 30
-1546.000
 70
    32
  0
VERTEX
  8
M68LXLIFT
 62
6
 10
7392.820
 20
-8934.916
 30
-1546.000
 70
    32
  0
VERTEX
  8
M68LXLIFT
 62
6
 10
7396.230
 20
-8936.082
 30
-1546.000
 70
    32
  0
VERTEX
  8
M68LXLIFT
 62
6
 10
7407.881
 20
-8933.011
 30
-1546.000
 70
    32
  0
VERTEX
  8
M68LXLIFT
 62
6
 10
7410.040
 20
-8938.641
 30
-1546.000
 70
    32
  0
VERTEX
  8
M68LXLIFT
 62
6
 10
7415.340
 20
-8943.771
 30
-1546.000
 70
    32
  0
VERTEX
  8
M68LXLIFT
 62
6
 10
7429.498
 20
-8939.358
 30
-1546.000
 70
    32
  0
VERTEX
  8
M68LXLIFT
 62
6
 10
7440.457
 20
-8915.691
 30
-1546.000
 70
    32
  0
SEQEND
  8
M68LXLIFT
  0
POLYLINE
  8
M68LXLIFT
 62
6
 66
     1
 70
     9
  0
VERTEX
  8
M68LXLIFT
 62
6
 10
7381.396
 20
-8876.334
 30
-1539.000
 70
    32
  0
VERTEX
  8
M68LXLIFT
 62
6
 10
7366.875
 20
-8870.791
 30
-1539.000
 70
    32
  0
VERTEX
  8
M68LXLIFT
 62
6
 10
7359.185
 20
-8871.095
 30
-1539.000
 70
    32
  0
VERTEX
  8
M68LXLIFT
 62
6
 10
7346.255
 20
-8863.142
 30
-1539.000
 70
    32
  0
VERTEX
  8
M68LXLIFT
 62
6
 10
7344.968
 20
-8867.413
 30
-1539.000
 70
    32
  0
VERTEX
  8
M68LXLIFT
 62
6
 10
7340.373
 20
-8869.340
 30
-1539.000
 70
    32
  0
VERTEX
  8
M68LXLIFT
 62
6
 10
7329.479
 20
-8867.001
 30
-1539.000
 70
    32
  0
VERTEX
  8
M68LXLIFT
 62
6
 10
7323.411
 20
-8869.600
 30
-1539.000
 70
    32
  0
VERTEX
  8
M68LXLIFT
 62
6
 10
7324.586
 20
-8875.093
 30
-1539.000
 70
    32
  0
VERTEX
  8
M68LXLIFT
 62
6
 10
7337.300
 20
-8881.448
 30
-1539.000
 70
    32
  0
VERTEX
  8
M68LXLIFT
 62
6
 10
7350.080
 20
-8886.433
 30
-1539.000
 70
    32
  0
VERTEX
  8
M68LXLIFT
 62
6
 10
7365.399
 20
-8894.783
 30
-1539.000
 70
    32
  0
SEQEND
  8
M68LXLIFT
  0
POLYLINE
  8
M68LXLIFT
 62
6
 66
     1
 70
     9
  0
VERTEX
  8
M68LXLIFT
 62
6
 10
7441.204
 20
-8912.598
 30
-1539.000
 70
    32
  0
VERTEX
  8
M68LXLIFT
 62
6
 10
7430.588
 20
-8915.438
 30
-1539.000
 70
    32
  0
VERTEX
  8
M68LXLIFT
 62
6
 10
7419.149
 20
-8918.790
 30
-1539.000
 70
    32
  0
VERTEX
  8
M68LXLIFT
 62
6
 10
7404.117
 20
-8930.792
 30
-1539.000
 70
    32
  0
VERTEX
  8
M68LXLIFT
 62
6
 10
7408.342
 20
-8940.473
 30
-1539.000
 70
    32
  0
VERTEX
  8
M68LXLIFT
 62
6
 10
7415.081
 20
-8939.347
 30
-1539.000
 70
    32
  0
VERTEX
  8
M68LXLIFT
 62
6
 10
7425.281
 20
-8938.580
 30
-1539.000
 70
    32
  0
VERTEX
  8
M68LXLIFT
 62
6
 10
7430.755
 20
-8930.820
 30
-1539.000
 70
    32
  0
VERTEX
  8
M68LXLIFT
 62
6
 10
7438.245
 20
-8921.650
 30
-1539.000
 70
    32
  0
SEQEND
  8
M68LXLIFT
  0
POLYLINE
  8
M68LXLIFT
 62
2
 66
     1
 70
     9
  0
VERTEX
  8
M68LXLIFT
 62
2
 10
7383.093
 20
-9001.227
 30
-1543.000
 70
    32
  0
VERTEX
  8
M68LXLIFT
 62
2
 10
7379.355
 20
-9027.193
 30
-1543.000
 70
    32
  0
VERTEX
  8
M68LXLIFT
 62
2
 10
7380.473
 20
-9031.214
 30
-1543.000
 70
    32
  0
VERTEX
  8
M68LXLIFT
 62
2
 10
7382.896
 20
-9038.232
 30
-1543.000
 70
    32
  0
VERTEX
  8
M68LXLIFT
 62
2
 10
7375.631
 20
-9034.217
 30
-1543.000
 70
    32
  0
VERTEX
  8
M68LXLIFT
 62
2
 10
7371.544
 20
-9024.881
 30
-1543.000
 70
    32
  0
VERTEX
  8
M68LXLIFT
 62
2
 10
7363.806
 20
-9012.869
 30
-1543.000
 70
    32
  0
VERTEX
  8
M68LXLIFT
 62
2
 10
7364.543
 20
-9002.272
 30
-1543.000
 70
    32
  0
VERTEX
  8
M68LXLIFT
 62
2
 10
7372.580
 20
-8992.098
 30
-1543.000
 70
    32
  0
VERTEX
  8
M68LXLIFT
 62
2
 10
7379.645
 20
-8990.960
 30
-1543.000
 70
    32
  0
VERTEX
  8
M68LXLIFT
 62
2
 10
7382.899
 20
-8993.029
 30
-1543.000
 70
    32
  0
SEQEND
  8
M68LXLIFT
  0
POLYLINE
  8
M68LXLIFT
 62
8
 66
     1
 70
     9
  0
VERTEX
  8
M68LXLIFT
 62
8
 10
7564.521
 20
-8551.402
 30
-1567.066
 70
    32
  0
VERTEX
  8
M68LXLIFT
 62
8
 10
7569.004
 20
-8545.670
 30
-1567.042
 70
    32
  0
VERTEX
  8
M68LXLIFT
 62
8
 10
7575.907
 20
-8545.993
 30
-1567.045
 70
    32
  0
VERTEX
  8
M68LXLIFT
 62
8
 10
7587.425
 20
-8541.998
 30
-1567.030
 70
    32
  0
VERTEX
  8
M68LXLIFT
 62
8
 10
7591.588
 20
-8545.320
 30
-1567.046
 70
    32
  0
VERTEX
  8
M68LXLIFT
 62
8
 10
7589.027
 20
-8556.703
 30
-1567.095
 70
    32
  0
VERTEX
  8
M68LXLIFT
 62
8
 10
7589.920
 20
-8560.276
 30
-1567.111
 70
    32
  0
VERTEX
  8
M68LXLIFT
 62
8
 10
7596.825
 20
-8566.735
 30
-1567.141
 70
    32
  0
VERTEX
  8
M68LXLIFT
 62
8
 10
7598.218
 20
-8571.787
 30
-1567.163
 70
    32
  0
VERTEX
  8
M68LXLIFT
 62
8
 10
7591.378
 20
-8580.144
 30
-1567.161
 70
    32
  0
VERTEX
  8
M68LXLIFT
 62
8
 10
7582.428
 20
-8582.120
 30
-1567.159
 70
    32
  0
VERTEX
  8
M68LXLIFT
 62
8
 10
7575.299
 20
-8621.048
 30
-1567.105
 70
    32
  0
VERTEX
  8
M68LXLIFT
 62
8
 10
7580.304
 20
-8631.856
 30
-1567.090
 70
    32
  0
VERTEX
  8
M68LXLIFT
 62
8
 10
7580.593
 20
-8636.715
 30
-1567.083
 70
    32
  0
VERTEX
  8
M68LXLIFT
 62
8
 10
7572.602
 20
-8658.156
 30
-1567.054
 70
    32
  0
VERTEX
  8
M68LXLIFT
 62
8
 10
7571.425
 20
-8678.259
 30
-1567.026
 70
    32
  0
VERTEX
  8
M68LXLIFT
 62
8
 10
7580.281
 20
-8686.578
 30
-1567.014
 70
    32
  0
VERTEX
  8
M68LXLIFT
 62
8
 10
7580.766
 20
-8692.484
 30
-1567.005
 70
    32
  0
VERTEX
  8
M68LXLIFT
 62
8
 10
7586.162
 20
-8699.249
 30
-1566.995
 70
    32
  0
VERTEX
  8
M68LXLIFT
 62
8
 10
7581.377
 20
-8720.808
 30
-1566.966
 70
    32
  0
VERTEX
  8
M68LXLIFT
 62
8
 10
7587.137
 20
-8749.717
 30
-1566.925
 70
    32
  0
VERTEX
  8
M68LXLIFT
 62
8
 10
7578.552
 20
-8769.852
 30
-1566.898
 70
    32
  0
VERTEX
  8
M68LXLIFT
 62
8
 10
7571.940
 20
-8776.540
 30
-1566.889
 70
    32
  0
VERTEX
  8
M68LXLIFT
 62
8
 10
7557.973
 20
-8784.408
 30
-1566.879
 70
    32
  0
VERTEX
  8
M68LXLIFT
 62
8
 10
7533.739
 20
-8787.316
 30
-1566.877
 70
    32
  0
VERTEX
  8
M68LXLIFT
 62
8
 10
7525.332
 20
-8780.404
 30
-1566.887
 70
    32
  0
VERTEX
  8
M68LXLIFT
 62
8
 10
7536.371
 20
-8744.439
 30
-1566.936
 70
    32
  0
VERTEX
  8
M68LXLIFT
 62
8
 10
7548.705
 20
-8735.779
 30
-1566.947
 70
    32
  0
VERTEX
  8
M68LXLIFT
 62
8
 10
7553.091
 20
-8728.069
 30
-1566.958
 70
    32
  0
VERTEX
  8
M68LXLIFT
 62
8
 10
7550.016
 20
-8723.228
 30
-1566.965
 70
    32
  0
VERTEX
  8
M68LXLIFT
 62
8
 10
7550.469
 20
-8711.603
 30
-1566.981
 70
    32
  0
VERTEX
  8
M68LXLIFT
 62
8
 10
7546.779
 20
-8696.532
 30
-1567.002
 70
    32
  0
VERTEX
  8
M68LXLIFT
 62
8
 10
7548.483
 20
-8681.014
 30
-1567.024
 70
    32
  0
VERTEX
  8
M68LXLIFT
 62
8
 10
7560.889
 20
-8672.303
 30
-1567.035
 70
    32
  0
VERTEX
  8
M68LXLIFT
 62
8
 10
7563.176
 20
-8660.682
 30
-1567.051
 70
    32
  0
VERTEX
  8
M68LXLIFT
 62
8
 10
7560.224
 20
-8656.939
 30
-1567.056
 70
    32
  0
VERTEX
  8
M68LXLIFT
 62
8
 10
7555.935
 20
-8636.259
 30
-1567.085
 70
    32
  0
VERTEX
  8
M68LXLIFT
 62
8
 10
7565.603
 20
-8616.441
 30
-1567.112
 70
    32
  0
VERTEX
  8
M68LXLIFT
 62
8
 10
7561.536
 20
-8604.973
 30
-1567.129
 70
    32
  0
VERTEX
  8
M68LXLIFT
 62
8
 10
7564.053
 20
-8577.576
 30
-1567.166
 70
    32
  0
VERTEX
  8
M68LXLIFT
 62
8
 10
7558.530
 20
-8567.563
 30
-1567.136
 70
    32
  0
SEQEND
  8
M68LXLIFT
  0
POLYLINE
  8
M68LXLIFT
 62
2
 66
     1
 70
     9
  0
VERTEX
  8
M68LXLIFT
 62
2
 10
7387.825
 20
-8924.316
 30
-1451.000
 70
    32
  0
VERTEX
  8
M68LXLIFT
 62
2
 10
7371.083
 20
-8962.211
 30
-1451.000
 70
    32
  0
VERTEX
  8
M68LXLIFT
 62
2
 10
7371.977
 20
-8964.515
 30
-1451.000
 70
    32
  0
VERTEX
  8
M68LXLIFT
 62
2
 10
7370.945
 20
-8976.958
 30
-1451.000
 70
    32
  0
VERTEX
  8
M68LXLIFT
 62
2
 10
7374.002
 20
-8986.796
 30
-1451.000
 70
    32
  0
VERTEX
  8
M68LXLIFT
 62
2
 10
7368.888
 20
-8992.523
 30
-1451.000
 70
    32
  0
VERTEX
  8
M68LXLIFT
 62
2
 10
7367.519
 20
-8997.352
 30
-1451.000
 70
    32
  0
VERTEX
  8
M68LXLIFT
 62
2
 10
7358.453
 20
-8996.816
 30
-1451.000
 70
    32
  0
VERTEX
  8
M68LXLIFT
 62
2
 10
7357.017
 20
-8988.499
 30
-1451.000
 70
    32
  0
VERTEX
  8
M68LXLIFT
 62
2
 10
7348.850
 20
-8983.386
 30
-1451.000
 70
    32
  0
VERTEX
  8
M68LXLIFT
 62
2
 10
7354.348
 20
-8967.824
 30
-1451.000
 70
    32
  0
VERTEX
  8
M68LXLIFT
 62
2
 10
7352.283
 20
-8960.991
 30
-1451.000
 70
    32
  0
VERTEX
  8
M68LXLIFT
 62
2
 10
7356.243
 20
-8949.611
 30
-1451.000
 70
    32
  0
VERTEX
  8
M68LXLIFT
 62
2
 10
7353.092
 20
-8938.071
 30
-1451.000
 70
    32
  0
VERTEX
  8
M68LXLIFT
 62
2
 10
7359.317
 20
-8931.487
 30
-1451.000
 70
    32
  0
VERTEX
  8
M68LXLIFT
 62
2
 10
7363.375
 20
-8918.368
 30
-1451.000
 70
    32
  0
VERTEX
  8
M68LXLIFT
 62
2
 10
7379.993
 20
-8913.177
 30
-1451.000
 70
    32
  0
SEQEND
  8
M68LXLIFT
  0
POLYLINE
  8
M68LXLIFT
 62
1
 66
     1
 70
     9
  0
VERTEX
  8
M68LXLIFT
 62
1
 10
7398.455
 20
-8949.961
 30
-1533.000
 70
    32
  0
VERTEX
  8
M68LXLIFT
 62
1
 10
7400.327
 20
-8966.603
 30
-1533.000
 70
    32
  0
VERTEX
  8
M68LXLIFT
 62
1
 10
7406.890
 20
-8970.283
 30
-1533.000
 70
    32
  0
VERTEX
  8
M68LXLIFT
 62
1
 10
7413.964
 20
-8983.191
 30
-1533.000
 70
    32
  0
VERTEX
  8
M68LXLIFT
 62
1
 10
7435.285
 20
-9049.532
 30
-1533.000
 70
    32
  0
VERTEX
  8
M68LXLIFT
 62
1
 10
7428.953
 20
-9055.388
 30
-1533.000
 70
    32
  0
VERTEX
  8
M68LXLIFT
 62
1
 10
7416.271
 20
-9064.019
 30
-1533.000
 70
    32
  0
VERTEX
  8
M68LXLIFT
 62
1
 10
7411.661
 20
-9076.557
 30
-1533.000
 70
    32
  0
VERTEX
  8
M68LXLIFT
 62
1
 10
7408.768
 20
-9078.633
 30
-1533.000
 70
    32
  0
VERTEX
  8
M68LXLIFT
 62
1
 10
7401.983
 20
-9079.571
 30
-1533.000
 70
    32
  0
VERTEX
  8
M68LXLIFT
 62
1
 10
7400.651
 20
-9064.271
 30
-1533.000
 70
    32
  0
VERTEX
  8
M68LXLIFT
 62
1
 10
7394.615
 20
-9055.862
 30
-1533.000
 70
    32
  0
VERTEX
  8
M68LXLIFT
 62
1
 10
7391.268
 20
-9053.020
 30
-1533.000
 70
    32
  0
VERTEX
  8
M68LXLIFT
 62
1
 10
7364.457
 20
-9038.914
 30
-1533.000
 70
    32
  0
VERTEX
  8
M68LXLIFT
 62
1
 10
7359.148
 20
-9030.874
 30
-1533.000
 70
    32
  0
VERTEX
  8
M68LXLIFT
 62
1
 10
7353.082
 20
-9030.404
 30
-1533.000
 70
    32
  0
VERTEX
  8
M68LXLIFT
 62
1
 10
7351.336
 20
-8991.281
 30
-1533.000
 70
    32
  0
VERTEX
  8
M68LXLIFT
 62
1
 10
7354.339
 20
-8980.788
 30
-1533.000
 70
    32
  0
VERTEX
  8
M68LXLIFT
 62
1
 10
7355.125
 20
-8972.725
 30
-1533.000
 70
    32
  0
VERTEX
  8
M68LXLIFT
 62
1
 10
7353.619
 20
-8952.307
 30
-1533.000
 70
    32
  0
SEQEND
  8
M68LXLIFT
  0
POLYLINE
  8
M68LXLIFT
 62
1
 66
     1
 70
     9
  0
VERTEX
  8
M68LXLIFT
 62
1
 10
7384.093
 20
-9000.227
 30
-1533.000
 70
    32
  0
VERTEX
  8
M68LXLIFT
 62
1
 10
7380.355
 20
-9026.193
 30
-1533.000
 70
    32
  0
VERTEX
  8
M68LXLIFT
 62
1
 10
7381.473
 20
-9030.214
 30
-1533.000
 70
    32
  0
VERTEX
  8
M68LXLIFT
 62
1
 10
7383.896
 20
-9037.232
 30
-1533.000
 70
    32
  0
VERTEX
  8
M68LXLIFT
 62
1
 10
7376.631
 20
-9033.217
 30
-1533.000
 70
    32
  0
VERTEX
  8
M68LXLIFT
 62
1
 10
7372.544
 20
-9023.881
 30
-1533.000
 70
    32
  0
VERTEX
  8
M68LXLIFT
 62
1
 10
7364.806
 20
-9011.869
 30
-1533.000
 70
    32
  0
VERTEX
  8
M68LXLIFT
 62
1
 10
7365.543
 20
-9001.272
 30
-1533.000
 70
    32
  0
VERTEX
  8
M68LXLIFT
 62
1
 10
7373.580
 20
-8991.098
 30
-1533.000
 70
    32
  0
VERTEX
  8
M68LXLIFT
 62
1
 10
7380.645
 20
-8989.960
 30
-1533.000
 70
    32
  0
VERTEX
  8
M68LXLIFT
 62
1
 10
7383.899
 20
-8992.029
 30
-1533.000
 70
    32
  0
SEQEND
  8
M68LXLIFT
  0
POLYLINE
  8
M68LXLIFT
 62
6
 66
     1
 70
     9
  0
VERTEX
  8
M68LXLIFT
 62
6
 10
7400.044
 20
-8874.511
 30
-1567.415
 70
    32
  0
VERTEX
  8
M68LXLIFT
 62
6
 10
7407.564
 20
-8872.031
 30
-1567.374
 70
    32
  0
VERTEX
  8
M68LXLIFT
 62
6
 10
7412.076
 20
-8866.494
 30
-1567.348
 70
    32
  0
VERTEX
  8
M68LXLIFT
 62
6
 10
7415.666
 20
-8872.373
 30
-1567.329
 70
    32
  0
VERTEX
  8
M68LXLIFT
 62
6
 10
7412.865
 20
-8877.894
 30
-1567.345
 70
    32
  0
VERTEX
  8
M68LXLIFT
 62
6
 10
7421.045
 20
-8882.488
 30
-1567.300
 70
    32
  0
VERTEX
  8
M68LXLIFT
 62
6
 10
7427.917
 20
-8896.724
 30
-1567.263
 70
    32
  0
VERTEX
  8
M68LXLIFT
 62
6
 10
7424.291
 20
-8905.516
 30
-1567.284
 70
    32
  0
VERTEX
  8
M68LXLIFT
 62
6
 10
7415.904
 20
-8912.590
 30
-1567.331
 70
    32
  0
VERTEX
  8
M68LXLIFT
 62
6
 10
7407.216
 20
-8911.259
 30
-1567.379
 70
    32
  0
VERTEX
  8
M68LXLIFT
 62
6
 10
7405.104
 20
-8908.865
 30
-1567.390
 70
    32
  0
VERTEX
  8
M68LXLIFT
 62
6
 10
7405.298
 20
-8897.637
 30
-1567.388
 70
    32
  0
VERTEX
  8
M68LXLIFT
 62
6
 10
7387.336
 20
-8873.742
 30
-1567.486
 70
    32
  0
VERTEX
  8
M68LXLIFT
 62
6
 10
7388.846
 20
-8864.390
 30
-1567.476
 70
    32
  0
SEQEND
  8
M68LXLIFT
  0
POLYLINE
  8
M68LXLIFT
 62
13
 66
     1
 70
     9
  0
VERTEX
  8
M68LXLIFT
 62
13
 10
7475.871
 20
-8889.868
 30
-1566.998
 70
    32
  0
VERTEX
  8
M68LXLIFT
 62
13
 10
7467.237
 20
-8905.946
 30
-1567.047
 70
    32
  0
VERTEX
  8
M68LXLIFT
 62
13
 10
7463.803
 20
-8902.434
 30
-1567.065
 70
    32
  0
VERTEX
  8
M68LXLIFT
 62
13
 10
7456.519
 20
-8908.625
 30
-1567.106
 70
    32
  0
VERTEX
  8
M68LXLIFT
 62
13
 10
7424.291
 20
-8905.516
 30
-1567.284
 70
    32
  0
VERTEX
  8
M68LXLIFT
 62
13
 10
7427.917
 20
-8896.724
 30
-1567.263
 70
    32
  0
VERTEX
  8
M68LXLIFT
 62
13
 10
7434.027
 20
-8892.542
 30
-1567.229
 70
    32
  0
VERTEX
  8
M68LXLIFT
 62
13
 10
7445.845
 20
-8896.951
 30
-1567.164
 70
    32
  0
VERTEX
  8
M68LXLIFT
 62
13
 10
7449.851
 20
-8895.754
 30
-1567.142
 70
    32
  0
VERTEX
  8
M68LXLIFT
 62
13
 10
7453.744
 20
-8886.882
 30
-1567.120
 70
    32
  0
VERTEX
  8
M68LXLIFT
 62
13
 10
7463.984
 20
-8877.539
 30
-1567.062
 70
    32
  0
VERTEX
  8
M68LXLIFT
 62
13
 10
7469.613
 20
-8880.802
 30
-1567.032
 70
    32
  0
SEQEND
  8
M68LXLIFT
  0
POLYLINE
  8
M68LXLIFT
 62
1
 66
     1
 70
     9
  0
VERTEX
  8
M68LXLIFT
 62
1
 10
7476.871
 20
-8888.868
 30
-1556.998
 70
    32
  0
VERTEX
  8
M68LXLIFT
 62
1
 10
7468.237
 20
-8904.946
 30
-1557.047
 70
    32
  0
VERTEX
  8
M68LXLIFT
 62
1
 10
7464.803
 20
-8901.434
 30
-1557.065
 70
    32
  0
VERTEX
  8
M68LXLIFT
 62
1
 10
7457.519
 20
-8907.625
 30
-1557.106
 70
    32
  0
VERTEX
  8
M68LXLIFT
 62
1
 10
7425.291
 20
-8904.516
 30
-1557.284
 70
    32
  0
VERTEX
  8
M68LXLIFT
 62
1
 10
7428.917
 20
-8895.724
 30
-1557.263
 70
    32
  0
VERTEX
  8
M68LXLIFT
 62
1
 10
7435.027
 20
-8891.542
 30
-1557.229
 70
    32
  0
VERTEX
  8
M68LXLIFT
 62
1
 10
7446.845
 20
-8895.951
 30
-1557.164
 70
    32
  0
VERTEX
  8
M68LXLIFT
 62
1
 10
7450.851
 20
-8894.754
 30
-1557.142
 70
    32
  0
VERTEX
  8
M68LXLIFT
 62
1
 10
7454.744
 20
-8885.882
 30
-1557.120
 70
    32
  0
VERTEX
  8
M68LXLIFT
 62
1
 10
7464.984
 20
-8876.539
 30
-1557.062
 70
    32
  0
VERTEX
  8
M68LXLIFT
 62
1
 10
7470.613
 20
-8879.802
 30
-1557.032
 70
    32
  0
SEQEND
  8
M68LXLIFT
  0
POLYLINE
  8
M68LXLIFT
 62
1
 66
     1
 70
     9
  0
VERTEX
  8
M68LXLIFT
 62
1
 10
7366.399
 20
-8893.783
 30
-1527.000
 70
    32
  0
VERTEX
  8
M68LXLIFT
 62
1
 10
7351.080
 20
-8885.433
 30
-1527.000
 70
    32
  0
VERTEX
  8
M68LXLIFT
 62
1
 10
7338.300
 20
-8880.448
 30
-1527.000
 70
    32
  0
VERTEX
  8
M68LXLIFT
 62
1
 10
7325.586
 20
-8874.093
 30
-1527.000
 70
    32
  0
VERTEX
  8
M68LXLIFT
 62
1
 10
7324.411
 20
-8868.600
 30
-1527.000
 70
    32
  0
VERTEX
  8
M68LXLIFT
 62
1
 10
7330.479
 20
-8866.001
 30
-1527.000
 70
    32
  0
VERTEX
  8
M68LXLIFT
 62
1
 10
7341.373
 20
-8868.340
 30
-1527.000
 70
    32
  0
VERTEX
  8
M68LXLIFT
 62
1
 10
7345.968
 20
-8866.413
 30
-1527.000
 70
    32
  0
VERTEX
  8
M68LXLIFT
 62
1
 10
7347.255
 20
-8862.142
 30
-1527.000
 70
    32
  0
VERTEX
  8
M68LXLIFT
 62
1
 10
7360.185
 20
-8870.095
 30
-1527.000
 70
    32
  0
VERTEX
  8
M68LXLIFT
 62
1
 10
7367.875
 20
-8869.791
 30
-1527.000
 70
    32
  0
VERTEX
  8
M68LXLIFT
 62
1
 10
7382.396
 20
-8875.334
 30
-1527.000
 70
    32
  0
SEQEND
  8
M68LXLIFT
  0
POLYLINE
  8
M68LXLIFT
 62
1
 66
     1
 70
     9
  0
VERTEX
  8
M68LXLIFT
 62
1
 10
7441.976
 20
-8911.880
 30
-1527.000
 70
    32
  0
VERTEX
  8
M68LXLIFT
 62
1
 10
7421.111
 20
-8916.734
 30
-1527.000
 70
    32
  0
VERTEX
  8
M68LXLIFT
 62
1
 10
7413.829
 20
-8924.428
 30
-1527.000
 70
    32
  0
VERTEX
  8
M68LXLIFT
 62
1
 10
7404.782
 20
-8929.494
 30
-1527.000
 70
    32
  0
VERTEX
  8
M68LXLIFT
 62
1
 10
7403.595
 20
-8919.611
 30
-1527.000
 70
    32
  0
VERTEX
  8
M68LXLIFT
 62
1
 10
7414.863
 20
-8911.659
 30
-1527.000
 70
    32
  0
VERTEX
  8
M68LXLIFT
 62
1
 10
7415.937
 20
-8906.669
 30
-1527.000
 70
    32
  0
VERTEX
  8
M68LXLIFT
 62
1
 10
7409.903
 20
-8902.753
 30
-1527.000
 70
    32
  0
VERTEX
  8
M68LXLIFT
 62
1
 10
7400.907
 20
-8900.742
 30
-1527.000
 70
    32
  0
VERTEX
  8
M68LXLIFT
 62
1
 10
7395.586
 20
-8906.956
 30
-1527.000
 70
    32
  0
VERTEX
  8
M68LXLIFT
 62
1
 10
7382.647
 20
-8907.590
 30
-1527.000
 70
    32
  0
VERTEX
  8
M68LXLIFT
 62
1
 10
7374.934
 20
-8906.261
 30
-1527.000
 70
    32
  0
VERTEX
  8
M68LXLIFT
 62
1
 10
7365.750
 20
-8893.942
 30
-1527.000
 70
    32
  0
VERTEX
  8
M68LXLIFT
 62
1
 10
7381.588
 20
-8875.283
 30
-1527.000
 70
    32
  0
VERTEX
  8
M68LXLIFT
 62
1
 10
7405.847
 20
-8890.526
 30
-1527.000
 70
    32
  0
VERTEX
  8
M68LXLIFT
 62
1
 10
7438.747
 20
-8900.458
 30
-1527.000
 70
    32
  0
SEQEND
  8
M68LXLIFT
  0
POLYLINE
  8
M68LXLIFT
 62
1
 66
     1
 70
     9
  0
VERTEX
  8
M68LXLIFT
 62
1
 10
7439.245
 20
-8920.650
 30
-1527.000
 70
    32
  0
VERTEX
  8
M68LXLIFT
 62
1
 10
7431.755
 20
-8929.820
 30
-1527.000
 70
    32
  0
VERTEX
  8
M68LXLIFT
 62
1
 10
7426.281
 20
-8937.580
 30
-1527.000
 70
    32
  0
VERTEX
  8
M68LXLIFT
 62
1
 10
7416.081
 20
-8938.347
 30
-1527.000
 70
    32
  0
VERTEX
  8
M68LXLIFT
 62
1
 10
7409.342
 20
-8939.473
 30
-1527.000
 70
    32
  0
VERTEX
  8
M68LXLIFT
 62
1
 10
7405.117
 20
-8929.792
 30
-1527.000
 70
    32
  0
VERTEX
  8
M68LXLIFT
 62
1
 10
7420.149
 20
-8917.790
 30
-1527.000
 70
    32
  0
VERTEX
  8
M68LXLIFT
 62
1
 10
7431.588
 20
-8914.438
 30
-1527.000
 70
    32
  0
VERTEX
  8
M68LXLIFT
 62
1
 10
7442.204
 20
-8911.598
 30
-1527.000
 70
    32
  0
SEQEND
  8
M68LXLIFT
  0
POLYLINE
  8
M68LXLIFT
 62
7
 66
     1
 70
     9
  0
VERTEX
  8
M68LXLIFT
 62
7
 10
7524.870
 20
-8229.899
 30
-1566.000
 70
    32
  0
VERTEX
  8
M68LXLIFT
 62
7
 10
7517.979
 20
-8238.184
 30
-1566.012
 70
    32
  0
VERTEX
  8
M68LXLIFT
 62
7
 10
7524.984
 20
-8248.773
 30
-1566.055
 70
    32
  0
VERTEX
  8
M68LXLIFT
 62
7
 10
7539.358
 20
-8277.987
 30
-1566.160
 70
    32
  0
VERTEX
  8
M68LXLIFT
 62
7
 10
7556.588
 20
-8299.919
 30
-1566.245
 70
    32
  0
VERTEX
  8
M68LXLIFT
 62
7
 10
7549.468
 20
-8304.810
 30
-1566.247
 70
    32
  0
VERTEX
  8
M68LXLIFT
 62
7
 10
7525.736
 20
-8290.028
 30
-1566.170
 70
    32
  0
VERTEX
  8
M68LXLIFT
 62
7
 10
7514.903
 20
-8272.758
 30
-1566.107
 70
    32
  0
VERTEX
  8
M68LXLIFT
 62
7
 10
7502.900
 20
-8260.725
 30
-1566.051
 70
    32
  0
VERTEX
  8
M68LXLIFT
 62
7
 10
7498.575
 20
-8250.731
 30
-1566.014
 70
    32
  0
VERTEX
  8
M68LXLIFT
 62
7
 10
7499.473
 20
-8242.347
 30
-1565.991
 70
    32
  0
VERTEX
  8
M68LXLIFT
 62
7
 10
7496.741
 20
-8240.604
 30
-1565.982
 70
    32
  0
VERTEX
  8
M68LXLIFT
 62
7
 10
7488.515
 20
-8239.164
 30
-1565.963
 70
    32
  0
VERTEX
  8
M68LXLIFT
 62
7
 10
7481.486
 20
-8236.669
 30
-1565.943
 70
    32
  0
VERTEX
  8
M68LXLIFT
 62
7
 10
7501.551
 20
-8221.074
 30
-1565.934
 70
    32
  0
VERTEX
  8
M68LXLIFT
 62
7
 10
7510.901
 20
-8206.324
 30
-1565.907
 70
    32
  0
VERTEX
  8
M68LXLIFT
 62
7
 10
7516.442
 20
-8207.926
 30
-1565.922
 70
    32
  0
VERTEX
  8
M68LXLIFT
 62
7
 10
7526.205
 20
-8219.378
 30
-1565.972
 70
    32
  0
SEQEND
  8
M68LXLIFT
  0
POLYLINE
  8
M68LXLIFT
 62
4
 66
     1
 70
     9
  0
VERTEX
  8
M68LXLIFT
 62
4
 10
7378.192
 20
-8179.430
 30
-1564.838
 70
    32
  0
VERTEX
  8
M68LXLIFT
 62
4
 10
7384.600
 20
-8182.577
 30
-1564.922
 70
    32
  0
VERTEX
  8
M68LXLIFT
 62
4
 10
7385.257
 20
-8187.500
 30
-1564.959
 70
    32
  0
VERTEX
  8
M68LXLIFT
 62
4
 10
7392.275
 20
-8192.587
 30
-1565.061
 70
    32
  0
VERTEX
  8
M68LXLIFT
 62
4
 10
7393.428
 20
-8200.824
 30
-1565.124
 70
    32
  0
VERTEX
  8
M68LXLIFT
 62
4
 10
7400.917
 20
-8212.257
 30
-1565.271
 70
    32
  0
VERTEX
  8
M68LXLIFT
 62
4
 10
7408.440
 20
-8216.990
 30
-1565.375
 70
    32
  0
VERTEX
  8
M68LXLIFT
 62
4
 10
7418.830
 20
-8232.094
 30
-1565.574
 70
    32
  0
VERTEX
  8
M68LXLIFT
 62
4
 10
7418.017
 20
-8243.973
 30
-1565.641
 70
    32
  0
VERTEX
  8
M68LXLIFT
 62
4
 10
7419.373
 20
-8253.574
 30
-1565.715
 70
    32
  0
VERTEX
  8
M68LXLIFT
 62
4
 10
7434.519
 20
-8272.231
 30
-1565.964
 70
    32
  0
VERTEX
  8
M68LXLIFT
 62
4
 10
7422.371
 20
-8284.530
 30
-1565.941
 70
    32
  0
VERTEX
  8
M68LXLIFT
 62
4
 10
7417.223
 20
-8274.898
 30
-1565.829
 70
    32
  0
VERTEX
  8
M68LXLIFT
 62
4
 10
7407.153
 20
-8265.923
 30
-1565.672
 70
    32
  0
VERTEX
  8
M68LXLIFT
 62
4
 10
7398.456
 20
-8248.015
 30
-1565.473
 70
    32
  0
VERTEX
  8
M68LXLIFT
 62
4
 10
7393.146
 20
-8240.759
 30
-1565.374
 70
    32
  0
VERTEX
  8
M68LXLIFT
 62
4
 10
7380.942
 20
-8214.329
 30
-1565.086
 70
    32
  0
VERTEX
  8
M68LXLIFT
 62
4
 10
7370.887
 20
-8200.928
 30
-1564.902
 70
    32
  0
VERTEX
  8
M68LXLIFT
 62
4
 10
7367.480
 20
-8191.475
 30
-1564.808
 70
    32
  0
VERTEX
  8
M68LXLIFT
 62
4
 10
7370.572
 20
-8182.842
 30
-1564.784
 70
    32
  0
SEQEND
  8
M68LXLIFT
  0
POLYLINE
  8
M68LXLIFT
 62
1
 66
     1
 70
     9
  0
VERTEX
  8
M68LXLIFT
 62
1
 10
7379.192
 20
-8178.430
 30
-1554.838
 70
    32
  0
VERTEX
  8
M68LXLIFT
 62
1
 10
7385.600
 20
-8181.577
 30
-1554.922
 70
    32
  0
VERTEX
  8
M68LXLIFT
 62
1
 10
7386.257
 20
-8186.500
 30
-1554.959
 70
    32
  0
VERTEX
  8
M68LXLIFT
 62
1
 10
7393.275
 20
-8191.587
 30
-1555.061
 70
    32
  0
VERTEX
  8
M68LXLIFT
 62
1
 10
7394.428
 20
-8199.824
 30
-1555.124
 70
    32
  0
VERTEX
  8
M68LXLIFT
 62
1
 10
7401.917
 20
-8211.257
 30
-1555.271
 70
    32
  0
VERTEX
  8
M68LXLIFT
 62
1
 10
7409.440
 20
-8215.990
 30
-1555.375
 70
    32
  0
VERTEX
  8
M68LXLIFT
 62
1
 10
7419.830
 20
-8231.094
 30
-1555.574
 70
    32
  0
VERTEX
  8
M68LXLIFT
 62
1
 10
7419.017
 20
-8242.973
 30
-1555.641
 70
    32
  0
VERTEX
  8
M68LXLIFT
 62
1
 10
7420.373
 20
-8252.574
 30
-1555.715
 70
    32
  0
VERTEX
  8
M68LXLIFT
 62
1
 10
7435.519
 20
-8271.231
 30
-1555.964
 70
    32
  0
VERTEX
  8
M68LXLIFT
 62
1
 10
7423.371
 20
-8283.530
 30
-1555.941
 70
    32
  0
VERTEX
  8
M68LXLIFT
 62
1
 10
7418.223
 20
-8273.898
 30
-1555.829
 70
    32
  0
VERTEX
  8
M68LXLIFT
 62
1
 10
7408.153
 20
-8264.923
 30
-1555.672
 70
    32
  0
VERTEX
  8
M68LXLIFT
 62
1
 10
7399.456
 20
-8247.015
 30
-1555.473
 70
    32
  0
VERTEX
  8
M68LXLIFT
 62
1
 10
7394.146
 20
-8239.759
 30
-1555.374
 70
    32
  0
VERTEX
  8
M68LXLIFT
 62
1
 10
7381.942
 20
-8213.329
 30
-1555.086
 70
    32
  0
VERTEX
  8
M68LXLIFT
 62
1
 10
7371.887
 20
-8199.928
 30
-1554.902
 70
    32
  0
VERTEX
  8
M68LXLIFT
 62
1
 10
7368.480
 20
-8190.475
 30
-1554.808
 70
    32
  0
VERTEX
  8
M68LXLIFT
 62
1
 10
7371.572
 20
-8181.842
 30
-1554.784
 70
    32
  0
SEQEND
  8
M68LXLIFT
  0
POLYLINE
  8
M68LXLIFT
 62
3
 66
     1
 70
     9
  0
VERTEX
  8
M68LXLIFT
 62
3
 10
7437.100
 20
-8285.004
 30
-1566.005
 70
    32
  0
VERTEX
  8
M68LXLIFT
 62
3
 10
7437.693
 20
-8295.309
 30
-1566.036
 70
    32
  0
VERTEX
  8
M68LXLIFT
 62
3
 10
7458.480
 20
-8335.958
 30
-1566.183
 70
    32
  0
VERTEX
  8
M68LXLIFT
 62
3
 10
7472.444
 20
-8346.184
 30
-1566.232
 70
    32
  0
VERTEX
  8
M68LXLIFT
 62
3
 10
7482.728
 20
-8357.916
 30
-1566.280
 70
    32
  0
VERTEX
  8
M68LXLIFT
 62
3
 10
7490.446
 20
-8357.559
 30
-1566.291
 70
    32
  0
VERTEX
  8
M68LXLIFT
 62
3
 10
7495.061
 20
-8368.426
 30
-1566.327
 70
    32
  0
VERTEX
  8
M68LXLIFT
 62
3
 10
7489.918
 20
-8372.144
 30
-1566.329
 70
    32
  0
VERTEX
  8
M68LXLIFT
 62
3
 10
7484.334
 20
-8369.712
 30
-1566.314
 70
    32
  0
VERTEX
  8
M68LXLIFT
 62
3
 10
7482.517
 20
-8381.541
 30
-1566.342
 70
    32
  0
VERTEX
  8
M68LXLIFT
 62
3
 10
7475.543
 20
-8387.407
 30
-1566.346
 70
    32
  0
VERTEX
  8
M68LXLIFT
 62
3
 10
7464.438
 20
-8382.174
 30
-1566.315
 70
    32
  0
VERTEX
  8
M68LXLIFT
 62
3
 10
7447.512
 20
-8365.736
 30
-1566.244
 70
    32
  0
VERTEX
  8
M68LXLIFT
 62
3
 10
7434.776
 20
-8345.602
 30
-1566.171
 70
    32
  0
VERTEX
  8
M68LXLIFT
 62
3
 10
7414.832
 20
-8319.652
 30
-1566.066
 70
    32
  0
VERTEX
  8
M68LXLIFT
 62
3
 10
7414.680
 20
-8319.436
 30
-1566.065
 70
    32
  0
VERTEX
  8
M68LXLIFT
 62
3
 10
7409.556
 20
-8300.635
 30
-1565.916
 70
    32
  0
VERTEX
  8
M68LXLIFT
 62
3
 10
7422.371
 20
-8284.530
 30
-1565.941
 70
    32
  0
SEQEND
  8
M68LXLIFT
  0
LINE
  8
M68LXLIFT
 62
3
 10
7397.389
 20
-8395.205
 30
-1416.000
 11
7405.695
 21
-8386.614
 31
-1431.000
  0
POINT
  8
M68LXLIFT
 62
1
 10
7383.834
 20
-8977.312
 30
-1533.000
  0
POINT
  8
M68LXLIFT
 62
1
 10
7363.558
 20
-8971.830
 30
-1451.000
  0
LINE
  8
M68LXLIFT
 62
2
 10
7363.558
 20
-8971.830
 30
-1451.000
 11
7383.834
 21
-8977.312
 31
-1533.000
  0
POLYLINE
  8
M68LXLIFT
 62
3
 66
     1
 70
     9
  0
VERTEX
  8
M68LXLIFT
 62
3
 10
7426.744
 20
-8454.084
 30
-1416.000
 70
    32
  0
VERTEX
  8
M68LXLIFT
 62
3
 10
7415.716
 20
-8402.271
 30
-1416.000
 70
    32
  0
VERTEX
  8
M68LXLIFT
 62
3
 10
7407.497
 20
-8376.766
 30
-1416.000
 70
    32
  0
VERTEX
  8
M68LXLIFT
 62
3
 10
7392.370
 20
-8351.959
 30
-1416.000
 70
    32
  0
VERTEX
  8
M68LXLIFT
 62
3
 10
7393.247
 20
-8344.225
 30
-1416.000
 70
    32
  0
VERTEX
  8
M68LXLIFT
 62
3
 10
7400.511
 20
-8319.154
 30
-1416.000
 70
    32
  0
VERTEX
  8
M68LXLIFT
 62
3
 10
7381.055
 20
-8311.812
 30
-1416.000
 70
    32
  0
VERTEX
  8
M68LXLIFT
 62
3
 10
7370.666
 20
-8315.499
 30
-1416.000
 70
    32
  0
VERTEX
  8
M68LXLIFT
 62
3
 10
7368.025
 20
-8322.017
 30
-1416.000
 70
    32
  0
VERTEX
  8
M68LXLIFT
 62
3
 10
7359.793
 20
-8321.504
 30
-1416.000
 70
    32
  0
VERTEX
  8
M68LXLIFT
 62
3
 10
7353.666
 20
-8324.904
 30
-1416.000
 70
    32
  0
VERTEX
  8
M68LXLIFT
 62
3
 10
7345.191
 20
-8333.734
 30
-1416.000
 70
    32
  0
VERTEX
  8
M68LXLIFT
 62
3
 10
7341.851
 20
-8352.547
 30
-1416.000
 70
    32
  0
VERTEX
  8
M68LXLIFT
 62
3
 10
7367.930
 20
-8373.690
 30
-1416.000
 70
    32
  0
VERTEX
  8
M68LXLIFT
 62
3
 10
7382.683
 20
-8381.315
 30
-1416.000
 70
    32
  0
VERTEX
  8
M68LXLIFT
 62
3
 10
7385.567
 20
-8387.929
 30
-1416.000
 70
    32
  0
VERTEX
  8
M68LXLIFT
 62
3
 10
7382.934
 20
-8398.478
 30
-1416.000
 70
    32
  0
VERTEX
  8
M68LXLIFT
 62
3
 10
7378.123
 20
-8400.695
 30
-1416.000
 70
    32
  0
VERTEX
  8
M68LXLIFT
 62
3
 10
7382.580
 20
-8413.029
 30
-1416.000
 70
    32
  0
VERTEX
  8
M68LXLIFT
 62
3
 10
7394.099
 20
-8415.497
 30
-1416.000
 70
    32
  0
VERTEX
  8
M68LXLIFT
 62
3
 10
7403.207
 20
-8425.841
 30
-1416.000
 70
    32
  0
VERTEX
  8
M68LXLIFT
 62
3
 10
7412.049
 20
-8458.744
 30
-1416.000
 70
    32
  0
SEQEND
  8
M68LXLIFT
  0
POLYLINE
  8
M68LXLIFT
 62
6
 66
     1
 70
     9
  0
VERTEX
  8
M68LXLIFT
 62
6
 10
7412.614
 20
-8862.532
 30
-1443.000
 70
    32
  0
VERTEX
  8
M68LXLIFT
 62
6
 10
7408.492
 20
-8874.050
 30
-1443.000
 70
    32
  0
VERTEX
  8
M68LXLIFT
 62
6
 10
7406.713
 20
-8878.167
 30
-1443.000
 70
    32
  0
VERTEX
  8
M68LXLIFT
 62
6
 10
7397.598
 20
-8899.262
 30
-1443.000
 70
    32
  0
VERTEX
  8
M68LXLIFT
 62
6
 10
7394.456
 20
-8904.885
 30
-1443.000
 70
    32
  0
VERTEX
  8
M68LXLIFT
 62
6
 10
7386.800
 20
-8918.588
 30
-1443.000
 70
    32
  0
VERTEX
  8
M68LXLIFT
 62
6
 10
7380.284
 20
-8934.653
 30
-1443.000
 70
    32
  0
VERTEX
  8
M68LXLIFT
 62
6
 10
7374.643
 20
-8948.559
 30
-1443.000
 70
    32
  0
VERTEX
  8
M68LXLIFT
 62
6
 10
7374.591
 20
-8948.756
 30
-1443.000
 70
    32
  0
VERTEX
  8
M68LXLIFT
 62
6
 10
7372.344
 20
-8957.229
 30
-1443.000
 70
    32
  0
VERTEX
  8
M68LXLIFT
 62
6
 10
7373.465
 20
-8965.960
 30
-1443.000
 70
    32
  0
VERTEX
  8
M68LXLIFT
 62
6
 10
7374.100
 20
-8970.900
 30
-1443.000
 70
    32
  0
VERTEX
  8
M68LXLIFT
 62
6
 10
7372.320
 20
-8984.430
 30
-1443.000
 70
    32
  0
VERTEX
  8
M68LXLIFT
 62
6
 10
7372.100
 20
-8986.100
 30
-1443.000
 70
    32
  0
VERTEX
  8
M68LXLIFT
 62
6
 10
7377.300
 20
-8996.500
 30
-1443.000
 70
    32
  0
VERTEX
  8
M68LXLIFT
 62
6
 10
7376.224
 20
-9008.199
 30
-1443.000
 70
    32
  0
VERTEX
  8
M68LXLIFT
 62
6
 10
7375.000
 20
-9021.500
 30
-1443.000
 70
    32
  0
VERTEX
  8
M68LXLIFT
 62
6
 10
7370.300
 20
-9024.900
 30
-1443.000
 70
    32
  0
VERTEX
  8
M68LXLIFT
 62
6
 10
7367.800
 20
-9030.900
 30
-1443.000
 70
    32
  0
VERTEX
  8
M68LXLIFT
 62
6
 10
7368.206
 20
-9039.013
 30
-1443.000
 70
    32
  0
VERTEX
  8
M68LXLIFT
 62
6
 10
7368.300
 20
-9040.900
 30
-1443.000
 70
    32
  0
VERTEX
  8
M68LXLIFT
 62
6
 10
7362.100
 20
-9042.800
 30
-1443.000
 70
    32
  0
VERTEX
  8
M68LXLIFT
 62
6
 10
7350.492
 20
-9035.284
 30
-1443.000
 70
    32
  0
VERTEX
  8
M68LXLIFT
 62
6
 10
7346.500
 20
-9032.700
 30
-1443.000
 70
    32
  0
VERTEX
  8
M68LXLIFT
 62
6
 10
7347.689
 20
-8990.946
 30
-1443.000
 70
    32
  0
VERTEX
  8
M68LXLIFT
 62
6
 10
7346.497
 20
-8984.655
 30
-1443.000
 70
    32
  0
VERTEX
  8
M68LXLIFT
 62
6
 10
7345.426
 20
-8983.755
 30
-1443.000
 70
    32
  0
VERTEX
  8
M68LXLIFT
 62
6
 10
7348.307
 20
-8975.363
 30
-1443.000
 70
    32
  0
VERTEX
  8
M68LXLIFT
 62
6
 10
7350.615
 20
-8968.640
 30
-1443.000
 70
    32
  0
VERTEX
  8
M68LXLIFT
 62
6
 10
7351.277
 20
-8961.797
 30
-1443.000
 70
    32
  0
VERTEX
  8
M68LXLIFT
 62
6
 10
7352.063
 20
-8953.667
 30
-1443.000
 70
    32
  0
VERTEX
  8
M68LXLIFT
 62
6
 10
7352.028
 20
-8953.233
 30
-1443.000
 70
    32
  0
VERTEX
  8
M68LXLIFT
 62
6
 10
7350.836
 20
-8938.525
 30
-1443.000
 70
    32
  0
VERTEX
  8
M68LXLIFT
 62
6
 10
7355.591
 20
-8934.160
 30
-1443.000
 70
    32
  0
VERTEX
  8
M68LXLIFT
 62
6
 10
7358.206
 20
-8924.667
 30
-1443.000
 70
    32
  0
VERTEX
  8
M68LXLIFT
 62
6
 10
7359.076
 20
-8921.507
 30
-1443.000
 70
    32
  0
VERTEX
  8
M68LXLIFT
 62
6
 10
7375.420
 20
-8913.689
 30
-1443.000
 70
    32
  0
VERTEX
  8
M68LXLIFT
 62
6
 10
7377.890
 20
-8912.507
 30
-1443.000
 70
    32
  0
VERTEX
  8
M68LXLIFT
 62
6
 10
7376.514
 20
-8907.885
 30
-1443.000
 70
    32
  0
VERTEX
  8
M68LXLIFT
 62
6
 10
7372.682
 20
-8895.008
 30
-1443.000
 70
    32
  0
VERTEX
  8
M68LXLIFT
 62
6
 10
7378.252
 20
-8891.357
 30
-1443.000
 70
    32
  0
VERTEX
  8
M68LXLIFT
 62
6
 10
7377.423
 20
-8882.016
 30
-1443.000
 70
    32
  0
VERTEX
  8
M68LXLIFT
 62
6
 10
7382.247
 20
-8877.486
 30
-1443.000
 70
    32
  0
VERTEX
  8
M68LXLIFT
 62
6
 10
7388.723
 20
-8871.405
 30
-1443.000
 70
    32
  0
VERTEX
  8
M68LXLIFT
 62
6
 10
7389.738
 20
-8871.041
 30
-1443.000
 70
    32
  0
VERTEX
  8
M68LXLIFT
 62
6
 10
7394.444
 20
-8869.355
 30
-1443.000
 70
    32
  0
VERTEX
  8
M68LXLIFT
 62
6
 10
7402.189
 20
-8861.904
 30
-1443.000
 70
    32
  0
VERTEX
  8
M68LXLIFT
 62
6
 10
7402.356
 20
-8861.451
 30
-1443.000
 70
    32
  0
SEQEND
  8
M68LXLIFT
  0
POLYLINE
  8
M68LXLIFT
 62
6
 66
     1
 70
     9
  0
VERTEX
  8
M68LXLIFT
 62
6
 10
7439.243
 20
-8913.001
 30
-1543.410
 70
    32
  0
VERTEX
  8
M68LXLIFT
 62
6
 10
7438.189
 20
-8920.885
 30
-1543.410
 70
    32
  0
VERTEX
  8
M68LXLIFT
 62
6
 10
7434.744
 20
-8927.709
 30
-1543.410
 70
    32
  0
VERTEX
  8
M68LXLIFT
 62
6
 10
7427.104
 20
-8938.490
 30
-1543.410
 70
    32
  0
VERTEX
  8
M68LXLIFT
 62
6
 10
7423.348
 20
-8941.185
 30
-1543.410
 70
    32
  0
VERTEX
  8
M68LXLIFT
 62
6
 10
7417.984
 20
-8941.050
 30
-1543.410
 70
    32
  0
VERTEX
  8
M68LXLIFT
 62
6
 10
7413.924
 20
-8943.964
 30
-1543.410
 70
    32
  0
VERTEX
  8
M68LXLIFT
 62
6
 10
7409.914
 20
-8942.019
 30
-1543.410
 70
    32
  0
VERTEX
  8
M68LXLIFT
 62
6
 10
7403.170
 20
-8936.319
 30
-1543.410
 70
    32
  0
VERTEX
  8
M68LXLIFT
 62
6
 10
7402.735
 20
-8934.482
 30
-1543.410
 70
    32
  0
VERTEX
  8
M68LXLIFT
 62
6
 10
7398.780
 20
-8932.024
 30
-1543.410
 70
    32
  0
VERTEX
  8
M68LXLIFT
 62
6
 10
7391.989
 20
-8936.008
 30
-1543.410
 70
    32
  0
VERTEX
  8
M68LXLIFT
 62
6
 10
7392.407
 20
-8944.517
 30
-1543.410
 70
    32
  0
VERTEX
  8
M68LXLIFT
 62
6
 10
7397.455
 20
-8950.961
 30
-1543.410
 70
    32
  0
VERTEX
  8
M68LXLIFT
 62
6
 10
7399.327
 20
-8967.603
 30
-1543.410
 70
    32
  0
VERTEX
  8
M68LXLIFT
 62
6
 10
7405.890
 20
-8971.283
 30
-1543.410
 70
    32
  0
VERTEX
  8
M68LXLIFT
 62
6
 10
7412.964
 20
-8984.191
 30
-1543.410
 70
    32
  0
VERTEX
  8
M68LXLIFT
 62
6
 10
7434.285
 20
-9050.532
 30
-1543.410
 70
    32
  0
VERTEX
  8
M68LXLIFT
 62
6
 10
7427.953
 20
-9056.388
 30
-1543.410
 70
    32
  0
VERTEX
  8
M68LXLIFT
 62
6
 10
7415.271
 20
-9065.019
 30
-1543.410
 70
    32
  0
VERTEX
  8
M68LXLIFT
 62
6
 10
7410.661
 20
-9077.557
 30
-1543.410
 70
    32
  0
VERTEX
  8
M68LXLIFT
 62
6
 10
7407.768
 20
-9079.633
 30
-1543.410
 70
    32
  0
VERTEX
  8
M68LXLIFT
 62
6
 10
7400.983
 20
-9080.571
 30
-1543.410
 70
    32
  0
VERTEX
  8
M68LXLIFT
 62
6
 10
7399.651
 20
-9065.271
 30
-1543.410
 70
    32
  0
VERTEX
  8
M68LXLIFT
 62
6
 10
7393.615
 20
-9056.862
 30
-1543.410
 70
    32
  0
VERTEX
  8
M68LXLIFT
 62
6
 10
7390.268
 20
-9054.020
 30
-1543.410
 70
    32
  0
VERTEX
  8
M68LXLIFT
 62
6
 10
7363.457
 20
-9039.914
 30
-1543.410
 70
    32
  0
VERTEX
  8
M68LXLIFT
 62
6
 10
7358.148
 20
-9031.874
 30
-1543.410
 70
    32
  0
VERTEX
  8
M68LXLIFT
 62
6
 10
7352.082
 20
-9031.404
 30
-1543.410
 70
    32
  0
VERTEX
  8
M68LXLIFT
 62
6
 10
7350.336
 20
-8992.281
 30
-1543.410
 70
    32
  0
VERTEX
  8
M68LXLIFT
 62
6
 10
7353.339
 20
-8981.788
 30
-1543.410
 70
    32
  0
VERTEX
  8
M68LXLIFT
 62
6
 10
7354.125
 20
-8973.725
 30
-1543.410
 70
    32
  0
VERTEX
  8
M68LXLIFT
 62
6
 10
7352.619
 20
-8953.307
 30
-1543.410
 70
    32
  0
VERTEX
  8
M68LXLIFT
 62
6
 10
7350.624
 20
-8943.780
 30
-1543.410
 70
    32
  0
VERTEX
  8
M68LXLIFT
 62
6
 10
7350.790
 20
-8934.851
 30
-1543.410
 70
    32
  0
VERTEX
  8
M68LXLIFT
 62
6
 10
7342.792
 20
-8926.119
 30
-1543.410
 70
    32
  0
VERTEX
  8
M68LXLIFT
 62
6
 10
7356.212
 20
-8914.284
 30
-1543.410
 70
    32
  0
VERTEX
  8
M68LXLIFT
 62
6
 10
7376.849
 20
-8916.147
 30
-1543.410
 70
    32
  0
VERTEX
  8
M68LXLIFT
 62
6
 10
7377.642
 20
-8909.914
 30
-1543.410
 70
    32
  0
VERTEX
  8
M68LXLIFT
 62
6
 10
7374.650
 20
-8909.387
 30
-1543.410
 70
    32
  0
VERTEX
  8
M68LXLIFT
 62
6
 10
7367.633
 20
-8900.843
 30
-1543.410
 70
    32
  0
VERTEX
  8
M68LXLIFT
 62
6
 10
7367.415
 20
-8897.486
 30
-1543.410
 70
    32
  0
VERTEX
  8
M68LXLIFT
 62
6
 10
7324.927
 20
-8879.269
 30
-1543.410
 70
    32
  0
VERTEX
  8
M68LXLIFT
 62
6
 10
7324.448
 20
-8874.317
 30
-1543.410
 70
    32
  0
VERTEX
  8
M68LXLIFT
 62
6
 10
7328.551
 20
-8869.641
 30
-1543.410
 70
    32
  0
VERTEX
  8
M68LXLIFT
 62
6
 10
7338.969
 20
-8873.122
 30
-1543.410
 70
    32
  0
VERTEX
  8
M68LXLIFT
 62
6
 10
7346.965
 20
-8869.585
 30
-1543.410
 70
    32
  0
VERTEX
  8
M68LXLIFT
 62
6
 10
7346.865
 20
-8867.036
 30
-1543.410
 70
    32
  0
VERTEX
  8
M68LXLIFT
 62
6
 10
7350.137
 20
-8867.309
 30
-1543.410
 70
    32
  0
VERTEX
  8
M68LXLIFT
 62
6
 10
7358.948
 20
-8872.835
 30
-1543.410
 70
    32
  0
VERTEX
  8
M68LXLIFT
 62
6
 10
7373.625
 20
-8873.732
 30
-1543.410
 70
    32
  0
VERTEX
  8
M68LXLIFT
 62
6
 10
7408.321
 20
-8892.718
 30
-1543.410
 70
    32
  0
VERTEX
  8
M68LXLIFT
 62
6
 10
7437.589
 20
-8902.266
 30
-1543.410
 70
    32
  0
SEQEND
  8
M68LXLIFT
  0
ENDSEC
  0
EOF
