999
********************************
999
*   DXF File - Entities Only   *
999
*        3D Data Format        *
999
*     Output from ENVISAGE     *
999
*     31-Dec-2007 15:39:32     *
999
********************************
  0
SECTION 
  2
HEADER
  9
$ACADVER
  1
AC1009
  9
$EXTMIN
 10
-290000.000
 20
-250000.000
 30
-4000.000
  9
$EXTMAX
 10
320000.000
 20
160000.000
 30
6000.000
  0
ENDSEC
  0
SECTION
  2
ENTITIES
  0
POLYLINE
  8
W41LXLIFT
 62
1
 66
     1
 70
     9
  0
VERTEX
  8
W41LXLIFT
 62
1
 10
-93.907
 20
-7030.489
 30
1248.000
 70
    32
  0
VERTEX
  8
W41LXLIFT
 62
1
 10
-81.695
 20
-7032.516
 30
1248.000
 70
    32
  0
VERTEX
  8
W41LXLIFT
 62
1
 10
-75.340
 20
-7031.395
 30
1248.000
 70
    32
  0
VERTEX
  8
W41LXLIFT
 62
1
 10
-80.375
 20
-7016.473
 30
1248.000
 70
    32
  0
VERTEX
  8
W41LXLIFT
 62
1
 10
-76.320
 20
-7013.975
 30
1248.000
 70
    32
  0
VERTEX
  8
W41LXLIFT
 62
1
 10
-80.096
 20
-7004.547
 30
1248.000
 70
    32
  0
VERTEX
  8
W41LXLIFT
 62
1
 10
-85.624
 20
-6985.639
 30
1248.000
 70
    32
  0
VERTEX
  8
W41LXLIFT
 62
1
 10
-101.562
 20
-6972.303
 30
1248.000
 70
    32
  0
VERTEX
  8
W41LXLIFT
 62
1
 10
-104.294
 20
-6968.524
 30
1248.000
 70
    32
  0
VERTEX
  8
W41LXLIFT
 62
1
 10
-111.849
 20
-6952.819
 30
1248.000
 70
    32
  0
VERTEX
  8
W41LXLIFT
 62
1
 10
-115.951
 20
-6934.833
 30
1248.000
 70
    32
  0
VERTEX
  8
W41LXLIFT
 62
1
 10
-132.941
 20
-6909.231
 30
1248.000
 70
    32
  0
VERTEX
  8
W41LXLIFT
 62
1
 10
-141.042
 20
-6903.581
 30
1248.000
 70
    32
  0
VERTEX
  8
W41LXLIFT
 62
1
 10
-152.293
 20
-6881.863
 30
1248.000
 70
    32
  0
VERTEX
  8
W41LXLIFT
 62
1
 10
-160.802
 20
-6876.399
 30
1248.000
 70
    32
  0
VERTEX
  8
W41LXLIFT
 62
1
 10
-162.525
 20
-6861.253
 30
1248.000
 70
    32
  0
VERTEX
  8
W41LXLIFT
 62
1
 10
-174.817
 20
-6857.765
 30
1248.000
 70
    32
  0
VERTEX
  8
W41LXLIFT
 62
1
 10
-179.207
 20
-6841.182
 30
1248.000
 70
    32
  0
VERTEX
  8
W41LXLIFT
 62
1
 10
-192.960
 20
-6823.661
 30
1248.000
 70
    32
  0
VERTEX
  8
W41LXLIFT
 62
1
 10
-198.267
 20
-6795.149
 30
1248.000
 70
    32
  0
VERTEX
  8
W41LXLIFT
 62
1
 10
-201.230
 20
-6781.441
 30
1248.000
 70
    32
  0
VERTEX
  8
W41LXLIFT
 62
1
 10
-194.274
 20
-6771.093
 30
1248.000
 70
    32
  0
VERTEX
  8
W41LXLIFT
 62
1
 10
-202.447
 20
-6763.542
 30
1248.000
 70
    32
  0
VERTEX
  8
W41LXLIFT
 62
1
 10
-204.303
 20
-6759.022
 30
1248.000
 70
    32
  0
VERTEX
  8
W41LXLIFT
 62
1
 10
-207.388
 20
-6738.238
 30
1248.000
 70
    32
  0
VERTEX
  8
W41LXLIFT
 62
1
 10
-210.765
 20
-6720.054
 30
1248.000
 70
    32
  0
VERTEX
  8
W41LXLIFT
 62
1
 10
-216.190
 20
-6717.355
 30
1248.000
 70
    32
  0
VERTEX
  8
W41LXLIFT
 62
1
 10
-231.208
 20
-6730.817
 30
1248.000
 70
    32
  0
VERTEX
  8
W41LXLIFT
 62
1
 10
-231.672
 20
-6760.355
 30
1248.000
 70
    32
  0
VERTEX
  8
W41LXLIFT
 62
1
 10
-226.779
 20
-6777.333
 30
1248.000
 70
    32
  0
VERTEX
  8
W41LXLIFT
 62
1
 10
-212.088
 20
-6792.548
 30
1248.000
 70
    32
  0
VERTEX
  8
W41LXLIFT
 62
1
 10
-208.394
 20
-6812.674
 30
1248.000
 70
    32
  0
VERTEX
  8
W41LXLIFT
 62
1
 10
-211.085
 20
-6826.669
 30
1248.000
 70
    32
  0
VERTEX
  8
W41LXLIFT
 62
1
 10
-192.818
 20
-6846.680
 30
1248.000
 70
    32
  0
VERTEX
  8
W41LXLIFT
 62
1
 10
-184.403
 20
-6869.580
 30
1248.000
 70
    32
  0
VERTEX
  8
W41LXLIFT
 62
1
 10
-183.199
 20
-6878.154
 30
1248.000
 70
    32
  0
VERTEX
  8
W41LXLIFT
 62
1
 10
-188.247
 20
-6884.083
 30
1248.000
 70
    32
  0
VERTEX
  8
W41LXLIFT
 62
1
 10
-182.625
 20
-6892.611
 30
1248.000
 70
    32
  0
VERTEX
  8
W41LXLIFT
 62
1
 10
-182.499
 20
-6898.490
 30
1248.000
 70
    32
  0
VERTEX
  8
W41LXLIFT
 62
1
 10
-156.561
 20
-6920.554
 30
1248.000
 70
    32
  0
VERTEX
  8
W41LXLIFT
 62
1
 10
-152.636
 20
-6950.608
 30
1248.000
 70
    32
  0
VERTEX
  8
W41LXLIFT
 62
1
 10
-148.951
 20
-6958.257
 30
1248.000
 70
    32
  0
VERTEX
  8
W41LXLIFT
 62
1
 10
-130.976
 20
-6957.745
 30
1248.000
 70
    32
  0
VERTEX
  8
W41LXLIFT
 62
1
 10
-127.178
 20
-6969.003
 30
1248.000
 70
    32
  0
VERTEX
  8
W41LXLIFT
 62
1
 10
-121.383
 20
-6975.668
 30
1248.000
 70
    32
  0
VERTEX
  8
W41LXLIFT
 62
1
 10
-116.287
 20
-7008.242
 30
1248.000
 70
    32
  0
VERTEX
  8
W41LXLIFT
 62
1
 10
-96.636
 20
-7007.495
 30
1248.000
 70
    32
  0
SEQEND
  8
W41LXLIFT
  0
POLYLINE
  8
W41LXLIFT
 62
13
 66
     1
 70
     9
  0
VERTEX
  8
W41LXLIFT
 62
13
 10
-57.794
 20
-6951.141
 30
1163.000
 70
    32
  0
VERTEX
  8
W41LXLIFT
 62
13
 10
-54.173
 20
-6942.336
 30
1163.000
 70
    32
  0
VERTEX
  8
W41LXLIFT
 62
13
 10
-61.803
 20
-6927.878
 30
1163.000
 70
    32
  0
VERTEX
  8
W41LXLIFT
 62
13
 10
-64.909
 20
-6928.387
 30
1163.000
 70
    32
  0
VERTEX
  8
W41LXLIFT
 62
13
 10
-74.692
 20
-6911.252
 30
1163.000
 70
    32
  0
VERTEX
  8
W41LXLIFT
 62
13
 10
-78.817
 20
-6901.642
 30
1163.000
 70
    32
  0
VERTEX
  8
W41LXLIFT
 62
13
 10
-79.059
 20
-6886.293
 30
1163.000
 70
    32
  0
VERTEX
  8
W41LXLIFT
 62
13
 10
-83.178
 20
-6872.337
 30
1163.000
 70
    32
  0
VERTEX
  8
W41LXLIFT
 62
13
 10
-86.243
 20
-6867.497
 30
1163.000
 70
    32
  0
VERTEX
  8
W41LXLIFT
 62
13
 10
-94.310
 20
-6858.891
 30
1163.000
 70
    32
  0
VERTEX
  8
W41LXLIFT
 62
13
 10
-98.335
 20
-6859.630
 30
1163.000
 70
    32
  0
VERTEX
  8
W41LXLIFT
 62
13
 10
-103.870
 20
-6868.191
 30
1163.000
 70
    32
  0
VERTEX
  8
W41LXLIFT
 62
13
 10
-102.869
 20
-6889.395
 30
1163.000
 70
    32
  0
VERTEX
  8
W41LXLIFT
 62
13
 10
-101.688
 20
-6897.334
 30
1163.000
 70
    32
  0
VERTEX
  8
W41LXLIFT
 62
13
 10
-95.904
 20
-6912.692
 30
1163.000
 70
    32
  0
VERTEX
  8
W41LXLIFT
 62
13
 10
-95.442
 20
-6925.493
 30
1163.000
 70
    32
  0
VERTEX
  8
W41LXLIFT
 62
13
 10
-80.772
 20
-6938.878
 30
1163.000
 70
    32
  0
VERTEX
  8
W41LXLIFT
 62
13
 10
-73.669
 20
-6954.259
 30
1163.000
 70
    32
  0
VERTEX
  8
W41LXLIFT
 62
13
 10
-67.819
 20
-6957.846
 30
1163.000
 70
    32
  0
SEQEND
  8
W41LXLIFT
  0
POLYLINE
  8
W41LXLIFT
 62
13
 66
     1
 70
     9
  0
VERTEX
  8
W41LXLIFT
 62
13
 10
-45.368
 20
-6920.881
 30
1153.000
 70
    32
  0
VERTEX
  8
W41LXLIFT
 62
13
 10
-54.398
 20
-6921.004
 30
1153.000
 70
    32
  0
VERTEX
  8
W41LXLIFT
 62
13
 10
-69.032
 20
-6915.627
 30
1153.000
 70
    32
  0
VERTEX
  8
W41LXLIFT
 62
13
 10
-74.859
 20
-6910.721
 30
1153.000
 70
    32
  0
VERTEX
  8
W41LXLIFT
 62
13
 10
-78.333
 20
-6904.114
 30
1153.000
 70
    32
  0
VERTEX
  8
W41LXLIFT
 62
13
 10
-78.959
 20
-6896.642
 30
1153.000
 70
    32
  0
VERTEX
  8
W41LXLIFT
 62
13
 10
-78.250
 20
-6886.360
 30
1153.000
 70
    32
  0
VERTEX
  8
W41LXLIFT
 62
13
 10
-76.568
 20
-6874.723
 30
1153.000
 70
    32
  0
VERTEX
  8
W41LXLIFT
 62
13
 10
-85.944
 20
-6846.438
 30
1153.000
 70
    32
  0
VERTEX
  8
W41LXLIFT
 62
13
 10
-99.685
 20
-6854.310
 30
1153.000
 70
    32
  0
VERTEX
  8
W41LXLIFT
 62
13
 10
-98.547
 20
-6863.691
 30
1153.000
 70
    32
  0
VERTEX
  8
W41LXLIFT
 62
13
 10
-101.720
 20
-6874.018
 30
1153.000
 70
    32
  0
VERTEX
  8
W41LXLIFT
 62
13
 10
-97.287
 20
-6889.159
 30
1153.000
 70
    32
  0
VERTEX
  8
W41LXLIFT
 62
13
 10
-98.984
 20
-6894.619
 30
1153.000
 70
    32
  0
VERTEX
  8
W41LXLIFT
 62
13
 10
-100.015
 20
-6900.250
 30
1153.000
 70
    32
  0
VERTEX
  8
W41LXLIFT
 62
13
 10
-87.450
 20
-6926.337
 30
1153.000
 70
    32
  0
VERTEX
  8
W41LXLIFT
 62
13
 10
-68.197
 20
-6947.263
 30
1153.000
 70
    32
  0
VERTEX
  8
W41LXLIFT
 62
13
 10
-37.452
 20
-6930.029
 30
1153.000
 70
    32
  0
SEQEND
  8
W41LXLIFT
  0
POLYLINE
  8
W41LXLIFT
 62
1
 66
     1
 70
     9
  0
VERTEX
  8
W41LXLIFT
 62
1
 10
213.757
 20
-6967.306
 30
1189.000
 70
    32
  0
VERTEX
  8
W41LXLIFT
 62
1
 10
198.191
 20
-6936.767
 30
1189.000
 70
    32
  0
VERTEX
  8
W41LXLIFT
 62
1
 10
186.747
 20
-6917.033
 30
1189.000
 70
    32
  0
VERTEX
  8
W41LXLIFT
 62
1
 10
166.913
 20
-6884.043
 30
1189.000
 70
    32
  0
VERTEX
  8
W41LXLIFT
 62
1
 10
167.447
 20
-6873.671
 30
1189.000
 70
    32
  0
VERTEX
  8
W41LXLIFT
 62
1
 10
155.463
 20
-6843.581
 30
1189.000
 70
    32
  0
VERTEX
  8
W41LXLIFT
 62
1
 10
168.084
 20
-6840.318
 30
1189.000
 70
    32
  0
VERTEX
  8
W41LXLIFT
 62
1
 10
169.747
 20
-6846.823
 30
1189.000
 70
    32
  0
VERTEX
  8
W41LXLIFT
 62
1
 10
175.937
 20
-6849.078
 30
1189.000
 70
    32
  0
VERTEX
  8
W41LXLIFT
 62
1
 10
185.382
 20
-6864.395
 30
1189.000
 70
    32
  0
VERTEX
  8
W41LXLIFT
 62
1
 10
201.719
 20
-6883.087
 30
1189.000
 70
    32
  0
VERTEX
  8
W41LXLIFT
 62
1
 10
209.994
 20
-6895.885
 30
1189.000
 70
    32
  0
VERTEX
  8
W41LXLIFT
 62
1
 10
215.714
 20
-6910.854
 30
1189.000
 70
    32
  0
VERTEX
  8
W41LXLIFT
 62
1
 10
215.998
 20
-6931.817
 30
1189.000
 70
    32
  0
VERTEX
  8
W41LXLIFT
 62
1
 10
219.733
 20
-6953.650
 30
1189.000
 70
    32
  0
VERTEX
  8
W41LXLIFT
 62
1
 10
223.301
 20
-6965.943
 30
1189.000
 70
    32
  0
SEQEND
  8
W41LXLIFT
  0
POLYLINE
  8
W41LXLIFT
 62
6
 66
     1
 70
     9
  0
VERTEX
  8
W41LXLIFT
 62
6
 10
212.757
 20
-6968.306
 30
1176.000
 70
    32
  0
VERTEX
  8
W41LXLIFT
 62
6
 10
197.191
 20
-6937.767
 30
1176.000
 70
    32
  0
VERTEX
  8
W41LXLIFT
 62
6
 10
185.747
 20
-6918.033
 30
1176.000
 70
    32
  0
VERTEX
  8
W41LXLIFT
 62
6
 10
165.913
 20
-6885.043
 30
1176.000
 70
    32
  0
VERTEX
  8
W41LXLIFT
 62
6
 10
166.447
 20
-6874.671
 30
1176.000
 70
    32
  0
VERTEX
  8
W41LXLIFT
 62
6
 10
154.463
 20
-6844.581
 30
1176.000
 70
    32
  0
VERTEX
  8
W41LXLIFT
 62
6
 10
167.084
 20
-6841.318
 30
1176.000
 70
    32
  0
VERTEX
  8
W41LXLIFT
 62
6
 10
168.747
 20
-6847.823
 30
1176.000
 70
    32
  0
VERTEX
  8
W41LXLIFT
 62
6
 10
174.937
 20
-6850.078
 30
1176.000
 70
    32
  0
VERTEX
  8
W41LXLIFT
 62
6
 10
184.382
 20
-6865.395
 30
1176.000
 70
    32
  0
VERTEX
  8
W41LXLIFT
 62
6
 10
200.719
 20
-6884.087
 30
1176.000
 70
    32
  0
VERTEX
  8
W41LXLIFT
 62
6
 10
208.994
 20
-6896.885
 30
1176.000
 70
    32
  0
VERTEX
  8
W41LXLIFT
 62
6
 10
214.714
 20
-6911.854
 30
1176.000
 70
    32
  0
VERTEX
  8
W41LXLIFT
 62
6
 10
214.998
 20
-6932.817
 30
1176.000
 70
    32
  0
VERTEX
  8
W41LXLIFT
 62
6
 10
218.733
 20
-6954.650
 30
1176.000
 70
    32
  0
VERTEX
  8
W41LXLIFT
 62
6
 10
222.301
 20
-6966.943
 30
1176.000
 70
    32
  0
SEQEND
  8
W41LXLIFT
  0
POLYLINE
  8
W41LXLIFT
 62
6
 66
     1
 70
     9
  0
VERTEX
  8
W41LXLIFT
 62
6
 10
209.645
 20
-6955.142
 30
1164.000
 70
    32
  0
VERTEX
  8
W41LXLIFT
 62
6
 10
203.100
 20
-6940.985
 30
1164.000
 70
    32
  0
VERTEX
  8
W41LXLIFT
 62
6
 10
196.625
 20
-6938.936
 30
1164.000
 70
    32
  0
VERTEX
  8
W41LXLIFT
 62
6
 10
189.478
 20
-6939.110
 30
1164.000
 70
    32
  0
VERTEX
  8
W41LXLIFT
 62
6
 10
183.877
 20
-6918.300
 30
1164.000
 70
    32
  0
VERTEX
  8
W41LXLIFT
 62
6
 10
182.396
 20
-6904.390
 30
1164.000
 70
    32
  0
VERTEX
  8
W41LXLIFT
 62
6
 10
187.073
 20
-6899.597
 30
1164.000
 70
    32
  0
VERTEX
  8
W41LXLIFT
 62
6
 10
192.240
 20
-6890.978
 30
1164.000
 70
    32
  0
VERTEX
  8
W41LXLIFT
 62
6
 10
219.332
 20
-6914.487
 30
1164.000
 70
    32
  0
VERTEX
  8
W41LXLIFT
 62
6
 10
207.069
 20
-6930.408
 30
1164.000
 70
    32
  0
VERTEX
  8
W41LXLIFT
 62
6
 10
210.611
 20
-6938.160
 30
1164.000
 70
    32
  0
VERTEX
  8
W41LXLIFT
 62
6
 10
221.443
 20
-6954.645
 30
1164.000
 70
    32
  0
SEQEND
  8
W41LXLIFT
  0
POLYLINE
  8
W41LXLIFT
 62
1
 66
     1
 70
     9
  0
VERTEX
  8
W41LXLIFT
 62
1
 10
306.308
 20
-7044.120
 30
1199.000
 70
    32
  0
VERTEX
  8
W41LXLIFT
 62
1
 10
314.968
 20
-7041.984
 30
1199.000
 70
    32
  0
VERTEX
  8
W41LXLIFT
 62
1
 10
333.866
 20
-7063.168
 30
1199.000
 70
    32
  0
VERTEX
  8
W41LXLIFT
 62
1
 10
341.673
 20
-7067.510
 30
1199.000
 70
    32
  0
VERTEX
  8
W41LXLIFT
 62
1
 10
346.513
 20
-7080.511
 30
1199.000
 70
    32
  0
VERTEX
  8
W41LXLIFT
 62
1
 10
361.117
 20
-7096.657
 30
1199.000
 70
    32
  0
VERTEX
  8
W41LXLIFT
 62
1
 10
374.294
 20
-7102.871
 30
1199.000
 70
    32
  0
VERTEX
  8
W41LXLIFT
 62
1
 10
395.203
 20
-7121.732
 30
1199.000
 70
    32
  0
VERTEX
  8
W41LXLIFT
 62
1
 10
393.065
 20
-7132.288
 30
1199.000
 70
    32
  0
VERTEX
  8
W41LXLIFT
 62
1
 10
391.497
 20
-7135.375
 30
1199.000
 70
    32
  0
VERTEX
  8
W41LXLIFT
 62
1
 10
394.854
 20
-7144.673
 30
1199.000
 70
    32
  0
VERTEX
  8
W41LXLIFT
 62
1
 10
386.226
 20
-7148.956
 30
1199.000
 70
    32
  0
VERTEX
  8
W41LXLIFT
 62
1
 10
386.551
 20
-7157.514
 30
1199.000
 70
    32
  0
VERTEX
  8
W41LXLIFT
 62
1
 10
376.309
 20
-7163.616
 30
1199.000
 70
    32
  0
VERTEX
  8
W41LXLIFT
 62
1
 10
370.358
 20
-7163.793
 30
1199.000
 70
    32
  0
VERTEX
  8
W41LXLIFT
 62
1
 10
367.100
 20
-7153.882
 30
1199.000
 70
    32
  0
VERTEX
  8
W41LXLIFT
 62
1
 10
351.509
 20
-7143.878
 30
1199.000
 70
    32
  0
VERTEX
  8
W41LXLIFT
 62
1
 10
347.073
 20
-7138.943
 30
1199.000
 70
    32
  0
VERTEX
  8
W41LXLIFT
 62
1
 10
337.155
 20
-7121.471
 30
1199.000
 70
    32
  0
VERTEX
  8
W41LXLIFT
 62
1
 10
332.829
 20
-7114.287
 30
1199.000
 70
    32
  0
VERTEX
  8
W41LXLIFT
 62
1
 10
326.424
 20
-7117.289
 30
1199.000
 70
    32
  0
VERTEX
  8
W41LXLIFT
 62
1
 10
312.597
 20
-7102.969
 30
1199.000
 70
    32
  0
VERTEX
  8
W41LXLIFT
 62
1
 10
317.210
 20
-7097.788
 30
1199.000
 70
    32
  0
VERTEX
  8
W41LXLIFT
 62
1
 10
315.827
 20
-7088.367
 30
1199.000
 70
    32
  0
VERTEX
  8
W41LXLIFT
 62
1
 10
321.099
 20
-7076.740
 30
1199.000
 70
    32
  0
VERTEX
  8
W41LXLIFT
 62
1
 10
305.799
 20
-7064.137
 30
1199.000
 70
    32
  0
VERTEX
  8
W41LXLIFT
 62
1
 10
295.536
 20
-7052.343
 30
1199.000
 70
    32
  0
VERTEX
  8
W41LXLIFT
 62
1
 10
294.639
 20
-7049.300
 30
1199.000
 70
    32
  0
SEQEND
  8
W41LXLIFT
  0
POLYLINE
  8
W41LXLIFT
 62
4
 66
     1
 70
     9
  0
VERTEX
  8
W41LXLIFT
 62
4
 10
305.308
 20
-7045.120
 30
1184.000
 70
    32
  0
VERTEX
  8
W41LXLIFT
 62
4
 10
313.968
 20
-7042.984
 30
1184.000
 70
    32
  0
VERTEX
  8
W41LXLIFT
 62
4
 10
332.866
 20
-7064.168
 30
1184.000
 70
    32
  0
VERTEX
  8
W41LXLIFT
 62
4
 10
340.673
 20
-7068.510
 30
1184.000
 70
    32
  0
VERTEX
  8
W41LXLIFT
 62
4
 10
345.513
 20
-7081.511
 30
1184.000
 70
    32
  0
VERTEX
  8
W41LXLIFT
 62
4
 10
360.117
 20
-7097.657
 30
1184.000
 70
    32
  0
VERTEX
  8
W41LXLIFT
 62
4
 10
373.294
 20
-7103.871
 30
1184.000
 70
    32
  0
VERTEX
  8
W41LXLIFT
 62
4
 10
394.203
 20
-7122.732
 30
1184.000
 70
    32
  0
VERTEX
  8
W41LXLIFT
 62
4
 10
392.065
 20
-7133.288
 30
1184.000
 70
    32
  0
VERTEX
  8
W41LXLIFT
 62
4
 10
390.497
 20
-7136.375
 30
1184.000
 70
    32
  0
VERTEX
  8
W41LXLIFT
 62
4
 10
393.854
 20
-7145.673
 30
1184.000
 70
    32
  0
VERTEX
  8
W41LXLIFT
 62
4
 10
385.226
 20
-7149.956
 30
1184.000
 70
    32
  0
VERTEX
  8
W41LXLIFT
 62
4
 10
385.551
 20
-7158.514
 30
1184.000
 70
    32
  0
VERTEX
  8
W41LXLIFT
 62
4
 10
375.309
 20
-7164.616
 30
1184.000
 70
    32
  0
VERTEX
  8
W41LXLIFT
 62
4
 10
369.358
 20
-7164.793
 30
1184.000
 70
    32
  0
VERTEX
  8
W41LXLIFT
 62
4
 10
366.100
 20
-7154.882
 30
1184.000
 70
    32
  0
VERTEX
  8
W41LXLIFT
 62
4
 10
350.509
 20
-7144.878
 30
1184.000
 70
    32
  0
VERTEX
  8
W41LXLIFT
 62
4
 10
346.073
 20
-7139.943
 30
1184.000
 70
    32
  0
VERTEX
  8
W41LXLIFT
 62
4
 10
336.155
 20
-7122.471
 30
1184.000
 70
    32
  0
VERTEX
  8
W41LXLIFT
 62
4
 10
331.829
 20
-7115.287
 30
1184.000
 70
    32
  0
VERTEX
  8
W41LXLIFT
 62
4
 10
325.424
 20
-7118.289
 30
1184.000
 70
    32
  0
VERTEX
  8
W41LXLIFT
 62
4
 10
311.597
 20
-7103.969
 30
1184.000
 70
    32
  0
VERTEX
  8
W41LXLIFT
 62
4
 10
316.210
 20
-7098.788
 30
1184.000
 70
    32
  0
VERTEX
  8
W41LXLIFT
 62
4
 10
314.827
 20
-7089.367
 30
1184.000
 70
    32
  0
VERTEX
  8
W41LXLIFT
 62
4
 10
320.099
 20
-7077.740
 30
1184.000
 70
    32
  0
VERTEX
  8
W41LXLIFT
 62
4
 10
304.799
 20
-7065.137
 30
1184.000
 70
    32
  0
VERTEX
  8
W41LXLIFT
 62
4
 10
294.536
 20
-7053.343
 30
1184.000
 70
    32
  0
VERTEX
  8
W41LXLIFT
 62
4
 10
293.639
 20
-7050.300
 30
1184.000
 70
    32
  0
SEQEND
  8
W41LXLIFT
  0
POLYLINE
  8
W41LXLIFT
 62
13
 66
     1
 70
     9
  0
VERTEX
  8
W41LXLIFT
 62
13
 10
-94.907
 20
-7031.489
 30
1235.000
 70
    32
  0
VERTEX
  8
W41LXLIFT
 62
13
 10
-82.695
 20
-7033.516
 30
1235.000
 70
    32
  0
VERTEX
  8
W41LXLIFT
 62
13
 10
-76.340
 20
-7032.395
 30
1235.000
 70
    32
  0
VERTEX
  8
W41LXLIFT
 62
13
 10
-81.375
 20
-7017.473
 30
1235.000
 70
    32
  0
VERTEX
  8
W41LXLIFT
 62
13
 10
-77.320
 20
-7014.975
 30
1235.000
 70
    32
  0
VERTEX
  8
W41LXLIFT
 62
13
 10
-81.096
 20
-7005.547
 30
1235.000
 70
    32
  0
VERTEX
  8
W41LXLIFT
 62
13
 10
-86.624
 20
-6986.639
 30
1235.000
 70
    32
  0
VERTEX
  8
W41LXLIFT
 62
13
 10
-102.562
 20
-6973.303
 30
1235.000
 70
    32
  0
VERTEX
  8
W41LXLIFT
 62
13
 10
-105.294
 20
-6969.524
 30
1235.000
 70
    32
  0
VERTEX
  8
W41LXLIFT
 62
13
 10
-112.849
 20
-6953.819
 30
1235.000
 70
    32
  0
VERTEX
  8
W41LXLIFT
 62
13
 10
-116.951
 20
-6935.833
 30
1235.000
 70
    32
  0
VERTEX
  8
W41LXLIFT
 62
13
 10
-133.941
 20
-6910.231
 30
1235.000
 70
    32
  0
VERTEX
  8
W41LXLIFT
 62
13
 10
-142.042
 20
-6904.581
 30
1235.000
 70
    32
  0
VERTEX
  8
W41LXLIFT
 62
13
 10
-153.293
 20
-6882.863
 30
1235.000
 70
    32
  0
VERTEX
  8
W41LXLIFT
 62
13
 10
-161.802
 20
-6877.399
 30
1235.000
 70
    32
  0
VERTEX
  8
W41LXLIFT
 62
13
 10
-163.525
 20
-6862.253
 30
1235.000
 70
    32
  0
VERTEX
  8
W41LXLIFT
 62
13
 10
-175.817
 20
-6858.765
 30
1235.000
 70
    32
  0
VERTEX
  8
W41LXLIFT
 62
13
 10
-180.207
 20
-6842.182
 30
1235.000
 70
    32
  0
VERTEX
  8
W41LXLIFT
 62
13
 10
-193.960
 20
-6824.661
 30
1235.000
 70
    32
  0
VERTEX
  8
W41LXLIFT
 62
13
 10
-199.267
 20
-6796.149
 30
1235.000
 70
    32
  0
VERTEX
  8
W41LXLIFT
 62
13
 10
-202.230
 20
-6782.441
 30
1235.000
 70
    32
  0
VERTEX
  8
W41LXLIFT
 62
13
 10
-195.274
 20
-6772.093
 30
1235.000
 70
    32
  0
VERTEX
  8
W41LXLIFT
 62
13
 10
-203.447
 20
-6764.542
 30
1235.000
 70
    32
  0
VERTEX
  8
W41LXLIFT
 62
13
 10
-205.303
 20
-6760.022
 30
1235.000
 70
    32
  0
VERTEX
  8
W41LXLIFT
 62
13
 10
-208.388
 20
-6739.238
 30
1235.000
 70
    32
  0
VERTEX
  8
W41LXLIFT
 62
13
 10
-211.765
 20
-6721.054
 30
1235.000
 70
    32
  0
VERTEX
  8
W41LXLIFT
 62
13
 10
-217.190
 20
-6718.355
 30
1235.000
 70
    32
  0
VERTEX
  8
W41LXLIFT
 62
13
 10
-232.208
 20
-6731.817
 30
1235.000
 70
    32
  0
VERTEX
  8
W41LXLIFT
 62
13
 10
-232.672
 20
-6761.355
 30
1235.000
 70
    32
  0
VERTEX
  8
W41LXLIFT
 62
13
 10
-227.779
 20
-6778.333
 30
1235.000
 70
    32
  0
VERTEX
  8
W41LXLIFT
 62
13
 10
-213.088
 20
-6793.548
 30
1235.000
 70
    32
  0
VERTEX
  8
W41LXLIFT
 62
13
 10
-209.394
 20
-6813.674
 30
1235.000
 70
    32
  0
VERTEX
  8
W41LXLIFT
 62
13
 10
-212.085
 20
-6827.669
 30
1235.000
 70
    32
  0
VERTEX
  8
W41LXLIFT
 62
13
 10
-193.818
 20
-6847.680
 30
1235.000
 70
    32
  0
VERTEX
  8
W41LXLIFT
 62
13
 10
-185.403
 20
-6870.580
 30
1235.000
 70
    32
  0
VERTEX
  8
W41LXLIFT
 62
13
 10
-184.199
 20
-6879.154
 30
1235.000
 70
    32
  0
VERTEX
  8
W41LXLIFT
 62
13
 10
-189.247
 20
-6885.083
 30
1235.000
 70
    32
  0
VERTEX
  8
W41LXLIFT
 62
13
 10
-183.625
 20
-6893.611
 30
1235.000
 70
    32
  0
VERTEX
  8
W41LXLIFT
 62
13
 10
-183.499
 20
-6899.490
 30
1235.000
 70
    32
  0
VERTEX
  8
W41LXLIFT
 62
13
 10
-157.561
 20
-6921.554
 30
1235.000
 70
    32
  0
VERTEX
  8
W41LXLIFT
 62
13
 10
-153.636
 20
-6951.608
 30
1235.000
 70
    32
  0
VERTEX
  8
W41LXLIFT
 62
13
 10
-149.951
 20
-6959.257
 30
1235.000
 70
    32
  0
VERTEX
  8
W41LXLIFT
 62
13
 10
-131.976
 20
-6958.745
 30
1235.000
 70
    32
  0
VERTEX
  8
W41LXLIFT
 62
13
 10
-128.178
 20
-6970.003
 30
1235.000
 70
    32
  0
VERTEX
  8
W41LXLIFT
 62
13
 10
-122.383
 20
-6976.668
 30
1235.000
 70
    32
  0
VERTEX
  8
W41LXLIFT
 62
13
 10
-117.287
 20
-7009.242
 30
1235.000
 70
    32
  0
VERTEX
  8
W41LXLIFT
 62
13
 10
-97.636
 20
-7008.495
 30
1235.000
 70
    32
  0
SEQEND
  8
W41LXLIFT
  0
POLYLINE
  8
W41LXLIFT
 62
1
 66
     1
 70
     9
  0
VERTEX
  8
W41LXLIFT
 62
1
 10
-56.794
 20
-6950.141
 30
1175.000
 70
    32
  0
VERTEX
  8
W41LXLIFT
 62
1
 10
-53.173
 20
-6941.336
 30
1175.000
 70
    32
  0
VERTEX
  8
W41LXLIFT
 62
1
 10
-60.803
 20
-6926.878
 30
1175.000
 70
    32
  0
VERTEX
  8
W41LXLIFT
 62
1
 10
-63.909
 20
-6927.387
 30
1175.000
 70
    32
  0
VERTEX
  8
W41LXLIFT
 62
1
 10
-73.692
 20
-6910.252
 30
1175.000
 70
    32
  0
VERTEX
  8
W41LXLIFT
 62
1
 10
-77.817
 20
-6900.642
 30
1175.000
 70
    32
  0
VERTEX
  8
W41LXLIFT
 62
1
 10
-78.059
 20
-6885.293
 30
1175.000
 70
    32
  0
VERTEX
  8
W41LXLIFT
 62
1
 10
-82.178
 20
-6871.337
 30
1175.000
 70
    32
  0
VERTEX
  8
W41LXLIFT
 62
1
 10
-85.243
 20
-6866.497
 30
1175.000
 70
    32
  0
VERTEX
  8
W41LXLIFT
 62
1
 10
-93.310
 20
-6857.891
 30
1175.000
 70
    32
  0
VERTEX
  8
W41LXLIFT
 62
1
 10
-97.335
 20
-6858.630
 30
1175.000
 70
    32
  0
VERTEX
  8
W41LXLIFT
 62
1
 10
-102.870
 20
-6867.191
 30
1175.000
 70
    32
  0
VERTEX
  8
W41LXLIFT
 62
1
 10
-101.869
 20
-6888.395
 30
1175.000
 70
    32
  0
VERTEX
  8
W41LXLIFT
 62
1
 10
-100.688
 20
-6896.334
 30
1175.000
 70
    32
  0
VERTEX
  8
W41LXLIFT
 62
1
 10
-94.904
 20
-6911.692
 30
1175.000
 70
    32
  0
VERTEX
  8
W41LXLIFT
 62
1
 10
-94.442
 20
-6924.493
 30
1175.000
 70
    32
  0
VERTEX
  8
W41LXLIFT
 62
1
 10
-79.772
 20
-6937.878
 30
1175.000
 70
    32
  0
VERTEX
  8
W41LXLIFT
 62
1
 10
-72.669
 20
-6953.259
 30
1175.000
 70
    32
  0
VERTEX
  8
W41LXLIFT
 62
1
 10
-66.819
 20
-6956.846
 30
1175.000
 70
    32
  0
SEQEND
  8
W41LXLIFT
  0
POLYLINE
  8
W41LXLIFT
 62
13
 66
     1
 70
     9
  0
VERTEX
  8
W41LXLIFT
 62
13
 10
-50.813
 20
-6941.066
 30
1129.116
 70
    32
  0
VERTEX
  8
W41LXLIFT
 62
13
 10
-51.242
 20
-6944.792
 30
1129.135
 70
    32
  0
VERTEX
  8
W41LXLIFT
 62
13
 10
-47.629
 20
-6950.337
 30
1129.137
 70
    32
  0
VERTEX
  8
W41LXLIFT
 62
13
 10
-47.080
 20
-6952.530
 30
1129.144
 70
    32
  0
VERTEX
  8
W41LXLIFT
 62
13
 10
-46.433
 20
-6965.268
 30
1129.194
 70
    32
  0
VERTEX
  8
W41LXLIFT
 62
13
 10
-42.156
 20
-6974.105
 30
1129.207
 70
    32
  0
VERTEX
  8
W41LXLIFT
 62
13
 10
-36.564
 20
-6980.963
 30
1129.204
 70
    32
  0
VERTEX
  8
W41LXLIFT
 62
13
 10
-28.962
 20
-6982.040
 30
1129.165
 70
    32
  0
VERTEX
  8
W41LXLIFT
 62
13
 10
-20.503
 20
-6996.779
 30
1129.179
 70
    32
  0
VERTEX
  8
W41LXLIFT
 62
13
 10
-13.357
 20
-6993.777
 30
1129.125
 70
    32
  0
VERTEX
  8
W41LXLIFT
 62
13
 10
-8.359
 20
-7001.795
 30
1129.130
 70
    32
  0
VERTEX
  8
W41LXLIFT
 62
13
 10
-0.231
 20
-7002.080
 30
1129.084
 70
    32
  0
VERTEX
  8
W41LXLIFT
 62
13
 10
13.324
 20
-7011.159
 30
1129.044
 70
    32
  0
VERTEX
  8
W41LXLIFT
 62
13
 10
13.808
 20
-7032.046
 30
1129.131
 70
    32
  0
VERTEX
  8
W41LXLIFT
 62
13
 10
12.269
 20
-7047.364
 30
1129.205
 70
    32
  0
VERTEX
  8
W41LXLIFT
 62
13
 10
17.432
 20
-7053.446
 30
1129.201
 70
    32
  0
VERTEX
  8
W41LXLIFT
 62
13
 10
27.827
 20
-7060.741
 30
1129.172
 70
    32
  0
VERTEX
  8
W41LXLIFT
 62
13
 10
9.173
 20
-7075.331
 30
1129.343
 70
    32
  0
VERTEX
  8
W41LXLIFT
 62
13
 10
-16.611
 20
-7090.771
 30
1129.559
 70
    32
  0
VERTEX
  8
W41LXLIFT
 62
13
 10
-23.115
 20
-7081.970
 30
1129.559
 70
    32
  0
VERTEX
  8
W41LXLIFT
 62
13
 10
-25.884
 20
-7075.628
 30
1129.548
 70
    32
  0
VERTEX
  8
W41LXLIFT
 62
13
 10
-25.620
 20
-7061.726
 30
1129.486
 70
    32
  0
VERTEX
  8
W41LXLIFT
 62
13
 10
-22.502
 20
-7050.249
 30
1129.419
 70
    32
  0
VERTEX
  8
W41LXLIFT
 62
13
 10
-26.084
 20
-7034.501
 30
1129.373
 70
    32
  0
VERTEX
  8
W41LXLIFT
 62
13
 10
-38.462
 20
-7017.965
 30
1129.374
 70
    32
  0
VERTEX
  8
W41LXLIFT
 62
13
 10
-35.734
 20
-7009.651
 30
1129.322
 70
    32
  0
VERTEX
  8
W41LXLIFT
 62
13
 10
-45.203
 20
-6999.038
 30
1129.332
 70
    32
  0
VERTEX
  8
W41LXLIFT
 62
13
 10
-50.796
 20
-6989.072
 30
1129.322
 70
    32
  0
VERTEX
  8
W41LXLIFT
 62
13
 10
-56.330
 20
-6988.819
 30
1129.353
 70
    32
  0
VERTEX
  8
W41LXLIFT
 62
13
 10
-63.990
 20
-6969.026
 30
1129.312
 70
    32
  0
VERTEX
  8
W41LXLIFT
 62
13
 10
-68.481
 20
-6965.159
 30
1129.322
 70
    32
  0
VERTEX
  8
W41LXLIFT
 62
13
 10
-82.195
 20
-6958.334
 30
1129.372
 70
    32
  0
VERTEX
  8
W41LXLIFT
 62
13
 10
-84.558
 20
-6952.891
 30
1129.362
 70
    32
  0
VERTEX
  8
W41LXLIFT
 62
13
 10
-87.032
 20
-6942.165
 30
1129.331
 70
    32
  0
VERTEX
  8
W41LXLIFT
 62
13
 10
-83.839
 20
-6936.853
 30
1129.290
 70
    32
  0
VERTEX
  8
W41LXLIFT
 62
13
 10
-80.255
 20
-6919.374
 30
1129.194
 70
    32
  0
VERTEX
  8
W41LXLIFT
 62
13
 10
-91.901
 20
-6905.762
 30
1129.203
 70
    32
  0
VERTEX
  8
W41LXLIFT
 62
13
 10
-96.396
 20
-6888.071
 30
1129.154
 70
    32
  0
VERTEX
  8
W41LXLIFT
 62
13
 10
-91.946
 20
-6881.784
 30
1129.101
 70
    32
  0
VERTEX
  8
W41LXLIFT
 62
13
 10
-91.925
 20
-6878.554
 30
1129.087
 70
    32
  0
VERTEX
  8
W41LXLIFT
 62
13
 10
-101.495
 20
-6840.466
 30
1128.979
 70
    32
  0
VERTEX
  8
W41LXLIFT
 62
13
 10
-89.628
 20
-6835.919
 30
1128.891
 70
    32
  0
VERTEX
  8
W41LXLIFT
 62
13
 10
-88.681
 20
-6836.980
 30
1128.890
 70
    32
  0
VERTEX
  8
W41LXLIFT
 62
13
 10
-79.469
 20
-6868.028
 30
1128.970
 70
    32
  0
VERTEX
  8
W41LXLIFT
 62
13
 10
-77.429
 20
-6885.269
 30
1129.032
 70
    32
  0
VERTEX
  8
W41LXLIFT
 62
13
 10
-73.277
 20
-6887.869
 30
1129.019
 70
    32
  0
VERTEX
  8
W41LXLIFT
 62
13
 10
-72.828
 20
-6889.917
 30
1129.025
 70
    32
  0
VERTEX
  8
W41LXLIFT
 62
13
 10
-75.692
 20
-6895.860
 30
1129.067
 70
    32
  0
VERTEX
  8
W41LXLIFT
 62
13
 10
-74.912
 20
-6900.252
 30
1129.081
 70
    32
  0
VERTEX
  8
W41LXLIFT
 62
13
 10
-65.394
 20
-6919.941
 30
1129.110
 70
    32
  0
VERTEX
  8
W41LXLIFT
 62
13
 10
-61.662
 20
-6923.796
 30
1129.105
 70
    32
  0
VERTEX
  8
W41LXLIFT
 62
13
 10
-52.412
 20
-6923.842
 30
1129.052
 70
    32
  0
SEQEND
  8
W41LXLIFT
  0
POLYLINE
  8
W41LXLIFT
 62
1
 66
     1
 70
     9
  0
VERTEX
  8
W41LXLIFT
 62
1
 10
-49.813
 20
-6940.066
 30
1139.116
 70
    32
  0
VERTEX
  8
W41LXLIFT
 62
1
 10
-50.242
 20
-6943.792
 30
1139.135
 70
    32
  0
VERTEX
  8
W41LXLIFT
 62
1
 10
-46.629
 20
-6949.337
 30
1139.137
 70
    32
  0
VERTEX
  8
W41LXLIFT
 62
1
 10
-46.080
 20
-6951.530
 30
1139.144
 70
    32
  0
VERTEX
  8
W41LXLIFT
 62
1
 10
-45.433
 20
-6964.268
 30
1139.194
 70
    32
  0
VERTEX
  8
W41LXLIFT
 62
1
 10
-41.156
 20
-6973.105
 30
1139.207
 70
    32
  0
VERTEX
  8
W41LXLIFT
 62
1
 10
-35.564
 20
-6979.963
 30
1139.204
 70
    32
  0
VERTEX
  8
W41LXLIFT
 62
1
 10
-27.962
 20
-6981.040
 30
1139.165
 70
    32
  0
VERTEX
  8
W41LXLIFT
 62
1
 10
-19.503
 20
-6995.779
 30
1139.179
 70
    32
  0
VERTEX
  8
W41LXLIFT
 62
1
 10
-12.357
 20
-6992.777
 30
1139.125
 70
    32
  0
VERTEX
  8
W41LXLIFT
 62
1
 10
-7.359
 20
-7000.795
 30
1139.130
 70
    32
  0
VERTEX
  8
W41LXLIFT
 62
1
 10
0.769
 20
-7001.080
 30
1139.084
 70
    32
  0
VERTEX
  8
W41LXLIFT
 62
1
 10
14.324
 20
-7010.159
 30
1139.044
 70
    32
  0
VERTEX
  8
W41LXLIFT
 62
1
 10
14.808
 20
-7031.046
 30
1139.131
 70
    32
  0
VERTEX
  8
W41LXLIFT
 62
1
 10
13.269
 20
-7046.364
 30
1139.205
 70
    32
  0
VERTEX
  8
W41LXLIFT
 62
1
 10
18.432
 20
-7052.446
 30
1139.201
 70
    32
  0
VERTEX
  8
W41LXLIFT
 62
1
 10
28.827
 20
-7059.741
 30
1139.172
 70
    32
  0
VERTEX
  8
W41LXLIFT
 62
1
 10
10.173
 20
-7074.331
 30
1139.343
 70
    32
  0
VERTEX
  8
W41LXLIFT
 62
1
 10
-15.611
 20
-7089.771
 30
1139.559
 70
    32
  0
VERTEX
  8
W41LXLIFT
 62
1
 10
-22.115
 20
-7080.970
 30
1139.559
 70
    32
  0
VERTEX
  8
W41LXLIFT
 62
1
 10
-24.884
 20
-7074.628
 30
1139.548
 70
    32
  0
VERTEX
  8
W41LXLIFT
 62
1
 10
-24.620
 20
-7060.726
 30
1139.486
 70
    32
  0
VERTEX
  8
W41LXLIFT
 62
1
 10
-21.502
 20
-7049.249
 30
1139.419
 70
    32
  0
VERTEX
  8
W41LXLIFT
 62
1
 10
-25.084
 20
-7033.501
 30
1139.373
 70
    32
  0
VERTEX
  8
W41LXLIFT
 62
1
 10
-37.462
 20
-7016.965
 30
1139.374
 70
    32
  0
VERTEX
  8
W41LXLIFT
 62
1
 10
-34.734
 20
-7008.651
 30
1139.322
 70
    32
  0
VERTEX
  8
W41LXLIFT
 62
1
 10
-44.203
 20
-6998.038
 30
1139.332
 70
    32
  0
VERTEX
  8
W41LXLIFT
 62
1
 10
-49.796
 20
-6988.072
 30
1139.322
 70
    32
  0
VERTEX
  8
W41LXLIFT
 62
1
 10
-55.330
 20
-6987.819
 30
1139.353
 70
    32
  0
VERTEX
  8
W41LXLIFT
 62
1
 10
-62.990
 20
-6968.026
 30
1139.312
 70
    32
  0
VERTEX
  8
W41LXLIFT
 62
1
 10
-67.481
 20
-6964.159
 30
1139.322
 70
    32
  0
VERTEX
  8
W41LXLIFT
 62
1
 10
-81.195
 20
-6957.334
 30
1139.372
 70
    32
  0
VERTEX
  8
W41LXLIFT
 62
1
 10
-83.558
 20
-6951.891
 30
1139.362
 70
    32
  0
VERTEX
  8
W41LXLIFT
 62
1
 10
-86.032
 20
-6941.165
 30
1139.331
 70
    32
  0
VERTEX
  8
W41LXLIFT
 62
1
 10
-82.839
 20
-6935.853
 30
1139.290
 70
    32
  0
VERTEX
  8
W41LXLIFT
 62
1
 10
-79.255
 20
-6918.374
 30
1139.194
 70
    32
  0
VERTEX
  8
W41LXLIFT
 62
1
 10
-90.901
 20
-6904.762
 30
1139.203
 70
    32
  0
VERTEX
  8
W41LXLIFT
 62
1
 10
-95.396
 20
-6887.071
 30
1139.154
 70
    32
  0
VERTEX
  8
W41LXLIFT
 62
1
 10
-90.946
 20
-6880.784
 30
1139.101
 70
    32
  0
VERTEX
  8
W41LXLIFT
 62
1
 10
-90.925
 20
-6877.554
 30
1139.087
 70
    32
  0
VERTEX
  8
W41LXLIFT
 62
1
 10
-100.495
 20
-6839.466
 30
1138.979
 70
    32
  0
VERTEX
  8
W41LXLIFT
 62
1
 10
-88.628
 20
-6834.919
 30
1138.891
 70
    32
  0
VERTEX
  8
W41LXLIFT
 62
1
 10
-87.681
 20
-6835.980
 30
1138.890
 70
    32
  0
VERTEX
  8
W41LXLIFT
 62
1
 10
-78.469
 20
-6867.028
 30
1138.970
 70
    32
  0
VERTEX
  8
W41LXLIFT
 62
1
 10
-76.429
 20
-6884.269
 30
1139.032
 70
    32
  0
VERTEX
  8
W41LXLIFT
 62
1
 10
-72.277
 20
-6886.869
 30
1139.019
 70
    32
  0
VERTEX
  8
W41LXLIFT
 62
1
 10
-71.828
 20
-6888.917
 30
1139.025
 70
    32
  0
VERTEX
  8
W41LXLIFT
 62
1
 10
-74.692
 20
-6894.860
 30
1139.067
 70
    32
  0
VERTEX
  8
W41LXLIFT
 62
1
 10
-73.912
 20
-6899.252
 30
1139.081
 70
    32
  0
VERTEX
  8
W41LXLIFT
 62
1
 10
-64.394
 20
-6918.941
 30
1139.110
 70
    32
  0
VERTEX
  8
W41LXLIFT
 62
1
 10
-60.662
 20
-6922.796
 30
1139.105
 70
    32
  0
VERTEX
  8
W41LXLIFT
 62
1
 10
-51.412
 20
-6922.842
 30
1139.052
 70
    32
  0
SEQEND
  8
W41LXLIFT
  0
POINT
  8
W41LXLIFT
 62
13
 10
-78.584
 20
-6910.851
 30
1174.226
  0
POINT
  8
W41LXLIFT
 62
13
 10
-154.880
 20
-6906.735
 30
1235.000
  0
LINE
  8
W41LXLIFT
 62
13
 10
-154.880
 20
-6906.735
 30
1235.000
 11
-78.584
 21
-6910.851
 31
1174.226
  0
POINT
  8
W41LXLIFT
 62
1
 10
-7.737
 20
-7026.161
 30
1129.179
  0
LINE
  8
W41LXLIFT
 62
13
 10
-7.737
 20
-7026.161
 30
1129.179
 11
67.564
 21
-6997.669
 31
1018.000
  0
POINT
  8
W41LXLIFT
 62
13
 10
67.564
 20
-6997.669
 30
1018.000
  0
ENDSEC
  0
EOF
