999
********************************
999
*   DXF File - Entities Only   *
999
*        3D Data Format        *
999
*     Output from ENVISAGE     *
999
*     31-Dec-2007 15:39:49     *
999
********************************
  0
SECTION 
  2
HEADER
  9
$ACADVER
  1
AC1009
  9
$EXTMIN
 10
-290000.000
 20
-250000.000
 30
-4000.000
  9
$EXTMAX
 10
320000.000
 20
160000.000
 30
6000.000
  0
ENDSEC
  0
SECTION
  2
ENTITIES
  0
POLYLINE
  8
W42LXLIFT
 62
1
 66
     1
 70
     9
  0
VERTEX
  8
W42LXLIFT
 62
1
 10
70.315
 20
-6877.040
 30
1018.000
 70
    32
  0
VERTEX
  8
W42LXLIFT
 62
1
 10
65.622
 20
-6890.482
 30
1018.000
 70
    32
  0
VERTEX
  8
W42LXLIFT
 62
1
 10
58.176
 20
-6900.491
 30
1018.000
 70
    32
  0
VERTEX
  8
W42LXLIFT
 62
1
 10
57.118
 20
-6901.886
 30
1018.000
 70
    32
  0
VERTEX
  8
W42LXLIFT
 62
1
 10
56.092
 20
-6910.472
 30
1018.000
 70
    32
  0
VERTEX
  8
W42LXLIFT
 62
1
 10
65.297
 20
-6922.256
 30
1018.000
 70
    32
  0
VERTEX
  8
W42LXLIFT
 62
1
 10
71.168
 20
-6932.524
 30
1018.000
 70
    32
  0
VERTEX
  8
W42LXLIFT
 62
1
 10
66.031
 20
-6942.298
 30
1018.000
 70
    32
  0
VERTEX
  8
W42LXLIFT
 62
1
 10
62.044
 20
-6935.755
 30
1018.000
 70
    32
  0
VERTEX
  8
W42LXLIFT
 62
1
 10
45.810
 20
-6939.283
 30
1018.000
 70
    32
  0
VERTEX
  8
W42LXLIFT
 62
1
 10
45.878
 20
-6942.572
 30
1018.000
 70
    32
  0
VERTEX
  8
W42LXLIFT
 62
1
 10
48.969
 20
-6945.873
 30
1018.000
 70
    32
  0
VERTEX
  8
W42LXLIFT
 62
1
 10
52.540
 20
-6971.443
 30
1018.000
 70
    32
  0
VERTEX
  8
W42LXLIFT
 62
1
 10
50.234
 20
-6988.255
 30
1018.000
 70
    32
  0
VERTEX
  8
W42LXLIFT
 62
1
 10
63.091
 20
-7003.374
 30
1018.000
 70
    32
  0
VERTEX
  8
W42LXLIFT
 62
1
 10
70.566
 20
-7018.643
 30
1018.000
 70
    32
  0
VERTEX
  8
W42LXLIFT
 62
1
 10
82.153
 20
-7037.137
 30
1018.000
 70
    32
  0
VERTEX
  8
W42LXLIFT
 62
1
 10
87.982
 20
-7035.486
 30
1018.000
 70
    32
  0
VERTEX
  8
W42LXLIFT
 62
1
 10
92.974
 20
-7030.982
 30
1018.000
 70
    32
  0
VERTEX
  8
W42LXLIFT
 62
1
 10
96.936
 20
-7028.823
 30
1018.000
 70
    32
  0
VERTEX
  8
W42LXLIFT
 62
1
 10
87.224
 20
-7013.738
 30
1018.000
 70
    32
  0
VERTEX
  8
W42LXLIFT
 62
1
 10
76.756
 20
-6998.650
 30
1018.000
 70
    32
  0
VERTEX
  8
W42LXLIFT
 62
1
 10
71.384
 20
-6986.198
 30
1018.000
 70
    32
  0
VERTEX
  8
W42LXLIFT
 62
1
 10
75.941
 20
-6980.926
 30
1018.000
 70
    32
  0
VERTEX
  8
W42LXLIFT
 62
1
 10
76.485
 20
-6977.742
 30
1018.000
 70
    32
  0
VERTEX
  8
W42LXLIFT
 62
1
 10
74.093
 20
-6973.299
 30
1018.000
 70
    32
  0
VERTEX
  8
W42LXLIFT
 62
1
 10
79.513
 20
-6954.498
 30
1018.000
 70
    32
  0
VERTEX
  8
W42LXLIFT
 62
1
 10
83.613
 20
-6933.832
 30
1018.000
 70
    32
  0
VERTEX
  8
W42LXLIFT
 62
1
 10
87.434
 20
-6931.019
 30
1018.000
 70
    32
  0
VERTEX
  8
W42LXLIFT
 62
1
 10
81.930
 20
-6906.064
 30
1018.000
 70
    32
  0
VERTEX
  8
W42LXLIFT
 62
1
 10
80.340
 20
-6883.291
 30
1018.000
 70
    32
  0
SEQEND
  8
W42LXLIFT
  0
POLYLINE
  8
W42LXLIFT
 62
3
 66
     1
 70
     9
  0
VERTEX
  8
W42LXLIFT
 62
3
 10
140.794
 20
-6830.445
 30
1029.000
 70
    32
  0
VERTEX
  8
W42LXLIFT
 62
3
 10
128.720
 20
-6823.276
 30
1029.000
 70
    32
  0
VERTEX
  8
W42LXLIFT
 62
3
 10
125.005
 20
-6817.724
 30
1029.000
 70
    32
  0
VERTEX
  8
W42LXLIFT
 62
3
 10
114.969
 20
-6811.912
 30
1029.000
 70
    32
  0
VERTEX
  8
W42LXLIFT
 62
3
 10
99.915
 20
-6784.569
 30
1029.000
 70
    32
  0
VERTEX
  8
W42LXLIFT
 62
3
 10
94.903
 20
-6778.859
 30
1029.000
 70
    32
  0
VERTEX
  8
W42LXLIFT
 62
3
 10
92.205
 20
-6764.406
 30
1029.000
 70
    32
  0
VERTEX
  8
W42LXLIFT
 62
3
 10
100.747
 20
-6761.265
 30
1029.000
 70
    32
  0
VERTEX
  8
W42LXLIFT
 62
3
 10
124.255
 20
-6774.548
 30
1029.000
 70
    32
  0
VERTEX
  8
W42LXLIFT
 62
3
 10
122.249
 20
-6780.382
 30
1029.000
 70
    32
  0
VERTEX
  8
W42LXLIFT
 62
3
 10
130.335
 20
-6800.925
 30
1029.000
 70
    32
  0
VERTEX
  8
W42LXLIFT
 62
3
 10
135.501
 20
-6808.678
 30
1029.000
 70
    32
  0
VERTEX
  8
W42LXLIFT
 62
3
 10
136.406
 20
-6812.236
 30
1029.000
 70
    32
  0
VERTEX
  8
W42LXLIFT
 62
3
 10
143.034
 20
-6817.339
 30
1029.000
 70
    32
  0
VERTEX
  8
W42LXLIFT
 62
3
 10
160.886
 20
-6820.202
 30
1029.000
 70
    32
  0
SEQEND
  8
W42LXLIFT
  0
POLYLINE
  8
W42LXLIFT
 62
1
 66
     1
 70
     9
  0
VERTEX
  8
W42LXLIFT
 62
1
 10
141.794
 20
-6829.445
 30
1041.000
 70
    32
  0
VERTEX
  8
W42LXLIFT
 62
1
 10
129.720
 20
-6822.276
 30
1041.000
 70
    32
  0
VERTEX
  8
W42LXLIFT
 62
1
 10
126.005
 20
-6816.724
 30
1041.000
 70
    32
  0
VERTEX
  8
W42LXLIFT
 62
1
 10
115.969
 20
-6810.912
 30
1041.000
 70
    32
  0
VERTEX
  8
W42LXLIFT
 62
1
 10
100.915
 20
-6783.569
 30
1041.000
 70
    32
  0
VERTEX
  8
W42LXLIFT
 62
1
 10
95.903
 20
-6777.859
 30
1041.000
 70
    32
  0
VERTEX
  8
W42LXLIFT
 62
1
 10
93.205
 20
-6763.406
 30
1041.000
 70
    32
  0
VERTEX
  8
W42LXLIFT
 62
1
 10
101.747
 20
-6760.265
 30
1041.000
 70
    32
  0
VERTEX
  8
W42LXLIFT
 62
1
 10
125.255
 20
-6773.548
 30
1041.000
 70
    32
  0
VERTEX
  8
W42LXLIFT
 62
1
 10
123.249
 20
-6779.382
 30
1041.000
 70
    32
  0
VERTEX
  8
W42LXLIFT
 62
1
 10
131.335
 20
-6799.925
 30
1041.000
 70
    32
  0
VERTEX
  8
W42LXLIFT
 62
1
 10
136.501
 20
-6807.678
 30
1041.000
 70
    32
  0
VERTEX
  8
W42LXLIFT
 62
1
 10
137.406
 20
-6811.236
 30
1041.000
 70
    32
  0
VERTEX
  8
W42LXLIFT
 62
1
 10
144.034
 20
-6816.339
 30
1041.000
 70
    32
  0
VERTEX
  8
W42LXLIFT
 62
1
 10
161.886
 20
-6819.202
 30
1041.000
 70
    32
  0
SEQEND
  8
W42LXLIFT
  0
POLYLINE
  8
W42LXLIFT
 62
13
 66
     1
 70
     9
  0
VERTEX
  8
W42LXLIFT
 62
13
 10
53.609
 20
-6948.909
 30
1053.000
 70
    32
  0
VERTEX
  8
W42LXLIFT
 62
13
 10
53.157
 20
-6966.669
 30
1053.000
 70
    32
  0
VERTEX
  8
W42LXLIFT
 62
13
 10
49.269
 20
-6975.773
 30
1053.000
 70
    32
  0
VERTEX
  8
W42LXLIFT
 62
13
 10
47.802
 20
-6994.683
 30
1053.000
 70
    32
  0
VERTEX
  8
W42LXLIFT
 62
13
 10
53.936
 20
-7017.791
 30
1053.000
 70
    32
  0
VERTEX
  8
W42LXLIFT
 62
13
 10
58.827
 20
-7030.476
 30
1053.000
 70
    32
  0
VERTEX
  8
W42LXLIFT
 62
13
 10
71.138
 20
-7046.951
 30
1053.000
 70
    32
  0
VERTEX
  8
W42LXLIFT
 62
13
 10
53.962
 20
-7053.406
 30
1053.000
 70
    32
  0
VERTEX
  8
W42LXLIFT
 62
13
 10
37.169
 20
-7026.648
 30
1053.000
 70
    32
  0
VERTEX
  8
W42LXLIFT
 62
13
 10
29.544
 20
-7018.160
 30
1053.000
 70
    32
  0
VERTEX
  8
W42LXLIFT
 62
13
 10
20.837
 20
-7014.529
 30
1053.000
 70
    32
  0
VERTEX
  8
W42LXLIFT
 62
13
 10
18.911
 20
-6996.299
 30
1053.000
 70
    32
  0
VERTEX
  8
W42LXLIFT
 62
13
 10
27.669
 20
-6985.254
 30
1053.000
 70
    32
  0
VERTEX
  8
W42LXLIFT
 62
13
 10
27.514
 20
-6968.462
 30
1053.000
 70
    32
  0
VERTEX
  8
W42LXLIFT
 62
13
 10
22.547
 20
-6944.419
 30
1053.000
 70
    32
  0
VERTEX
  8
W42LXLIFT
 62
13
 10
22.049
 20
-6941.434
 30
1053.000
 70
    32
  0
VERTEX
  8
W42LXLIFT
 62
13
 10
23.812
 20
-6937.387
 30
1053.000
 70
    32
  0
VERTEX
  8
W42LXLIFT
 62
13
 10
21.229
 20
-6934.802
 30
1053.000
 70
    32
  0
VERTEX
  8
W42LXLIFT
 62
13
 10
19.259
 20
-6924.570
 30
1053.000
 70
    32
  0
VERTEX
  8
W42LXLIFT
 62
13
 10
33.420
 20
-6921.003
 30
1053.000
 70
    32
  0
VERTEX
  8
W42LXLIFT
 62
13
 10
39.848
 20
-6937.229
 30
1053.000
 70
    32
  0
VERTEX
  8
W42LXLIFT
 62
13
 10
49.742
 20
-6937.974
 30
1053.000
 70
    32
  0
SEQEND
  8
W42LXLIFT
  0
POLYLINE
  8
W42LXLIFT
 62
4
 66
     1
 70
     9
  0
VERTEX
  8
W42LXLIFT
 62
4
 10
338.401
 20
-7078.516
 30
1086.000
 70
    32
  0
VERTEX
  8
W42LXLIFT
 62
4
 10
364.366
 20
-7082.955
 30
1086.000
 70
    32
  0
VERTEX
  8
W42LXLIFT
 62
4
 10
372.124
 20
-7096.193
 30
1086.000
 70
    32
  0
VERTEX
  8
W42LXLIFT
 62
4
 10
384.193
 20
-7111.870
 30
1086.000
 70
    32
  0
VERTEX
  8
W42LXLIFT
 62
4
 10
398.477
 20
-7137.821
 30
1086.000
 70
    32
  0
VERTEX
  8
W42LXLIFT
 62
4
 10
405.252
 20
-7151.648
 30
1086.000
 70
    32
  0
VERTEX
  8
W42LXLIFT
 62
4
 10
402.013
 20
-7169.120
 30
1086.000
 70
    32
  0
VERTEX
  8
W42LXLIFT
 62
4
 10
408.452
 20
-7183.078
 30
1086.000
 70
    32
  0
VERTEX
  8
W42LXLIFT
 62
4
 10
417.249
 20
-7184.708
 30
1086.000
 70
    32
  0
VERTEX
  8
W42LXLIFT
 62
4
 10
445.559
 20
-7175.429
 30
1086.000
 70
    32
  0
VERTEX
  8
W42LXLIFT
 62
4
 10
450.980
 20
-7163.624
 30
1086.000
 70
    32
  0
VERTEX
  8
W42LXLIFT
 62
4
 10
441.738
 20
-7146.161
 30
1086.000
 70
    32
  0
VERTEX
  8
W42LXLIFT
 62
4
 10
423.776
 20
-7137.671
 30
1086.000
 70
    32
  0
VERTEX
  8
W42LXLIFT
 62
4
 10
413.231
 20
-7121.561
 30
1086.000
 70
    32
  0
VERTEX
  8
W42LXLIFT
 62
4
 10
405.895
 20
-7105.117
 30
1086.000
 70
    32
  0
VERTEX
  8
W42LXLIFT
 62
4
 10
402.667
 20
-7095.237
 30
1086.000
 70
    32
  0
VERTEX
  8
W42LXLIFT
 62
4
 10
388.056
 20
-7064.566
 30
1086.000
 70
    32
  0
VERTEX
  8
W42LXLIFT
 62
4
 10
382.779
 20
-7053.769
 30
1086.000
 70
    32
  0
VERTEX
  8
W42LXLIFT
 62
4
 10
373.094
 20
-7042.218
 30
1086.000
 70
    32
  0
VERTEX
  8
W42LXLIFT
 62
4
 10
361.540
 20
-7035.327
 30
1086.000
 70
    32
  0
VERTEX
  8
W42LXLIFT
 62
4
 10
350.930
 20
-7044.669
 30
1086.000
 70
    32
  0
VERTEX
  8
W42LXLIFT
 62
4
 10
356.634
 20
-7055.918
 30
1086.000
 70
    32
  0
VERTEX
  8
W42LXLIFT
 62
4
 10
338.869
 20
-7066.558
 30
1086.000
 70
    32
  0
SEQEND
  8
W42LXLIFT
  0
POLYLINE
  8
W42LXLIFT
 62
1
 66
     1
 70
     9
  0
VERTEX
  8
W42LXLIFT
 62
1
 10
339.401
 20
-7077.516
 30
1098.000
 70
    32
  0
VERTEX
  8
W42LXLIFT
 62
1
 10
365.366
 20
-7081.955
 30
1098.000
 70
    32
  0
VERTEX
  8
W42LXLIFT
 62
1
 10
373.124
 20
-7095.193
 30
1098.000
 70
    32
  0
VERTEX
  8
W42LXLIFT
 62
1
 10
385.193
 20
-7110.870
 30
1098.000
 70
    32
  0
VERTEX
  8
W42LXLIFT
 62
1
 10
399.477
 20
-7136.821
 30
1098.000
 70
    32
  0
VERTEX
  8
W42LXLIFT
 62
1
 10
406.252
 20
-7150.648
 30
1098.000
 70
    32
  0
VERTEX
  8
W42LXLIFT
 62
1
 10
403.013
 20
-7168.120
 30
1098.000
 70
    32
  0
VERTEX
  8
W42LXLIFT
 62
1
 10
409.452
 20
-7182.078
 30
1098.000
 70
    32
  0
VERTEX
  8
W42LXLIFT
 62
1
 10
418.249
 20
-7183.708
 30
1098.000
 70
    32
  0
VERTEX
  8
W42LXLIFT
 62
1
 10
446.559
 20
-7174.429
 30
1098.000
 70
    32
  0
VERTEX
  8
W42LXLIFT
 62
1
 10
451.980
 20
-7162.624
 30
1098.000
 70
    32
  0
VERTEX
  8
W42LXLIFT
 62
1
 10
442.738
 20
-7145.161
 30
1098.000
 70
    32
  0
VERTEX
  8
W42LXLIFT
 62
1
 10
424.776
 20
-7136.671
 30
1098.000
 70
    32
  0
VERTEX
  8
W42LXLIFT
 62
1
 10
414.231
 20
-7120.561
 30
1098.000
 70
    32
  0
VERTEX
  8
W42LXLIFT
 62
1
 10
406.895
 20
-7104.117
 30
1098.000
 70
    32
  0
VERTEX
  8
W42LXLIFT
 62
1
 10
403.667
 20
-7094.237
 30
1098.000
 70
    32
  0
VERTEX
  8
W42LXLIFT
 62
1
 10
389.056
 20
-7063.566
 30
1098.000
 70
    32
  0
VERTEX
  8
W42LXLIFT
 62
1
 10
383.779
 20
-7052.769
 30
1098.000
 70
    32
  0
VERTEX
  8
W42LXLIFT
 62
1
 10
374.094
 20
-7041.218
 30
1098.000
 70
    32
  0
VERTEX
  8
W42LXLIFT
 62
1
 10
362.540
 20
-7034.327
 30
1098.000
 70
    32
  0
VERTEX
  8
W42LXLIFT
 62
1
 10
351.930
 20
-7043.669
 30
1098.000
 70
    32
  0
VERTEX
  8
W42LXLIFT
 62
1
 10
357.634
 20
-7054.918
 30
1098.000
 70
    32
  0
VERTEX
  8
W42LXLIFT
 62
1
 10
339.869
 20
-7065.558
 30
1098.000
 70
    32
  0
SEQEND
  8
W42LXLIFT
  0
POLYLINE
  8
W42LXLIFT
 62
13
 66
     1
 70
     9
  0
VERTEX
  8
W42LXLIFT
 62
13
 10
57.939
 20
-7062.217
 30
1082.000
 70
    32
  0
VERTEX
  8
W42LXLIFT
 62
13
 10
49.268
 20
-7059.852
 30
1082.000
 70
    32
  0
VERTEX
  8
W42LXLIFT
 62
13
 10
45.763
 20
-7060.073
 30
1082.000
 70
    32
  0
VERTEX
  8
W42LXLIFT
 62
13
 10
41.456
 20
-7056.878
 30
1082.000
 70
    32
  0
VERTEX
  8
W42LXLIFT
 62
13
 10
36.739
 20
-7026.953
 30
1082.000
 70
    32
  0
VERTEX
  8
W42LXLIFT
 62
13
 10
23.364
 20
-6983.888
 30
1082.000
 70
    32
  0
VERTEX
  8
W42LXLIFT
 62
13
 10
4.389
 20
-6980.959
 30
1082.000
 70
    32
  0
VERTEX
  8
W42LXLIFT
 62
13
 10
-2.806
 20
-6989.499
 30
1082.000
 70
    32
  0
VERTEX
  8
W42LXLIFT
 62
13
 10
4.140
 20
-7004.174
 30
1082.000
 70
    32
  0
VERTEX
  8
W42LXLIFT
 62
13
 10
6.443
 20
-7020.199
 30
1082.000
 70
    32
  0
VERTEX
  8
W42LXLIFT
 62
13
 10
15.323
 20
-7041.255
 30
1082.000
 70
    32
  0
VERTEX
  8
W42LXLIFT
 62
13
 10
20.866
 20
-7051.972
 30
1082.000
 70
    32
  0
VERTEX
  8
W42LXLIFT
 62
13
 10
13.470
 20
-7059.469
 30
1082.000
 70
    32
  0
VERTEX
  8
W42LXLIFT
 62
13
 10
13.263
 20
-7065.106
 30
1082.000
 70
    32
  0
VERTEX
  8
W42LXLIFT
 62
13
 10
21.996
 20
-7074.855
 30
1082.000
 70
    32
  0
VERTEX
  8
W42LXLIFT
 62
13
 10
39.383
 20
-7071.588
 30
1082.000
 70
    32
  0
VERTEX
  8
W42LXLIFT
 62
13
 10
50.576
 20
-7074.320
 30
1082.000
 70
    32
  0
VERTEX
  8
W42LXLIFT
 62
13
 10
54.782
 20
-7077.371
 30
1082.000
 70
    32
  0
SEQEND
  8
W42LXLIFT
  0
POLYLINE
  8
W42LXLIFT
 62
2
 66
     1
 70
     9
  0
VERTEX
  8
W42LXLIFT
 62
2
 10
713.572
 20
-7569.292
 30
1000.000
 70
    32
  0
VERTEX
  8
W42LXLIFT
 62
2
 10
713.762
 20
-7567.746
 30
1000.000
 70
    32
  0
VERTEX
  8
W42LXLIFT
 62
2
 10
705.608
 20
-7548.551
 30
1000.000
 70
    32
  0
VERTEX
  8
W42LXLIFT
 62
2
 10
694.298
 20
-7528.588
 30
1000.000
 70
    32
  0
VERTEX
  8
W42LXLIFT
 62
2
 10
701.285
 20
-7519.445
 30
1000.000
 70
    32
  0
VERTEX
  8
W42LXLIFT
 62
2
 10
709.431
 20
-7518.255
 30
1000.000
 70
    32
  0
VERTEX
  8
W42LXLIFT
 62
2
 10
727.038
 20
-7549.094
 30
1000.000
 70
    32
  0
VERTEX
  8
W42LXLIFT
 62
2
 10
735.053
 20
-7551.794
 30
1000.000
 70
    32
  0
VERTEX
  8
W42LXLIFT
 62
2
 10
739.925
 20
-7558.271
 30
1000.000
 70
    32
  0
VERTEX
  8
W42LXLIFT
 62
2
 10
747.284
 20
-7561.117
 30
1000.000
 70
    32
  0
VERTEX
  8
W42LXLIFT
 62
2
 10
751.623
 20
-7574.701
 30
1000.000
 70
    32
  0
VERTEX
  8
W42LXLIFT
 62
2
 10
753.686
 20
-7586.776
 30
1000.000
 70
    32
  0
VERTEX
  8
W42LXLIFT
 62
2
 10
759.732
 20
-7603.038
 30
1000.000
 70
    32
  0
VERTEX
  8
W42LXLIFT
 62
2
 10
763.486
 20
-7622.901
 30
1000.000
 70
    32
  0
VERTEX
  8
W42LXLIFT
 62
2
 10
755.127
 20
-7628.474
 30
1000.000
 70
    32
  0
VERTEX
  8
W42LXLIFT
 62
2
 10
752.420
 20
-7634.215
 30
1000.000
 70
    32
  0
VERTEX
  8
W42LXLIFT
 62
2
 10
740.671
 20
-7635.826
 30
1000.000
 70
    32
  0
VERTEX
  8
W42LXLIFT
 62
2
 10
742.904
 20
-7622.182
 30
1000.000
 70
    32
  0
VERTEX
  8
W42LXLIFT
 62
2
 10
739.371
 20
-7611.380
 30
1000.000
 70
    32
  0
VERTEX
  8
W42LXLIFT
 62
2
 10
726.926
 20
-7588.328
 30
1000.000
 70
    32
  0
VERTEX
  8
W42LXLIFT
 62
2
 10
717.104
 20
-7580.094
 30
1000.000
 70
    32
  0
SEQEND
  8
W42LXLIFT
  0
POLYLINE
  8
W42LXLIFT
 62
1
 66
     1
 70
     9
  0
VERTEX
  8
W42LXLIFT
 62
1
 10
714.572
 20
-7568.292
 30
1009.000
 70
    32
  0
VERTEX
  8
W42LXLIFT
 62
1
 10
714.762
 20
-7566.746
 30
1009.000
 70
    32
  0
VERTEX
  8
W42LXLIFT
 62
1
 10
706.608
 20
-7547.551
 30
1009.000
 70
    32
  0
VERTEX
  8
W42LXLIFT
 62
1
 10
695.298
 20
-7527.588
 30
1009.000
 70
    32
  0
VERTEX
  8
W42LXLIFT
 62
1
 10
702.285
 20
-7518.445
 30
1009.000
 70
    32
  0
VERTEX
  8
W42LXLIFT
 62
1
 10
710.431
 20
-7517.255
 30
1009.000
 70
    32
  0
VERTEX
  8
W42LXLIFT
 62
1
 10
728.038
 20
-7548.094
 30
1009.000
 70
    32
  0
VERTEX
  8
W42LXLIFT
 62
1
 10
736.053
 20
-7550.794
 30
1009.000
 70
    32
  0
VERTEX
  8
W42LXLIFT
 62
1
 10
740.925
 20
-7557.271
 30
1009.000
 70
    32
  0
VERTEX
  8
W42LXLIFT
 62
1
 10
748.284
 20
-7560.117
 30
1009.000
 70
    32
  0
VERTEX
  8
W42LXLIFT
 62
1
 10
752.623
 20
-7573.701
 30
1009.000
 70
    32
  0
VERTEX
  8
W42LXLIFT
 62
1
 10
754.686
 20
-7585.776
 30
1009.000
 70
    32
  0
VERTEX
  8
W42LXLIFT
 62
1
 10
760.732
 20
-7602.038
 30
1009.000
 70
    32
  0
VERTEX
  8
W42LXLIFT
 62
1
 10
764.486
 20
-7621.901
 30
1009.000
 70
    32
  0
VERTEX
  8
W42LXLIFT
 62
1
 10
756.127
 20
-7627.474
 30
1009.000
 70
    32
  0
VERTEX
  8
W42LXLIFT
 62
1
 10
753.420
 20
-7633.215
 30
1009.000
 70
    32
  0
VERTEX
  8
W42LXLIFT
 62
1
 10
741.671
 20
-7634.826
 30
1009.000
 70
    32
  0
VERTEX
  8
W42LXLIFT
 62
1
 10
743.904
 20
-7621.182
 30
1009.000
 70
    32
  0
VERTEX
  8
W42LXLIFT
 62
1
 10
740.371
 20
-7610.380
 30
1009.000
 70
    32
  0
VERTEX
  8
W42LXLIFT
 62
1
 10
727.926
 20
-7587.328
 30
1009.000
 70
    32
  0
VERTEX
  8
W42LXLIFT
 62
1
 10
718.104
 20
-7579.094
 30
1009.000
 70
    32
  0
SEQEND
  8
W42LXLIFT
  0
POLYLINE
  8
W42LXLIFT
 62
4
 66
     1
 70
     9
  0
VERTEX
  8
W42LXLIFT
 62
4
 10
756.883
 20
-7411.872
 30
1005.000
 70
    32
  0
VERTEX
  8
W42LXLIFT
 62
4
 10
770.509
 20
-7410.723
 30
1005.000
 70
    32
  0
VERTEX
  8
W42LXLIFT
 62
4
 10
776.934
 20
-7419.513
 30
1005.000
 70
    32
  0
VERTEX
  8
W42LXLIFT
 62
4
 10
794.748
 20
-7414.868
 30
1005.000
 70
    32
  0
VERTEX
  8
W42LXLIFT
 62
4
 10
799.023
 20
-7412.830
 30
1005.000
 70
    32
  0
VERTEX
  8
W42LXLIFT
 62
4
 10
799.148
 20
-7402.733
 30
1005.000
 70
    32
  0
VERTEX
  8
W42LXLIFT
 62
4
 10
788.216
 20
-7401.913
 30
1005.000
 70
    32
  0
VERTEX
  8
W42LXLIFT
 62
4
 10
782.255
 20
-7401.049
 30
1005.000
 70
    32
  0
VERTEX
  8
W42LXLIFT
 62
4
 10
778.395
 20
-7387.882
 30
1005.000
 70
    32
  0
VERTEX
  8
W42LXLIFT
 62
4
 10
789.456
 20
-7369.682
 30
1005.000
 70
    32
  0
VERTEX
  8
W42LXLIFT
 62
4
 10
781.466
 20
-7365.298
 30
1005.000
 70
    32
  0
VERTEX
  8
W42LXLIFT
 62
4
 10
773.131
 20
-7373.239
 30
1005.000
 70
    32
  0
VERTEX
  8
W42LXLIFT
 62
4
 10
759.903
 20
-7340.706
 30
1005.000
 70
    32
  0
VERTEX
  8
W42LXLIFT
 62
4
 10
757.574
 20
-7335.883
 30
1005.000
 70
    32
  0
VERTEX
  8
W42LXLIFT
 62
4
 10
754.820
 20
-7337.025
 30
1005.000
 70
    32
  0
VERTEX
  8
W42LXLIFT
 62
4
 10
744.727
 20
-7327.979
 30
1005.000
 70
    32
  0
VERTEX
  8
W42LXLIFT
 62
4
 10
738.585
 20
-7318.981
 30
1005.000
 70
    32
  0
VERTEX
  8
W42LXLIFT
 62
4
 10
734.199
 20
-7310.004
 30
1005.000
 70
    32
  0
VERTEX
  8
W42LXLIFT
 62
4
 10
730.927
 20
-7310.438
 30
1005.000
 70
    32
  0
VERTEX
  8
W42LXLIFT
 62
4
 10
726.199
 20
-7306.498
 30
1005.000
 70
    32
  0
VERTEX
  8
W42LXLIFT
 62
4
 10
708.556
 20
-7282.956
 30
1005.000
 70
    32
  0
VERTEX
  8
W42LXLIFT
 62
4
 10
699.018
 20
-7284.490
 30
1005.000
 70
    32
  0
VERTEX
  8
W42LXLIFT
 62
4
 10
694.465
 20
-7291.951
 30
1005.000
 70
    32
  0
VERTEX
  8
W42LXLIFT
 62
4
 10
715.958
 20
-7322.250
 30
1005.000
 70
    32
  0
VERTEX
  8
W42LXLIFT
 62
4
 10
729.223
 20
-7340.398
 30
1005.000
 70
    32
  0
VERTEX
  8
W42LXLIFT
 62
4
 10
739.586
 20
-7351.749
 30
1005.000
 70
    32
  0
VERTEX
  8
W42LXLIFT
 62
4
 10
747.669
 20
-7357.153
 30
1005.000
 70
    32
  0
VERTEX
  8
W42LXLIFT
 62
4
 10
756.009
 20
-7375.856
 30
1005.000
 70
    32
  0
VERTEX
  8
W42LXLIFT
 62
4
 10
763.021
 20
-7386.937
 30
1005.000
 70
    32
  0
VERTEX
  8
W42LXLIFT
 62
4
 10
757.911
 20
-7391.107
 30
1005.000
 70
    32
  0
VERTEX
  8
W42LXLIFT
 62
4
 10
750.761
 20
-7384.151
 30
1005.000
 70
    32
  0
VERTEX
  8
W42LXLIFT
 62
4
 10
742.745
 20
-7390.446
 30
1005.000
 70
    32
  0
VERTEX
  8
W42LXLIFT
 62
4
 10
745.581
 20
-7399.684
 30
1005.000
 70
    32
  0
VERTEX
  8
W42LXLIFT
 62
4
 10
745.855
 20
-7408.838
 30
1005.000
 70
    32
  0
SEQEND
  8
W42LXLIFT
  0
POLYLINE
  8
W42LXLIFT
 62
1
 66
     1
 70
     9
  0
VERTEX
  8
W42LXLIFT
 62
1
 10
757.883
 20
-7410.872
 30
1016.000
 70
    32
  0
VERTEX
  8
W42LXLIFT
 62
1
 10
771.509
 20
-7409.723
 30
1016.000
 70
    32
  0
VERTEX
  8
W42LXLIFT
 62
1
 10
777.934
 20
-7418.513
 30
1016.000
 70
    32
  0
VERTEX
  8
W42LXLIFT
 62
1
 10
795.748
 20
-7413.868
 30
1016.000
 70
    32
  0
VERTEX
  8
W42LXLIFT
 62
1
 10
800.023
 20
-7411.830
 30
1016.000
 70
    32
  0
VERTEX
  8
W42LXLIFT
 62
1
 10
800.148
 20
-7401.733
 30
1016.000
 70
    32
  0
VERTEX
  8
W42LXLIFT
 62
1
 10
789.216
 20
-7400.913
 30
1016.000
 70
    32
  0
VERTEX
  8
W42LXLIFT
 62
1
 10
783.255
 20
-7400.049
 30
1016.000
 70
    32
  0
VERTEX
  8
W42LXLIFT
 62
1
 10
779.395
 20
-7386.882
 30
1016.000
 70
    32
  0
VERTEX
  8
W42LXLIFT
 62
1
 10
790.456
 20
-7368.682
 30
1016.000
 70
    32
  0
VERTEX
  8
W42LXLIFT
 62
1
 10
782.466
 20
-7364.298
 30
1016.000
 70
    32
  0
VERTEX
  8
W42LXLIFT
 62
1
 10
774.131
 20
-7372.239
 30
1016.000
 70
    32
  0
VERTEX
  8
W42LXLIFT
 62
1
 10
760.903
 20
-7339.706
 30
1016.000
 70
    32
  0
VERTEX
  8
W42LXLIFT
 62
1
 10
758.574
 20
-7334.883
 30
1016.000
 70
    32
  0
VERTEX
  8
W42LXLIFT
 62
1
 10
755.820
 20
-7336.025
 30
1016.000
 70
    32
  0
VERTEX
  8
W42LXLIFT
 62
1
 10
745.727
 20
-7326.979
 30
1016.000
 70
    32
  0
VERTEX
  8
W42LXLIFT
 62
1
 10
739.585
 20
-7317.981
 30
1016.000
 70
    32
  0
VERTEX
  8
W42LXLIFT
 62
1
 10
735.199
 20
-7309.004
 30
1016.000
 70
    32
  0
VERTEX
  8
W42LXLIFT
 62
1
 10
731.927
 20
-7309.438
 30
1016.000
 70
    32
  0
VERTEX
  8
W42LXLIFT
 62
1
 10
727.199
 20
-7305.498
 30
1016.000
 70
    32
  0
VERTEX
  8
W42LXLIFT
 62
1
 10
709.556
 20
-7281.956
 30
1016.000
 70
    32
  0
VERTEX
  8
W42LXLIFT
 62
1
 10
700.018
 20
-7283.490
 30
1016.000
 70
    32
  0
VERTEX
  8
W42LXLIFT
 62
1
 10
695.465
 20
-7290.951
 30
1016.000
 70
    32
  0
VERTEX
  8
W42LXLIFT
 62
1
 10
716.958
 20
-7321.250
 30
1016.000
 70
    32
  0
VERTEX
  8
W42LXLIFT
 62
1
 10
730.223
 20
-7339.398
 30
1016.000
 70
    32
  0
VERTEX
  8
W42LXLIFT
 62
1
 10
740.586
 20
-7350.749
 30
1016.000
 70
    32
  0
VERTEX
  8
W42LXLIFT
 62
1
 10
748.669
 20
-7356.153
 30
1016.000
 70
    32
  0
VERTEX
  8
W42LXLIFT
 62
1
 10
757.009
 20
-7374.856
 30
1016.000
 70
    32
  0
VERTEX
  8
W42LXLIFT
 62
1
 10
764.021
 20
-7385.937
 30
1016.000
 70
    32
  0
VERTEX
  8
W42LXLIFT
 62
1
 10
758.911
 20
-7390.107
 30
1016.000
 70
    32
  0
VERTEX
  8
W42LXLIFT
 62
1
 10
751.761
 20
-7383.151
 30
1016.000
 70
    32
  0
VERTEX
  8
W42LXLIFT
 62
1
 10
743.745
 20
-7389.446
 30
1016.000
 70
    32
  0
VERTEX
  8
W42LXLIFT
 62
1
 10
746.581
 20
-7398.684
 30
1016.000
 70
    32
  0
VERTEX
  8
W42LXLIFT
 62
1
 10
746.855
 20
-7407.838
 30
1016.000
 70
    32
  0
SEQEND
  8
W42LXLIFT
  0
POLYLINE
  8
W42LXLIFT
 62
13
 66
     1
 70
     9
  0
VERTEX
  8
W42LXLIFT
 62
13
 10
79.340
 20
-6884.291
 30
1007.000
 70
    32
  0
VERTEX
  8
W42LXLIFT
 62
13
 10
80.930
 20
-6907.064
 30
1007.000
 70
    32
  0
VERTEX
  8
W42LXLIFT
 62
13
 10
86.434
 20
-6932.019
 30
1007.000
 70
    32
  0
VERTEX
  8
W42LXLIFT
 62
13
 10
82.613
 20
-6934.832
 30
1007.000
 70
    32
  0
VERTEX
  8
W42LXLIFT
 62
13
 10
78.513
 20
-6955.498
 30
1007.000
 70
    32
  0
VERTEX
  8
W42LXLIFT
 62
13
 10
73.093
 20
-6974.299
 30
1007.000
 70
    32
  0
VERTEX
  8
W42LXLIFT
 62
13
 10
75.485
 20
-6978.742
 30
1007.000
 70
    32
  0
VERTEX
  8
W42LXLIFT
 62
13
 10
74.941
 20
-6981.926
 30
1007.000
 70
    32
  0
VERTEX
  8
W42LXLIFT
 62
13
 10
70.384
 20
-6987.198
 30
1007.000
 70
    32
  0
VERTEX
  8
W42LXLIFT
 62
13
 10
75.756
 20
-6999.650
 30
1007.000
 70
    32
  0
VERTEX
  8
W42LXLIFT
 62
13
 10
86.224
 20
-7014.738
 30
1007.000
 70
    32
  0
VERTEX
  8
W42LXLIFT
 62
13
 10
95.936
 20
-7029.823
 30
1007.000
 70
    32
  0
VERTEX
  8
W42LXLIFT
 62
13
 10
91.974
 20
-7031.982
 30
1007.000
 70
    32
  0
VERTEX
  8
W42LXLIFT
 62
13
 10
86.982
 20
-7036.486
 30
1007.000
 70
    32
  0
VERTEX
  8
W42LXLIFT
 62
13
 10
81.153
 20
-7038.137
 30
1007.000
 70
    32
  0
VERTEX
  8
W42LXLIFT
 62
13
 10
69.566
 20
-7019.643
 30
1007.000
 70
    32
  0
VERTEX
  8
W42LXLIFT
 62
13
 10
62.091
 20
-7004.374
 30
1007.000
 70
    32
  0
VERTEX
  8
W42LXLIFT
 62
13
 10
49.234
 20
-6989.255
 30
1007.000
 70
    32
  0
VERTEX
  8
W42LXLIFT
 62
13
 10
51.540
 20
-6972.443
 30
1007.000
 70
    32
  0
VERTEX
  8
W42LXLIFT
 62
13
 10
47.969
 20
-6946.873
 30
1007.000
 70
    32
  0
VERTEX
  8
W42LXLIFT
 62
13
 10
44.878
 20
-6943.572
 30
1007.000
 70
    32
  0
VERTEX
  8
W42LXLIFT
 62
13
 10
44.810
 20
-6940.283
 30
1007.000
 70
    32
  0
VERTEX
  8
W42LXLIFT
 62
13
 10
61.044
 20
-6936.755
 30
1007.000
 70
    32
  0
VERTEX
  8
W42LXLIFT
 62
13
 10
65.031
 20
-6943.298
 30
1007.000
 70
    32
  0
VERTEX
  8
W42LXLIFT
 62
13
 10
70.168
 20
-6933.524
 30
1007.000
 70
    32
  0
VERTEX
  8
W42LXLIFT
 62
13
 10
64.297
 20
-6923.256
 30
1007.000
 70
    32
  0
VERTEX
  8
W42LXLIFT
 62
13
 10
55.092
 20
-6911.472
 30
1007.000
 70
    32
  0
VERTEX
  8
W42LXLIFT
 62
13
 10
56.118
 20
-6902.886
 30
1007.000
 70
    32
  0
VERTEX
  8
W42LXLIFT
 62
13
 10
57.176
 20
-6901.491
 30
1007.000
 70
    32
  0
VERTEX
  8
W42LXLIFT
 62
13
 10
64.622
 20
-6891.482
 30
1007.000
 70
    32
  0
VERTEX
  8
W42LXLIFT
 62
13
 10
69.315
 20
-6878.040
 30
1007.000
 70
    32
  0
SEQEND
  8
W42LXLIFT
  0
POINT
  8
W42LXLIFT
 62
4
 10
393.813
 20
-7111.229
 30
1088.172
  0
POINT
  8
W42LXLIFT
 62
4
 10
425.794
 20
-7080.897
 30
958.741
  0
LINE
  8
W42LXLIFT
 62
4
 10
393.813
 20
-7111.229
 30
1088.172
 11
425.794
 21
-7080.897
 31
958.741
  0
POINT
  8
W42LXLIFT
 62
13
 10
67.564
 20
-6997.669
 30
1018.000
  0
LINE
  8
W42LXLIFT
 62
2
 10
734.375
 20
-7571.279
 30
1000.000
 11
746.068
 21
-7504.512
 31
886.000
  0
POINT
  8
W42LXLIFT
 62
2
 10
746.068
 20
-7504.512
 30
886.000
  0
POINT
  8
W42LXLIFT
 62
2
 10
734.375
 20
-7571.279
 30
1000.000
  0
POINT
  8
W42LXLIFT
 62
1
 10
769.590
 20
-7298.857
 30
910.000
  0
POINT
  8
W42LXLIFT
 62
1
 10
742.385
 20
-7338.209
 30
1005.000
  0
LINE
  8
W42LXLIFT
 62
4
 10
769.590
 20
-7298.857
 30
910.000
 11
742.385
 21
-7338.209
 31
1005.000
  0
POINT
  8
W42LXLIFT
 62
1
 10
-7.737
 20
-7026.161
 30
1129.179
  0
LINE
  8
W42LXLIFT
 62
13
 10
-7.737
 20
-7026.161
 30
1129.179
 11
67.564
 21
-6997.669
 31
1018.000
  0
ENDSEC
  0
EOF
