999
********************************
999
*   DXF File - Entities Only   *
999
*        3D Data Format        *
999
*     Output from ENVISAGE     *
999
*     31-Dec-2007 15:40:17     *
999
********************************
  0
SECTION 
  2
HEADER
  9
$ACADVER
  1
AC1009
  9
$EXTMIN
 10
-290000.000
 20
-250000.000
 30
-4000.000
  9
$EXTMAX
 10
320000.000
 20
160000.000
 30
6000.000
  0
ENDSEC
  0
SECTION
  2
ENTITIES
  0
POLYLINE
  8
W44LXLIFT
 62
7
 66
     1
 70
     9
  0
VERTEX
  8
W44LXLIFT
 62
7
 10
744.558
 20
-7383.515
 30
844.000
 70
    32
  0
VERTEX
  8
W44LXLIFT
 62
7
 10
755.914
 20
-7379.879
 30
844.000
 70
    32
  0
VERTEX
  8
W44LXLIFT
 62
7
 10
758.973
 20
-7354.811
 30
844.000
 70
    32
  0
VERTEX
  8
W44LXLIFT
 62
7
 10
772.298
 20
-7354.958
 30
844.000
 70
    32
  0
VERTEX
  8
W44LXLIFT
 62
7
 10
772.879
 20
-7382.819
 30
844.000
 70
    32
  0
VERTEX
  8
W44LXLIFT
 62
7
 10
778.126
 20
-7388.896
 30
844.000
 70
    32
  0
VERTEX
  8
W44LXLIFT
 62
7
 10
784.131
 20
-7406.997
 30
844.000
 70
    32
  0
VERTEX
  8
W44LXLIFT
 62
7
 10
780.392
 20
-7414.135
 30
844.000
 70
    32
  0
VERTEX
  8
W44LXLIFT
 62
7
 10
770.578
 20
-7419.910
 30
844.000
 70
    32
  0
VERTEX
  8
W44LXLIFT
 62
7
 10
765.316
 20
-7415.468
 30
844.000
 70
    32
  0
VERTEX
  8
W44LXLIFT
 62
7
 10
758.226
 20
-7420.362
 30
844.000
 70
    32
  0
VERTEX
  8
W44LXLIFT
 62
7
 10
756.256
 20
-7427.850
 30
844.000
 70
    32
  0
VERTEX
  8
W44LXLIFT
 62
7
 10
743.150
 20
-7431.013
 30
844.000
 70
    32
  0
VERTEX
  8
W44LXLIFT
 62
7
 10
740.479
 20
-7416.035
 30
844.000
 70
    32
  0
VERTEX
  8
W44LXLIFT
 62
7
 10
731.203
 20
-7390.541
 30
844.000
 70
    32
  0
SEQEND
  8
W44LXLIFT
  0
POLYLINE
  8
W44LXLIFT
 62
1
 66
     1
 70
     9
  0
VERTEX
  8
W44LXLIFT
 62
1
 10
745.558
 20
-7382.515
 30
856.000
 70
    32
  0
VERTEX
  8
W44LXLIFT
 62
1
 10
756.914
 20
-7378.879
 30
856.000
 70
    32
  0
VERTEX
  8
W44LXLIFT
 62
1
 10
759.973
 20
-7353.811
 30
856.000
 70
    32
  0
VERTEX
  8
W44LXLIFT
 62
1
 10
773.298
 20
-7353.958
 30
856.000
 70
    32
  0
VERTEX
  8
W44LXLIFT
 62
1
 10
773.879
 20
-7381.819
 30
856.000
 70
    32
  0
VERTEX
  8
W44LXLIFT
 62
1
 10
779.126
 20
-7387.896
 30
856.000
 70
    32
  0
VERTEX
  8
W44LXLIFT
 62
1
 10
785.131
 20
-7405.997
 30
856.000
 70
    32
  0
VERTEX
  8
W44LXLIFT
 62
1
 10
781.392
 20
-7413.135
 30
856.000
 70
    32
  0
VERTEX
  8
W44LXLIFT
 62
1
 10
771.578
 20
-7418.910
 30
856.000
 70
    32
  0
VERTEX
  8
W44LXLIFT
 62
1
 10
766.316
 20
-7414.468
 30
856.000
 70
    32
  0
VERTEX
  8
W44LXLIFT
 62
1
 10
759.226
 20
-7419.362
 30
856.000
 70
    32
  0
VERTEX
  8
W44LXLIFT
 62
1
 10
757.256
 20
-7426.850
 30
856.000
 70
    32
  0
VERTEX
  8
W44LXLIFT
 62
1
 10
744.150
 20
-7430.013
 30
856.000
 70
    32
  0
VERTEX
  8
W44LXLIFT
 62
1
 10
741.479
 20
-7415.035
 30
856.000
 70
    32
  0
VERTEX
  8
W44LXLIFT
 62
1
 10
732.203
 20
-7389.541
 30
856.000
 70
    32
  0
SEQEND
  8
W44LXLIFT
  0
POLYLINE
  8
W44LXLIFT
 62
3
 66
     1
 70
     9
  0
VERTEX
  8
W44LXLIFT
 62
3
 10
197.158
 20
-6742.909
 30
850.000
 70
    32
  0
VERTEX
  8
W44LXLIFT
 62
3
 10
208.570
 20
-6761.446
 30
850.000
 70
    32
  0
VERTEX
  8
W44LXLIFT
 62
3
 10
220.338
 20
-6758.380
 30
850.000
 70
    32
  0
VERTEX
  8
W44LXLIFT
 62
3
 10
227.434
 20
-6752.290
 30
850.000
 70
    32
  0
VERTEX
  8
W44LXLIFT
 62
3
 10
225.330
 20
-6745.463
 30
850.000
 70
    32
  0
VERTEX
  8
W44LXLIFT
 62
3
 10
222.844
 20
-6740.212
 30
850.000
 70
    32
  0
VERTEX
  8
W44LXLIFT
 62
3
 10
220.857
 20
-6717.915
 30
850.000
 70
    32
  0
VERTEX
  8
W44LXLIFT
 62
3
 10
217.705
 20
-6709.785
 30
850.000
 70
    32
  0
VERTEX
  8
W44LXLIFT
 62
3
 10
216.122
 20
-6705.184
 30
850.000
 70
    32
  0
VERTEX
  8
W44LXLIFT
 62
3
 10
207.505
 20
-6699.693
 30
850.000
 70
    32
  0
VERTEX
  8
W44LXLIFT
 62
3
 10
200.164
 20
-6691.766
 30
850.000
 70
    32
  0
VERTEX
  8
W44LXLIFT
 62
3
 10
191.161
 20
-6675.068
 30
850.000
 70
    32
  0
VERTEX
  8
W44LXLIFT
 62
3
 10
190.262
 20
-6658.488
 30
850.000
 70
    32
  0
VERTEX
  8
W44LXLIFT
 62
3
 10
185.028
 20
-6636.798
 30
850.000
 70
    32
  0
VERTEX
  8
W44LXLIFT
 62
3
 10
183.600
 20
-6630.459
 30
850.000
 70
    32
  0
VERTEX
  8
W44LXLIFT
 62
3
 10
173.146
 20
-6616.108
 30
850.000
 70
    32
  0
VERTEX
  8
W44LXLIFT
 62
3
 10
157.736
 20
-6587.667
 30
850.000
 70
    32
  0
VERTEX
  8
W44LXLIFT
 62
3
 10
149.481
 20
-6562.087
 30
850.000
 70
    32
  0
VERTEX
  8
W44LXLIFT
 62
3
 10
148.916
 20
-6551.984
 30
850.000
 70
    32
  0
VERTEX
  8
W44LXLIFT
 62
3
 10
138.311
 20
-6547.493
 30
850.000
 70
    32
  0
VERTEX
  8
W44LXLIFT
 62
3
 10
129.092
 20
-6556.198
 30
850.000
 70
    32
  0
VERTEX
  8
W44LXLIFT
 62
3
 10
129.968
 20
-6572.144
 30
850.000
 70
    32
  0
VERTEX
  8
W44LXLIFT
 62
3
 10
135.682
 20
-6588.938
 30
850.000
 70
    32
  0
VERTEX
  8
W44LXLIFT
 62
3
 10
149.662
 20
-6603.673
 30
850.000
 70
    32
  0
VERTEX
  8
W44LXLIFT
 62
3
 10
155.583
 20
-6618.800
 30
850.000
 70
    32
  0
VERTEX
  8
W44LXLIFT
 62
3
 10
154.308
 20
-6633.264
 30
850.000
 70
    32
  0
VERTEX
  8
W44LXLIFT
 62
3
 10
148.380
 20
-6639.921
 30
850.000
 70
    32
  0
VERTEX
  8
W44LXLIFT
 62
3
 10
156.728
 20
-6654.057
 30
850.000
 70
    32
  0
VERTEX
  8
W44LXLIFT
 62
3
 10
161.340
 20
-6671.428
 30
850.000
 70
    32
  0
VERTEX
  8
W44LXLIFT
 62
3
 10
176.856
 20
-6696.108
 30
850.000
 70
    32
  0
VERTEX
  8
W44LXLIFT
 62
3
 10
192.511
 20
-6719.929
 30
850.000
 70
    32
  0
SEQEND
  8
W44LXLIFT
  0
POLYLINE
  8
W44LXLIFT
 62
4
 66
     1
 70
     9
  0
VERTEX
  8
W44LXLIFT
 62
4
 10
784.173
 20
-7346.180
 30
896.000
 70
    32
  0
VERTEX
  8
W44LXLIFT
 62
4
 10
782.091
 20
-7337.279
 30
896.000
 70
    32
  0
VERTEX
  8
W44LXLIFT
 62
4
 10
783.588
 20
-7331.540
 30
896.000
 70
    32
  0
VERTEX
  8
W44LXLIFT
 62
4
 10
790.861
 20
-7326.298
 30
896.000
 70
    32
  0
VERTEX
  8
W44LXLIFT
 62
4
 10
797.973
 20
-7319.329
 30
896.000
 70
    32
  0
VERTEX
  8
W44LXLIFT
 62
4
 10
797.726
 20
-7307.263
 30
896.000
 70
    32
  0
VERTEX
  8
W44LXLIFT
 62
4
 10
792.725
 20
-7287.247
 30
896.000
 70
    32
  0
VERTEX
  8
W44LXLIFT
 62
4
 10
781.540
 20
-7266.921
 30
896.000
 70
    32
  0
VERTEX
  8
W44LXLIFT
 62
4
 10
778.998
 20
-7258.135
 30
896.000
 70
    32
  0
VERTEX
  8
W44LXLIFT
 62
4
 10
776.720
 20
-7251.217
 30
896.000
 70
    32
  0
VERTEX
  8
W44LXLIFT
 62
4
 10
773.976
 20
-7242.902
 30
896.000
 70
    32
  0
VERTEX
  8
W44LXLIFT
 62
4
 10
766.554
 20
-7232.757
 30
896.000
 70
    32
  0
VERTEX
  8
W44LXLIFT
 62
4
 10
751.749
 20
-7232.811
 30
896.000
 70
    32
  0
VERTEX
  8
W44LXLIFT
 62
4
 10
750.053
 20
-7230.458
 30
896.000
 70
    32
  0
VERTEX
  8
W44LXLIFT
 62
4
 10
749.337
 20
-7225.557
 30
896.000
 70
    32
  0
VERTEX
  8
W44LXLIFT
 62
4
 10
733.609
 20
-7194.420
 30
896.000
 70
    32
  0
VERTEX
  8
W44LXLIFT
 62
4
 10
732.490
 20
-7174.531
 30
896.000
 70
    32
  0
VERTEX
  8
W44LXLIFT
 62
4
 10
731.572
 20
-7156.122
 30
896.000
 70
    32
  0
VERTEX
  8
W44LXLIFT
 62
4
 10
728.314
 20
-7147.093
 30
896.000
 70
    32
  0
VERTEX
  8
W44LXLIFT
 62
4
 10
715.686
 20
-7142.653
 30
896.000
 70
    32
  0
VERTEX
  8
W44LXLIFT
 62
4
 10
710.325
 20
-7152.802
 30
896.000
 70
    32
  0
VERTEX
  8
W44LXLIFT
 62
4
 10
710.771
 20
-7158.982
 30
896.000
 70
    32
  0
VERTEX
  8
W44LXLIFT
 62
4
 10
707.874
 20
-7167.138
 30
896.000
 70
    32
  0
VERTEX
  8
W44LXLIFT
 62
4
 10
708.481
 20
-7170.384
 30
896.000
 70
    32
  0
VERTEX
  8
W44LXLIFT
 62
4
 10
723.854
 20
-7204.486
 30
896.000
 70
    32
  0
VERTEX
  8
W44LXLIFT
 62
4
 10
731.264
 20
-7214.314
 30
896.000
 70
    32
  0
VERTEX
  8
W44LXLIFT
 62
4
 10
735.148
 20
-7226.467
 30
896.000
 70
    32
  0
VERTEX
  8
W44LXLIFT
 62
4
 10
733.466
 20
-7243.824
 30
896.000
 70
    32
  0
VERTEX
  8
W44LXLIFT
 62
4
 10
728.009
 20
-7250.683
 30
896.000
 70
    32
  0
VERTEX
  8
W44LXLIFT
 62
4
 10
730.614
 20
-7259.858
 30
896.000
 70
    32
  0
VERTEX
  8
W44LXLIFT
 62
4
 10
730.545
 20
-7269.984
 30
896.000
 70
    32
  0
VERTEX
  8
W44LXLIFT
 62
4
 10
738.464
 20
-7286.380
 30
896.000
 70
    32
  0
VERTEX
  8
W44LXLIFT
 62
4
 10
744.834
 20
-7294.465
 30
896.000
 70
    32
  0
VERTEX
  8
W44LXLIFT
 62
4
 10
744.660
 20
-7308.352
 30
896.000
 70
    32
  0
VERTEX
  8
W44LXLIFT
 62
4
 10
744.084
 20
-7314.618
 30
896.000
 70
    32
  0
VERTEX
  8
W44LXLIFT
 62
4
 10
753.298
 20
-7330.405
 30
896.000
 70
    32
  0
VERTEX
  8
W44LXLIFT
 62
4
 10
762.233
 20
-7333.932
 30
896.000
 70
    32
  0
VERTEX
  8
W44LXLIFT
 62
4
 10
770.390
 20
-7332.170
 30
896.000
 70
    32
  0
VERTEX
  8
W44LXLIFT
 62
4
 10
771.567
 20
-7344.324
 30
896.000
 70
    32
  0
SEQEND
  8
W44LXLIFT
  0
POLYLINE
  8
W44LXLIFT
 62
1
 66
     1
 70
     9
  0
VERTEX
  8
W44LXLIFT
 62
1
 10
785.173
 20
-7345.180
 30
910.000
 70
    32
  0
VERTEX
  8
W44LXLIFT
 62
1
 10
783.091
 20
-7336.279
 30
910.000
 70
    32
  0
VERTEX
  8
W44LXLIFT
 62
1
 10
784.588
 20
-7330.540
 30
910.000
 70
    32
  0
VERTEX
  8
W44LXLIFT
 62
1
 10
791.861
 20
-7325.298
 30
910.000
 70
    32
  0
VERTEX
  8
W44LXLIFT
 62
1
 10
798.973
 20
-7318.329
 30
910.000
 70
    32
  0
VERTEX
  8
W44LXLIFT
 62
1
 10
798.726
 20
-7306.263
 30
910.000
 70
    32
  0
VERTEX
  8
W44LXLIFT
 62
1
 10
793.725
 20
-7286.247
 30
910.000
 70
    32
  0
VERTEX
  8
W44LXLIFT
 62
1
 10
782.540
 20
-7265.921
 30
910.000
 70
    32
  0
VERTEX
  8
W44LXLIFT
 62
1
 10
779.998
 20
-7257.135
 30
910.000
 70
    32
  0
VERTEX
  8
W44LXLIFT
 62
1
 10
777.720
 20
-7250.217
 30
910.000
 70
    32
  0
VERTEX
  8
W44LXLIFT
 62
1
 10
774.976
 20
-7241.902
 30
910.000
 70
    32
  0
VERTEX
  8
W44LXLIFT
 62
1
 10
767.554
 20
-7231.757
 30
910.000
 70
    32
  0
VERTEX
  8
W44LXLIFT
 62
1
 10
752.749
 20
-7231.811
 30
910.000
 70
    32
  0
VERTEX
  8
W44LXLIFT
 62
1
 10
751.053
 20
-7229.458
 30
910.000
 70
    32
  0
VERTEX
  8
W44LXLIFT
 62
1
 10
750.337
 20
-7224.557
 30
910.000
 70
    32
  0
VERTEX
  8
W44LXLIFT
 62
1
 10
734.609
 20
-7193.420
 30
910.000
 70
    32
  0
VERTEX
  8
W44LXLIFT
 62
1
 10
733.490
 20
-7173.531
 30
910.000
 70
    32
  0
VERTEX
  8
W44LXLIFT
 62
1
 10
732.572
 20
-7155.122
 30
910.000
 70
    32
  0
VERTEX
  8
W44LXLIFT
 62
1
 10
729.314
 20
-7146.093
 30
910.000
 70
    32
  0
VERTEX
  8
W44LXLIFT
 62
1
 10
716.686
 20
-7141.653
 30
910.000
 70
    32
  0
VERTEX
  8
W44LXLIFT
 62
1
 10
711.325
 20
-7151.802
 30
910.000
 70
    32
  0
VERTEX
  8
W44LXLIFT
 62
1
 10
711.771
 20
-7157.982
 30
910.000
 70
    32
  0
VERTEX
  8
W44LXLIFT
 62
1
 10
708.874
 20
-7166.138
 30
910.000
 70
    32
  0
VERTEX
  8
W44LXLIFT
 62
1
 10
709.481
 20
-7169.384
 30
910.000
 70
    32
  0
VERTEX
  8
W44LXLIFT
 62
1
 10
724.854
 20
-7203.486
 30
910.000
 70
    32
  0
VERTEX
  8
W44LXLIFT
 62
1
 10
732.264
 20
-7213.314
 30
910.000
 70
    32
  0
VERTEX
  8
W44LXLIFT
 62
1
 10
736.148
 20
-7225.467
 30
910.000
 70
    32
  0
VERTEX
  8
W44LXLIFT
 62
1
 10
734.466
 20
-7242.824
 30
910.000
 70
    32
  0
VERTEX
  8
W44LXLIFT
 62
1
 10
729.009
 20
-7249.683
 30
910.000
 70
    32
  0
VERTEX
  8
W44LXLIFT
 62
1
 10
731.614
 20
-7258.858
 30
910.000
 70
    32
  0
VERTEX
  8
W44LXLIFT
 62
1
 10
731.545
 20
-7268.984
 30
910.000
 70
    32
  0
VERTEX
  8
W44LXLIFT
 62
1
 10
739.464
 20
-7285.380
 30
910.000
 70
    32
  0
VERTEX
  8
W44LXLIFT
 62
1
 10
745.834
 20
-7293.465
 30
910.000
 70
    32
  0
VERTEX
  8
W44LXLIFT
 62
1
 10
745.660
 20
-7307.352
 30
910.000
 70
    32
  0
VERTEX
  8
W44LXLIFT
 62
1
 10
745.084
 20
-7313.618
 30
910.000
 70
    32
  0
VERTEX
  8
W44LXLIFT
 62
1
 10
754.298
 20
-7329.405
 30
910.000
 70
    32
  0
VERTEX
  8
W44LXLIFT
 62
1
 10
763.233
 20
-7332.932
 30
910.000
 70
    32
  0
VERTEX
  8
W44LXLIFT
 62
1
 10
771.390
 20
-7331.170
 30
910.000
 70
    32
  0
VERTEX
  8
W44LXLIFT
 62
1
 10
772.567
 20
-7343.324
 30
910.000
 70
    32
  0
SEQEND
  8
W44LXLIFT
  0
POLYLINE
  8
W44LXLIFT
 62
1
 66
     1
 70
     9
  0
VERTEX
  8
W44LXLIFT
 62
1
 10
191.807
 20
-6804.367
 30
940.000
 70
    32
  0
VERTEX
  8
W44LXLIFT
 62
1
 10
193.975
 20
-6794.900
 30
940.000
 70
    32
  0
VERTEX
  8
W44LXLIFT
 62
1
 10
197.272
 20
-6794.366
 30
940.000
 70
    32
  0
VERTEX
  8
W44LXLIFT
 62
1
 10
193.408
 20
-6775.926
 30
940.000
 70
    32
  0
VERTEX
  8
W44LXLIFT
 62
1
 10
192.495
 20
-6764.889
 30
940.000
 70
    32
  0
VERTEX
  8
W44LXLIFT
 62
1
 10
188.217
 20
-6755.193
 30
940.000
 70
    32
  0
VERTEX
  8
W44LXLIFT
 62
1
 10
192.580
 20
-6753.133
 30
940.000
 70
    32
  0
VERTEX
  8
W44LXLIFT
 62
1
 10
189.036
 20
-6732.730
 30
940.000
 70
    32
  0
VERTEX
  8
W44LXLIFT
 62
1
 10
175.757
 20
-6724.971
 30
940.000
 70
    32
  0
VERTEX
  8
W44LXLIFT
 62
1
 10
170.570
 20
-6715.064
 30
940.000
 70
    32
  0
VERTEX
  8
W44LXLIFT
 62
1
 10
167.404
 20
-6715.179
 30
940.000
 70
    32
  0
VERTEX
  8
W44LXLIFT
 62
1
 10
165.344
 20
-6710.816
 30
940.000
 70
    32
  0
VERTEX
  8
W44LXLIFT
 62
1
 10
154.661
 20
-6713.423
 30
940.000
 70
    32
  0
VERTEX
  8
W44LXLIFT
 62
1
 10
155.347
 20
-6718.884
 30
940.000
 70
    32
  0
VERTEX
  8
W44LXLIFT
 62
1
 10
154.018
 20
-6721.249
 30
940.000
 70
    32
  0
VERTEX
  8
W44LXLIFT
 62
1
 10
148.113
 20
-6725.828
 30
940.000
 70
    32
  0
VERTEX
  8
W44LXLIFT
 62
1
 10
148.086
 20
-6731.803
 30
940.000
 70
    32
  0
VERTEX
  8
W44LXLIFT
 62
1
 10
151.796
 20
-6739.959
 30
940.000
 70
    32
  0
VERTEX
  8
W44LXLIFT
 62
1
 10
153.031
 20
-6752.496
 30
940.000
 70
    32
  0
VERTEX
  8
W44LXLIFT
 62
1
 10
160.533
 20
-6766.366
 30
940.000
 70
    32
  0
VERTEX
  8
W44LXLIFT
 62
1
 10
165.245
 20
-6777.265
 30
940.000
 70
    32
  0
VERTEX
  8
W44LXLIFT
 62
1
 10
174.480
 20
-6780.466
 30
940.000
 70
    32
  0
VERTEX
  8
W44LXLIFT
 62
1
 10
178.502
 20
-6792.511
 30
940.000
 70
    32
  0
VERTEX
  8
W44LXLIFT
 62
1
 10
180.207
 20
-6802.544
 30
940.000
 70
    32
  0
VERTEX
  8
W44LXLIFT
 62
1
 10
183.858
 20
-6803.704
 30
940.000
 70
    32
  0
SEQEND
  8
W44LXLIFT
  0
POLYLINE
  8
W44LXLIFT
 62
4
 66
     1
 70
     9
  0
VERTEX
  8
W44LXLIFT
 62
4
 10
434.049
 20
-7201.329
 30
950.000
 70
    32
  0
VERTEX
  8
W44LXLIFT
 62
4
 10
438.146
 20
-7216.786
 30
950.000
 70
    32
  0
VERTEX
  8
W44LXLIFT
 62
4
 10
445.077
 20
-7231.067
 30
950.000
 70
    32
  0
VERTEX
  8
W44LXLIFT
 62
4
 10
453.434
 20
-7231.544
 30
950.000
 70
    32
  0
VERTEX
  8
W44LXLIFT
 62
4
 10
459.003
 20
-7229.805
 30
950.000
 70
    32
  0
VERTEX
  8
W44LXLIFT
 62
4
 10
459.216
 20
-7226.945
 30
950.000
 70
    32
  0
VERTEX
  8
W44LXLIFT
 62
4
 10
448.744
 20
-7195.724
 30
950.000
 70
    32
  0
VERTEX
  8
W44LXLIFT
 62
4
 10
445.219
 20
-7175.199
 30
950.000
 70
    32
  0
VERTEX
  8
W44LXLIFT
 62
4
 10
443.720
 20
-7168.157
 30
950.000
 70
    32
  0
VERTEX
  8
W44LXLIFT
 62
4
 10
446.791
 20
-7157.390
 30
950.000
 70
    32
  0
VERTEX
  8
W44LXLIFT
 62
4
 10
448.147
 20
-7141.687
 30
950.000
 70
    32
  0
VERTEX
  8
W44LXLIFT
 62
4
 10
441.100
 20
-7131.604
 30
950.000
 70
    32
  0
VERTEX
  8
W44LXLIFT
 62
4
 10
431.609
 20
-7123.390
 30
950.000
 70
    32
  0
VERTEX
  8
W44LXLIFT
 62
4
 10
429.072
 20
-7117.313
 30
950.000
 70
    32
  0
VERTEX
  8
W44LXLIFT
 62
4
 10
435.741
 20
-7099.514
 30
950.000
 70
    32
  0
VERTEX
  8
W44LXLIFT
 62
4
 10
437.552
 20
-7087.598
 30
950.000
 70
    32
  0
VERTEX
  8
W44LXLIFT
 62
4
 10
431.019
 20
-7080.935
 30
950.000
 70
    32
  0
VERTEX
  8
W44LXLIFT
 62
4
 10
425.478
 20
-7074.747
 30
950.000
 70
    32
  0
VERTEX
  8
W44LXLIFT
 62
4
 10
425.164
 20
-7070.101
 30
950.000
 70
    32
  0
VERTEX
  8
W44LXLIFT
 62
4
 10
418.391
 20
-7064.910
 30
950.000
 70
    32
  0
VERTEX
  8
W44LXLIFT
 62
4
 10
417.163
 20
-7056.591
 30
950.000
 70
    32
  0
VERTEX
  8
W44LXLIFT
 62
4
 10
411.685
 20
-7038.014
 30
950.000
 70
    32
  0
VERTEX
  8
W44LXLIFT
 62
4
 10
407.962
 20
-7024.129
 30
950.000
 70
    32
  0
VERTEX
  8
W44LXLIFT
 62
4
 10
406.036
 20
-7022.809
 30
950.000
 70
    32
  0
VERTEX
  8
W44LXLIFT
 62
4
 10
400.988
 20
-7012.044
 30
950.000
 70
    32
  0
VERTEX
  8
W44LXLIFT
 62
4
 10
391.226
 20
-7012.471
 30
950.000
 70
    32
  0
VERTEX
  8
W44LXLIFT
 62
4
 10
388.444
 20
-7016.425
 30
950.000
 70
    32
  0
VERTEX
  8
W44LXLIFT
 62
4
 10
387.887
 20
-7025.272
 30
950.000
 70
    32
  0
VERTEX
  8
W44LXLIFT
 62
4
 10
386.680
 20
-7035.021
 30
950.000
 70
    32
  0
VERTEX
  8
W44LXLIFT
 62
4
 10
384.743
 20
-7043.455
 30
950.000
 70
    32
  0
VERTEX
  8
W44LXLIFT
 62
4
 10
386.319
 20
-7049.249
 30
950.000
 70
    32
  0
VERTEX
  8
W44LXLIFT
 62
4
 10
379.764
 20
-7054.730
 30
950.000
 70
    32
  0
VERTEX
  8
W44LXLIFT
 62
4
 10
381.863
 20
-7076.282
 30
950.000
 70
    32
  0
VERTEX
  8
W44LXLIFT
 62
4
 10
372.819
 20
-7085.072
 30
950.000
 70
    32
  0
VERTEX
  8
W44LXLIFT
 62
4
 10
384.123
 20
-7092.196
 30
950.000
 70
    32
  0
VERTEX
  8
W44LXLIFT
 62
4
 10
404.370
 20
-7103.165
 30
950.000
 70
    32
  0
VERTEX
  8
W44LXLIFT
 62
4
 10
407.666
 20
-7109.995
 30
950.000
 70
    32
  0
VERTEX
  8
W44LXLIFT
 62
4
 10
408.210
 20
-7118.265
 30
950.000
 70
    32
  0
VERTEX
  8
W44LXLIFT
 62
4
 10
410.588
 20
-7125.323
 30
950.000
 70
    32
  0
VERTEX
  8
W44LXLIFT
 62
4
 10
418.769
 20
-7130.366
 30
950.000
 70
    32
  0
VERTEX
  8
W44LXLIFT
 62
4
 10
417.477
 20
-7141.800
 30
950.000
 70
    32
  0
VERTEX
  8
W44LXLIFT
 62
4
 10
418.917
 20
-7161.987
 30
950.000
 70
    32
  0
VERTEX
  8
W44LXLIFT
 62
4
 10
427.278
 20
-7188.773
 30
950.000
 70
    32
  0
SEQEND
  8
W44LXLIFT
  0
POLYLINE
  8
W44LXLIFT
 62
1
 66
     1
 70
     9
  0
VERTEX
  8
W44LXLIFT
 62
1
 10
435.049
 20
-7200.329
 30
962.000
 70
    32
  0
VERTEX
  8
W44LXLIFT
 62
1
 10
439.146
 20
-7215.786
 30
962.000
 70
    32
  0
VERTEX
  8
W44LXLIFT
 62
1
 10
446.077
 20
-7230.067
 30
962.000
 70
    32
  0
VERTEX
  8
W44LXLIFT
 62
1
 10
454.434
 20
-7230.544
 30
962.000
 70
    32
  0
VERTEX
  8
W44LXLIFT
 62
1
 10
460.003
 20
-7228.805
 30
962.000
 70
    32
  0
VERTEX
  8
W44LXLIFT
 62
1
 10
460.216
 20
-7225.945
 30
962.000
 70
    32
  0
VERTEX
  8
W44LXLIFT
 62
1
 10
449.744
 20
-7194.724
 30
962.000
 70
    32
  0
VERTEX
  8
W44LXLIFT
 62
1
 10
446.219
 20
-7174.199
 30
962.000
 70
    32
  0
VERTEX
  8
W44LXLIFT
 62
1
 10
444.720
 20
-7167.157
 30
962.000
 70
    32
  0
VERTEX
  8
W44LXLIFT
 62
1
 10
447.791
 20
-7156.390
 30
962.000
 70
    32
  0
VERTEX
  8
W44LXLIFT
 62
1
 10
449.147
 20
-7140.687
 30
962.000
 70
    32
  0
VERTEX
  8
W44LXLIFT
 62
1
 10
442.100
 20
-7130.604
 30
962.000
 70
    32
  0
VERTEX
  8
W44LXLIFT
 62
1
 10
432.609
 20
-7122.390
 30
962.000
 70
    32
  0
VERTEX
  8
W44LXLIFT
 62
1
 10
430.072
 20
-7116.313
 30
962.000
 70
    32
  0
VERTEX
  8
W44LXLIFT
 62
1
 10
436.741
 20
-7098.514
 30
962.000
 70
    32
  0
VERTEX
  8
W44LXLIFT
 62
1
 10
438.552
 20
-7086.598
 30
962.000
 70
    32
  0
VERTEX
  8
W44LXLIFT
 62
1
 10
432.019
 20
-7079.935
 30
962.000
 70
    32
  0
VERTEX
  8
W44LXLIFT
 62
1
 10
426.478
 20
-7073.747
 30
962.000
 70
    32
  0
VERTEX
  8
W44LXLIFT
 62
1
 10
426.164
 20
-7069.101
 30
962.000
 70
    32
  0
VERTEX
  8
W44LXLIFT
 62
1
 10
419.391
 20
-7063.910
 30
962.000
 70
    32
  0
VERTEX
  8
W44LXLIFT
 62
1
 10
418.163
 20
-7055.591
 30
962.000
 70
    32
  0
VERTEX
  8
W44LXLIFT
 62
1
 10
412.685
 20
-7037.014
 30
962.000
 70
    32
  0
VERTEX
  8
W44LXLIFT
 62
1
 10
408.962
 20
-7023.129
 30
962.000
 70
    32
  0
VERTEX
  8
W44LXLIFT
 62
1
 10
407.036
 20
-7021.809
 30
962.000
 70
    32
  0
VERTEX
  8
W44LXLIFT
 62
1
 10
401.988
 20
-7011.044
 30
962.000
 70
    32
  0
VERTEX
  8
W44LXLIFT
 62
1
 10
392.226
 20
-7011.471
 30
962.000
 70
    32
  0
VERTEX
  8
W44LXLIFT
 62
1
 10
389.444
 20
-7015.425
 30
962.000
 70
    32
  0
VERTEX
  8
W44LXLIFT
 62
1
 10
388.887
 20
-7024.272
 30
962.000
 70
    32
  0
VERTEX
  8
W44LXLIFT
 62
1
 10
387.680
 20
-7034.021
 30
962.000
 70
    32
  0
VERTEX
  8
W44LXLIFT
 62
1
 10
385.743
 20
-7042.455
 30
962.000
 70
    32
  0
VERTEX
  8
W44LXLIFT
 62
1
 10
387.319
 20
-7048.249
 30
962.000
 70
    32
  0
VERTEX
  8
W44LXLIFT
 62
1
 10
380.764
 20
-7053.730
 30
962.000
 70
    32
  0
VERTEX
  8
W44LXLIFT
 62
1
 10
382.863
 20
-7075.282
 30
962.000
 70
    32
  0
VERTEX
  8
W44LXLIFT
 62
1
 10
373.819
 20
-7084.072
 30
962.000
 70
    32
  0
VERTEX
  8
W44LXLIFT
 62
1
 10
385.123
 20
-7091.196
 30
962.000
 70
    32
  0
VERTEX
  8
W44LXLIFT
 62
1
 10
405.370
 20
-7102.165
 30
962.000
 70
    32
  0
VERTEX
  8
W44LXLIFT
 62
1
 10
408.666
 20
-7108.995
 30
962.000
 70
    32
  0
VERTEX
  8
W44LXLIFT
 62
1
 10
409.210
 20
-7117.265
 30
962.000
 70
    32
  0
VERTEX
  8
W44LXLIFT
 62
1
 10
411.588
 20
-7124.323
 30
962.000
 70
    32
  0
VERTEX
  8
W44LXLIFT
 62
1
 10
419.769
 20
-7129.366
 30
962.000
 70
    32
  0
VERTEX
  8
W44LXLIFT
 62
1
 10
418.477
 20
-7140.800
 30
962.000
 70
    32
  0
VERTEX
  8
W44LXLIFT
 62
1
 10
419.917
 20
-7160.987
 30
962.000
 70
    32
  0
VERTEX
  8
W44LXLIFT
 62
1
 10
428.278
 20
-7187.773
 30
962.000
 70
    32
  0
SEQEND
  8
W44LXLIFT
  0
POLYLINE
  8
W44LXLIFT
 62
2
 66
     1
 70
     9
  0
VERTEX
  8
W44LXLIFT
 62
2
 10
740.721
 20
-7451.028
 30
875.000
 70
    32
  0
VERTEX
  8
W44LXLIFT
 62
2
 10
742.539
 20
-7456.902
 30
875.000
 70
    32
  0
VERTEX
  8
W44LXLIFT
 62
2
 10
748.093
 20
-7462.209
 30
875.000
 70
    32
  0
VERTEX
  8
W44LXLIFT
 62
2
 10
750.391
 20
-7471.995
 30
875.000
 70
    32
  0
VERTEX
  8
W44LXLIFT
 62
2
 10
750.052
 20
-7481.319
 30
875.000
 70
    32
  0
VERTEX
  8
W44LXLIFT
 62
2
 10
748.105
 20
-7487.129
 30
875.000
 70
    32
  0
VERTEX
  8
W44LXLIFT
 62
2
 10
750.012
 20
-7497.422
 30
875.000
 70
    32
  0
VERTEX
  8
W44LXLIFT
 62
2
 10
751.940
 20
-7507.152
 30
875.000
 70
    32
  0
VERTEX
  8
W44LXLIFT
 62
2
 10
755.536
 20
-7517.511
 30
875.000
 70
    32
  0
VERTEX
  8
W44LXLIFT
 62
2
 10
764.040
 20
-7532.450
 30
875.000
 70
    32
  0
VERTEX
  8
W44LXLIFT
 62
2
 10
778.430
 20
-7546.327
 30
875.000
 70
    32
  0
VERTEX
  8
W44LXLIFT
 62
2
 10
772.776
 20
-7549.186
 30
875.000
 70
    32
  0
VERTEX
  8
W44LXLIFT
 62
2
 10
766.711
 20
-7550.598
 30
875.000
 70
    32
  0
VERTEX
  8
W44LXLIFT
 62
2
 10
756.663
 20
-7543.795
 30
875.000
 70
    32
  0
VERTEX
  8
W44LXLIFT
 62
2
 10
749.579
 20
-7536.118
 30
875.000
 70
    32
  0
VERTEX
  8
W44LXLIFT
 62
2
 10
743.203
 20
-7519.172
 30
875.000
 70
    32
  0
VERTEX
  8
W44LXLIFT
 62
2
 10
738.757
 20
-7514.033
 30
875.000
 70
    32
  0
VERTEX
  8
W44LXLIFT
 62
2
 10
737.625
 20
-7510.276
 30
875.000
 70
    32
  0
VERTEX
  8
W44LXLIFT
 62
2
 10
738.543
 20
-7496.697
 30
875.000
 70
    32
  0
VERTEX
  8
W44LXLIFT
 62
2
 10
735.774
 20
-7490.867
 30
875.000
 70
    32
  0
VERTEX
  8
W44LXLIFT
 62
2
 10
737.507
 20
-7481.061
 30
875.000
 70
    32
  0
VERTEX
  8
W44LXLIFT
 62
2
 10
738.035
 20
-7472.142
 30
875.000
 70
    32
  0
VERTEX
  8
W44LXLIFT
 62
2
 10
734.947
 20
-7462.174
 30
875.000
 70
    32
  0
VERTEX
  8
W44LXLIFT
 62
2
 10
730.755
 20
-7458.269
 30
875.000
 70
    32
  0
VERTEX
  8
W44LXLIFT
 62
2
 10
729.543
 20
-7451.290
 30
875.000
 70
    32
  0
SEQEND
  8
W44LXLIFT
  0
POLYLINE
  8
W44LXLIFT
 62
1
 66
     1
 70
     9
  0
VERTEX
  8
W44LXLIFT
 62
1
 10
741.721
 20
-7450.028
 30
886.000
 70
    32
  0
VERTEX
  8
W44LXLIFT
 62
1
 10
743.539
 20
-7455.902
 30
886.000
 70
    32
  0
VERTEX
  8
W44LXLIFT
 62
1
 10
749.093
 20
-7461.209
 30
886.000
 70
    32
  0
VERTEX
  8
W44LXLIFT
 62
1
 10
751.391
 20
-7470.995
 30
886.000
 70
    32
  0
VERTEX
  8
W44LXLIFT
 62
1
 10
751.052
 20
-7480.319
 30
886.000
 70
    32
  0
VERTEX
  8
W44LXLIFT
 62
1
 10
749.105
 20
-7486.129
 30
886.000
 70
    32
  0
VERTEX
  8
W44LXLIFT
 62
1
 10
751.012
 20
-7496.422
 30
886.000
 70
    32
  0
VERTEX
  8
W44LXLIFT
 62
1
 10
752.940
 20
-7506.152
 30
886.000
 70
    32
  0
VERTEX
  8
W44LXLIFT
 62
1
 10
756.536
 20
-7516.511
 30
886.000
 70
    32
  0
VERTEX
  8
W44LXLIFT
 62
1
 10
765.040
 20
-7531.450
 30
886.000
 70
    32
  0
VERTEX
  8
W44LXLIFT
 62
1
 10
779.430
 20
-7545.327
 30
886.000
 70
    32
  0
VERTEX
  8
W44LXLIFT
 62
1
 10
773.776
 20
-7548.186
 30
886.000
 70
    32
  0
VERTEX
  8
W44LXLIFT
 62
1
 10
767.711
 20
-7549.598
 30
886.000
 70
    32
  0
VERTEX
  8
W44LXLIFT
 62
1
 10
757.663
 20
-7542.795
 30
886.000
 70
    32
  0
VERTEX
  8
W44LXLIFT
 62
1
 10
750.579
 20
-7535.118
 30
886.000
 70
    32
  0
VERTEX
  8
W44LXLIFT
 62
1
 10
744.203
 20
-7518.172
 30
886.000
 70
    32
  0
VERTEX
  8
W44LXLIFT
 62
1
 10
739.757
 20
-7513.033
 30
886.000
 70
    32
  0
VERTEX
  8
W44LXLIFT
 62
1
 10
738.625
 20
-7509.276
 30
886.000
 70
    32
  0
VERTEX
  8
W44LXLIFT
 62
1
 10
739.543
 20
-7495.697
 30
886.000
 70
    32
  0
VERTEX
  8
W44LXLIFT
 62
1
 10
736.774
 20
-7489.867
 30
886.000
 70
    32
  0
VERTEX
  8
W44LXLIFT
 62
1
 10
738.507
 20
-7480.061
 30
886.000
 70
    32
  0
VERTEX
  8
W44LXLIFT
 62
1
 10
739.035
 20
-7471.142
 30
886.000
 70
    32
  0
VERTEX
  8
W44LXLIFT
 62
1
 10
735.947
 20
-7461.174
 30
886.000
 70
    32
  0
VERTEX
  8
W44LXLIFT
 62
1
 10
731.755
 20
-7457.269
 30
886.000
 70
    32
  0
VERTEX
  8
W44LXLIFT
 62
1
 10
730.543
 20
-7450.290
 30
886.000
 70
    32
  0
SEQEND
  8
W44LXLIFT
  0
POLYLINE
  8
W44LXLIFT
 62
3
 66
     1
 70
     9
  0
VERTEX
  8
W44LXLIFT
 62
3
 10
189.315
 20
-6729.498
 30
839.216
 70
    32
  0
VERTEX
  8
W44LXLIFT
 62
3
 10
189.170
 20
-6718.597
 30
839.310
 70
    32
  0
VERTEX
  8
W44LXLIFT
 62
3
 10
184.751
 20
-6708.934
 30
839.359
 70
    32
  0
VERTEX
  8
W44LXLIFT
 62
3
 10
181.082
 20
-6702.064
 30
839.390
 70
    32
  0
VERTEX
  8
W44LXLIFT
 62
3
 10
174.952
 20
-6693.792
 30
839.414
 70
    32
  0
VERTEX
  8
W44LXLIFT
 62
3
 10
172.450
 20
-6694.254
 30
839.390
 70
    32
  0
VERTEX
  8
W44LXLIFT
 62
3
 10
161.732
 20
-6687.378
 30
839.365
 70
    32
  0
VERTEX
  8
W44LXLIFT
 62
3
 10
161.098
 20
-6674.925
 30
839.469
 70
    32
  0
VERTEX
  8
W44LXLIFT
 62
3
 10
154.432
 20
-6651.011
 30
839.626
 70
    32
  0
VERTEX
  8
W44LXLIFT
 62
3
 10
150.843
 20
-6643.859
 30
839.660
 70
    32
  0
VERTEX
  8
W44LXLIFT
 62
3
 10
146.427
 20
-6635.062
 30
839.807
 70
    32
  0
VERTEX
  8
W44LXLIFT
 62
3
 10
150.462
 20
-6630.482
 30
839.774
 70
    32
  0
VERTEX
  8
W44LXLIFT
 62
3
 10
151.940
 20
-6628.805
 30
839.800
 70
    32
  0
VERTEX
  8
W44LXLIFT
 62
3
 10
154.596
 20
-6616.080
 30
839.933
 70
    32
  0
VERTEX
  8
W44LXLIFT
 62
3
 10
152.268
 20
-6609.140
 30
839.975
 70
    32
  0
VERTEX
  8
W44LXLIFT
 62
3
 10
149.766
 20
-6605.973
 30
839.983
 70
    32
  0
VERTEX
  8
W44LXLIFT
 62
3
 10
136.369
 20
-6589.020
 30
840.353
 70
    32
  0
VERTEX
  8
W44LXLIFT
 62
3
 10
128.467
 20
-6571.825
 30
840.629
 70
    32
  0
VERTEX
  8
W44LXLIFT
 62
3
 10
128.164
 20
-6558.908
 30
840.738
 70
    32
  0
VERTEX
  8
W44LXLIFT
 62
3
 10
128.031
 20
-6553.220
 30
840.732
 70
    32
  0
VERTEX
  8
W44LXLIFT
 62
3
 10
134.811
 20
-6546.944
 30
840.716
 70
    32
  0
VERTEX
  8
W44LXLIFT
 62
3
 10
134.897
 20
-6546.966
 30
840.716
 70
    32
  0
VERTEX
  8
W44LXLIFT
 62
3
 10
146.446
 20
-6550.031
 30
840.490
 70
    32
  0
VERTEX
  8
W44LXLIFT
 62
3
 10
146.107
 20
-6558.061
 30
840.431
 70
    32
  0
VERTEX
  8
W44LXLIFT
 62
3
 10
148.613
 20
-6565.428
 30
840.328
 70
    32
  0
VERTEX
  8
W44LXLIFT
 62
3
 10
155.054
 20
-6584.363
 30
840.214
 70
    32
  0
VERTEX
  8
W44LXLIFT
 62
3
 10
166.360
 20
-6607.115
 30
840.104
 70
    32
  0
VERTEX
  8
W44LXLIFT
 62
3
 10
180.047
 20
-6629.294
 30
840.019
 70
    32
  0
VERTEX
  8
W44LXLIFT
 62
3
 10
186.689
 20
-6648.534
 30
839.903
 70
    32
  0
VERTEX
  8
W44LXLIFT
 62
3
 10
190.112
 20
-6672.555
 30
839.720
 70
    32
  0
VERTEX
  8
W44LXLIFT
 62
3
 10
191.379
 20
-6678.731
 30
839.676
 70
    32
  0
VERTEX
  8
W44LXLIFT
 62
3
 10
198.952
 20
-6690.492
 30
839.633
 70
    32
  0
VERTEX
  8
W44LXLIFT
 62
3
 10
207.320
 20
-6703.094
 30
839.590
 70
    32
  0
VERTEX
  8
W44LXLIFT
 62
3
 10
212.143
 20
-6702.654
 30
839.632
 70
    32
  0
VERTEX
  8
W44LXLIFT
 62
3
 10
219.859
 20
-6726.706
 30
839.483
 70
    32
  0
VERTEX
  8
W44LXLIFT
 62
3
 10
219.348
 20
-6734.641
 30
839.409
 70
    32
  0
VERTEX
  8
W44LXLIFT
 62
3
 10
224.846
 20
-6745.554
 30
839.357
 70
    32
  0
VERTEX
  8
W44LXLIFT
 62
3
 10
223.300
 20
-6753.799
 30
839.273
 70
    32
  0
VERTEX
  8
W44LXLIFT
 62
3
 10
218.994
 20
-6756.874
 30
839.212
 70
    32
  0
VERTEX
  8
W44LXLIFT
 62
3
 10
206.805
 20
-6757.814
 30
839.107
 70
    32
  0
VERTEX
  8
W44LXLIFT
 62
3
 10
195.493
 20
-6740.940
 30
839.165
 70
    32
  0
SEQEND
  8
W44LXLIFT
  0
POLYLINE
  8
W44LXLIFT
 62
4
 66
     1
 70
     9
  0
VERTEX
  8
W44LXLIFT
 62
4
 10
496.828
 20
-7207.795
 30
840.690
 70
    32
  0
VERTEX
  8
W44LXLIFT
 62
4
 10
493.653
 20
-7193.429
 30
840.563
 70
    32
  0
VERTEX
  8
W44LXLIFT
 62
4
 10
487.721
 20
-7172.739
 30
840.385
 70
    32
  0
VERTEX
  8
W44LXLIFT
 62
4
 10
479.817
 20
-7153.837
 30
840.232
 70
    32
  0
VERTEX
  8
W44LXLIFT
 62
4
 10
477.881
 20
-7148.549
 30
840.188
 70
    32
  0
VERTEX
  8
W44LXLIFT
 62
4
 10
475.344
 20
-7140.686
 30
840.121
 70
    32
  0
VERTEX
  8
W44LXLIFT
 62
4
 10
475.080
 20
-7133.177
 30
840.050
 70
    32
  0
VERTEX
  8
W44LXLIFT
 62
4
 10
471.598
 20
-7119.450
 30
839.930
 70
    32
  0
VERTEX
  8
W44LXLIFT
 62
4
 10
469.222
 20
-7106.242
 30
839.812
 70
    32
  0
VERTEX
  8
W44LXLIFT
 62
4
 10
468.756
 20
-7102.932
 30
839.782
 70
    32
  0
VERTEX
  8
W44LXLIFT
 62
4
 10
464.982
 20
-7098.698
 30
839.754
 70
    32
  0
VERTEX
  8
W44LXLIFT
 62
4
 10
450.476
 20
-7102.290
 30
839.841
 70
    32
  0
VERTEX
  8
W44LXLIFT
 62
4
 10
444.975
 20
-7099.887
 30
839.838
 70
    32
  0
VERTEX
  8
W44LXLIFT
 62
4
 10
440.057
 20
-7075.401
 30
839.620
 70
    32
  0
VERTEX
  8
W44LXLIFT
 62
4
 10
430.178
 20
-7067.579
 30
839.580
 70
    32
  0
VERTEX
  8
W44LXLIFT
 62
4
 10
423.947
 20
-7060.553
 30
839.535
 70
    32
  0
VERTEX
  8
W44LXLIFT
 62
4
 10
420.212
 20
-7047.854
 30
839.426
 70
    32
  0
VERTEX
  8
W44LXLIFT
 62
4
 10
421.469
 20
-7039.297
 30
839.339
 70
    32
  0
VERTEX
  8
W44LXLIFT
 62
4
 10
421.240
 20
-7037.106
 30
839.319
 70
    32
  0
VERTEX
  8
W44LXLIFT
 62
4
 10
415.292
 20
-7021.661
 30
839.192
 70
    32
  0
VERTEX
  8
W44LXLIFT
 62
4
 10
414.928
 20
-7020.203
 30
839.179
 70
    32
  0
VERTEX
  8
W44LXLIFT
 62
4
 10
417.826
 20
-7016.816
 30
839.136
 70
    32
  0
VERTEX
  8
W44LXLIFT
 62
4
 10
415.232
 20
-7009.953
 30
839.079
 70
    32
  0
VERTEX
  8
W44LXLIFT
 62
4
 10
421.811
 20
-7001.680
 30
838.976
 70
    32
  0
VERTEX
  8
W44LXLIFT
 62
4
 10
418.797
 20
-6992.970
 30
838.903
 70
    32
  0
VERTEX
  8
W44LXLIFT
 62
4
 10
422.954
 20
-6986.219
 30
838.823
 70
    32
  0
VERTEX
  8
W44LXLIFT
 62
4
 10
425.197
 20
-6982.577
 30
838.873
 70
    32
  0
VERTEX
  8
W44LXLIFT
 62
4
 10
426.874
 20
-6980.673
 30
838.903
 70
    32
  0
VERTEX
  8
W44LXLIFT
 62
4
 10
425.970
 20
-6971.150
 30
838.979
 70
    32
  0
VERTEX
  8
W44LXLIFT
 62
4
 10
423.740
 20
-6962.647
 30
839.036
 70
    32
  0
VERTEX
  8
W44LXLIFT
 62
4
 10
425.421
 20
-6959.352
 30
839.078
 70
    32
  0
VERTEX
  8
W44LXLIFT
 62
4
 10
427.420
 20
-6957.760
 30
839.108
 70
    32
  0
VERTEX
  8
W44LXLIFT
 62
4
 10
423.203
 20
-6953.191
 30
839.114
 70
    32
  0
VERTEX
  8
W44LXLIFT
 62
4
 10
429.906
 20
-6935.647
 30
839.321
 70
    32
  0
VERTEX
  8
W44LXLIFT
 62
4
 10
437.413
 20
-6930.578
 30
839.425
 70
    32
  0
VERTEX
  8
W44LXLIFT
 62
4
 10
449.893
 20
-6947.288
 30
839.378
 70
    32
  0
VERTEX
  8
W44LXLIFT
 62
4
 10
455.798
 20
-6950.586
 30
839.396
 70
    32
  0
VERTEX
  8
W44LXLIFT
 62
4
 10
458.854
 20
-6960.442
 30
839.334
 70
    32
  0
VERTEX
  8
W44LXLIFT
 62
4
 10
465.080
 20
-6962.345
 30
839.366
 70
    32
  0
VERTEX
  8
W44LXLIFT
 62
4
 10
465.483
 20
-6966.339
 30
839.335
 70
    32
  0
VERTEX
  8
W44LXLIFT
 62
4
 10
471.991
 20
-6977.019
 30
839.293
 70
    32
  0
VERTEX
  8
W44LXLIFT
 62
4
 10
468.009
 20
-6993.863
 30
839.114
 70
    32
  0
VERTEX
  8
W44LXLIFT
 62
4
 10
466.041
 20
-6999.064
 30
839.053
 70
    32
  0
VERTEX
  8
W44LXLIFT
 62
4
 10
463.545
 20
-7001.640
 30
839.010
 70
    32
  0
VERTEX
  8
W44LXLIFT
 62
4
 10
460.591
 20
-7004.637
 30
838.961
 70
    32
  0
VERTEX
  8
W44LXLIFT
 62
4
 10
460.418
 20
-7009.720
 30
838.915
 70
    32
  0
VERTEX
  8
W44LXLIFT
 62
4
 10
459.386
 20
-7040.073
 30
839.211
 70
    32
  0
VERTEX
  8
W44LXLIFT
 62
4
 10
465.738
 20
-7045.414
 30
839.239
 70
    32
  0
VERTEX
  8
W44LXLIFT
 62
4
 10
468.946
 20
-7043.095
 30
839.205
 70
    32
  0
VERTEX
  8
W44LXLIFT
 62
4
 10
472.114
 20
-7030.338
 30
839.071
 70
    32
  0
VERTEX
  8
W44LXLIFT
 62
4
 10
483.584
 20
-7024.252
 30
838.972
 70
    32
  0
VERTEX
  8
W44LXLIFT
 62
4
 10
488.927
 20
-7021.417
 30
839.039
 70
    32
  0
VERTEX
  8
W44LXLIFT
 62
4
 10
493.166
 20
-7021.058
 30
839.076
 70
    32
  0
VERTEX
  8
W44LXLIFT
 62
4
 10
494.182
 20
-7018.969
 30
839.102
 70
    32
  0
VERTEX
  8
W44LXLIFT
 62
4
 10
503.572
 20
-7012.603
 30
839.232
 70
    32
  0
VERTEX
  8
W44LXLIFT
 62
4
 10
507.561
 20
-7011.883
 30
839.270
 70
    32
  0
VERTEX
  8
W44LXLIFT
 62
4
 10
515.792
 20
-7017.316
 30
839.288
 70
    32
  0
VERTEX
  8
W44LXLIFT
 62
4
 10
518.379
 20
-7025.252
 30
839.239
 70
    32
  0
VERTEX
  8
W44LXLIFT
 62
4
 10
516.402
 20
-7029.819
 30
839.183
 70
    32
  0
VERTEX
  8
W44LXLIFT
 62
4
 10
506.615
 20
-7037.314
 30
839.040
 70
    32
  0
VERTEX
  8
W44LXLIFT
 62
4
 10
504.568
 20
-7037.415
 30
839.023
 70
    32
  0
VERTEX
  8
W44LXLIFT
 62
4
 10
496.598
 20
-7037.811
 30
839.055
 70
    32
  0
VERTEX
  8
W44LXLIFT
 62
4
 10
482.338
 20
-7046.253
 30
839.188
 70
    32
  0
VERTEX
  8
W44LXLIFT
 62
4
 10
480.315
 20
-7051.065
 30
839.241
 70
    32
  0
VERTEX
  8
W44LXLIFT
 62
4
 10
476.044
 20
-7050.912
 30
839.255
 70
    32
  0
VERTEX
  8
W44LXLIFT
 62
4
 10
470.270
 20
-7054.466
 30
839.310
 70
    32
  0
VERTEX
  8
W44LXLIFT
 62
4
 10
467.523
 20
-7070.778
 30
839.477
 70
    32
  0
VERTEX
  8
W44LXLIFT
 62
4
 10
469.649
 20
-7075.721
 30
839.517
 70
    32
  0
VERTEX
  8
W44LXLIFT
 62
4
 10
469.614
 20
-7079.697
 30
839.555
 70
    32
  0
VERTEX
  8
W44LXLIFT
 62
4
 10
475.546
 20
-7083.191
 30
839.567
 70
    32
  0
VERTEX
  8
W44LXLIFT
 62
4
 10
481.038
 20
-7081.861
 30
839.535
 70
    32
  0
VERTEX
  8
W44LXLIFT
 62
4
 10
485.547
 20
-7080.035
 30
839.501
 70
    32
  0
VERTEX
  8
W44LXLIFT
 62
4
 10
492.335
 20
-7075.783
 30
839.436
 70
    32
  0
VERTEX
  8
W44LXLIFT
 62
4
 10
507.372
 20
-7087.525
 30
839.495
 70
    32
  0
VERTEX
  8
W44LXLIFT
 62
4
 10
520.709
 20
-7115.393
 30
839.715
 70
    32
  0
VERTEX
  8
W44LXLIFT
 62
4
 10
524.069
 20
-7118.097
 30
839.729
 70
    32
  0
VERTEX
  8
W44LXLIFT
 62
4
 10
527.328
 20
-7120.656
 30
839.742
 70
    32
  0
VERTEX
  8
W44LXLIFT
 62
4
 10
516.931
 20
-7139.038
 30
839.956
 70
    32
  0
VERTEX
  8
W44LXLIFT
 62
4
 10
516.698
 20
-7141.335
 30
839.979
 70
    32
  0
VERTEX
  8
W44LXLIFT
 62
4
 10
526.158
 20
-7158.311
 30
840.108
 70
    32
  0
VERTEX
  8
W44LXLIFT
 62
4
 10
529.261
 20
-7169.629
 30
840.206
 70
    32
  0
VERTEX
  8
W44LXLIFT
 62
4
 10
532.561
 20
-7182.627
 30
840.319
 70
    32
  0
VERTEX
  8
W44LXLIFT
 62
4
 10
532.043
 20
-7188.538
 30
840.378
 70
    32
  0
VERTEX
  8
W44LXLIFT
 62
4
 10
538.258
 20
-7207.004
 30
840.533
 70
    32
  0
VERTEX
  8
W44LXLIFT
 62
4
 10
532.161
 20
-7213.343
 30
840.616
 70
    32
  0
VERTEX
  8
W44LXLIFT
 62
4
 10
533.900
 20
-7216.378
 30
840.639
 70
    32
  0
VERTEX
  8
W44LXLIFT
 62
4
 10
534.794
 20
-7217.937
 30
840.624
 70
    32
  0
VERTEX
  8
W44LXLIFT
 62
4
 10
539.411
 20
-7223.085
 30
840.567
 70
    32
  0
VERTEX
  8
W44LXLIFT
 62
4
 10
541.250
 20
-7226.837
 30
840.533
 70
    32
  0
VERTEX
  8
W44LXLIFT
 62
4
 10
542.290
 20
-7232.528
 30
840.488
 70
    32
  0
VERTEX
  8
W44LXLIFT
 62
4
 10
545.975
 20
-7238.959
 30
840.426
 70
    32
  0
VERTEX
  8
W44LXLIFT
 62
4
 10
538.929
 20
-7243.423
 30
840.425
 70
    32
  0
VERTEX
  8
W44LXLIFT
 62
4
 10
538.319
 20
-7243.810
 30
840.436
 70
    32
  0
VERTEX
  8
W44LXLIFT
 62
4
 10
530.263
 20
-7248.082
 30
840.575
 70
    32
  0
VERTEX
  8
W44LXLIFT
 62
4
 10
527.443
 20
-7242.443
 30
840.521
 70
    32
  0
VERTEX
  8
W44LXLIFT
 62
4
 10
526.284
 20
-7240.348
 30
840.501
 70
    32
  0
VERTEX
  8
W44LXLIFT
 62
4
 10
524.406
 20
-7236.953
 30
840.533
 70
    32
  0
VERTEX
  8
W44LXLIFT
 62
4
 10
517.073
 20
-7232.823
 30
840.595
 70
    32
  0
VERTEX
  8
W44LXLIFT
 62
4
 10
513.545
 20
-7225.536
 30
840.662
 70
    32
  0
VERTEX
  8
W44LXLIFT
 62
4
 10
511.608
 20
-7223.347
 30
840.686
 70
    32
  0
VERTEX
  8
W44LXLIFT
 62
4
 10
510.374
 20
-7217.683
 30
840.731
 70
    32
  0
VERTEX
  8
W44LXLIFT
 62
4
 10
505.968
 20
-7218.263
 30
840.746
 70
    32
  0
VERTEX
  8
W44LXLIFT
 62
4
 10
502.108
 20
-7221.031
 30
840.743
 70
    32
  0
VERTEX
  8
W44LXLIFT
 62
4
 10
496.050
 20
-7222.003
 30
840.762
 70
    32
  0
SEQEND
  8
W44LXLIFT
  0
POLYLINE
  8
W44LXLIFT
 62
8
 66
     1
 70
     9
  0
VERTEX
  8
W44LXLIFT
 62
8
 10
706.761
 20
-7210.357
 30
839.936
 70
    32
  0
VERTEX
  8
W44LXLIFT
 62
8
 10
706.323
 20
-7208.886
 30
839.948
 70
    32
  0
VERTEX
  8
W44LXLIFT
 62
8
 10
699.529
 20
-7186.078
 30
839.753
 70
    32
  0
VERTEX
  8
W44LXLIFT
 62
8
 10
710.554
 20
-7176.662
 30
839.623
 70
    32
  0
VERTEX
  8
W44LXLIFT
 62
8
 10
716.140
 20
-7178.258
 30
839.618
 70
    32
  0
VERTEX
  8
W44LXLIFT
 62
8
 10
724.431
 20
-7187.496
 30
839.678
 70
    32
  0
VERTEX
  8
W44LXLIFT
 62
8
 10
731.634
 20
-7192.676
 30
839.702
 70
    32
  0
VERTEX
  8
W44LXLIFT
 62
8
 10
738.642
 20
-7197.885
 30
839.726
 70
    32
  0
VERTEX
  8
W44LXLIFT
 62
8
 10
740.644
 20
-7201.098
 30
839.750
 70
    32
  0
VERTEX
  8
W44LXLIFT
 62
8
 10
737.122
 20
-7207.548
 30
839.825
 70
    32
  0
VERTEX
  8
W44LXLIFT
 62
8
 10
735.687
 20
-7210.176
 30
839.812
 70
    32
  0
VERTEX
  8
W44LXLIFT
 62
8
 10
735.941
 20
-7213.952
 30
839.784
 70
    32
  0
VERTEX
  8
W44LXLIFT
 62
8
 10
732.920
 20
-7217.317
 30
839.773
 70
    32
  0
VERTEX
  8
W44LXLIFT
 62
8
 10
723.071
 20
-7225.495
 30
839.758
 70
    32
  0
SEQEND
  8
W44LXLIFT
  0
POLYLINE
  8
W44LXLIFT
 62
6
 66
     1
 70
     9
  0
VERTEX
  8
W44LXLIFT
 62
6
 10
605.044
 20
-7234.262
 30
840.205
 70
    32
  0
VERTEX
  8
W44LXLIFT
 62
6
 10
584.513
 20
-7230.956
 30
840.317
 70
    32
  0
VERTEX
  8
W44LXLIFT
 62
6
 10
584.974
 20
-7215.571
 30
840.424
 70
    32
  0
VERTEX
  8
W44LXLIFT
 62
6
 10
583.465
 20
-7214.224
 30
840.440
 70
    32
  0
VERTEX
  8
W44LXLIFT
 62
6
 10
573.881
 20
-7205.670
 30
840.393
 70
    32
  0
VERTEX
  8
W44LXLIFT
 62
6
 10
569.957
 20
-7196.460
 30
840.318
 70
    32
  0
VERTEX
  8
W44LXLIFT
 62
6
 10
578.741
 20
-7186.358
 30
840.189
 70
    32
  0
VERTEX
  8
W44LXLIFT
 62
6
 10
578.396
 20
-7181.971
 30
840.148
 70
    32
  0
VERTEX
  8
W44LXLIFT
 62
6
 10
581.461
 20
-7178.158
 30
840.101
 70
    32
  0
VERTEX
  8
W44LXLIFT
 62
6
 10
585.953
 20
-7177.742
 30
840.081
 70
    32
  0
VERTEX
  8
W44LXLIFT
 62
6
 10
590.396
 20
-7180.382
 30
840.090
 70
    32
  0
VERTEX
  8
W44LXLIFT
 62
6
 10
590.182
 20
-7190.568
 30
840.189
 70
    32
  0
VERTEX
  8
W44LXLIFT
 62
6
 10
604.060
 20
-7207.508
 30
840.302
 70
    32
  0
VERTEX
  8
W44LXLIFT
 62
6
 10
603.829
 20
-7213.339
 30
840.359
 70
    32
  0
VERTEX
  8
W44LXLIFT
 62
6
 10
603.729
 20
-7215.869
 30
840.341
 70
    32
  0
SEQEND
  8
W44LXLIFT
  0
POLYLINE
  8
W44LXLIFT
 62
1
 66
     1
 70
     9
  0
VERTEX
  8
W44LXLIFT
 62
1
 10
198.158
 20
-6741.909
 30
862.000
 70
    32
  0
VERTEX
  8
W44LXLIFT
 62
1
 10
209.570
 20
-6760.446
 30
862.000
 70
    32
  0
VERTEX
  8
W44LXLIFT
 62
1
 10
221.338
 20
-6757.380
 30
862.000
 70
    32
  0
VERTEX
  8
W44LXLIFT
 62
1
 10
228.434
 20
-6751.290
 30
862.000
 70
    32
  0
VERTEX
  8
W44LXLIFT
 62
1
 10
226.330
 20
-6744.463
 30
862.000
 70
    32
  0
VERTEX
  8
W44LXLIFT
 62
1
 10
223.844
 20
-6739.212
 30
862.000
 70
    32
  0
VERTEX
  8
W44LXLIFT
 62
1
 10
221.857
 20
-6716.915
 30
862.000
 70
    32
  0
VERTEX
  8
W44LXLIFT
 62
1
 10
218.705
 20
-6708.785
 30
862.000
 70
    32
  0
VERTEX
  8
W44LXLIFT
 62
1
 10
217.122
 20
-6704.184
 30
862.000
 70
    32
  0
VERTEX
  8
W44LXLIFT
 62
1
 10
208.505
 20
-6698.693
 30
862.000
 70
    32
  0
VERTEX
  8
W44LXLIFT
 62
1
 10
201.164
 20
-6690.766
 30
862.000
 70
    32
  0
VERTEX
  8
W44LXLIFT
 62
1
 10
192.161
 20
-6674.068
 30
862.000
 70
    32
  0
VERTEX
  8
W44LXLIFT
 62
1
 10
191.262
 20
-6657.488
 30
862.000
 70
    32
  0
VERTEX
  8
W44LXLIFT
 62
1
 10
186.028
 20
-6635.798
 30
862.000
 70
    32
  0
VERTEX
  8
W44LXLIFT
 62
1
 10
184.600
 20
-6629.459
 30
862.000
 70
    32
  0
VERTEX
  8
W44LXLIFT
 62
1
 10
174.146
 20
-6615.108
 30
862.000
 70
    32
  0
VERTEX
  8
W44LXLIFT
 62
1
 10
158.736
 20
-6586.667
 30
862.000
 70
    32
  0
VERTEX
  8
W44LXLIFT
 62
1
 10
150.481
 20
-6561.087
 30
862.000
 70
    32
  0
VERTEX
  8
W44LXLIFT
 62
1
 10
149.916
 20
-6550.984
 30
862.000
 70
    32
  0
VERTEX
  8
W44LXLIFT
 62
1
 10
139.311
 20
-6546.493
 30
862.000
 70
    32
  0
VERTEX
  8
W44LXLIFT
 62
1
 10
130.092
 20
-6555.198
 30
862.000
 70
    32
  0
VERTEX
  8
W44LXLIFT
 62
1
 10
130.968
 20
-6571.144
 30
862.000
 70
    32
  0
VERTEX
  8
W44LXLIFT
 62
1
 10
136.682
 20
-6587.938
 30
862.000
 70
    32
  0
VERTEX
  8
W44LXLIFT
 62
1
 10
150.662
 20
-6602.673
 30
862.000
 70
    32
  0
VERTEX
  8
W44LXLIFT
 62
1
 10
156.583
 20
-6617.800
 30
862.000
 70
    32
  0
VERTEX
  8
W44LXLIFT
 62
1
 10
155.308
 20
-6632.264
 30
862.000
 70
    32
  0
VERTEX
  8
W44LXLIFT
 62
1
 10
149.380
 20
-6638.921
 30
862.000
 70
    32
  0
VERTEX
  8
W44LXLIFT
 62
1
 10
157.728
 20
-6653.057
 30
862.000
 70
    32
  0
VERTEX
  8
W44LXLIFT
 62
1
 10
162.340
 20
-6670.428
 30
862.000
 70
    32
  0
VERTEX
  8
W44LXLIFT
 62
1
 10
177.856
 20
-6695.108
 30
862.000
 70
    32
  0
VERTEX
  8
W44LXLIFT
 62
1
 10
193.511
 20
-6718.929
 30
862.000
 70
    32
  0
SEQEND
  8
W44LXLIFT
  0
POLYLINE
  8
W44LXLIFT
 62
3
 66
     1
 70
     9
  0
VERTEX
  8
W44LXLIFT
 62
3
 10
190.807
 20
-6805.367
 30
927.000
 70
    32
  0
VERTEX
  8
W44LXLIFT
 62
3
 10
192.975
 20
-6795.900
 30
927.000
 70
    32
  0
VERTEX
  8
W44LXLIFT
 62
3
 10
196.272
 20
-6795.366
 30
927.000
 70
    32
  0
VERTEX
  8
W44LXLIFT
 62
3
 10
192.408
 20
-6776.926
 30
927.000
 70
    32
  0
VERTEX
  8
W44LXLIFT
 62
3
 10
191.495
 20
-6765.889
 30
927.000
 70
    32
  0
VERTEX
  8
W44LXLIFT
 62
3
 10
187.217
 20
-6756.193
 30
927.000
 70
    32
  0
VERTEX
  8
W44LXLIFT
 62
3
 10
191.580
 20
-6754.133
 30
927.000
 70
    32
  0
VERTEX
  8
W44LXLIFT
 62
3
 10
188.036
 20
-6733.730
 30
927.000
 70
    32
  0
VERTEX
  8
W44LXLIFT
 62
3
 10
174.757
 20
-6725.971
 30
927.000
 70
    32
  0
VERTEX
  8
W44LXLIFT
 62
3
 10
169.570
 20
-6716.064
 30
927.000
 70
    32
  0
VERTEX
  8
W44LXLIFT
 62
3
 10
166.404
 20
-6716.179
 30
927.000
 70
    32
  0
VERTEX
  8
W44LXLIFT
 62
3
 10
164.344
 20
-6711.816
 30
927.000
 70
    32
  0
VERTEX
  8
W44LXLIFT
 62
3
 10
153.661
 20
-6714.423
 30
927.000
 70
    32
  0
VERTEX
  8
W44LXLIFT
 62
3
 10
154.347
 20
-6719.884
 30
927.000
 70
    32
  0
VERTEX
  8
W44LXLIFT
 62
3
 10
153.018
 20
-6722.249
 30
927.000
 70
    32
  0
VERTEX
  8
W44LXLIFT
 62
3
 10
147.113
 20
-6726.828
 30
927.000
 70
    32
  0
VERTEX
  8
W44LXLIFT
 62
3
 10
147.086
 20
-6732.803
 30
927.000
 70
    32
  0
VERTEX
  8
W44LXLIFT
 62
3
 10
150.796
 20
-6740.959
 30
927.000
 70
    32
  0
VERTEX
  8
W44LXLIFT
 62
3
 10
152.031
 20
-6753.496
 30
927.000
 70
    32
  0
VERTEX
  8
W44LXLIFT
 62
3
 10
159.533
 20
-6767.366
 30
927.000
 70
    32
  0
VERTEX
  8
W44LXLIFT
 62
3
 10
164.245
 20
-6778.265
 30
927.000
 70
    32
  0
VERTEX
  8
W44LXLIFT
 62
3
 10
173.480
 20
-6781.466
 30
927.000
 70
    32
  0
VERTEX
  8
W44LXLIFT
 62
3
 10
177.502
 20
-6793.511
 30
927.000
 70
    32
  0
VERTEX
  8
W44LXLIFT
 62
3
 10
179.207
 20
-6803.544
 30
927.000
 70
    32
  0
VERTEX
  8
W44LXLIFT
 62
3
 10
182.858
 20
-6804.704
 30
927.000
 70
    32
  0
SEQEND
  8
W44LXLIFT
  0
POLYLINE
  8
W44LXLIFT
 62
1
 66
     1
 70
     9
  0
VERTEX
  8
W44LXLIFT
 62
1
 10
497.828
 20
-7206.795
 30
850.690
 70
    32
  0
VERTEX
  8
W44LXLIFT
 62
1
 10
494.653
 20
-7192.429
 30
850.563
 70
    32
  0
VERTEX
  8
W44LXLIFT
 62
1
 10
488.721
 20
-7171.739
 30
850.385
 70
    32
  0
VERTEX
  8
W44LXLIFT
 62
1
 10
480.817
 20
-7152.837
 30
850.232
 70
    32
  0
VERTEX
  8
W44LXLIFT
 62
1
 10
478.881
 20
-7147.549
 30
850.188
 70
    32
  0
VERTEX
  8
W44LXLIFT
 62
1
 10
476.344
 20
-7139.686
 30
850.121
 70
    32
  0
VERTEX
  8
W44LXLIFT
 62
1
 10
476.080
 20
-7132.177
 30
850.050
 70
    32
  0
VERTEX
  8
W44LXLIFT
 62
1
 10
472.598
 20
-7118.450
 30
849.930
 70
    32
  0
VERTEX
  8
W44LXLIFT
 62
1
 10
470.222
 20
-7105.242
 30
849.812
 70
    32
  0
VERTEX
  8
W44LXLIFT
 62
1
 10
469.756
 20
-7101.932
 30
849.782
 70
    32
  0
VERTEX
  8
W44LXLIFT
 62
1
 10
465.982
 20
-7097.698
 30
849.754
 70
    32
  0
VERTEX
  8
W44LXLIFT
 62
1
 10
451.476
 20
-7101.290
 30
849.841
 70
    32
  0
VERTEX
  8
W44LXLIFT
 62
1
 10
445.975
 20
-7098.887
 30
849.838
 70
    32
  0
VERTEX
  8
W44LXLIFT
 62
1
 10
441.057
 20
-7074.401
 30
849.620
 70
    32
  0
VERTEX
  8
W44LXLIFT
 62
1
 10
431.178
 20
-7066.579
 30
849.580
 70
    32
  0
VERTEX
  8
W44LXLIFT
 62
1
 10
424.947
 20
-7059.553
 30
849.535
 70
    32
  0
VERTEX
  8
W44LXLIFT
 62
1
 10
421.212
 20
-7046.854
 30
849.426
 70
    32
  0
VERTEX
  8
W44LXLIFT
 62
1
 10
422.469
 20
-7038.297
 30
849.339
 70
    32
  0
VERTEX
  8
W44LXLIFT
 62
1
 10
422.240
 20
-7036.106
 30
849.319
 70
    32
  0
VERTEX
  8
W44LXLIFT
 62
1
 10
416.292
 20
-7020.661
 30
849.192
 70
    32
  0
VERTEX
  8
W44LXLIFT
 62
1
 10
415.928
 20
-7019.203
 30
849.179
 70
    32
  0
VERTEX
  8
W44LXLIFT
 62
1
 10
418.826
 20
-7015.816
 30
849.136
 70
    32
  0
VERTEX
  8
W44LXLIFT
 62
1
 10
416.232
 20
-7008.953
 30
849.079
 70
    32
  0
VERTEX
  8
W44LXLIFT
 62
1
 10
422.811
 20
-7000.680
 30
848.976
 70
    32
  0
VERTEX
  8
W44LXLIFT
 62
1
 10
419.797
 20
-6991.970
 30
848.903
 70
    32
  0
VERTEX
  8
W44LXLIFT
 62
1
 10
423.954
 20
-6985.219
 30
848.823
 70
    32
  0
VERTEX
  8
W44LXLIFT
 62
1
 10
426.197
 20
-6981.577
 30
848.873
 70
    32
  0
VERTEX
  8
W44LXLIFT
 62
1
 10
427.874
 20
-6979.673
 30
848.903
 70
    32
  0
VERTEX
  8
W44LXLIFT
 62
1
 10
426.970
 20
-6970.150
 30
848.979
 70
    32
  0
VERTEX
  8
W44LXLIFT
 62
1
 10
424.740
 20
-6961.647
 30
849.036
 70
    32
  0
VERTEX
  8
W44LXLIFT
 62
1
 10
426.421
 20
-6958.352
 30
849.078
 70
    32
  0
VERTEX
  8
W44LXLIFT
 62
1
 10
428.420
 20
-6956.760
 30
849.108
 70
    32
  0
VERTEX
  8
W44LXLIFT
 62
1
 10
424.203
 20
-6952.191
 30
849.114
 70
    32
  0
VERTEX
  8
W44LXLIFT
 62
1
 10
430.906
 20
-6934.647
 30
849.321
 70
    32
  0
VERTEX
  8
W44LXLIFT
 62
1
 10
438.413
 20
-6929.578
 30
849.425
 70
    32
  0
VERTEX
  8
W44LXLIFT
 62
1
 10
450.893
 20
-6946.288
 30
849.378
 70
    32
  0
VERTEX
  8
W44LXLIFT
 62
1
 10
456.798
 20
-6949.586
 30
849.396
 70
    32
  0
VERTEX
  8
W44LXLIFT
 62
1
 10
459.854
 20
-6959.442
 30
849.334
 70
    32
  0
VERTEX
  8
W44LXLIFT
 62
1
 10
466.080
 20
-6961.345
 30
849.366
 70
    32
  0
VERTEX
  8
W44LXLIFT
 62
1
 10
466.483
 20
-6965.339
 30
849.335
 70
    32
  0
VERTEX
  8
W44LXLIFT
 62
1
 10
472.991
 20
-6976.019
 30
849.293
 70
    32
  0
VERTEX
  8
W44LXLIFT
 62
1
 10
469.009
 20
-6992.863
 30
849.114
 70
    32
  0
VERTEX
  8
W44LXLIFT
 62
1
 10
467.041
 20
-6998.064
 30
849.053
 70
    32
  0
VERTEX
  8
W44LXLIFT
 62
1
 10
464.545
 20
-7000.640
 30
849.010
 70
    32
  0
VERTEX
  8
W44LXLIFT
 62
1
 10
461.591
 20
-7003.637
 30
848.961
 70
    32
  0
VERTEX
  8
W44LXLIFT
 62
1
 10
461.418
 20
-7008.720
 30
848.915
 70
    32
  0
VERTEX
  8
W44LXLIFT
 62
1
 10
460.386
 20
-7039.073
 30
849.211
 70
    32
  0
VERTEX
  8
W44LXLIFT
 62
1
 10
466.738
 20
-7044.414
 30
849.239
 70
    32
  0
VERTEX
  8
W44LXLIFT
 62
1
 10
469.946
 20
-7042.095
 30
849.205
 70
    32
  0
VERTEX
  8
W44LXLIFT
 62
1
 10
473.114
 20
-7029.338
 30
849.071
 70
    32
  0
VERTEX
  8
W44LXLIFT
 62
1
 10
484.584
 20
-7023.252
 30
848.972
 70
    32
  0
VERTEX
  8
W44LXLIFT
 62
1
 10
489.927
 20
-7020.417
 30
849.039
 70
    32
  0
VERTEX
  8
W44LXLIFT
 62
1
 10
494.166
 20
-7020.058
 30
849.076
 70
    32
  0
VERTEX
  8
W44LXLIFT
 62
1
 10
495.182
 20
-7017.969
 30
849.102
 70
    32
  0
VERTEX
  8
W44LXLIFT
 62
1
 10
504.572
 20
-7011.603
 30
849.232
 70
    32
  0
VERTEX
  8
W44LXLIFT
 62
1
 10
508.561
 20
-7010.883
 30
849.270
 70
    32
  0
VERTEX
  8
W44LXLIFT
 62
1
 10
516.792
 20
-7016.316
 30
849.288
 70
    32
  0
VERTEX
  8
W44LXLIFT
 62
1
 10
519.379
 20
-7024.252
 30
849.239
 70
    32
  0
VERTEX
  8
W44LXLIFT
 62
1
 10
517.402
 20
-7028.819
 30
849.183
 70
    32
  0
VERTEX
  8
W44LXLIFT
 62
1
 10
507.615
 20
-7036.314
 30
849.040
 70
    32
  0
VERTEX
  8
W44LXLIFT
 62
1
 10
505.568
 20
-7036.415
 30
849.023
 70
    32
  0
VERTEX
  8
W44LXLIFT
 62
1
 10
497.598
 20
-7036.811
 30
849.055
 70
    32
  0
VERTEX
  8
W44LXLIFT
 62
1
 10
483.338
 20
-7045.253
 30
849.188
 70
    32
  0
VERTEX
  8
W44LXLIFT
 62
1
 10
481.315
 20
-7050.065
 30
849.241
 70
    32
  0
VERTEX
  8
W44LXLIFT
 62
1
 10
477.044
 20
-7049.912
 30
849.255
 70
    32
  0
VERTEX
  8
W44LXLIFT
 62
1
 10
471.270
 20
-7053.466
 30
849.310
 70
    32
  0
VERTEX
  8
W44LXLIFT
 62
1
 10
468.523
 20
-7069.778
 30
849.477
 70
    32
  0
VERTEX
  8
W44LXLIFT
 62
1
 10
470.649
 20
-7074.721
 30
849.517
 70
    32
  0
VERTEX
  8
W44LXLIFT
 62
1
 10
470.614
 20
-7078.697
 30
849.555
 70
    32
  0
VERTEX
  8
W44LXLIFT
 62
1
 10
476.546
 20
-7082.191
 30
849.567
 70
    32
  0
VERTEX
  8
W44LXLIFT
 62
1
 10
482.038
 20
-7080.861
 30
849.535
 70
    32
  0
VERTEX
  8
W44LXLIFT
 62
1
 10
486.547
 20
-7079.035
 30
849.501
 70
    32
  0
VERTEX
  8
W44LXLIFT
 62
1
 10
493.335
 20
-7074.783
 30
849.436
 70
    32
  0
VERTEX
  8
W44LXLIFT
 62
1
 10
508.372
 20
-7086.525
 30
849.495
 70
    32
  0
VERTEX
  8
W44LXLIFT
 62
1
 10
521.709
 20
-7114.393
 30
849.715
 70
    32
  0
VERTEX
  8
W44LXLIFT
 62
1
 10
525.069
 20
-7117.097
 30
849.729
 70
    32
  0
VERTEX
  8
W44LXLIFT
 62
1
 10
528.328
 20
-7119.656
 30
849.742
 70
    32
  0
VERTEX
  8
W44LXLIFT
 62
1
 10
517.931
 20
-7138.038
 30
849.956
 70
    32
  0
VERTEX
  8
W44LXLIFT
 62
1
 10
517.698
 20
-7140.335
 30
849.979
 70
    32
  0
VERTEX
  8
W44LXLIFT
 62
1
 10
527.158
 20
-7157.311
 30
850.108
 70
    32
  0
VERTEX
  8
W44LXLIFT
 62
1
 10
530.261
 20
-7168.629
 30
850.206
 70
    32
  0
VERTEX
  8
W44LXLIFT
 62
1
 10
533.561
 20
-7181.627
 30
850.319
 70
    32
  0
VERTEX
  8
W44LXLIFT
 62
1
 10
533.043
 20
-7187.538
 30
850.378
 70
    32
  0
VERTEX
  8
W44LXLIFT
 62
1
 10
539.258
 20
-7206.004
 30
850.533
 70
    32
  0
VERTEX
  8
W44LXLIFT
 62
1
 10
533.161
 20
-7212.343
 30
850.616
 70
    32
  0
VERTEX
  8
W44LXLIFT
 62
1
 10
534.900
 20
-7215.378
 30
850.639
 70
    32
  0
VERTEX
  8
W44LXLIFT
 62
1
 10
535.794
 20
-7216.937
 30
850.624
 70
    32
  0
VERTEX
  8
W44LXLIFT
 62
1
 10
540.411
 20
-7222.085
 30
850.567
 70
    32
  0
VERTEX
  8
W44LXLIFT
 62
1
 10
542.250
 20
-7225.837
 30
850.533
 70
    32
  0
VERTEX
  8
W44LXLIFT
 62
1
 10
543.290
 20
-7231.528
 30
850.488
 70
    32
  0
VERTEX
  8
W44LXLIFT
 62
1
 10
546.975
 20
-7237.959
 30
850.426
 70
    32
  0
VERTEX
  8
W44LXLIFT
 62
1
 10
539.929
 20
-7242.423
 30
850.425
 70
    32
  0
VERTEX
  8
W44LXLIFT
 62
1
 10
539.319
 20
-7242.810
 30
850.436
 70
    32
  0
VERTEX
  8
W44LXLIFT
 62
1
 10
531.263
 20
-7247.082
 30
850.575
 70
    32
  0
VERTEX
  8
W44LXLIFT
 62
1
 10
528.443
 20
-7241.443
 30
850.521
 70
    32
  0
VERTEX
  8
W44LXLIFT
 62
1
 10
527.284
 20
-7239.348
 30
850.501
 70
    32
  0
VERTEX
  8
W44LXLIFT
 62
1
 10
525.406
 20
-7235.953
 30
850.533
 70
    32
  0
VERTEX
  8
W44LXLIFT
 62
1
 10
518.073
 20
-7231.823
 30
850.595
 70
    32
  0
VERTEX
  8
W44LXLIFT
 62
1
 10
514.545
 20
-7224.536
 30
850.662
 70
    32
  0
VERTEX
  8
W44LXLIFT
 62
1
 10
512.608
 20
-7222.347
 30
850.686
 70
    32
  0
VERTEX
  8
W44LXLIFT
 62
1
 10
511.374
 20
-7216.683
 30
850.731
 70
    32
  0
VERTEX
  8
W44LXLIFT
 62
1
 10
506.968
 20
-7217.263
 30
850.746
 70
    32
  0
VERTEX
  8
W44LXLIFT
 62
1
 10
503.108
 20
-7220.031
 30
850.743
 70
    32
  0
VERTEX
  8
W44LXLIFT
 62
1
 10
497.050
 20
-7221.003
 30
850.762
 70
    32
  0
SEQEND
  8
W44LXLIFT
  0
POLYLINE
  8
W44LXLIFT
 62
1
 66
     1
 70
     9
  0
VERTEX
  8
W44LXLIFT
 62
1
 10
707.761
 20
-7209.357
 30
849.936
 70
    32
  0
VERTEX
  8
W44LXLIFT
 62
1
 10
707.323
 20
-7207.886
 30
849.948
 70
    32
  0
VERTEX
  8
W44LXLIFT
 62
1
 10
700.529
 20
-7185.078
 30
849.753
 70
    32
  0
VERTEX
  8
W44LXLIFT
 62
1
 10
711.554
 20
-7175.662
 30
849.623
 70
    32
  0
VERTEX
  8
W44LXLIFT
 62
1
 10
717.140
 20
-7177.258
 30
849.618
 70
    32
  0
VERTEX
  8
W44LXLIFT
 62
1
 10
725.431
 20
-7186.496
 30
849.678
 70
    32
  0
VERTEX
  8
W44LXLIFT
 62
1
 10
732.634
 20
-7191.676
 30
849.702
 70
    32
  0
VERTEX
  8
W44LXLIFT
 62
1
 10
739.642
 20
-7196.885
 30
849.726
 70
    32
  0
VERTEX
  8
W44LXLIFT
 62
1
 10
741.644
 20
-7200.098
 30
849.750
 70
    32
  0
VERTEX
  8
W44LXLIFT
 62
1
 10
738.122
 20
-7206.548
 30
849.825
 70
    32
  0
VERTEX
  8
W44LXLIFT
 62
1
 10
736.687
 20
-7209.176
 30
849.812
 70
    32
  0
VERTEX
  8
W44LXLIFT
 62
1
 10
736.941
 20
-7212.952
 30
849.784
 70
    32
  0
VERTEX
  8
W44LXLIFT
 62
1
 10
733.920
 20
-7216.317
 30
849.773
 70
    32
  0
VERTEX
  8
W44LXLIFT
 62
1
 10
724.071
 20
-7224.495
 30
849.758
 70
    32
  0
SEQEND
  8
W44LXLIFT
  0
POINT
  8
W44LXLIFT
 62
4
 10
430.800
 20
-7162.147
 30
949.457
  0
POINT
  8
W44LXLIFT
 62
4
 10
502.320
 20
-7152.195
 30
852.404
  0
LINE
  8
W44LXLIFT
 62
4
 10
430.800
 20
-7162.147
 30
949.457
 11
502.320
 21
-7152.195
 31
852.404
  0
POINT
  8
W44LXLIFT
 62
4
 10
425.794
 20
-7080.897
 30
958.741
  0
LINE
  8
W44LXLIFT
 62
4
 10
393.813
 20
-7111.229
 30
1088.172
 11
425.794
 21
-7080.897
 31
958.741
  0
POINT
  8
W44LXLIFT
 62
4
 10
393.813
 20
-7111.229
 30
1088.172
  0
POINT
  8
W44LXLIFT
 62
3
 10
175.447
 20
-6750.058
 30
927.000
  0
POINT
  8
W44LXLIFT
 62
3
 10
179.143
 20
-6672.039
 30
862.000
  0
LINE
  8
W44LXLIFT
 62
3
 10
175.447
 20
-6750.058
 30
927.000
 11
179.143
 21
-6672.039
 31
862.000
  0
POINT
  8
W44LXLIFT
 62
8
 10
758.084
 20
-7267.263
 30
896.000
  0
POINT
  8
W44LXLIFT
 62
2
 10
734.375
 20
-7571.279
 30
1000.000
  0
POINT
  8
W44LXLIFT
 62
2
 10
746.068
 20
-7504.512
 30
886.000
  0
LINE
  8
W44LXLIFT
 62
2
 10
734.375
 20
-7571.279
 30
1000.000
 11
746.068
 21
-7504.512
 31
886.000
  0
POINT
  8
W44LXLIFT
 62
4
 10
452.661
 20
-7057.403
 30
839.754
  0
LINE
  8
W44LXLIFT
 62
4
 10
452.661
 20
-7057.403
 30
839.754
 11
524.392
 21
-7029.366
 31
721.000
  0
POINT
  8
W44LXLIFT
 62
4
 10
524.392
 20
-7029.366
 30
721.000
  0
LINE
  8
W44LXLIFT
 62
4
 10
758.084
 20
-7267.263
 30
896.000
 11
813.612
 21
-7249.568
 31
815.000
  0
POINT
  8
W44LXLIFT
 62
1
 10
813.612
 20
-7249.568
 30
815.000
  0
POINT
  8
W44LXLIFT
 62
1
 10
742.385
 20
-7338.209
 30
1005.000
  0
LINE
  8
W44LXLIFT
 62
4
 10
769.590
 20
-7298.857
 30
910.000
 11
742.385
 21
-7338.209
 31
1005.000
  0
POINT
  8
W44LXLIFT
 62
1
 10
769.590
 20
-7298.857
 30
910.000
  0
POLYLINE
  8
W44LXLIFT
 62
6
 66
     1
 70
     9
  0
VERTEX
  8
W44LXLIFT
 62
6
 10
605.895
 20
-7234.151
 30
848.000
 70
    32
  0
VERTEX
  8
W44LXLIFT
 62
6
 10
587.059
 20
-7230.718
 30
848.000
 70
    32
  0
VERTEX
  8
W44LXLIFT
 62
6
 10
584.398
 20
-7227.327
 30
848.000
 70
    32
  0
VERTEX
  8
W44LXLIFT
 62
6
 10
586.174
 20
-7215.211
 30
848.000
 70
    32
  0
VERTEX
  8
W44LXLIFT
 62
6
 10
574.057
 20
-7206.068
 30
848.000
 70
    32
  0
VERTEX
  8
W44LXLIFT
 62
6
 10
569.557
 20
-7195.767
 30
848.000
 70
    32
  0
VERTEX
  8
W44LXLIFT
 62
6
 10
579.317
 20
-7184.506
 30
848.000
 70
    32
  0
VERTEX
  8
W44LXLIFT
 62
6
 10
579.392
 20
-7180.551
 30
848.000
 70
    32
  0
VERTEX
  8
W44LXLIFT
 62
6
 10
585.273
 20
-7177.286
 30
848.000
 70
    32
  0
VERTEX
  8
W44LXLIFT
 62
6
 10
590.322
 20
-7179.931
 30
848.000
 70
    32
  0
VERTEX
  8
W44LXLIFT
 62
6
 10
590.436
 20
-7185.050
 30
848.000
 70
    32
  0
VERTEX
  8
W44LXLIFT
 62
6
 10
589.189
 20
-7189.633
 30
848.000
 70
    32
  0
VERTEX
  8
W44LXLIFT
 62
6
 10
601.053
 20
-7203.835
 30
848.000
 70
    32
  0
VERTEX
  8
W44LXLIFT
 62
6
 10
603.152
 20
-7207.198
 30
848.000
 70
    32
  0
VERTEX
  8
W44LXLIFT
 62
6
 10
604.447
 20
-7215.908
 30
848.000
 70
    32
  0
SEQEND
  8
W44LXLIFT
  0
POLYLINE
  8
W44LXLIFT
 62
1
 66
     1
 70
     9
  0
VERTEX
  8
W44LXLIFT
 62
1
 10
606.895
 20
-7233.151
 30
858.000
 70
    32
  0
VERTEX
  8
W44LXLIFT
 62
1
 10
588.059
 20
-7229.718
 30
858.000
 70
    32
  0
VERTEX
  8
W44LXLIFT
 62
1
 10
585.398
 20
-7226.327
 30
858.000
 70
    32
  0
VERTEX
  8
W44LXLIFT
 62
1
 10
587.174
 20
-7214.211
 30
858.000
 70
    32
  0
VERTEX
  8
W44LXLIFT
 62
1
 10
575.057
 20
-7205.068
 30
858.000
 70
    32
  0
VERTEX
  8
W44LXLIFT
 62
1
 10
570.557
 20
-7194.767
 30
858.000
 70
    32
  0
VERTEX
  8
W44LXLIFT
 62
1
 10
580.317
 20
-7183.506
 30
858.000
 70
    32
  0
VERTEX
  8
W44LXLIFT
 62
1
 10
580.392
 20
-7179.551
 30
858.000
 70
    32
  0
VERTEX
  8
W44LXLIFT
 62
1
 10
586.273
 20
-7176.286
 30
858.000
 70
    32
  0
VERTEX
  8
W44LXLIFT
 62
1
 10
591.322
 20
-7178.931
 30
858.000
 70
    32
  0
VERTEX
  8
W44LXLIFT
 62
1
 10
591.436
 20
-7184.050
 30
858.000
 70
    32
  0
VERTEX
  8
W44LXLIFT
 62
1
 10
590.189
 20
-7188.633
 30
858.000
 70
    32
  0
VERTEX
  8
W44LXLIFT
 62
1
 10
602.053
 20
-7202.835
 30
858.000
 70
    32
  0
VERTEX
  8
W44LXLIFT
 62
1
 10
604.152
 20
-7206.198
 30
858.000
 70
    32
  0
VERTEX
  8
W44LXLIFT
 62
1
 10
605.447
 20
-7214.908
 30
858.000
 70
    32
  0
SEQEND
  8
W44LXLIFT
  0
ENDSEC
  0
EOF
