999
********************************
999
*   DXF File - Entities Only   *
999
*        3D Data Format        *
999
*     Output from ENVISAGE     *
999
*     31-Dec-2007 15:41:25     *
999
********************************
  0
SECTION 
  2
HEADER
  9
$ACADVER
  1
AC1009
  9
$EXTMIN
 10
-290000.000
 20
-250000.000
 30
-4000.000
  9
$EXTMAX
 10
320000.000
 20
160000.000
 30
6000.000
  0
ENDSEC
  0
SECTION
  2
ENTITIES
  0
POLYLINE
  8
W45LXLIFT
 62
1
 66
     1
 70
     9
  0
VERTEX
  8
W45LXLIFT
 62
1
 10
471.965
 20
-6683.726
 30
702.000
 70
    32
  0
VERTEX
  8
W45LXLIFT
 62
1
 10
464.983
 20
-6667.943
 30
702.000
 70
    32
  0
VERTEX
  8
W45LXLIFT
 62
1
 10
456.366
 20
-6652.101
 30
702.000
 70
    32
  0
VERTEX
  8
W45LXLIFT
 62
1
 10
449.540
 20
-6646.737
 30
702.000
 70
    32
  0
VERTEX
  8
W45LXLIFT
 62
1
 10
441.658
 20
-6634.329
 30
702.000
 70
    32
  0
VERTEX
  8
W45LXLIFT
 62
1
 10
439.284
 20
-6624.245
 30
702.000
 70
    32
  0
VERTEX
  8
W45LXLIFT
 62
1
 10
429.163
 20
-6621.861
 30
702.000
 70
    32
  0
VERTEX
  8
W45LXLIFT
 62
1
 10
420.565
 20
-6611.533
 30
702.000
 70
    32
  0
VERTEX
  8
W45LXLIFT
 62
1
 10
416.865
 20
-6594.163
 30
702.000
 70
    32
  0
VERTEX
  8
W45LXLIFT
 62
1
 10
425.382
 20
-6591.045
 30
702.000
 70
    32
  0
VERTEX
  8
W45LXLIFT
 62
1
 10
432.689
 20
-6586.302
 30
702.000
 70
    32
  0
VERTEX
  8
W45LXLIFT
 62
1
 10
443.133
 20
-6598.568
 30
702.000
 70
    32
  0
VERTEX
  8
W45LXLIFT
 62
1
 10
450.335
 20
-6608.248
 30
702.000
 70
    32
  0
VERTEX
  8
W45LXLIFT
 62
1
 10
462.461
 20
-6626.601
 30
702.000
 70
    32
  0
VERTEX
  8
W45LXLIFT
 62
1
 10
465.784
 20
-6636.360
 30
702.000
 70
    32
  0
VERTEX
  8
W45LXLIFT
 62
1
 10
469.683
 20
-6654.338
 30
702.000
 70
    32
  0
VERTEX
  8
W45LXLIFT
 62
1
 10
473.870
 20
-6662.236
 30
702.000
 70
    32
  0
VERTEX
  8
W45LXLIFT
 62
1
 10
475.872
 20
-6668.639
 30
702.000
 70
    32
  0
VERTEX
  8
W45LXLIFT
 62
1
 10
480.740
 20
-6676.287
 30
702.000
 70
    32
  0
SEQEND
  8
W45LXLIFT
  0
POLYLINE
  8
W45LXLIFT
 62
3
 66
     1
 70
     9
  0
VERTEX
  8
W45LXLIFT
 62
3
 10
470.965
 20
-6684.726
 30
692.000
 70
    32
  0
VERTEX
  8
W45LXLIFT
 62
3
 10
463.983
 20
-6668.943
 30
692.000
 70
    32
  0
VERTEX
  8
W45LXLIFT
 62
3
 10
455.366
 20
-6653.101
 30
692.000
 70
    32
  0
VERTEX
  8
W45LXLIFT
 62
3
 10
448.540
 20
-6647.737
 30
692.000
 70
    32
  0
VERTEX
  8
W45LXLIFT
 62
3
 10
440.658
 20
-6635.329
 30
692.000
 70
    32
  0
VERTEX
  8
W45LXLIFT
 62
3
 10
438.284
 20
-6625.245
 30
692.000
 70
    32
  0
VERTEX
  8
W45LXLIFT
 62
3
 10
428.163
 20
-6622.861
 30
692.000
 70
    32
  0
VERTEX
  8
W45LXLIFT
 62
3
 10
419.565
 20
-6612.533
 30
692.000
 70
    32
  0
VERTEX
  8
W45LXLIFT
 62
3
 10
415.865
 20
-6595.163
 30
692.000
 70
    32
  0
VERTEX
  8
W45LXLIFT
 62
3
 10
424.382
 20
-6592.045
 30
692.000
 70
    32
  0
VERTEX
  8
W45LXLIFT
 62
3
 10
431.689
 20
-6587.302
 30
692.000
 70
    32
  0
VERTEX
  8
W45LXLIFT
 62
3
 10
442.133
 20
-6599.568
 30
692.000
 70
    32
  0
VERTEX
  8
W45LXLIFT
 62
3
 10
449.335
 20
-6609.248
 30
692.000
 70
    32
  0
VERTEX
  8
W45LXLIFT
 62
3
 10
461.461
 20
-6627.601
 30
692.000
 70
    32
  0
VERTEX
  8
W45LXLIFT
 62
3
 10
464.784
 20
-6637.360
 30
692.000
 70
    32
  0
VERTEX
  8
W45LXLIFT
 62
3
 10
468.683
 20
-6655.338
 30
692.000
 70
    32
  0
VERTEX
  8
W45LXLIFT
 62
3
 10
472.870
 20
-6663.236
 30
692.000
 70
    32
  0
VERTEX
  8
W45LXLIFT
 62
3
 10
474.872
 20
-6669.639
 30
692.000
 70
    32
  0
VERTEX
  8
W45LXLIFT
 62
3
 10
479.740
 20
-6677.287
 30
692.000
 70
    32
  0
SEQEND
  8
W45LXLIFT
  0
POLYLINE
  8
W45LXLIFT
 62
1
 66
     1
 70
     9
  0
VERTEX
  8
W45LXLIFT
 62
1
 10
430.838
 20
-6958.239
 30
724.000
 70
    32
  0
VERTEX
  8
W45LXLIFT
 62
1
 10
402.880
 20
-6937.546
 30
724.000
 70
    32
  0
VERTEX
  8
W45LXLIFT
 62
1
 10
392.211
 20
-6933.726
 30
724.000
 70
    32
  0
VERTEX
  8
W45LXLIFT
 62
1
 10
383.742
 20
-6924.373
 30
724.000
 70
    32
  0
VERTEX
  8
W45LXLIFT
 62
1
 10
375.892
 20
-6909.818
 30
724.000
 70
    32
  0
VERTEX
  8
W45LXLIFT
 62
1
 10
396.563
 20
-6900.797
 30
724.000
 70
    32
  0
VERTEX
  8
W45LXLIFT
 62
1
 10
401.355
 20
-6901.906
 30
724.000
 70
    32
  0
VERTEX
  8
W45LXLIFT
 62
1
 10
402.902
 20
-6909.361
 30
724.000
 70
    32
  0
VERTEX
  8
W45LXLIFT
 62
1
 10
410.160
 20
-6913.794
 30
724.000
 70
    32
  0
VERTEX
  8
W45LXLIFT
 62
1
 10
414.440
 20
-6921.203
 30
724.000
 70
    32
  0
VERTEX
  8
W45LXLIFT
 62
1
 10
426.926
 20
-6904.657
 30
724.000
 70
    32
  0
VERTEX
  8
W45LXLIFT
 62
1
 10
435.928
 20
-6904.293
 30
724.000
 70
    32
  0
VERTEX
  8
W45LXLIFT
 62
1
 10
450.009
 20
-6923.021
 30
724.000
 70
    32
  0
VERTEX
  8
W45LXLIFT
 62
1
 10
467.651
 20
-6941.355
 30
724.000
 70
    32
  0
VERTEX
  8
W45LXLIFT
 62
1
 10
474.694
 20
-6968.045
 30
724.000
 70
    32
  0
VERTEX
  8
W45LXLIFT
 62
1
 10
454.770
 20
-6982.087
 30
724.000
 70
    32
  0
VERTEX
  8
W45LXLIFT
 62
1
 10
439.869
 20
-6964.659
 30
724.000
 70
    32
  0
SEQEND
  8
W45LXLIFT
  0
POLYLINE
  8
W45LXLIFT
 62
6
 66
     1
 70
     9
  0
VERTEX
  8
W45LXLIFT
 62
6
 10
429.838
 20
-6959.239
 30
714.000
 70
    32
  0
VERTEX
  8
W45LXLIFT
 62
6
 10
401.880
 20
-6938.546
 30
714.000
 70
    32
  0
VERTEX
  8
W45LXLIFT
 62
6
 10
391.211
 20
-6934.726
 30
714.000
 70
    32
  0
VERTEX
  8
W45LXLIFT
 62
6
 10
382.742
 20
-6925.373
 30
714.000
 70
    32
  0
VERTEX
  8
W45LXLIFT
 62
6
 10
374.892
 20
-6910.818
 30
714.000
 70
    32
  0
VERTEX
  8
W45LXLIFT
 62
6
 10
395.563
 20
-6901.797
 30
714.000
 70
    32
  0
VERTEX
  8
W45LXLIFT
 62
6
 10
400.355
 20
-6902.906
 30
714.000
 70
    32
  0
VERTEX
  8
W45LXLIFT
 62
6
 10
401.902
 20
-6910.361
 30
714.000
 70
    32
  0
VERTEX
  8
W45LXLIFT
 62
6
 10
409.160
 20
-6914.794
 30
714.000
 70
    32
  0
VERTEX
  8
W45LXLIFT
 62
6
 10
413.440
 20
-6922.203
 30
714.000
 70
    32
  0
VERTEX
  8
W45LXLIFT
 62
6
 10
425.926
 20
-6905.657
 30
714.000
 70
    32
  0
VERTEX
  8
W45LXLIFT
 62
6
 10
434.928
 20
-6905.293
 30
714.000
 70
    32
  0
VERTEX
  8
W45LXLIFT
 62
6
 10
449.009
 20
-6924.021
 30
714.000
 70
    32
  0
VERTEX
  8
W45LXLIFT
 62
6
 10
466.651
 20
-6942.355
 30
714.000
 70
    32
  0
VERTEX
  8
W45LXLIFT
 62
6
 10
473.694
 20
-6969.045
 30
714.000
 70
    32
  0
VERTEX
  8
W45LXLIFT
 62
6
 10
453.770
 20
-6983.087
 30
714.000
 70
    32
  0
VERTEX
  8
W45LXLIFT
 62
6
 10
438.869
 20
-6965.659
 30
714.000
 70
    32
  0
SEQEND
  8
W45LXLIFT
  0
POLYLINE
  8
W45LXLIFT
 62
13
 66
     1
 70
     9
  0
VERTEX
  8
W45LXLIFT
 62
13
 10
349.170
 20
-6957.069
 30
827.000
 70
    32
  0
VERTEX
  8
W45LXLIFT
 62
13
 10
350.196
 20
-6944.786
 30
827.000
 70
    32
  0
VERTEX
  8
W45LXLIFT
 62
13
 10
356.224
 20
-6941.761
 30
827.000
 70
    32
  0
VERTEX
  8
W45LXLIFT
 62
13
 10
368.059
 20
-6935.543
 30
827.000
 70
    32
  0
VERTEX
  8
W45LXLIFT
 62
13
 10
372.214
 20
-6927.091
 30
827.000
 70
    32
  0
VERTEX
  8
W45LXLIFT
 62
13
 10
377.979
 20
-6924.776
 30
827.000
 70
    32
  0
VERTEX
  8
W45LXLIFT
 62
13
 10
382.838
 20
-6918.930
 30
827.000
 70
    32
  0
VERTEX
  8
W45LXLIFT
 62
13
 10
387.909
 20
-6915.279
 30
827.000
 70
    32
  0
VERTEX
  8
W45LXLIFT
 62
13
 10
396.638
 20
-6914.356
 30
827.000
 70
    32
  0
VERTEX
  8
W45LXLIFT
 62
13
 10
405.998
 20
-6916.088
 30
827.000
 70
    32
  0
VERTEX
  8
W45LXLIFT
 62
13
 10
408.904
 20
-6919.432
 30
827.000
 70
    32
  0
VERTEX
  8
W45LXLIFT
 62
13
 10
408.101
 20
-6925.930
 30
827.000
 70
    32
  0
VERTEX
  8
W45LXLIFT
 62
13
 10
413.145
 20
-6943.558
 30
827.000
 70
    32
  0
VERTEX
  8
W45LXLIFT
 62
13
 10
407.243
 20
-6950.217
 30
827.000
 70
    32
  0
VERTEX
  8
W45LXLIFT
 62
13
 10
394.849
 20
-6956.709
 30
827.000
 70
    32
  0
VERTEX
  8
W45LXLIFT
 62
13
 10
390.896
 20
-6959.815
 30
827.000
 70
    32
  0
VERTEX
  8
W45LXLIFT
 62
13
 10
390.913
 20
-6971.284
 30
827.000
 70
    32
  0
VERTEX
  8
W45LXLIFT
 62
13
 10
396.580
 20
-6990.615
 30
827.000
 70
    32
  0
VERTEX
  8
W45LXLIFT
 62
13
 10
395.323
 20
-6995.188
 30
827.000
 70
    32
  0
VERTEX
  8
W45LXLIFT
 62
13
 10
391.802
 20
-6997.363
 30
827.000
 70
    32
  0
VERTEX
  8
W45LXLIFT
 62
13
 10
390.443
 20
-7001.474
 30
827.000
 70
    32
  0
VERTEX
  8
W45LXLIFT
 62
13
 10
386.098
 20
-7004.314
 30
827.000
 70
    32
  0
VERTEX
  8
W45LXLIFT
 62
13
 10
383.059
 20
-7002.654
 30
827.000
 70
    32
  0
VERTEX
  8
W45LXLIFT
 62
13
 10
374.363
 20
-6989.204
 30
827.000
 70
    32
  0
VERTEX
  8
W45LXLIFT
 62
13
 10
368.169
 20
-6980.541
 30
827.000
 70
    32
  0
VERTEX
  8
W45LXLIFT
 62
13
 10
356.534
 20
-6971.848
 30
827.000
 70
    32
  0
VERTEX
  8
W45LXLIFT
 62
13
 10
352.685
 20
-6966.485
 30
827.000
 70
    32
  0
SEQEND
  8
W45LXLIFT
  0
POLYLINE
  8
W45LXLIFT
 62
4
 66
     1
 70
     9
  0
VERTEX
  8
W45LXLIFT
 62
4
 10
464.156
 20
-7037.594
 30
711.000
 70
    32
  0
VERTEX
  8
W45LXLIFT
 62
4
 10
471.878
 20
-7038.949
 30
711.000
 70
    32
  0
VERTEX
  8
W45LXLIFT
 62
4
 10
482.946
 20
-7049.940
 30
711.000
 70
    32
  0
VERTEX
  8
W45LXLIFT
 62
4
 10
500.989
 20
-7072.786
 30
711.000
 70
    32
  0
VERTEX
  8
W45LXLIFT
 62
4
 10
509.401
 20
-7087.385
 30
711.000
 70
    32
  0
VERTEX
  8
W45LXLIFT
 62
4
 10
517.824
 20
-7106.548
 30
711.000
 70
    32
  0
VERTEX
  8
W45LXLIFT
 62
4
 10
520.956
 20
-7110.696
 30
711.000
 70
    32
  0
VERTEX
  8
W45LXLIFT
 62
4
 10
527.157
 20
-7111.062
 30
711.000
 70
    32
  0
VERTEX
  8
W45LXLIFT
 62
4
 10
534.698
 20
-7108.075
 30
711.000
 70
    32
  0
VERTEX
  8
W45LXLIFT
 62
4
 10
547.036
 20
-7100.559
 30
711.000
 70
    32
  0
VERTEX
  8
W45LXLIFT
 62
4
 10
547.718
 20
-7088.084
 30
711.000
 70
    32
  0
VERTEX
  8
W45LXLIFT
 62
4
 10
537.864
 20
-7063.832
 30
711.000
 70
    32
  0
VERTEX
  8
W45LXLIFT
 62
4
 10
534.685
 20
-7050.680
 30
711.000
 70
    32
  0
VERTEX
  8
W45LXLIFT
 62
4
 10
552.604
 20
-7063.935
 30
711.000
 70
    32
  0
VERTEX
  8
W45LXLIFT
 62
4
 10
557.216
 20
-7063.997
 30
711.000
 70
    32
  0
VERTEX
  8
W45LXLIFT
 62
4
 10
565.737
 20
-7073.739
 30
711.000
 70
    32
  0
VERTEX
  8
W45LXLIFT
 62
4
 10
570.410
 20
-7069.188
 30
711.000
 70
    32
  0
VERTEX
  8
W45LXLIFT
 62
4
 10
568.500
 20
-7059.003
 30
711.000
 70
    32
  0
VERTEX
  8
W45LXLIFT
 62
4
 10
570.730
 20
-7053.983
 30
711.000
 70
    32
  0
VERTEX
  8
W45LXLIFT
 62
4
 10
568.038
 20
-7040.607
 30
711.000
 70
    32
  0
VERTEX
  8
W45LXLIFT
 62
4
 10
571.289
 20
-7038.190
 30
711.000
 70
    32
  0
VERTEX
  8
W45LXLIFT
 62
4
 10
566.224
 20
-7027.273
 30
711.000
 70
    32
  0
VERTEX
  8
W45LXLIFT
 62
4
 10
562.292
 20
-7020.691
 30
711.000
 70
    32
  0
VERTEX
  8
W45LXLIFT
 62
4
 10
557.492
 20
-7006.087
 30
711.000
 70
    32
  0
VERTEX
  8
W45LXLIFT
 62
4
 10
546.990
 20
-6998.751
 30
711.000
 70
    32
  0
VERTEX
  8
W45LXLIFT
 62
4
 10
534.564
 20
-6998.141
 30
711.000
 70
    32
  0
VERTEX
  8
W45LXLIFT
 62
4
 10
519.748
 20
-6991.499
 30
711.000
 70
    32
  0
VERTEX
  8
W45LXLIFT
 62
4
 10
509.870
 20
-6982.889
 30
711.000
 70
    32
  0
VERTEX
  8
W45LXLIFT
 62
4
 10
501.596
 20
-6976.488
 30
711.000
 70
    32
  0
VERTEX
  8
W45LXLIFT
 62
4
 10
496.593
 20
-6976.478
 30
711.000
 70
    32
  0
VERTEX
  8
W45LXLIFT
 62
4
 10
488.518
 20
-6973.662
 30
711.000
 70
    32
  0
VERTEX
  8
W45LXLIFT
 62
4
 10
456.722
 20
-7020.205
 30
711.000
 70
    32
  0
VERTEX
  8
W45LXLIFT
 62
4
 10
458.525
 20
-7025.999
 30
711.000
 70
    32
  0
SEQEND
  8
W45LXLIFT
  0
POLYLINE
  8
W45LXLIFT
 62
1
 66
     1
 70
     9
  0
VERTEX
  8
W45LXLIFT
 62
1
 10
567.704
 20
-6983.504
 30
692.736
 70
    32
  0
VERTEX
  8
W45LXLIFT
 62
1
 10
563.175
 20
-6989.307
 30
692.770
 70
    32
  0
VERTEX
  8
W45LXLIFT
 62
1
 10
563.278
 20
-6996.711
 30
692.819
 70
    32
  0
VERTEX
  8
W45LXLIFT
 62
1
 10
560.900
 20
-6998.676
 30
692.830
 70
    32
  0
VERTEX
  8
W45LXLIFT
 62
1
 10
565.522
 20
-7012.459
 30
692.926
 70
    32
  0
VERTEX
  8
W45LXLIFT
 62
1
 10
560.637
 20
-7018.828
 30
692.993
 70
    32
  0
VERTEX
  8
W45LXLIFT
 62
1
 10
548.956
 20
-7019.540
 30
693.095
 70
    32
  0
VERTEX
  8
W45LXLIFT
 62
1
 10
537.927
 20
-7014.249
 30
692.967
 70
    32
  0
VERTEX
  8
W45LXLIFT
 62
1
 10
531.114
 20
-6973.682
 30
692.633
 70
    32
  0
VERTEX
  8
W45LXLIFT
 62
1
 10
536.449
 20
-6966.574
 30
692.591
 70
    32
  0
VERTEX
  8
W45LXLIFT
 62
1
 10
549.876
 20
-6962.518
 30
692.578
 70
    32
  0
VERTEX
  8
W45LXLIFT
 62
1
 10
553.647
 20
-6963.647
 30
692.589
 70
    32
  0
VERTEX
  8
W45LXLIFT
 62
1
 10
555.694
 20
-6969.386
 30
692.629
 70
    32
  0
VERTEX
  8
W45LXLIFT
 62
1
 10
560.415
 20
-6971.887
 30
692.651
 70
    32
  0
SEQEND
  8
W45LXLIFT
  0
POLYLINE
  8
W45LXLIFT
 62
1
 66
     1
 70
     9
  0
VERTEX
  8
W45LXLIFT
 62
1
 10
566.409
 20
-7124.016
 30
748.000
 70
    32
  0
VERTEX
  8
W45LXLIFT
 62
1
 10
557.852
 20
-7131.116
 30
748.000
 70
    32
  0
VERTEX
  8
W45LXLIFT
 62
1
 10
552.286
 20
-7135.895
 30
748.000
 70
    32
  0
VERTEX
  8
W45LXLIFT
 62
1
 10
556.460
 20
-7147.480
 30
748.000
 70
    32
  0
VERTEX
  8
W45LXLIFT
 62
1
 10
566.145
 20
-7152.067
 30
748.000
 70
    32
  0
VERTEX
  8
W45LXLIFT
 62
1
 10
575.112
 20
-7155.330
 30
748.000
 70
    32
  0
VERTEX
  8
W45LXLIFT
 62
1
 10
579.441
 20
-7165.301
 30
748.000
 70
    32
  0
VERTEX
  8
W45LXLIFT
 62
1
 10
585.871
 20
-7168.628
 30
748.000
 70
    32
  0
VERTEX
  8
W45LXLIFT
 62
1
 10
594.004
 20
-7175.597
 30
748.000
 70
    32
  0
VERTEX
  8
W45LXLIFT
 62
1
 10
603.883
 20
-7180.155
 30
748.000
 70
    32
  0
VERTEX
  8
W45LXLIFT
 62
1
 10
608.537
 20
-7187.530
 30
748.000
 70
    32
  0
VERTEX
  8
W45LXLIFT
 62
1
 10
618.504
 20
-7195.576
 30
748.000
 70
    32
  0
VERTEX
  8
W45LXLIFT
 62
1
 10
628.818
 20
-7206.713
 30
748.000
 70
    32
  0
VERTEX
  8
W45LXLIFT
 62
1
 10
636.933
 20
-7214.879
 30
748.000
 70
    32
  0
VERTEX
  8
W45LXLIFT
 62
1
 10
651.387
 20
-7221.810
 30
748.000
 70
    32
  0
VERTEX
  8
W45LXLIFT
 62
1
 10
655.313
 20
-7229.374
 30
748.000
 70
    32
  0
VERTEX
  8
W45LXLIFT
 62
1
 10
663.378
 20
-7237.468
 30
748.000
 70
    32
  0
VERTEX
  8
W45LXLIFT
 62
1
 10
659.886
 20
-7249.932
 30
748.000
 70
    32
  0
VERTEX
  8
W45LXLIFT
 62
1
 10
654.887
 20
-7264.532
 30
748.000
 70
    32
  0
VERTEX
  8
W45LXLIFT
 62
1
 10
654.597
 20
-7272.374
 30
748.000
 70
    32
  0
VERTEX
  8
W45LXLIFT
 62
1
 10
638.097
 20
-7284.850
 30
748.000
 70
    32
  0
VERTEX
  8
W45LXLIFT
 62
1
 10
631.819
 20
-7281.739
 30
748.000
 70
    32
  0
VERTEX
  8
W45LXLIFT
 62
1
 10
628.035
 20
-7281.712
 30
748.000
 70
    32
  0
VERTEX
  8
W45LXLIFT
 62
1
 10
615.554
 20
-7268.873
 30
748.000
 70
    32
  0
VERTEX
  8
W45LXLIFT
 62
1
 10
600.726
 20
-7273.179
 30
748.000
 70
    32
  0
VERTEX
  8
W45LXLIFT
 62
1
 10
595.533
 20
-7274.360
 30
748.000
 70
    32
  0
VERTEX
  8
W45LXLIFT
 62
1
 10
583.663
 20
-7266.363
 30
748.000
 70
    32
  0
VERTEX
  8
W45LXLIFT
 62
1
 10
574.976
 20
-7249.132
 30
748.000
 70
    32
  0
VERTEX
  8
W45LXLIFT
 62
1
 10
569.178
 20
-7231.266
 30
748.000
 70
    32
  0
VERTEX
  8
W45LXLIFT
 62
1
 10
560.976
 20
-7214.877
 30
748.000
 70
    32
  0
VERTEX
  8
W45LXLIFT
 62
1
 10
551.898
 20
-7196.630
 30
748.000
 70
    32
  0
VERTEX
  8
W45LXLIFT
 62
1
 10
545.141
 20
-7184.281
 30
748.000
 70
    32
  0
VERTEX
  8
W45LXLIFT
 62
1
 10
542.998
 20
-7177.721
 30
748.000
 70
    32
  0
VERTEX
  8
W45LXLIFT
 62
1
 10
545.064
 20
-7168.735
 30
748.000
 70
    32
  0
VERTEX
  8
W45LXLIFT
 62
1
 10
547.025
 20
-7163.267
 30
748.000
 70
    32
  0
VERTEX
  8
W45LXLIFT
 62
1
 10
543.975
 20
-7154.655
 30
748.000
 70
    32
  0
VERTEX
  8
W45LXLIFT
 62
1
 10
537.664
 20
-7147.371
 30
748.000
 70
    32
  0
VERTEX
  8
W45LXLIFT
 62
1
 10
534.876
 20
-7145.245
 30
748.000
 70
    32
  0
VERTEX
  8
W45LXLIFT
 62
1
 10
535.925
 20
-7138.482
 30
748.000
 70
    32
  0
VERTEX
  8
W45LXLIFT
 62
1
 10
534.674
 20
-7128.604
 30
748.000
 70
    32
  0
SEQEND
  8
W45LXLIFT
  0
POLYLINE
  8
W45LXLIFT
 62
7
 66
     1
 70
     9
  0
VERTEX
  8
W45LXLIFT
 62
7
 10
565.409
 20
-7125.016
 30
737.000
 70
    32
  0
VERTEX
  8
W45LXLIFT
 62
7
 10
556.852
 20
-7132.116
 30
737.000
 70
    32
  0
VERTEX
  8
W45LXLIFT
 62
7
 10
551.286
 20
-7136.895
 30
737.000
 70
    32
  0
VERTEX
  8
W45LXLIFT
 62
7
 10
555.460
 20
-7148.480
 30
737.000
 70
    32
  0
VERTEX
  8
W45LXLIFT
 62
7
 10
565.145
 20
-7153.067
 30
737.000
 70
    32
  0
VERTEX
  8
W45LXLIFT
 62
7
 10
574.112
 20
-7156.330
 30
737.000
 70
    32
  0
VERTEX
  8
W45LXLIFT
 62
7
 10
578.441
 20
-7166.301
 30
737.000
 70
    32
  0
VERTEX
  8
W45LXLIFT
 62
7
 10
584.871
 20
-7169.628
 30
737.000
 70
    32
  0
VERTEX
  8
W45LXLIFT
 62
7
 10
593.004
 20
-7176.597
 30
737.000
 70
    32
  0
VERTEX
  8
W45LXLIFT
 62
7
 10
602.883
 20
-7181.155
 30
737.000
 70
    32
  0
VERTEX
  8
W45LXLIFT
 62
7
 10
607.537
 20
-7188.530
 30
737.000
 70
    32
  0
VERTEX
  8
W45LXLIFT
 62
7
 10
617.504
 20
-7196.576
 30
737.000
 70
    32
  0
VERTEX
  8
W45LXLIFT
 62
7
 10
627.818
 20
-7207.713
 30
737.000
 70
    32
  0
VERTEX
  8
W45LXLIFT
 62
7
 10
635.933
 20
-7215.879
 30
737.000
 70
    32
  0
VERTEX
  8
W45LXLIFT
 62
7
 10
650.387
 20
-7222.810
 30
737.000
 70
    32
  0
VERTEX
  8
W45LXLIFT
 62
7
 10
654.313
 20
-7230.374
 30
737.000
 70
    32
  0
VERTEX
  8
W45LXLIFT
 62
7
 10
662.378
 20
-7238.468
 30
737.000
 70
    32
  0
VERTEX
  8
W45LXLIFT
 62
7
 10
658.886
 20
-7250.932
 30
737.000
 70
    32
  0
VERTEX
  8
W45LXLIFT
 62
7
 10
653.887
 20
-7265.532
 30
737.000
 70
    32
  0
VERTEX
  8
W45LXLIFT
 62
7
 10
653.597
 20
-7273.374
 30
737.000
 70
    32
  0
VERTEX
  8
W45LXLIFT
 62
7
 10
637.097
 20
-7285.850
 30
737.000
 70
    32
  0
VERTEX
  8
W45LXLIFT
 62
7
 10
630.819
 20
-7282.739
 30
737.000
 70
    32
  0
VERTEX
  8
W45LXLIFT
 62
7
 10
627.035
 20
-7282.712
 30
737.000
 70
    32
  0
VERTEX
  8
W45LXLIFT
 62
7
 10
614.554
 20
-7269.873
 30
737.000
 70
    32
  0
VERTEX
  8
W45LXLIFT
 62
7
 10
599.726
 20
-7274.179
 30
737.000
 70
    32
  0
VERTEX
  8
W45LXLIFT
 62
7
 10
594.533
 20
-7275.360
 30
737.000
 70
    32
  0
VERTEX
  8
W45LXLIFT
 62
7
 10
582.663
 20
-7267.363
 30
737.000
 70
    32
  0
VERTEX
  8
W45LXLIFT
 62
7
 10
573.976
 20
-7250.132
 30
737.000
 70
    32
  0
VERTEX
  8
W45LXLIFT
 62
7
 10
568.178
 20
-7232.266
 30
737.000
 70
    32
  0
VERTEX
  8
W45LXLIFT
 62
7
 10
559.976
 20
-7215.877
 30
737.000
 70
    32
  0
VERTEX
  8
W45LXLIFT
 62
7
 10
550.898
 20
-7197.630
 30
737.000
 70
    32
  0
VERTEX
  8
W45LXLIFT
 62
7
 10
544.141
 20
-7185.281
 30
737.000
 70
    32
  0
VERTEX
  8
W45LXLIFT
 62
7
 10
541.998
 20
-7178.721
 30
737.000
 70
    32
  0
VERTEX
  8
W45LXLIFT
 62
7
 10
544.064
 20
-7169.735
 30
737.000
 70
    32
  0
VERTEX
  8
W45LXLIFT
 62
7
 10
546.025
 20
-7164.267
 30
737.000
 70
    32
  0
VERTEX
  8
W45LXLIFT
 62
7
 10
542.975
 20
-7155.655
 30
737.000
 70
    32
  0
VERTEX
  8
W45LXLIFT
 62
7
 10
536.664
 20
-7148.371
 30
737.000
 70
    32
  0
VERTEX
  8
W45LXLIFT
 62
7
 10
533.876
 20
-7146.245
 30
737.000
 70
    32
  0
VERTEX
  8
W45LXLIFT
 62
7
 10
534.925
 20
-7139.482
 30
737.000
 70
    32
  0
VERTEX
  8
W45LXLIFT
 62
7
 10
533.674
 20
-7129.604
 30
737.000
 70
    32
  0
SEQEND
  8
W45LXLIFT
  0
POLYLINE
  8
W45LXLIFT
 62
4
 66
     1
 70
     9
  0
VERTEX
  8
W45LXLIFT
 62
4
 10
800.786
 20
-7278.334
 30
805.000
 70
    32
  0
VERTEX
  8
W45LXLIFT
 62
4
 10
806.226
 20
-7284.319
 30
805.000
 70
    32
  0
VERTEX
  8
W45LXLIFT
 62
4
 10
808.945
 20
-7294.912
 30
805.000
 70
    32
  0
VERTEX
  8
W45LXLIFT
 62
4
 10
810.054
 20
-7305.641
 30
805.000
 70
    32
  0
VERTEX
  8
W45LXLIFT
 62
4
 10
820.697
 20
-7305.972
 30
805.000
 70
    32
  0
VERTEX
  8
W45LXLIFT
 62
4
 10
832.978
 20
-7303.703
 30
805.000
 70
    32
  0
VERTEX
  8
W45LXLIFT
 62
4
 10
835.275
 20
-7300.976
 30
805.000
 70
    32
  0
VERTEX
  8
W45LXLIFT
 62
4
 10
831.159
 20
-7292.712
 30
805.000
 70
    32
  0
VERTEX
  8
W45LXLIFT
 62
4
 10
830.057
 20
-7273.686
 30
805.000
 70
    32
  0
VERTEX
  8
W45LXLIFT
 62
4
 10
832.070
 20
-7262.860
 30
805.000
 70
    32
  0
VERTEX
  8
W45LXLIFT
 62
4
 10
834.229
 20
-7251.935
 30
805.000
 70
    32
  0
VERTEX
  8
W45LXLIFT
 62
4
 10
832.243
 20
-7235.210
 30
805.000
 70
    32
  0
VERTEX
  8
W45LXLIFT
 62
4
 10
819.740
 20
-7231.038
 30
805.000
 70
    32
  0
VERTEX
  8
W45LXLIFT
 62
4
 10
816.500
 20
-7216.227
 30
805.000
 70
    32
  0
VERTEX
  8
W45LXLIFT
 62
4
 10
808.573
 20
-7195.132
 30
805.000
 70
    32
  0
VERTEX
  8
W45LXLIFT
 62
4
 10
800.023
 20
-7181.583
 30
805.000
 70
    32
  0
VERTEX
  8
W45LXLIFT
 62
4
 10
785.394
 20
-7158.443
 30
805.000
 70
    32
  0
VERTEX
  8
W45LXLIFT
 62
4
 10
788.524
 20
-7143.776
 30
805.000
 70
    32
  0
VERTEX
  8
W45LXLIFT
 62
4
 10
777.318
 20
-7118.315
 30
805.000
 70
    32
  0
VERTEX
  8
W45LXLIFT
 62
4
 10
763.609
 20
-7097.315
 30
805.000
 70
    32
  0
VERTEX
  8
W45LXLIFT
 62
4
 10
754.776
 20
-7097.457
 30
805.000
 70
    32
  0
VERTEX
  8
W45LXLIFT
 62
4
 10
724.549
 20
-7076.709
 30
805.000
 70
    32
  0
VERTEX
  8
W45LXLIFT
 62
4
 10
709.500
 20
-7080.854
 30
805.000
 70
    32
  0
VERTEX
  8
W45LXLIFT
 62
4
 10
693.993
 20
-7073.192
 30
805.000
 70
    32
  0
VERTEX
  8
W45LXLIFT
 62
4
 10
690.273
 20
-7078.053
 30
805.000
 70
    32
  0
VERTEX
  8
W45LXLIFT
 62
4
 10
688.617
 20
-7087.681
 30
805.000
 70
    32
  0
VERTEX
  8
W45LXLIFT
 62
4
 10
703.432
 20
-7097.301
 30
805.000
 70
    32
  0
VERTEX
  8
W45LXLIFT
 62
4
 10
711.466
 20
-7107.267
 30
805.000
 70
    32
  0
VERTEX
  8
W45LXLIFT
 62
4
 10
714.170
 20
-7112.980
 30
805.000
 70
    32
  0
VERTEX
  8
W45LXLIFT
 62
4
 10
731.773
 20
-7123.262
 30
805.000
 70
    32
  0
VERTEX
  8
W45LXLIFT
 62
4
 10
748.426
 20
-7133.868
 30
805.000
 70
    32
  0
VERTEX
  8
W45LXLIFT
 62
4
 10
762.558
 20
-7155.963
 30
805.000
 70
    32
  0
VERTEX
  8
W45LXLIFT
 62
4
 10
768.330
 20
-7173.097
 30
805.000
 70
    32
  0
VERTEX
  8
W45LXLIFT
 62
4
 10
775.205
 20
-7190.759
 30
805.000
 70
    32
  0
VERTEX
  8
W45LXLIFT
 62
4
 10
783.742
 20
-7202.722
 30
805.000
 70
    32
  0
VERTEX
  8
W45LXLIFT
 62
4
 10
792.384
 20
-7206.217
 30
805.000
 70
    32
  0
VERTEX
  8
W45LXLIFT
 62
4
 10
784.685
 20
-7232.486
 30
805.000
 70
    32
  0
VERTEX
  8
W45LXLIFT
 62
4
 10
792.339
 20
-7240.796
 30
805.000
 70
    32
  0
VERTEX
  8
W45LXLIFT
 62
4
 10
795.686
 20
-7265.953
 30
805.000
 70
    32
  0
SEQEND
  8
W45LXLIFT
  0
POLYLINE
  8
W45LXLIFT
 62
1
 66
     1
 70
     9
  0
VERTEX
  8
W45LXLIFT
 62
1
 10
801.786
 20
-7277.334
 30
815.000
 70
    32
  0
VERTEX
  8
W45LXLIFT
 62
1
 10
807.226
 20
-7283.319
 30
815.000
 70
    32
  0
VERTEX
  8
W45LXLIFT
 62
1
 10
809.945
 20
-7293.912
 30
815.000
 70
    32
  0
VERTEX
  8
W45LXLIFT
 62
1
 10
811.054
 20
-7304.641
 30
815.000
 70
    32
  0
VERTEX
  8
W45LXLIFT
 62
1
 10
821.697
 20
-7304.972
 30
815.000
 70
    32
  0
VERTEX
  8
W45LXLIFT
 62
1
 10
833.978
 20
-7302.703
 30
815.000
 70
    32
  0
VERTEX
  8
W45LXLIFT
 62
1
 10
836.275
 20
-7299.976
 30
815.000
 70
    32
  0
VERTEX
  8
W45LXLIFT
 62
1
 10
832.159
 20
-7291.712
 30
815.000
 70
    32
  0
VERTEX
  8
W45LXLIFT
 62
1
 10
831.057
 20
-7272.686
 30
815.000
 70
    32
  0
VERTEX
  8
W45LXLIFT
 62
1
 10
833.070
 20
-7261.860
 30
815.000
 70
    32
  0
VERTEX
  8
W45LXLIFT
 62
1
 10
835.229
 20
-7250.935
 30
815.000
 70
    32
  0
VERTEX
  8
W45LXLIFT
 62
1
 10
833.243
 20
-7234.210
 30
815.000
 70
    32
  0
VERTEX
  8
W45LXLIFT
 62
1
 10
820.740
 20
-7230.038
 30
815.000
 70
    32
  0
VERTEX
  8
W45LXLIFT
 62
1
 10
817.500
 20
-7215.227
 30
815.000
 70
    32
  0
VERTEX
  8
W45LXLIFT
 62
1
 10
809.573
 20
-7194.132
 30
815.000
 70
    32
  0
VERTEX
  8
W45LXLIFT
 62
1
 10
801.023
 20
-7180.583
 30
815.000
 70
    32
  0
VERTEX
  8
W45LXLIFT
 62
1
 10
786.394
 20
-7157.443
 30
815.000
 70
    32
  0
VERTEX
  8
W45LXLIFT
 62
1
 10
789.524
 20
-7142.776
 30
815.000
 70
    32
  0
VERTEX
  8
W45LXLIFT
 62
1
 10
778.318
 20
-7117.315
 30
815.000
 70
    32
  0
VERTEX
  8
W45LXLIFT
 62
1
 10
764.609
 20
-7096.315
 30
815.000
 70
    32
  0
VERTEX
  8
W45LXLIFT
 62
1
 10
755.776
 20
-7096.457
 30
815.000
 70
    32
  0
VERTEX
  8
W45LXLIFT
 62
1
 10
725.549
 20
-7075.709
 30
815.000
 70
    32
  0
VERTEX
  8
W45LXLIFT
 62
1
 10
710.500
 20
-7079.854
 30
815.000
 70
    32
  0
VERTEX
  8
W45LXLIFT
 62
1
 10
694.993
 20
-7072.192
 30
815.000
 70
    32
  0
VERTEX
  8
W45LXLIFT
 62
1
 10
691.273
 20
-7077.053
 30
815.000
 70
    32
  0
VERTEX
  8
W45LXLIFT
 62
1
 10
689.617
 20
-7086.681
 30
815.000
 70
    32
  0
VERTEX
  8
W45LXLIFT
 62
1
 10
704.432
 20
-7096.301
 30
815.000
 70
    32
  0
VERTEX
  8
W45LXLIFT
 62
1
 10
712.466
 20
-7106.267
 30
815.000
 70
    32
  0
VERTEX
  8
W45LXLIFT
 62
1
 10
715.170
 20
-7111.980
 30
815.000
 70
    32
  0
VERTEX
  8
W45LXLIFT
 62
1
 10
732.773
 20
-7122.262
 30
815.000
 70
    32
  0
VERTEX
  8
W45LXLIFT
 62
1
 10
749.426
 20
-7132.868
 30
815.000
 70
    32
  0
VERTEX
  8
W45LXLIFT
 62
1
 10
763.558
 20
-7154.963
 30
815.000
 70
    32
  0
VERTEX
  8
W45LXLIFT
 62
1
 10
769.330
 20
-7172.097
 30
815.000
 70
    32
  0
VERTEX
  8
W45LXLIFT
 62
1
 10
776.205
 20
-7189.759
 30
815.000
 70
    32
  0
VERTEX
  8
W45LXLIFT
 62
1
 10
784.742
 20
-7201.722
 30
815.000
 70
    32
  0
VERTEX
  8
W45LXLIFT
 62
1
 10
793.384
 20
-7205.217
 30
815.000
 70
    32
  0
VERTEX
  8
W45LXLIFT
 62
1
 10
785.685
 20
-7231.486
 30
815.000
 70
    32
  0
VERTEX
  8
W45LXLIFT
 62
1
 10
793.339
 20
-7239.796
 30
815.000
 70
    32
  0
VERTEX
  8
W45LXLIFT
 62
1
 10
796.686
 20
-7264.953
 30
815.000
 70
    32
  0
SEQEND
  8
W45LXLIFT
  0
POLYLINE
  8
W45LXLIFT
 62
1
 66
     1
 70
     9
  0
VERTEX
  8
W45LXLIFT
 62
1
 10
465.156
 20
-7036.594
 30
721.000
 70
    32
  0
VERTEX
  8
W45LXLIFT
 62
1
 10
472.878
 20
-7037.949
 30
721.000
 70
    32
  0
VERTEX
  8
W45LXLIFT
 62
1
 10
483.946
 20
-7048.940
 30
721.000
 70
    32
  0
VERTEX
  8
W45LXLIFT
 62
1
 10
501.989
 20
-7071.786
 30
721.000
 70
    32
  0
VERTEX
  8
W45LXLIFT
 62
1
 10
510.401
 20
-7086.385
 30
721.000
 70
    32
  0
VERTEX
  8
W45LXLIFT
 62
1
 10
518.824
 20
-7105.548
 30
721.000
 70
    32
  0
VERTEX
  8
W45LXLIFT
 62
1
 10
521.956
 20
-7109.696
 30
721.000
 70
    32
  0
VERTEX
  8
W45LXLIFT
 62
1
 10
528.157
 20
-7110.062
 30
721.000
 70
    32
  0
VERTEX
  8
W45LXLIFT
 62
1
 10
535.698
 20
-7107.075
 30
721.000
 70
    32
  0
VERTEX
  8
W45LXLIFT
 62
1
 10
548.036
 20
-7099.559
 30
721.000
 70
    32
  0
VERTEX
  8
W45LXLIFT
 62
1
 10
548.718
 20
-7087.084
 30
721.000
 70
    32
  0
VERTEX
  8
W45LXLIFT
 62
1
 10
538.864
 20
-7062.832
 30
721.000
 70
    32
  0
VERTEX
  8
W45LXLIFT
 62
1
 10
535.685
 20
-7049.680
 30
721.000
 70
    32
  0
VERTEX
  8
W45LXLIFT
 62
1
 10
553.604
 20
-7062.935
 30
721.000
 70
    32
  0
VERTEX
  8
W45LXLIFT
 62
1
 10
558.216
 20
-7062.997
 30
721.000
 70
    32
  0
VERTEX
  8
W45LXLIFT
 62
1
 10
566.737
 20
-7072.739
 30
721.000
 70
    32
  0
VERTEX
  8
W45LXLIFT
 62
1
 10
571.410
 20
-7068.188
 30
721.000
 70
    32
  0
VERTEX
  8
W45LXLIFT
 62
1
 10
569.500
 20
-7058.003
 30
721.000
 70
    32
  0
VERTEX
  8
W45LXLIFT
 62
1
 10
571.730
 20
-7052.983
 30
721.000
 70
    32
  0
VERTEX
  8
W45LXLIFT
 62
1
 10
569.038
 20
-7039.607
 30
721.000
 70
    32
  0
VERTEX
  8
W45LXLIFT
 62
1
 10
572.289
 20
-7037.190
 30
721.000
 70
    32
  0
VERTEX
  8
W45LXLIFT
 62
1
 10
567.224
 20
-7026.273
 30
721.000
 70
    32
  0
VERTEX
  8
W45LXLIFT
 62
1
 10
563.292
 20
-7019.691
 30
721.000
 70
    32
  0
VERTEX
  8
W45LXLIFT
 62
1
 10
558.492
 20
-7005.087
 30
721.000
 70
    32
  0
VERTEX
  8
W45LXLIFT
 62
1
 10
547.990
 20
-6997.751
 30
721.000
 70
    32
  0
VERTEX
  8
W45LXLIFT
 62
1
 10
535.564
 20
-6997.141
 30
721.000
 70
    32
  0
VERTEX
  8
W45LXLIFT
 62
1
 10
520.748
 20
-6990.499
 30
721.000
 70
    32
  0
VERTEX
  8
W45LXLIFT
 62
1
 10
510.870
 20
-6981.889
 30
721.000
 70
    32
  0
VERTEX
  8
W45LXLIFT
 62
1
 10
502.596
 20
-6975.488
 30
721.000
 70
    32
  0
VERTEX
  8
W45LXLIFT
 62
1
 10
497.593
 20
-6975.478
 30
721.000
 70
    32
  0
VERTEX
  8
W45LXLIFT
 62
1
 10
489.518
 20
-6972.662
 30
721.000
 70
    32
  0
VERTEX
  8
W45LXLIFT
 62
1
 10
457.722
 20
-7019.205
 30
721.000
 70
    32
  0
VERTEX
  8
W45LXLIFT
 62
1
 10
459.525
 20
-7024.999
 30
721.000
 70
    32
  0
SEQEND
  8
W45LXLIFT
  0
POLYLINE
  8
W45LXLIFT
 62
11
 66
     1
 70
     9
  0
VERTEX
  8
W45LXLIFT
 62
11
 10
566.704
 20
-6984.504
 30
682.736
 70
    32
  0
VERTEX
  8
W45LXLIFT
 62
11
 10
562.175
 20
-6990.307
 30
682.770
 70
    32
  0
VERTEX
  8
W45LXLIFT
 62
11
 10
562.278
 20
-6997.711
 30
682.819
 70
    32
  0
VERTEX
  8
W45LXLIFT
 62
11
 10
559.900
 20
-6999.676
 30
682.830
 70
    32
  0
VERTEX
  8
W45LXLIFT
 62
11
 10
564.522
 20
-7013.459
 30
682.926
 70
    32
  0
VERTEX
  8
W45LXLIFT
 62
11
 10
559.637
 20
-7019.828
 30
682.993
 70
    32
  0
VERTEX
  8
W45LXLIFT
 62
11
 10
547.956
 20
-7020.540
 30
683.095
 70
    32
  0
VERTEX
  8
W45LXLIFT
 62
11
 10
536.927
 20
-7015.249
 30
682.967
 70
    32
  0
VERTEX
  8
W45LXLIFT
 62
11
 10
530.114
 20
-6974.682
 30
682.633
 70
    32
  0
VERTEX
  8
W45LXLIFT
 62
11
 10
535.449
 20
-6967.574
 30
682.591
 70
    32
  0
VERTEX
  8
W45LXLIFT
 62
11
 10
548.876
 20
-6963.518
 30
682.578
 70
    32
  0
VERTEX
  8
W45LXLIFT
 62
11
 10
552.647
 20
-6964.647
 30
682.589
 70
    32
  0
VERTEX
  8
W45LXLIFT
 62
11
 10
554.694
 20
-6970.386
 30
682.629
 70
    32
  0
VERTEX
  8
W45LXLIFT
 62
11
 10
559.415
 20
-6972.887
 30
682.651
 70
    32
  0
SEQEND
  8
W45LXLIFT
  0
POINT
  8
W45LXLIFT
 62
4
 10
775.612
 20
-7136.346
 30
805.000
  0
POINT
  8
W45LXLIFT
 62
4
 10
754.136
 20
-7150.141
 30
693.834
  0
LINE
  8
W45LXLIFT
 62
4
 10
775.612
 20
-7136.346
 30
805.000
 11
754.136
 21
-7150.141
 31
693.834
  0
POINT
  8
W45LXLIFT
 62
4
 10
524.392
 20
-7029.366
 30
721.000
  0
POINT
  8
W45LXLIFT
 62
4
 10
452.661
 20
-7057.403
 30
839.754
  0
LINE
  8
W45LXLIFT
 62
4
 10
452.661
 20
-7057.403
 30
839.754
 11
524.392
 21
-7029.366
 31
721.000
  0
POINT
  8
W45LXLIFT
 62
4
 10
507.931
 20
-7050.894
 30
711.000
  0
LINE
  8
W45LXLIFT
 62
4
 10
507.931
 20
-7050.894
 30
711.000
 11
530.704
 21
-7021.256
 31
610.000
  0
POINT
  8
W45LXLIFT
 62
4
 10
530.704
 20
-7021.256
 30
610.000
  0
POINT
  8
W45LXLIFT
 62
11
 10
551.363
 20
-6992.683
 30
683.095
  0
LINE
  8
W45LXLIFT
 62
11
 10
551.363
 20
-6992.683
 30
683.095
 11
618.462
 21
-7043.332
 31
615.000
  0
POINT
  8
W45LXLIFT
 62
11
 10
618.462
 20
-7043.332
 30
615.000
  0
LINE
  8
W45LXLIFT
 62
7
 10
587.117
 20
-7202.236
 30
737.000
 11
645.535
 21
-7251.952
 31
635.000
  0
POINT
  8
W45LXLIFT
 62
7
 10
587.117
 20
-7202.236
 30
737.000
  0
POINT
  8
W45LXLIFT
 62
7
 10
645.535
 20
-7251.952
 30
635.000
  0
POINT
  8
W45LXLIFT
 62
4
 10
797.458
 20
-7148.696
 30
684.740
  0
LINE
  8
W45LXLIFT
 62
4
 10
797.458
 20
-7148.696
 30
684.740
 11
798.566
 21
-7171.714
 31
544.613
  0
POINT
  8
W45LXLIFT
 62
4
 10
798.566
 20
-7171.714
 30
544.613
  0
LINE
  8
W45LXLIFT
 62
2
 10
646.531
 20
-7328.850
 30
685.000
 11
662.186
 21
-7318.488
 31
631.000
  0
POINT
  8
W45LXLIFT
 62
2
 10
646.531
 20
-7328.850
 30
685.000
  0
POINT
  8
W45LXLIFT
 62
2
 10
662.186
 20
-7318.488
 30
631.000
  0
POLYLINE
  8
W45LXLIFT
 62
1
 66
     1
 70
     9
  0
VERTEX
  8
W45LXLIFT
 62
1
 10
350.170
 20
-6956.069
 30
837.000
 70
    32
  0
VERTEX
  8
W45LXLIFT
 62
1
 10
351.196
 20
-6943.786
 30
837.000
 70
    32
  0
VERTEX
  8
W45LXLIFT
 62
1
 10
357.224
 20
-6940.761
 30
837.000
 70
    32
  0
VERTEX
  8
W45LXLIFT
 62
1
 10
369.059
 20
-6934.543
 30
837.000
 70
    32
  0
VERTEX
  8
W45LXLIFT
 62
1
 10
373.214
 20
-6926.091
 30
837.000
 70
    32
  0
VERTEX
  8
W45LXLIFT
 62
1
 10
378.979
 20
-6923.776
 30
837.000
 70
    32
  0
VERTEX
  8
W45LXLIFT
 62
1
 10
383.838
 20
-6917.930
 30
837.000
 70
    32
  0
VERTEX
  8
W45LXLIFT
 62
1
 10
388.909
 20
-6914.279
 30
837.000
 70
    32
  0
VERTEX
  8
W45LXLIFT
 62
1
 10
397.638
 20
-6913.356
 30
837.000
 70
    32
  0
VERTEX
  8
W45LXLIFT
 62
1
 10
406.998
 20
-6915.088
 30
837.000
 70
    32
  0
VERTEX
  8
W45LXLIFT
 62
1
 10
409.904
 20
-6918.432
 30
837.000
 70
    32
  0
VERTEX
  8
W45LXLIFT
 62
1
 10
409.101
 20
-6924.930
 30
837.000
 70
    32
  0
VERTEX
  8
W45LXLIFT
 62
1
 10
414.145
 20
-6942.558
 30
837.000
 70
    32
  0
VERTEX
  8
W45LXLIFT
 62
1
 10
408.243
 20
-6949.217
 30
837.000
 70
    32
  0
VERTEX
  8
W45LXLIFT
 62
1
 10
395.849
 20
-6955.709
 30
837.000
 70
    32
  0
VERTEX
  8
W45LXLIFT
 62
1
 10
391.896
 20
-6958.815
 30
837.000
 70
    32
  0
VERTEX
  8
W45LXLIFT
 62
1
 10
391.913
 20
-6970.284
 30
837.000
 70
    32
  0
VERTEX
  8
W45LXLIFT
 62
1
 10
397.580
 20
-6989.615
 30
837.000
 70
    32
  0
VERTEX
  8
W45LXLIFT
 62
1
 10
396.323
 20
-6994.188
 30
837.000
 70
    32
  0
VERTEX
  8
W45LXLIFT
 62
1
 10
392.802
 20
-6996.363
 30
837.000
 70
    32
  0
VERTEX
  8
W45LXLIFT
 62
1
 10
391.443
 20
-7000.474
 30
837.000
 70
    32
  0
VERTEX
  8
W45LXLIFT
 62
1
 10
387.098
 20
-7003.314
 30
837.000
 70
    32
  0
VERTEX
  8
W45LXLIFT
 62
1
 10
384.059
 20
-7001.654
 30
837.000
 70
    32
  0
VERTEX
  8
W45LXLIFT
 62
1
 10
375.363
 20
-6988.204
 30
837.000
 70
    32
  0
VERTEX
  8
W45LXLIFT
 62
1
 10
369.169
 20
-6979.541
 30
837.000
 70
    32
  0
VERTEX
  8
W45LXLIFT
 62
1
 10
357.534
 20
-6970.848
 30
837.000
 70
    32
  0
VERTEX
  8
W45LXLIFT
 62
1
 10
353.685
 20
-6965.485
 30
837.000
 70
    32
  0
SEQEND
  8
W45LXLIFT
  0
POLYLINE
  8
W45LXLIFT
 62
2
 66
     1
 70
     9
  0
VERTEX
  8
W45LXLIFT
 62
2
 10
662.682
 20
-7345.655
 30
685.040
 70
    32
  0
VERTEX
  8
W45LXLIFT
 62
2
 10
660.788
 20
-7349.097
 30
685.038
 70
    32
  0
VERTEX
  8
W45LXLIFT
 62
2
 10
658.937
 20
-7361.263
 30
685.018
 70
    32
  0
VERTEX
  8
W45LXLIFT
 62
2
 10
654.016
 20
-7364.340
 30
685.025
 70
    32
  0
VERTEX
  8
W45LXLIFT
 62
2
 10
640.492
 20
-7364.387
 30
685.135
 70
    32
  0
VERTEX
  8
W45LXLIFT
 62
2
 10
640.360
 20
-7351.669
 30
685.252
 70
    32
  0
VERTEX
  8
W45LXLIFT
 62
2
 10
641.035
 20
-7349.708
 30
685.261
 70
    32
  0
VERTEX
  8
W45LXLIFT
 62
2
 10
635.355
 20
-7339.005
 30
685.426
 70
    32
  0
VERTEX
  8
W45LXLIFT
 62
2
 10
620.090
 20
-7324.776
 30
685.738
 70
    32
  0
VERTEX
  8
W45LXLIFT
 62
2
 10
637.566
 20
-7311.432
 30
685.649
 70
    32
  0
VERTEX
  8
W45LXLIFT
 62
2
 10
648.963
 20
-7330.573
 30
685.339
 70
    32
  0
VERTEX
  8
W45LXLIFT
 62
2
 10
660.794
 20
-7332.868
 30
685.176
 70
    32
  0
SEQEND
  8
W45LXLIFT
  0
POLYLINE
  8
W45LXLIFT
 62
1
 66
     1
 70
     9
  0
VERTEX
  8
W45LXLIFT
 62
1
 10
663.682
 20
-7344.655
 30
695.040
 70
    32
  0
VERTEX
  8
W45LXLIFT
 62
1
 10
661.788
 20
-7348.097
 30
695.038
 70
    32
  0
VERTEX
  8
W45LXLIFT
 62
1
 10
659.937
 20
-7360.263
 30
695.018
 70
    32
  0
VERTEX
  8
W45LXLIFT
 62
1
 10
655.016
 20
-7363.340
 30
695.025
 70
    32
  0
VERTEX
  8
W45LXLIFT
 62
1
 10
641.492
 20
-7363.387
 30
695.135
 70
    32
  0
VERTEX
  8
W45LXLIFT
 62
1
 10
641.360
 20
-7350.669
 30
695.252
 70
    32
  0
VERTEX
  8
W45LXLIFT
 62
1
 10
642.035
 20
-7348.708
 30
695.261
 70
    32
  0
VERTEX
  8
W45LXLIFT
 62
1
 10
636.355
 20
-7338.005
 30
695.426
 70
    32
  0
VERTEX
  8
W45LXLIFT
 62
1
 10
621.090
 20
-7323.776
 30
695.738
 70
    32
  0
VERTEX
  8
W45LXLIFT
 62
1
 10
638.566
 20
-7310.432
 30
695.649
 70
    32
  0
VERTEX
  8
W45LXLIFT
 62
1
 10
649.963
 20
-7329.573
 30
695.339
 70
    32
  0
VERTEX
  8
W45LXLIFT
 62
1
 10
661.794
 20
-7331.868
 30
695.176
 70
    32
  0
SEQEND
  8
W45LXLIFT
  0
POLYLINE
  8
W45LXLIFT
 62
4
 66
     1
 70
     9
  0
VERTEX
  8
W45LXLIFT
 62
4
 10
805.036
 20
-7085.537
 30
682.708
 70
    32
  0
VERTEX
  8
W45LXLIFT
 62
4
 10
809.880
 20
-7087.992
 30
682.696
 70
    32
  0
VERTEX
  8
W45LXLIFT
 62
4
 10
822.984
 20
-7090.584
 30
682.674
 70
    32
  0
VERTEX
  8
W45LXLIFT
 62
4
 10
832.788
 20
-7100.149
 30
682.636
 70
    32
  0
VERTEX
  8
W45LXLIFT
 62
4
 10
835.517
 20
-7107.659
 30
682.612
 70
    32
  0
VERTEX
  8
W45LXLIFT
 62
4
 10
832.622
 20
-7115.528
 30
682.723
 70
    32
  0
VERTEX
  8
W45LXLIFT
 62
4
 10
834.028
 20
-7127.154
 30
682.888
 70
    32
  0
VERTEX
  8
W45LXLIFT
 62
4
 10
835.528
 20
-7131.028
 30
682.795
 70
    32
  0
VERTEX
  8
W45LXLIFT
 62
4
 10
841.454
 20
-7137.293
 30
682.766
 70
    32
  0
VERTEX
  8
W45LXLIFT
 62
4
 10
861.496
 20
-7175.765
 30
683.103
 70
    32
  0
VERTEX
  8
W45LXLIFT
 62
4
 10
854.782
 20
-7193.102
 30
683.308
 70
    32
  0
VERTEX
  8
W45LXLIFT
 62
4
 10
842.338
 20
-7199.663
 30
683.419
 70
    32
  0
VERTEX
  8
W45LXLIFT
 62
4
 10
837.422
 20
-7210.635
 30
683.551
 70
    32
  0
VERTEX
  8
W45LXLIFT
 62
4
 10
831.558
 20
-7215.750
 30
683.624
 70
    32
  0
VERTEX
  8
W45LXLIFT
 62
4
 10
822.598
 20
-7202.697
 30
683.517
 70
    32
  0
VERTEX
  8
W45LXLIFT
 62
4
 10
814.114
 20
-7182.743
 30
683.336
 70
    32
  0
VERTEX
  8
W45LXLIFT
 62
4
 10
805.218
 20
-7187.176
 30
683.412
 70
    32
  0
VERTEX
  8
W45LXLIFT
 62
4
 10
800.598
 20
-7184.813
 30
683.403
 70
    32
  0
VERTEX
  8
W45LXLIFT
 62
4
 10
799.019
 20
-7182.061
 30
683.380
 70
    32
  0
VERTEX
  8
W45LXLIFT
 62
4
 10
796.724
 20
-7169.767
 30
683.283
 70
    32
  0
VERTEX
  8
W45LXLIFT
 62
4
 10
791.052
 20
-7153.507
 30
683.654
 70
    32
  0
VERTEX
  8
W45LXLIFT
 62
4
 10
792.172
 20
-7147.397
 30
683.709
 70
    32
  0
VERTEX
  8
W45LXLIFT
 62
4
 10
788.872
 20
-7139.214
 30
683.907
 70
    32
  0
VERTEX
  8
W45LXLIFT
 62
4
 10
789.410
 20
-7124.218
 30
683.948
 70
    32
  0
VERTEX
  8
W45LXLIFT
 62
4
 10
770.436
 20
-7110.109
 30
683.785
 70
    32
  0
VERTEX
  8
W45LXLIFT
 62
4
 10
759.724
 20
-7117.716
 30
684.302
 70
    32
  0
VERTEX
  8
W45LXLIFT
 62
4
 10
764.944
 20
-7130.894
 30
684.649
 70
    32
  0
VERTEX
  8
W45LXLIFT
 62
4
 10
771.916
 20
-7142.517
 30
684.307
 70
    32
  0
VERTEX
  8
W45LXLIFT
 62
4
 10
782.918
 20
-7178.797
 30
683.521
 70
    32
  0
VERTEX
  8
W45LXLIFT
 62
4
 10
787.216
 20
-7183.620
 30
683.342
 70
    32
  0
VERTEX
  8
W45LXLIFT
 62
4
 10
774.451
 20
-7185.082
 30
683.657
 70
    32
  0
VERTEX
  8
W45LXLIFT
 62
4
 10
772.902
 20
-7184.231
 30
683.709
 70
    32
  0
VERTEX
  8
W45LXLIFT
 62
4
 10
764.684
 20
-7190.877
 30
683.834
 70
    32
  0
VERTEX
  8
W45LXLIFT
 62
4
 10
753.863
 20
-7194.338
 30
684.071
 70
    32
  0
VERTEX
  8
W45LXLIFT
 62
4
 10
751.806
 20
-7184.302
 30
684.262
 70
    32
  0
VERTEX
  8
W45LXLIFT
 62
4
 10
752.756
 20
-7165.917
 30
684.489
 70
    32
  0
VERTEX
  8
W45LXLIFT
 62
4
 10
743.914
 20
-7164.558
 30
684.740
 70
    32
  0
VERTEX
  8
W45LXLIFT
 62
4
 10
737.298
 20
-7150.981
 30
685.100
 70
    32
  0
VERTEX
  8
W45LXLIFT
 62
4
 10
730.288
 20
-7151.345
 30
685.279
 70
    32
  0
VERTEX
  8
W45LXLIFT
 62
4
 10
724.614
 20
-7141.601
 30
685.561
 70
    32
  0
VERTEX
  8
W45LXLIFT
 62
4
 10
724.293
 20
-7138.512
 30
685.612
 70
    32
  0
VERTEX
  8
W45LXLIFT
 62
4
 10
729.945
 20
-7130.010
 30
685.392
 70
    32
  0
VERTEX
  8
W45LXLIFT
 62
4
 10
730.297
 20
-7124.961
 30
685.187
 70
    32
  0
VERTEX
  8
W45LXLIFT
 62
4
 10
739.624
 20
-7120.131
 30
684.808
 70
    32
  0
VERTEX
  8
W45LXLIFT
 62
4
 10
787.979
 20
-7085.912
 30
682.725
 70
    32
  0
SEQEND
  8
W45LXLIFT
  0
POLYLINE
  8
W45LXLIFT
 62
1
 66
     1
 70
     9
  0
VERTEX
  8
W45LXLIFT
 62
1
 10
806.036
 20
-7084.537
 30
692.708
 70
    32
  0
VERTEX
  8
W45LXLIFT
 62
1
 10
810.880
 20
-7086.992
 30
692.696
 70
    32
  0
VERTEX
  8
W45LXLIFT
 62
1
 10
823.984
 20
-7089.584
 30
692.674
 70
    32
  0
VERTEX
  8
W45LXLIFT
 62
1
 10
833.788
 20
-7099.149
 30
692.636
 70
    32
  0
VERTEX
  8
W45LXLIFT
 62
1
 10
836.517
 20
-7106.659
 30
692.612
 70
    32
  0
VERTEX
  8
W45LXLIFT
 62
1
 10
833.622
 20
-7114.528
 30
692.723
 70
    32
  0
VERTEX
  8
W45LXLIFT
 62
1
 10
835.028
 20
-7126.154
 30
692.888
 70
    32
  0
VERTEX
  8
W45LXLIFT
 62
1
 10
836.528
 20
-7130.028
 30
692.795
 70
    32
  0
VERTEX
  8
W45LXLIFT
 62
1
 10
842.454
 20
-7136.293
 30
692.766
 70
    32
  0
VERTEX
  8
W45LXLIFT
 62
1
 10
862.496
 20
-7174.765
 30
693.103
 70
    32
  0
VERTEX
  8
W45LXLIFT
 62
1
 10
855.782
 20
-7192.102
 30
693.308
 70
    32
  0
VERTEX
  8
W45LXLIFT
 62
1
 10
843.338
 20
-7198.663
 30
693.419
 70
    32
  0
VERTEX
  8
W45LXLIFT
 62
1
 10
838.422
 20
-7209.635
 30
693.551
 70
    32
  0
VERTEX
  8
W45LXLIFT
 62
1
 10
832.558
 20
-7214.750
 30
693.624
 70
    32
  0
VERTEX
  8
W45LXLIFT
 62
1
 10
823.598
 20
-7201.697
 30
693.517
 70
    32
  0
VERTEX
  8
W45LXLIFT
 62
1
 10
815.114
 20
-7181.743
 30
693.336
 70
    32
  0
VERTEX
  8
W45LXLIFT
 62
1
 10
806.218
 20
-7186.176
 30
693.412
 70
    32
  0
VERTEX
  8
W45LXLIFT
 62
1
 10
801.598
 20
-7183.813
 30
693.403
 70
    32
  0
VERTEX
  8
W45LXLIFT
 62
1
 10
800.019
 20
-7181.061
 30
693.380
 70
    32
  0
VERTEX
  8
W45LXLIFT
 62
1
 10
797.724
 20
-7168.767
 30
693.283
 70
    32
  0
VERTEX
  8
W45LXLIFT
 62
1
 10
792.052
 20
-7152.507
 30
693.654
 70
    32
  0
VERTEX
  8
W45LXLIFT
 62
1
 10
793.172
 20
-7146.397
 30
693.709
 70
    32
  0
VERTEX
  8
W45LXLIFT
 62
1
 10
789.872
 20
-7138.214
 30
693.907
 70
    32
  0
VERTEX
  8
W45LXLIFT
 62
1
 10
790.410
 20
-7123.218
 30
693.948
 70
    32
  0
VERTEX
  8
W45LXLIFT
 62
1
 10
771.436
 20
-7109.109
 30
693.785
 70
    32
  0
VERTEX
  8
W45LXLIFT
 62
1
 10
760.724
 20
-7116.716
 30
694.302
 70
    32
  0
VERTEX
  8
W45LXLIFT
 62
1
 10
765.944
 20
-7129.894
 30
694.649
 70
    32
  0
VERTEX
  8
W45LXLIFT
 62
1
 10
772.916
 20
-7141.517
 30
694.307
 70
    32
  0
VERTEX
  8
W45LXLIFT
 62
1
 10
783.918
 20
-7177.797
 30
693.521
 70
    32
  0
VERTEX
  8
W45LXLIFT
 62
1
 10
788.216
 20
-7182.620
 30
693.342
 70
    32
  0
VERTEX
  8
W45LXLIFT
 62
1
 10
775.451
 20
-7184.082
 30
693.657
 70
    32
  0
VERTEX
  8
W45LXLIFT
 62
1
 10
773.902
 20
-7183.231
 30
693.709
 70
    32
  0
VERTEX
  8
W45LXLIFT
 62
1
 10
765.684
 20
-7189.877
 30
693.834
 70
    32
  0
VERTEX
  8
W45LXLIFT
 62
1
 10
754.863
 20
-7193.338
 30
694.071
 70
    32
  0
VERTEX
  8
W45LXLIFT
 62
1
 10
752.806
 20
-7183.302
 30
694.262
 70
    32
  0
VERTEX
  8
W45LXLIFT
 62
1
 10
753.756
 20
-7164.917
 30
694.489
 70
    32
  0
VERTEX
  8
W45LXLIFT
 62
1
 10
744.914
 20
-7163.558
 30
694.740
 70
    32
  0
VERTEX
  8
W45LXLIFT
 62
1
 10
738.298
 20
-7149.981
 30
695.100
 70
    32
  0
VERTEX
  8
W45LXLIFT
 62
1
 10
731.288
 20
-7150.345
 30
695.279
 70
    32
  0
VERTEX
  8
W45LXLIFT
 62
1
 10
725.614
 20
-7140.601
 30
695.561
 70
    32
  0
VERTEX
  8
W45LXLIFT
 62
1
 10
725.293
 20
-7137.512
 30
695.612
 70
    32
  0
VERTEX
  8
W45LXLIFT
 62
1
 10
730.945
 20
-7129.010
 30
695.392
 70
    32
  0
VERTEX
  8
W45LXLIFT
 62
1
 10
731.297
 20
-7123.961
 30
695.187
 70
    32
  0
VERTEX
  8
W45LXLIFT
 62
1
 10
740.624
 20
-7119.131
 30
694.808
 70
    32
  0
VERTEX
  8
W45LXLIFT
 62
1
 10
788.979
 20
-7084.912
 30
692.725
 70
    32
  0
SEQEND
  8
W45LXLIFT
  0
POINT
  8
W45LXLIFT
 62
1
 10
813.612
 20
-7249.568
 30
815.000
  0
LINE
  8
W45LXLIFT
 62
4
 10
758.084
 20
-7267.263
 30
896.000
 11
813.612
 21
-7249.568
 31
815.000
  0
POINT
  8
W45LXLIFT
 62
8
 10
758.084
 20
-7267.263
 30
896.000
  0
POLYLINE
  8
W45LXLIFT
 62
8
 66
     1
 70
     9
  0
VERTEX
  8
W45LXLIFT
 62
8
 10
739.992
 20
-7385.196
 30
832.560
 70
    32
  0
VERTEX
  8
W45LXLIFT
 62
8
 10
753.581
 20
-7380.361
 30
831.250
 70
    32
  0
VERTEX
  8
W45LXLIFT
 62
8
 10
757.839
 20
-7344.441
 30
832.845
 70
    32
  0
VERTEX
  8
W45LXLIFT
 62
8
 10
770.658
 20
-7344.575
 30
831.316
 70
    32
  0
VERTEX
  8
W45LXLIFT
 62
8
 10
771.436
 20
-7384.991
 30
828.842
 70
    32
  0
VERTEX
  8
W45LXLIFT
 62
8
 10
774.403
 20
-7387.943
 30
828.700
 70
    32
  0
VERTEX
  8
W45LXLIFT
 62
8
 10
783.444
 20
-7412.118
 30
828.700
 70
    32
  0
VERTEX
  8
W45LXLIFT
 62
8
 10
767.882
 20
-7420.840
 30
828.700
 70
    32
  0
VERTEX
  8
W45LXLIFT
 62
8
 10
763.528
 20
-7416.396
 30
828.700
 70
    32
  0
VERTEX
  8
W45LXLIFT
 62
8
 10
756.798
 20
-7420.870
 30
828.700
 70
    32
  0
VERTEX
  8
W45LXLIFT
 62
8
 10
754.229
 20
-7429.063
 30
828.700
 70
    32
  0
VERTEX
  8
W45LXLIFT
 62
8
 10
741.480
 20
-7431.143
 30
828.778
 70
    32
  0
VERTEX
  8
W45LXLIFT
 62
8
 10
738.495
 20
-7415.159
 30
830.639
 70
    32
  0
VERTEX
  8
W45LXLIFT
 62
8
 10
731.044
 20
-7394.271
 30
833.418
 70
    32
  0
SEQEND
  8
W45LXLIFT
  0
POLYLINE
  8
W45LXLIFT
 62
1
 66
     1
 70
     9
  0
VERTEX
  8
W45LXLIFT
 62
1
 10
740.992
 20
-7384.196
 30
842.560
 70
    32
  0
VERTEX
  8
W45LXLIFT
 62
1
 10
754.581
 20
-7379.361
 30
841.250
 70
    32
  0
VERTEX
  8
W45LXLIFT
 62
1
 10
758.839
 20
-7343.441
 30
842.845
 70
    32
  0
VERTEX
  8
W45LXLIFT
 62
1
 10
771.658
 20
-7343.575
 30
841.316
 70
    32
  0
VERTEX
  8
W45LXLIFT
 62
1
 10
772.436
 20
-7383.991
 30
838.842
 70
    32
  0
VERTEX
  8
W45LXLIFT
 62
1
 10
775.403
 20
-7386.943
 30
838.700
 70
    32
  0
VERTEX
  8
W45LXLIFT
 62
1
 10
784.444
 20
-7411.118
 30
838.700
 70
    32
  0
VERTEX
  8
W45LXLIFT
 62
1
 10
768.882
 20
-7419.840
 30
838.700
 70
    32
  0
VERTEX
  8
W45LXLIFT
 62
1
 10
764.528
 20
-7415.396
 30
838.700
 70
    32
  0
VERTEX
  8
W45LXLIFT
 62
1
 10
757.798
 20
-7419.870
 30
838.700
 70
    32
  0
VERTEX
  8
W45LXLIFT
 62
1
 10
755.229
 20
-7428.063
 30
838.700
 70
    32
  0
VERTEX
  8
W45LXLIFT
 62
1
 10
742.480
 20
-7430.143
 30
838.778
 70
    32
  0
VERTEX
  8
W45LXLIFT
 62
1
 10
739.495
 20
-7414.159
 30
840.639
 70
    32
  0
VERTEX
  8
W45LXLIFT
 62
1
 10
732.044
 20
-7393.271
 30
843.418
 70
    32
  0
SEQEND
  8
W45LXLIFT
  0
ENDSEC
  0
EOF
