999
********************************
999
*   DXF File - Entities Only   *
999
*        3D Data Format        *
999
*     Output from ENVISAGE     *
999
*     31-Dec-2007 15:42:33     *
999
********************************
  0
SECTION 
  2
HEADER
  9
$ACADVER
  1
AC1009
  9
$EXTMIN
 10
-290000.000
 20
-250000.000
 30
-4000.000
  9
$EXTMAX
 10
320000.000
 20
160000.000
 30
6000.000
  0
ENDSEC
  0
SECTION
  2
ENTITIES
  0
POLYLINE
  8
W47LXLIFT
 62
3
 66
     1
 70
     9
  0
VERTEX
  8
W47LXLIFT
 62
3
 10
722.747
 20
-7324.844
 30
535.000
 70
    32
  0
VERTEX
  8
W47LXLIFT
 62
3
 10
728.356
 20
-7365.607
 30
535.000
 70
    32
  0
VERTEX
  8
W47LXLIFT
 62
3
 10
734.697
 20
-7380.247
 30
535.000
 70
    32
  0
VERTEX
  8
W47LXLIFT
 62
3
 10
739.708
 20
-7390.087
 30
535.000
 70
    32
  0
VERTEX
  8
W47LXLIFT
 62
3
 10
743.281
 20
-7401.087
 30
535.000
 70
    32
  0
VERTEX
  8
W47LXLIFT
 62
3
 10
754.797
 20
-7429.368
 30
535.000
 70
    32
  0
VERTEX
  8
W47LXLIFT
 62
3
 10
754.444
 20
-7436.485
 30
535.000
 70
    32
  0
VERTEX
  8
W47LXLIFT
 62
3
 10
757.749
 20
-7452.037
 30
535.000
 70
    32
  0
VERTEX
  8
W47LXLIFT
 62
3
 10
755.889
 20
-7455.900
 30
535.000
 70
    32
  0
VERTEX
  8
W47LXLIFT
 62
3
 10
758.050
 20
-7468.694
 30
535.000
 70
    32
  0
VERTEX
  8
W47LXLIFT
 62
3
 10
750.051
 20
-7469.965
 30
535.000
 70
    32
  0
VERTEX
  8
W47LXLIFT
 62
3
 10
739.791
 20
-7466.355
 30
535.000
 70
    32
  0
VERTEX
  8
W47LXLIFT
 62
3
 10
738.050
 20
-7453.689
 30
535.000
 70
    32
  0
VERTEX
  8
W47LXLIFT
 62
3
 10
733.437
 20
-7448.567
 30
535.000
 70
    32
  0
VERTEX
  8
W47LXLIFT
 62
3
 10
735.160
 20
-7441.537
 30
535.000
 70
    32
  0
VERTEX
  8
W47LXLIFT
 62
3
 10
734.268
 20
-7432.715
 30
535.000
 70
    32
  0
VERTEX
  8
W47LXLIFT
 62
3
 10
730.832
 20
-7427.713
 30
535.000
 70
    32
  0
VERTEX
  8
W47LXLIFT
 62
3
 10
721.547
 20
-7423.500
 30
535.000
 70
    32
  0
VERTEX
  8
W47LXLIFT
 62
3
 10
717.212
 20
-7418.610
 30
535.000
 70
    32
  0
VERTEX
  8
W47LXLIFT
 62
3
 10
710.893
 20
-7402.211
 30
535.000
 70
    32
  0
VERTEX
  8
W47LXLIFT
 62
3
 10
698.842
 20
-7371.708
 30
535.000
 70
    32
  0
VERTEX
  8
W47LXLIFT
 62
3
 10
698.782
 20
-7365.219
 30
535.000
 70
    32
  0
VERTEX
  8
W47LXLIFT
 62
3
 10
698.362
 20
-7362.259
 30
535.000
 70
    32
  0
VERTEX
  8
W47LXLIFT
 62
3
 10
694.262
 20
-7355.455
 30
535.000
 70
    32
  0
VERTEX
  8
W47LXLIFT
 62
3
 10
689.925
 20
-7349.369
 30
535.000
 70
    32
  0
VERTEX
  8
W47LXLIFT
 62
3
 10
690.149
 20
-7345.503
 30
535.000
 70
    32
  0
VERTEX
  8
W47LXLIFT
 62
3
 10
688.645
 20
-7340.613
 30
535.000
 70
    32
  0
VERTEX
  8
W47LXLIFT
 62
3
 10
688.449
 20
-7333.788
 30
535.000
 70
    32
  0
VERTEX
  8
W47LXLIFT
 62
3
 10
695.638
 20
-7328.426
 30
535.000
 70
    32
  0
VERTEX
  8
W47LXLIFT
 62
3
 10
704.096
 20
-7332.700
 30
535.000
 70
    32
  0
VERTEX
  8
W47LXLIFT
 62
3
 10
711.856
 20
-7325.288
 30
535.000
 70
    32
  0
SEQEND
  8
W47LXLIFT
  0
POLYLINE
  8
W47LXLIFT
 62
6
 66
     1
 70
     9
  0
VERTEX
  8
W47LXLIFT
 62
6
 10
592.926
 20
-7207.368
 30
548.000
 70
    32
  0
VERTEX
  8
W47LXLIFT
 62
6
 10
597.575
 20
-7216.711
 30
548.000
 70
    32
  0
VERTEX
  8
W47LXLIFT
 62
6
 10
590.440
 20
-7226.170
 30
548.000
 70
    32
  0
VERTEX
  8
W47LXLIFT
 62
6
 10
590.803
 20
-7232.330
 30
548.000
 70
    32
  0
VERTEX
  8
W47LXLIFT
 62
6
 10
587.823
 20
-7238.535
 30
548.000
 70
    32
  0
VERTEX
  8
W47LXLIFT
 62
6
 10
590.441
 20
-7247.185
 30
548.000
 70
    32
  0
VERTEX
  8
W47LXLIFT
 62
6
 10
581.349
 20
-7251.432
 30
548.000
 70
    32
  0
VERTEX
  8
W47LXLIFT
 62
6
 10
570.584
 20
-7244.597
 30
548.000
 70
    32
  0
VERTEX
  8
W47LXLIFT
 62
6
 10
558.115
 20
-7244.670
 30
548.000
 70
    32
  0
VERTEX
  8
W47LXLIFT
 62
6
 10
552.677
 20
-7243.634
 30
548.000
 70
    32
  0
VERTEX
  8
W47LXLIFT
 62
6
 10
535.362
 20
-7215.017
 30
548.000
 70
    32
  0
VERTEX
  8
W47LXLIFT
 62
6
 10
532.308
 20
-7207.558
 30
548.000
 70
    32
  0
VERTEX
  8
W47LXLIFT
 62
6
 10
519.099
 20
-7185.306
 30
548.000
 70
    32
  0
VERTEX
  8
W47LXLIFT
 62
6
 10
520.049
 20
-7182.434
 30
548.000
 70
    32
  0
VERTEX
  8
W47LXLIFT
 62
6
 10
525.232
 20
-7175.816
 30
548.000
 70
    32
  0
VERTEX
  8
W47LXLIFT
 62
6
 10
538.870
 20
-7163.783
 30
548.000
 70
    32
  0
VERTEX
  8
W47LXLIFT
 62
6
 10
550.678
 20
-7163.104
 30
548.000
 70
    32
  0
VERTEX
  8
W47LXLIFT
 62
6
 10
552.425
 20
-7166.837
 30
548.000
 70
    32
  0
VERTEX
  8
W47LXLIFT
 62
6
 10
555.554
 20
-7166.946
 30
548.000
 70
    32
  0
VERTEX
  8
W47LXLIFT
 62
6
 10
570.876
 20
-7188.961
 30
548.000
 70
    32
  0
VERTEX
  8
W47LXLIFT
 62
6
 10
578.001
 20
-7198.564
 30
548.000
 70
    32
  0
VERTEX
  8
W47LXLIFT
 62
6
 10
584.182
 20
-7199.274
 30
548.000
 70
    32
  0
VERTEX
  8
W47LXLIFT
 62
6
 10
585.813
 20
-7196.886
 30
548.000
 70
    32
  0
SEQEND
  8
W47LXLIFT
  0
POLYLINE
  8
W47LXLIFT
 62
3
 66
     1
 70
     9
  0
VERTEX
  8
W47LXLIFT
 62
3
 10
712.113
 20
-7324.447
 30
542.000
 70
    32
  0
VERTEX
  8
W47LXLIFT
 62
3
 10
701.106
 20
-7331.291
 30
542.000
 70
    32
  0
VERTEX
  8
W47LXLIFT
 62
3
 10
694.150
 20
-7327.880
 30
542.000
 70
    32
  0
VERTEX
  8
W47LXLIFT
 62
3
 10
686.598
 20
-7335.576
 30
542.000
 70
    32
  0
VERTEX
  8
W47LXLIFT
 62
3
 10
689.868
 20
-7344.075
 30
542.000
 70
    32
  0
VERTEX
  8
W47LXLIFT
 62
3
 10
690.222
 20
-7349.478
 30
542.000
 70
    32
  0
VERTEX
  8
W47LXLIFT
 62
3
 10
695.846
 20
-7355.387
 30
542.000
 70
    32
  0
VERTEX
  8
W47LXLIFT
 62
3
 10
698.005
 20
-7361.323
 30
542.000
 70
    32
  0
VERTEX
  8
W47LXLIFT
 62
3
 10
698.635
 20
-7368.593
 30
542.000
 70
    32
  0
VERTEX
  8
W47LXLIFT
 62
3
 10
710.150
 20
-7402.536
 30
542.000
 70
    32
  0
VERTEX
  8
W47LXLIFT
 62
3
 10
715.153
 20
-7417.283
 30
542.000
 70
    32
  0
VERTEX
  8
W47LXLIFT
 62
3
 10
721.309
 20
-7424.218
 30
542.000
 70
    32
  0
VERTEX
  8
W47LXLIFT
 62
3
 10
730.318
 20
-7426.564
 30
542.000
 70
    32
  0
VERTEX
  8
W47LXLIFT
 62
3
 10
735.469
 20
-7437.936
 30
542.000
 70
    32
  0
VERTEX
  8
W47LXLIFT
 62
3
 10
733.798
 20
-7442.206
 30
542.000
 70
    32
  0
VERTEX
  8
W47LXLIFT
 62
3
 10
734.949
 20
-7448.551
 30
542.000
 70
    32
  0
VERTEX
  8
W47LXLIFT
 62
3
 10
737.788
 20
-7452.138
 30
542.000
 70
    32
  0
VERTEX
  8
W47LXLIFT
 62
3
 10
737.993
 20
-7456.889
 30
542.000
 70
    32
  0
VERTEX
  8
W47LXLIFT
 62
3
 10
741.426
 20
-7466.358
 30
542.000
 70
    32
  0
VERTEX
  8
W47LXLIFT
 62
3
 10
749.330
 20
-7468.532
 30
542.000
 70
    32
  0
VERTEX
  8
W47LXLIFT
 62
3
 10
756.838
 20
-7467.184
 30
542.000
 70
    32
  0
VERTEX
  8
W47LXLIFT
 62
3
 10
754.464
 20
-7454.545
 30
542.000
 70
    32
  0
VERTEX
  8
W47LXLIFT
 62
3
 10
757.026
 20
-7449.407
 30
542.000
 70
    32
  0
VERTEX
  8
W47LXLIFT
 62
3
 10
752.537
 20
-7421.655
 30
542.000
 70
    32
  0
VERTEX
  8
W47LXLIFT
 62
3
 10
744.801
 20
-7407.490
 30
542.000
 70
    32
  0
VERTEX
  8
W47LXLIFT
 62
3
 10
739.132
 20
-7389.745
 30
542.000
 70
    32
  0
VERTEX
  8
W47LXLIFT
 62
3
 10
730.594
 20
-7372.247
 30
542.000
 70
    32
  0
VERTEX
  8
W47LXLIFT
 62
3
 10
725.763
 20
-7356.395
 30
542.000
 70
    32
  0
VERTEX
  8
W47LXLIFT
 62
3
 10
722.577
 20
-7324.315
 30
542.000
 70
    32
  0
SEQEND
  8
W47LXLIFT
  0
POLYLINE
  8
W47LXLIFT
 62
3
 66
     1
 70
     9
  0
VERTEX
  8
W47LXLIFT
 62
3
 10
690.484
 20
-7324.352
 30
559.000
 70
    32
  0
VERTEX
  8
W47LXLIFT
 62
3
 10
693.312
 20
-7331.651
 30
559.000
 70
    32
  0
VERTEX
  8
W47LXLIFT
 62
3
 10
707.210
 20
-7346.649
 30
559.000
 70
    32
  0
VERTEX
  8
W47LXLIFT
 62
3
 10
707.717
 20
-7356.732
 30
559.000
 70
    32
  0
VERTEX
  8
W47LXLIFT
 62
3
 10
728.284
 20
-7397.998
 30
559.000
 70
    32
  0
VERTEX
  8
W47LXLIFT
 62
3
 10
731.547
 20
-7402.910
 30
559.000
 70
    32
  0
VERTEX
  8
W47LXLIFT
 62
3
 10
726.152
 20
-7404.020
 30
559.000
 70
    32
  0
VERTEX
  8
W47LXLIFT
 62
3
 10
707.851
 20
-7409.225
 30
559.000
 70
    32
  0
VERTEX
  8
W47LXLIFT
 62
3
 10
703.129
 20
-7395.907
 30
559.000
 70
    32
  0
VERTEX
  8
W47LXLIFT
 62
3
 10
690.680
 20
-7360.686
 30
559.000
 70
    32
  0
VERTEX
  8
W47LXLIFT
 62
3
 10
684.794
 20
-7350.395
 30
559.000
 70
    32
  0
VERTEX
  8
W47LXLIFT
 62
3
 10
680.640
 20
-7336.662
 30
559.000
 70
    32
  0
VERTEX
  8
W47LXLIFT
 62
3
 10
680.598
 20
-7326.022
 30
559.000
 70
    32
  0
SEQEND
  8
W47LXLIFT
  0
POLYLINE
  8
W47LXLIFT
 62
11
 66
     1
 70
     9
  0
VERTEX
  8
W47LXLIFT
 62
11
 10
893.380
 20
-7170.015
 30
557.000
 70
    32
  0
VERTEX
  8
W47LXLIFT
 62
11
 10
901.362
 20
-7184.219
 30
557.000
 70
    32
  0
VERTEX
  8
W47LXLIFT
 62
11
 10
906.753
 20
-7190.406
 30
557.000
 70
    32
  0
VERTEX
  8
W47LXLIFT
 62
11
 10
904.225
 20
-7195.737
 30
557.000
 70
    32
  0
VERTEX
  8
W47LXLIFT
 62
11
 10
904.144
 20
-7206.358
 30
557.000
 70
    32
  0
VERTEX
  8
W47LXLIFT
 62
11
 10
898.484
 20
-7216.047
 30
557.000
 70
    32
  0
VERTEX
  8
W47LXLIFT
 62
11
 10
887.585
 20
-7215.735
 30
557.000
 70
    32
  0
VERTEX
  8
W47LXLIFT
 62
11
 10
870.720
 20
-7218.583
 30
557.000
 70
    32
  0
VERTEX
  8
W47LXLIFT
 62
11
 10
865.951
 20
-7210.417
 30
557.000
 70
    32
  0
VERTEX
  8
W47LXLIFT
 62
11
 10
853.320
 20
-7201.026
 30
557.000
 70
    32
  0
VERTEX
  8
W47LXLIFT
 62
11
 10
849.968
 20
-7190.627
 30
557.000
 70
    32
  0
VERTEX
  8
W47LXLIFT
 62
11
 10
859.573
 20
-7184.698
 30
557.000
 70
    32
  0
VERTEX
  8
W47LXLIFT
 62
11
 10
859.598
 20
-7181.304
 30
557.000
 70
    32
  0
VERTEX
  8
W47LXLIFT
 62
11
 10
866.536
 20
-7176.344
 30
557.000
 70
    32
  0
VERTEX
  8
W47LXLIFT
 62
11
 10
867.481
 20
-7171.080
 30
557.000
 70
    32
  0
VERTEX
  8
W47LXLIFT
 62
11
 10
865.554
 20
-7164.866
 30
557.000
 70
    32
  0
VERTEX
  8
W47LXLIFT
 62
11
 10
860.458
 20
-7160.424
 30
557.000
 70
    32
  0
VERTEX
  8
W47LXLIFT
 62
11
 10
854.968
 20
-7156.486
 30
557.000
 70
    32
  0
VERTEX
  8
W47LXLIFT
 62
11
 10
851.151
 20
-7149.475
 30
557.000
 70
    32
  0
VERTEX
  8
W47LXLIFT
 62
11
 10
851.608
 20
-7142.499
 30
557.000
 70
    32
  0
VERTEX
  8
W47LXLIFT
 62
11
 10
849.042
 20
-7133.920
 30
557.000
 70
    32
  0
VERTEX
  8
W47LXLIFT
 62
11
 10
846.512
 20
-7129.563
 30
557.000
 70
    32
  0
VERTEX
  8
W47LXLIFT
 62
11
 10
858.785
 20
-7119.834
 30
557.000
 70
    32
  0
VERTEX
  8
W47LXLIFT
 62
11
 10
867.394
 20
-7119.097
 30
557.000
 70
    32
  0
VERTEX
  8
W47LXLIFT
 62
11
 10
875.707
 20
-7143.293
 30
557.000
 70
    32
  0
VERTEX
  8
W47LXLIFT
 62
11
 10
883.105
 20
-7156.399
 30
557.000
 70
    32
  0
SEQEND
  8
W47LXLIFT
  0
POLYLINE
  8
W47LXLIFT
 62
6
 66
     1
 70
     9
  0
VERTEX
  8
W47LXLIFT
 62
6
 10
583.576
 20
-7205.597
 30
563.000
 70
    32
  0
VERTEX
  8
W47LXLIFT
 62
6
 10
585.669
 20
-7208.314
 30
563.000
 70
    32
  0
VERTEX
  8
W47LXLIFT
 62
6
 10
585.054
 20
-7219.543
 30
563.000
 70
    32
  0
VERTEX
  8
W47LXLIFT
 62
6
 10
576.014
 20
-7223.862
 30
563.000
 70
    32
  0
VERTEX
  8
W47LXLIFT
 62
6
 10
567.711
 20
-7231.126
 30
563.000
 70
    32
  0
VERTEX
  8
W47LXLIFT
 62
6
 10
563.992
 20
-7233.190
 30
563.000
 70
    32
  0
VERTEX
  8
W47LXLIFT
 62
6
 10
554.046
 20
-7228.370
 30
563.000
 70
    32
  0
VERTEX
  8
W47LXLIFT
 62
6
 10
543.435
 20
-7223.383
 30
563.000
 70
    32
  0
VERTEX
  8
W47LXLIFT
 62
6
 10
538.829
 20
-7198.003
 30
563.000
 70
    32
  0
VERTEX
  8
W47LXLIFT
 62
6
 10
541.521
 20
-7196.472
 30
563.000
 70
    32
  0
VERTEX
  8
W47LXLIFT
 62
6
 10
550.170
 20
-7193.854
 30
563.000
 70
    32
  0
VERTEX
  8
W47LXLIFT
 62
6
 10
551.143
 20
-7189.224
 30
563.000
 70
    32
  0
VERTEX
  8
W47LXLIFT
 62
6
 10
557.974
 20
-7185.757
 30
563.000
 70
    32
  0
VERTEX
  8
W47LXLIFT
 62
6
 10
563.300
 20
-7185.894
 30
563.000
 70
    32
  0
VERTEX
  8
W47LXLIFT
 62
6
 10
571.004
 20
-7194.203
 30
563.000
 70
    32
  0
VERTEX
  8
W47LXLIFT
 62
6
 10
575.315
 20
-7196.825
 30
563.000
 70
    32
  0
VERTEX
  8
W47LXLIFT
 62
6
 10
579.102
 20
-7196.344
 30
563.000
 70
    32
  0
SEQEND
  8
W47LXLIFT
  0
POLYLINE
  8
W47LXLIFT
 62
1
 66
     1
 70
     9
  0
VERTEX
  8
W47LXLIFT
 62
1
 10
584.576
 20
-7204.597
 30
573.000
 70
    32
  0
VERTEX
  8
W47LXLIFT
 62
1
 10
586.669
 20
-7207.314
 30
573.000
 70
    32
  0
VERTEX
  8
W47LXLIFT
 62
1
 10
586.054
 20
-7218.543
 30
573.000
 70
    32
  0
VERTEX
  8
W47LXLIFT
 62
1
 10
577.014
 20
-7222.862
 30
573.000
 70
    32
  0
VERTEX
  8
W47LXLIFT
 62
1
 10
568.711
 20
-7230.126
 30
573.000
 70
    32
  0
VERTEX
  8
W47LXLIFT
 62
1
 10
564.992
 20
-7232.190
 30
573.000
 70
    32
  0
VERTEX
  8
W47LXLIFT
 62
1
 10
555.046
 20
-7227.370
 30
573.000
 70
    32
  0
VERTEX
  8
W47LXLIFT
 62
1
 10
544.435
 20
-7222.383
 30
573.000
 70
    32
  0
VERTEX
  8
W47LXLIFT
 62
1
 10
539.829
 20
-7197.003
 30
573.000
 70
    32
  0
VERTEX
  8
W47LXLIFT
 62
1
 10
542.521
 20
-7195.472
 30
573.000
 70
    32
  0
VERTEX
  8
W47LXLIFT
 62
1
 10
551.170
 20
-7192.854
 30
573.000
 70
    32
  0
VERTEX
  8
W47LXLIFT
 62
1
 10
552.143
 20
-7188.224
 30
573.000
 70
    32
  0
VERTEX
  8
W47LXLIFT
 62
1
 10
558.974
 20
-7184.757
 30
573.000
 70
    32
  0
VERTEX
  8
W47LXLIFT
 62
1
 10
564.300
 20
-7184.894
 30
573.000
 70
    32
  0
VERTEX
  8
W47LXLIFT
 62
1
 10
572.004
 20
-7193.203
 30
573.000
 70
    32
  0
VERTEX
  8
W47LXLIFT
 62
1
 10
576.315
 20
-7195.825
 30
573.000
 70
    32
  0
VERTEX
  8
W47LXLIFT
 62
1
 10
580.102
 20
-7195.344
 30
573.000
 70
    32
  0
SEQEND
  8
W47LXLIFT
  0
POLYLINE
  8
W47LXLIFT
 62
11
 66
     1
 70
     9
  0
VERTEX
  8
W47LXLIFT
 62
11
 10
908.167
 20
-7195.470
 30
567.000
 70
    32
  0
VERTEX
  8
W47LXLIFT
 62
11
 10
881.349
 20
-7160.404
 30
567.000
 70
    32
  0
VERTEX
  8
W47LXLIFT
 62
11
 10
880.047
 20
-7153.406
 30
567.000
 70
    32
  0
VERTEX
  8
W47LXLIFT
 62
11
 10
879.472
 20
-7147.402
 30
567.000
 70
    32
  0
VERTEX
  8
W47LXLIFT
 62
11
 10
873.993
 20
-7142.586
 30
567.000
 70
    32
  0
VERTEX
  8
W47LXLIFT
 62
11
 10
869.022
 20
-7136.527
 30
567.000
 70
    32
  0
VERTEX
  8
W47LXLIFT
 62
11
 10
849.775
 20
-7099.304
 30
567.000
 70
    32
  0
VERTEX
  8
W47LXLIFT
 62
11
 10
835.479
 20
-7073.926
 30
567.000
 70
    32
  0
VERTEX
  8
W47LXLIFT
 62
11
 10
821.765
 20
-7080.788
 30
567.000
 70
    32
  0
VERTEX
  8
W47LXLIFT
 62
11
 10
816.372
 20
-7088.757
 30
567.000
 70
    32
  0
VERTEX
  8
W47LXLIFT
 62
11
 10
816.762
 20
-7095.550
 30
567.000
 70
    32
  0
VERTEX
  8
W47LXLIFT
 62
11
 10
824.692
 20
-7104.020
 30
567.000
 70
    32
  0
VERTEX
  8
W47LXLIFT
 62
11
 10
832.758
 20
-7118.488
 30
567.000
 70
    32
  0
VERTEX
  8
W47LXLIFT
 62
11
 10
843.789
 20
-7134.927
 30
567.000
 70
    32
  0
VERTEX
  8
W47LXLIFT
 62
11
 10
851.405
 20
-7147.438
 30
567.000
 70
    32
  0
VERTEX
  8
W47LXLIFT
 62
11
 10
854.484
 20
-7159.997
 30
567.000
 70
    32
  0
VERTEX
  8
W47LXLIFT
 62
11
 10
853.983
 20
-7170.489
 30
567.000
 70
    32
  0
VERTEX
  8
W47LXLIFT
 62
11
 10
845.624
 20
-7193.474
 30
567.000
 70
    32
  0
VERTEX
  8
W47LXLIFT
 62
11
 10
857.685
 20
-7202.083
 30
567.000
 70
    32
  0
VERTEX
  8
W47LXLIFT
 62
11
 10
855.918
 20
-7209.799
 30
567.000
 70
    32
  0
VERTEX
  8
W47LXLIFT
 62
11
 10
857.539
 20
-7215.147
 30
567.000
 70
    32
  0
VERTEX
  8
W47LXLIFT
 62
11
 10
864.397
 20
-7217.976
 30
567.000
 70
    32
  0
VERTEX
  8
W47LXLIFT
 62
11
 10
868.618
 20
-7220.773
 30
567.000
 70
    32
  0
VERTEX
  8
W47LXLIFT
 62
11
 10
882.006
 20
-7227.324
 30
567.000
 70
    32
  0
VERTEX
  8
W47LXLIFT
 62
11
 10
886.970
 20
-7221.301
 30
567.000
 70
    32
  0
VERTEX
  8
W47LXLIFT
 62
11
 10
893.209
 20
-7218.812
 30
567.000
 70
    32
  0
VERTEX
  8
W47LXLIFT
 62
11
 10
910.985
 20
-7216.168
 30
567.000
 70
    32
  0
VERTEX
  8
W47LXLIFT
 62
11
 10
921.799
 20
-7219.047
 30
567.000
 70
    32
  0
SEQEND
  8
W47LXLIFT
  0
POLYLINE
  8
W47LXLIFT
 62
3
 66
     1
 70
     9
  0
VERTEX
  8
W47LXLIFT
 62
3
 10
694.126
 20
-7325.611
 30
573.000
 70
    32
  0
VERTEX
  8
W47LXLIFT
 62
3
 10
699.626
 20
-7334.332
 30
573.000
 70
    32
  0
VERTEX
  8
W47LXLIFT
 62
3
 10
703.511
 20
-7337.265
 30
573.000
 70
    32
  0
VERTEX
  8
W47LXLIFT
 62
3
 10
705.051
 20
-7340.713
 30
573.000
 70
    32
  0
VERTEX
  8
W47LXLIFT
 62
3
 10
704.977
 20
-7345.232
 30
573.000
 70
    32
  0
VERTEX
  8
W47LXLIFT
 62
3
 10
711.859
 20
-7353.161
 30
573.000
 70
    32
  0
VERTEX
  8
W47LXLIFT
 62
3
 10
710.359
 20
-7359.156
 30
573.000
 70
    32
  0
VERTEX
  8
W47LXLIFT
 62
3
 10
723.570
 20
-7388.267
 30
573.000
 70
    32
  0
VERTEX
  8
W47LXLIFT
 62
3
 10
729.931
 20
-7399.953
 30
573.000
 70
    32
  0
VERTEX
  8
W47LXLIFT
 62
3
 10
740.750
 20
-7402.392
 30
573.000
 70
    32
  0
VERTEX
  8
W47LXLIFT
 62
3
 10
747.213
 20
-7422.713
 30
573.000
 70
    32
  0
VERTEX
  8
W47LXLIFT
 62
3
 10
731.085
 20
-7431.339
 30
573.000
 70
    32
  0
VERTEX
  8
W47LXLIFT
 62
3
 10
722.633
 20
-7423.795
 30
573.000
 70
    32
  0
VERTEX
  8
W47LXLIFT
 62
3
 10
716.536
 20
-7426.180
 30
573.000
 70
    32
  0
VERTEX
  8
W47LXLIFT
 62
3
 10
711.429
 20
-7416.955
 30
573.000
 70
    32
  0
VERTEX
  8
W47LXLIFT
 62
3
 10
708.015
 20
-7404.532
 30
573.000
 70
    32
  0
VERTEX
  8
W47LXLIFT
 62
3
 10
706.372
 20
-7395.279
 30
573.000
 70
    32
  0
VERTEX
  8
W47LXLIFT
 62
3
 10
699.955
 20
-7381.131
 30
573.000
 70
    32
  0
VERTEX
  8
W47LXLIFT
 62
3
 10
693.139
 20
-7362.264
 30
573.000
 70
    32
  0
VERTEX
  8
W47LXLIFT
 62
3
 10
687.926
 20
-7346.038
 30
573.000
 70
    32
  0
VERTEX
  8
W47LXLIFT
 62
3
 10
682.305
 20
-7320.311
 30
573.000
 70
    32
  0
SEQEND
  8
W47LXLIFT
  0
POLYLINE
  8
W47LXLIFT
 62
2
 66
     1
 70
     9
  0
VERTEX
  8
W47LXLIFT
 62
2
 10
630.650
 20
-7284.336
 30
575.000
 70
    32
  0
VERTEX
  8
W47LXLIFT
 62
2
 10
638.676
 20
-7289.360
 30
575.000
 70
    32
  0
VERTEX
  8
W47LXLIFT
 62
2
 10
651.530
 20
-7293.688
 30
575.000
 70
    32
  0
VERTEX
  8
W47LXLIFT
 62
2
 10
661.953
 20
-7301.099
 30
575.000
 70
    32
  0
VERTEX
  8
W47LXLIFT
 62
2
 10
677.554
 20
-7296.670
 30
575.000
 70
    32
  0
VERTEX
  8
W47LXLIFT
 62
2
 10
685.686
 20
-7305.863
 30
575.000
 70
    32
  0
VERTEX
  8
W47LXLIFT
 62
2
 10
684.755
 20
-7308.612
 30
575.000
 70
    32
  0
VERTEX
  8
W47LXLIFT
 62
2
 10
690.747
 20
-7314.578
 30
575.000
 70
    32
  0
VERTEX
  8
W47LXLIFT
 62
2
 10
699.399
 20
-7318.819
 30
575.000
 70
    32
  0
VERTEX
  8
W47LXLIFT
 62
2
 10
709.787
 20
-7319.178
 30
575.000
 70
    32
  0
VERTEX
  8
W47LXLIFT
 62
2
 10
723.312
 20
-7326.065
 30
575.000
 70
    32
  0
VERTEX
  8
W47LXLIFT
 62
2
 10
722.001
 20
-7332.467
 30
575.000
 70
    32
  0
VERTEX
  8
W47LXLIFT
 62
2
 10
711.721
 20
-7334.642
 30
575.000
 70
    32
  0
VERTEX
  8
W47LXLIFT
 62
2
 10
708.289
 20
-7337.694
 30
575.000
 70
    32
  0
VERTEX
  8
W47LXLIFT
 62
2
 10
695.181
 20
-7341.064
 30
575.000
 70
    32
  0
VERTEX
  8
W47LXLIFT
 62
2
 10
690.058
 20
-7351.340
 30
575.000
 70
    32
  0
VERTEX
  8
W47LXLIFT
 62
2
 10
680.735
 20
-7350.204
 30
575.000
 70
    32
  0
VERTEX
  8
W47LXLIFT
 62
2
 10
666.798
 20
-7343.945
 30
575.000
 70
    32
  0
VERTEX
  8
W47LXLIFT
 62
2
 10
663.664
 20
-7338.612
 30
575.000
 70
    32
  0
VERTEX
  8
W47LXLIFT
 62
2
 10
655.117
 20
-7328.851
 30
575.000
 70
    32
  0
VERTEX
  8
W47LXLIFT
 62
2
 10
652.925
 20
-7319.890
 30
575.000
 70
    32
  0
VERTEX
  8
W47LXLIFT
 62
2
 10
645.066
 20
-7311.369
 30
575.000
 70
    32
  0
VERTEX
  8
W47LXLIFT
 62
2
 10
640.608
 20
-7303.628
 30
575.000
 70
    32
  0
VERTEX
  8
W47LXLIFT
 62
2
 10
637.138
 20
-7301.263
 30
575.000
 70
    32
  0
VERTEX
  8
W47LXLIFT
 62
2
 10
634.073
 20
-7297.515
 30
575.000
 70
    32
  0
VERTEX
  8
W47LXLIFT
 62
2
 10
626.325
 20
-7292.722
 30
575.000
 70
    32
  0
SEQEND
  8
W47LXLIFT
  0
POLYLINE
  8
W47LXLIFT
 62
1
 66
     1
 70
     9
  0
VERTEX
  8
W47LXLIFT
 62
1
 10
883.882
 20
-7254.647
 30
593.000
 70
    32
  0
VERTEX
  8
W47LXLIFT
 62
1
 10
879.624
 20
-7246.434
 30
593.000
 70
    32
  0
VERTEX
  8
W47LXLIFT
 62
1
 10
866.828
 20
-7217.891
 30
593.000
 70
    32
  0
VERTEX
  8
W47LXLIFT
 62
1
 10
861.780
 20
-7209.493
 30
593.000
 70
    32
  0
VERTEX
  8
W47LXLIFT
 62
1
 10
854.983
 20
-7196.166
 30
593.000
 70
    32
  0
VERTEX
  8
W47LXLIFT
 62
1
 10
850.708
 20
-7168.257
 30
593.000
 70
    32
  0
VERTEX
  8
W47LXLIFT
 62
1
 10
865.205
 20
-7138.175
 30
593.000
 70
    32
  0
VERTEX
  8
W47LXLIFT
 62
1
 10
864.668
 20
-7134.757
 30
593.000
 70
    32
  0
VERTEX
  8
W47LXLIFT
 62
1
 10
859.732
 20
-7127.256
 30
593.000
 70
    32
  0
VERTEX
  8
W47LXLIFT
 62
1
 10
861.197
 20
-7117.040
 30
593.000
 70
    32
  0
VERTEX
  8
W47LXLIFT
 62
1
 10
879.822
 20
-7123.903
 30
593.000
 70
    32
  0
VERTEX
  8
W47LXLIFT
 62
1
 10
888.384
 20
-7143.670
 30
593.000
 70
    32
  0
VERTEX
  8
W47LXLIFT
 62
1
 10
885.825
 20
-7155.666
 30
593.000
 70
    32
  0
VERTEX
  8
W47LXLIFT
 62
1
 10
886.307
 20
-7166.312
 30
593.000
 70
    32
  0
VERTEX
  8
W47LXLIFT
 62
1
 10
890.923
 20
-7172.630
 30
593.000
 70
    32
  0
VERTEX
  8
W47LXLIFT
 62
1
 10
899.362
 20
-7179.857
 30
593.000
 70
    32
  0
VERTEX
  8
W47LXLIFT
 62
1
 10
899.921
 20
-7184.349
 30
593.000
 70
    32
  0
VERTEX
  8
W47LXLIFT
 62
1
 10
896.139
 20
-7190.052
 30
593.000
 70
    32
  0
VERTEX
  8
W47LXLIFT
 62
1
 10
884.163
 20
-7205.552
 30
593.000
 70
    32
  0
VERTEX
  8
W47LXLIFT
 62
1
 10
882.696
 20
-7214.573
 30
593.000
 70
    32
  0
VERTEX
  8
W47LXLIFT
 62
1
 10
890.878
 20
-7240.825
 30
593.000
 70
    32
  0
SEQEND
  8
W47LXLIFT
  0
POLYLINE
  8
W47LXLIFT
 62
2
 66
     1
 70
     9
  0
VERTEX
  8
W47LXLIFT
 62
2
 10
638.263
 20
-7301.313
 30
591.000
 70
    32
  0
VERTEX
  8
W47LXLIFT
 62
2
 10
647.556
 20
-7306.282
 30
591.000
 70
    32
  0
VERTEX
  8
W47LXLIFT
 62
2
 10
651.609
 20
-7318.238
 30
591.000
 70
    32
  0
VERTEX
  8
W47LXLIFT
 62
2
 10
656.954
 20
-7323.915
 30
591.000
 70
    32
  0
VERTEX
  8
W47LXLIFT
 62
2
 10
668.024
 20
-7342.940
 30
591.000
 70
    32
  0
VERTEX
  8
W47LXLIFT
 62
2
 10
674.693
 20
-7345.362
 30
591.000
 70
    32
  0
VERTEX
  8
W47LXLIFT
 62
2
 10
680.609
 20
-7351.820
 30
591.000
 70
    32
  0
VERTEX
  8
W47LXLIFT
 62
2
 10
687.098
 20
-7354.592
 30
591.000
 70
    32
  0
VERTEX
  8
W47LXLIFT
 62
2
 10
694.468
 20
-7340.387
 30
591.000
 70
    32
  0
VERTEX
  8
W47LXLIFT
 62
2
 10
699.296
 20
-7334.029
 30
591.000
 70
    32
  0
VERTEX
  8
W47LXLIFT
 62
2
 10
708.159
 20
-7331.256
 30
591.000
 70
    32
  0
VERTEX
  8
W47LXLIFT
 62
2
 10
707.553
 20
-7326.254
 30
591.000
 70
    32
  0
VERTEX
  8
W47LXLIFT
 62
2
 10
703.532
 20
-7320.155
 30
591.000
 70
    32
  0
VERTEX
  8
W47LXLIFT
 62
2
 10
695.284
 20
-7320.192
 30
591.000
 70
    32
  0
VERTEX
  8
W47LXLIFT
 62
2
 10
685.925
 20
-7314.835
 30
591.000
 70
    32
  0
VERTEX
  8
W47LXLIFT
 62
2
 10
683.420
 20
-7309.914
 30
591.000
 70
    32
  0
VERTEX
  8
W47LXLIFT
 62
2
 10
685.850
 20
-7306.832
 30
591.000
 70
    32
  0
VERTEX
  8
W47LXLIFT
 62
2
 10
676.609
 20
-7296.271
 30
591.000
 70
    32
  0
VERTEX
  8
W47LXLIFT
 62
2
 10
663.905
 20
-7301.089
 30
591.000
 70
    32
  0
VERTEX
  8
W47LXLIFT
 62
2
 10
656.523
 20
-7297.989
 30
591.000
 70
    32
  0
VERTEX
  8
W47LXLIFT
 62
2
 10
642.739
 20
-7290.747
 30
591.000
 70
    32
  0
SEQEND
  8
W47LXLIFT
  0
POLYLINE
  8
W47LXLIFT
 62
3
 66
     1
 70
     9
  0
VERTEX
  8
W47LXLIFT
 62
3
 10
749.035
 20
-7466.787
 30
583.000
 70
    32
  0
VERTEX
  8
W47LXLIFT
 62
3
 10
739.629
 20
-7445.567
 30
583.000
 70
    32
  0
VERTEX
  8
W47LXLIFT
 62
3
 10
733.191
 20
-7424.683
 30
583.000
 70
    32
  0
VERTEX
  8
W47LXLIFT
 62
3
 10
735.195
 20
-7421.912
 30
583.000
 70
    32
  0
VERTEX
  8
W47LXLIFT
 62
3
 10
735.136
 20
-7415.423
 30
583.000
 70
    32
  0
VERTEX
  8
W47LXLIFT
 62
3
 10
730.255
 20
-7406.358
 30
583.000
 70
    32
  0
VERTEX
  8
W47LXLIFT
 62
3
 10
717.799
 20
-7385.733
 30
583.000
 70
    32
  0
VERTEX
  8
W47LXLIFT
 62
3
 10
700.681
 20
-7355.448
 30
583.000
 70
    32
  0
VERTEX
  8
W47LXLIFT
 62
3
 10
695.350
 20
-7347.257
 30
583.000
 70
    32
  0
VERTEX
  8
W47LXLIFT
 62
3
 10
690.973
 20
-7347.079
 30
583.000
 70
    32
  0
VERTEX
  8
W47LXLIFT
 62
3
 10
682.026
 20
-7355.249
 30
583.000
 70
    32
  0
VERTEX
  8
W47LXLIFT
 62
3
 10
687.094
 20
-7370.383
 30
583.000
 70
    32
  0
VERTEX
  8
W47LXLIFT
 62
3
 10
701.692
 20
-7403.925
 30
583.000
 70
    32
  0
VERTEX
  8
W47LXLIFT
 62
3
 10
705.726
 20
-7416.004
 30
583.000
 70
    32
  0
VERTEX
  8
W47LXLIFT
 62
3
 10
709.958
 20
-7444.598
 30
583.000
 70
    32
  0
VERTEX
  8
W47LXLIFT
 62
3
 10
719.363
 20
-7447.635
 30
583.000
 70
    32
  0
VERTEX
  8
W47LXLIFT
 62
3
 10
728.271
 20
-7448.203
 30
583.000
 70
    32
  0
VERTEX
  8
W47LXLIFT
 62
3
 10
731.692
 20
-7451.693
 30
583.000
 70
    32
  0
VERTEX
  8
W47LXLIFT
 62
3
 10
741.393
 20
-7471.826
 30
583.000
 70
    32
  0
SEQEND
  8
W47LXLIFT
  0
POLYLINE
  8
W47LXLIFT
 62
2
 66
     1
 70
     9
  0
VERTEX
  8
W47LXLIFT
 62
2
 10
640.914
 20
-7301.662
 30
601.000
 70
    32
  0
VERTEX
  8
W47LXLIFT
 62
2
 10
648.937
 20
-7313.985
 30
601.000
 70
    32
  0
VERTEX
  8
W47LXLIFT
 62
2
 10
650.869
 20
-7319.759
 30
601.000
 70
    32
  0
VERTEX
  8
W47LXLIFT
 62
2
 10
661.079
 20
-7330.157
 30
601.000
 70
    32
  0
VERTEX
  8
W47LXLIFT
 62
2
 10
664.117
 20
-7336.103
 30
601.000
 70
    32
  0
VERTEX
  8
W47LXLIFT
 62
2
 10
666.926
 20
-7343.524
 30
601.000
 70
    32
  0
VERTEX
  8
W47LXLIFT
 62
2
 10
679.735
 20
-7351.369
 30
601.000
 70
    32
  0
VERTEX
  8
W47LXLIFT
 62
2
 10
690.531
 20
-7345.877
 30
601.000
 70
    32
  0
VERTEX
  8
W47LXLIFT
 62
2
 10
696.183
 20
-7338.263
 30
601.000
 70
    32
  0
VERTEX
  8
W47LXLIFT
 62
2
 10
705.485
 20
-7335.496
 30
601.000
 70
    32
  0
VERTEX
  8
W47LXLIFT
 62
2
 10
702.183
 20
-7318.309
 30
601.000
 70
    32
  0
VERTEX
  8
W47LXLIFT
 62
2
 10
694.960
 20
-7316.618
 30
601.000
 70
    32
  0
VERTEX
  8
W47LXLIFT
 62
2
 10
687.684
 20
-7312.025
 30
601.000
 70
    32
  0
VERTEX
  8
W47LXLIFT
 62
2
 10
677.553
 20
-7299.501
 30
601.000
 70
    32
  0
VERTEX
  8
W47LXLIFT
 62
2
 10
662.556
 20
-7302.074
 30
601.000
 70
    32
  0
VERTEX
  8
W47LXLIFT
 62
2
 10
648.813
 20
-7292.951
 30
601.000
 70
    32
  0
SEQEND
  8
W47LXLIFT
  0
POLYLINE
  8
W47LXLIFT
 62
11
 66
     1
 70
     9
  0
VERTEX
  8
W47LXLIFT
 62
11
 10
614.682
 20
-7055.475
 30
605.000
 70
    32
  0
VERTEX
  8
W47LXLIFT
 62
11
 10
606.728
 20
-7033.412
 30
605.000
 70
    32
  0
VERTEX
  8
W47LXLIFT
 62
11
 10
605.522
 20
-7025.800
 30
605.000
 70
    32
  0
VERTEX
  8
W47LXLIFT
 62
11
 10
601.062
 20
-7019.695
 30
605.000
 70
    32
  0
VERTEX
  8
W47LXLIFT
 62
11
 10
596.972
 20
-7017.674
 30
605.000
 70
    32
  0
VERTEX
  8
W47LXLIFT
 62
11
 10
592.070
 20
-7004.705
 30
605.000
 70
    32
  0
VERTEX
  8
W47LXLIFT
 62
11
 10
587.304
 20
-6992.072
 30
605.000
 70
    32
  0
VERTEX
  8
W47LXLIFT
 62
11
 10
604.148
 20
-6982.488
 30
605.000
 70
    32
  0
VERTEX
  8
W47LXLIFT
 62
11
 10
608.176
 20
-6995.006
 30
605.000
 70
    32
  0
VERTEX
  8
W47LXLIFT
 62
11
 10
612.595
 20
-7008.655
 30
605.000
 70
    32
  0
VERTEX
  8
W47LXLIFT
 62
11
 10
616.522
 20
-7030.721
 30
605.000
 70
    32
  0
VERTEX
  8
W47LXLIFT
 62
11
 10
624.747
 20
-7043.766
 30
605.000
 70
    32
  0
VERTEX
  8
W47LXLIFT
 62
11
 10
639.340
 20
-7069.254
 30
605.000
 70
    32
  0
VERTEX
  8
W47LXLIFT
 62
11
 10
650.701
 20
-7085.997
 30
605.000
 70
    32
  0
VERTEX
  8
W47LXLIFT
 62
11
 10
634.903
 20
-7094.926
 30
605.000
 70
    32
  0
VERTEX
  8
W47LXLIFT
 62
11
 10
629.910
 20
-7093.456
 30
605.000
 70
    32
  0
SEQEND
  8
W47LXLIFT
  0
POLYLINE
  8
W47LXLIFT
 62
2
 66
     1
 70
     9
  0
VERTEX
  8
W47LXLIFT
 62
2
 10
634.747
 20
-7298.437
 30
613.000
 70
    32
  0
VERTEX
  8
W47LXLIFT
 62
2
 10
638.353
 20
-7301.138
 30
613.000
 70
    32
  0
VERTEX
  8
W47LXLIFT
 62
2
 10
640.750
 20
-7306.356
 30
613.000
 70
    32
  0
VERTEX
  8
W47LXLIFT
 62
2
 10
653.419
 20
-7321.163
 30
613.000
 70
    32
  0
VERTEX
  8
W47LXLIFT
 62
2
 10
654.882
 20
-7327.934
 30
613.000
 70
    32
  0
VERTEX
  8
W47LXLIFT
 62
2
 10
658.193
 20
-7331.721
 30
613.000
 70
    32
  0
VERTEX
  8
W47LXLIFT
 62
2
 10
662.657
 20
-7336.191
 30
613.000
 70
    32
  0
VERTEX
  8
W47LXLIFT
 62
2
 10
666.481
 20
-7343.958
 30
613.000
 70
    32
  0
VERTEX
  8
W47LXLIFT
 62
2
 10
688.212
 20
-7352.689
 30
613.000
 70
    32
  0
VERTEX
  8
W47LXLIFT
 62
2
 10
695.337
 20
-7341.277
 30
613.000
 70
    32
  0
VERTEX
  8
W47LXLIFT
 62
2
 10
703.309
 20
-7339.372
 30
613.000
 70
    32
  0
VERTEX
  8
W47LXLIFT
 62
2
 10
709.916
 20
-7336.941
 30
613.000
 70
    32
  0
VERTEX
  8
W47LXLIFT
 62
2
 10
714.831
 20
-7334.874
 30
613.000
 70
    32
  0
VERTEX
  8
W47LXLIFT
 62
2
 10
721.932
 20
-7333.715
 30
613.000
 70
    32
  0
VERTEX
  8
W47LXLIFT
 62
2
 10
724.354
 20
-7329.876
 30
613.000
 70
    32
  0
VERTEX
  8
W47LXLIFT
 62
2
 10
711.267
 20
-7318.968
 30
613.000
 70
    32
  0
VERTEX
  8
W47LXLIFT
 62
2
 10
700.439
 20
-7318.604
 30
613.000
 70
    32
  0
VERTEX
  8
W47LXLIFT
 62
2
 10
687.029
 20
-7310.980
 30
613.000
 70
    32
  0
VERTEX
  8
W47LXLIFT
 62
2
 10
685.205
 20
-7307.739
 30
613.000
 70
    32
  0
VERTEX
  8
W47LXLIFT
 62
2
 10
683.909
 20
-7303.133
 30
613.000
 70
    32
  0
VERTEX
  8
W47LXLIFT
 62
2
 10
677.196
 20
-7295.733
 30
613.000
 70
    32
  0
VERTEX
  8
W47LXLIFT
 62
2
 10
670.127
 20
-7299.918
 30
613.000
 70
    32
  0
VERTEX
  8
W47LXLIFT
 62
2
 10
662.685
 20
-7301.654
 30
613.000
 70
    32
  0
VERTEX
  8
W47LXLIFT
 62
2
 10
651.795
 20
-7293.604
 30
613.000
 70
    32
  0
VERTEX
  8
W47LXLIFT
 62
2
 10
638.605
 20
-7289.412
 30
613.000
 70
    32
  0
SEQEND
  8
W47LXLIFT
  0
POLYLINE
  8
W47LXLIFT
 62
8
 66
     1
 70
     9
  0
VERTEX
  8
W47LXLIFT
 62
8
 10
759.664
 20
-7464.792
 30
616.000
 70
    32
  0
VERTEX
  8
W47LXLIFT
 62
8
 10
777.954
 20
-7466.129
 30
616.000
 70
    32
  0
VERTEX
  8
W47LXLIFT
 62
8
 10
798.818
 20
-7462.645
 30
616.000
 70
    32
  0
VERTEX
  8
W47LXLIFT
 62
8
 10
806.342
 20
-7465.641
 30
616.000
 70
    32
  0
VERTEX
  8
W47LXLIFT
 62
8
 10
813.049
 20
-7449.634
 30
616.000
 70
    32
  0
VERTEX
  8
W47LXLIFT
 62
8
 10
809.561
 20
-7444.561
 30
616.000
 70
    32
  0
VERTEX
  8
W47LXLIFT
 62
8
 10
805.106
 20
-7435.185
 30
616.000
 70
    32
  0
VERTEX
  8
W47LXLIFT
 62
8
 10
806.908
 20
-7428.859
 30
616.000
 70
    32
  0
VERTEX
  8
W47LXLIFT
 62
8
 10
803.149
 20
-7424.311
 30
616.000
 70
    32
  0
VERTEX
  8
W47LXLIFT
 62
8
 10
800.232
 20
-7414.356
 30
616.000
 70
    32
  0
VERTEX
  8
W47LXLIFT
 62
8
 10
795.555
 20
-7415.704
 30
616.000
 70
    32
  0
VERTEX
  8
W47LXLIFT
 62
8
 10
787.940
 20
-7421.377
 30
616.000
 70
    32
  0
VERTEX
  8
W47LXLIFT
 62
8
 10
788.709
 20
-7430.179
 30
616.000
 70
    32
  0
VERTEX
  8
W47LXLIFT
 62
8
 10
775.281
 20
-7435.199
 30
616.000
 70
    32
  0
VERTEX
  8
W47LXLIFT
 62
8
 10
768.606
 20
-7433.216
 30
616.000
 70
    32
  0
VERTEX
  8
W47LXLIFT
 62
8
 10
757.903
 20
-7442.560
 30
616.000
 70
    32
  0
VERTEX
  8
W47LXLIFT
 62
8
 10
751.426
 20
-7445.768
 30
616.000
 70
    32
  0
SEQEND
  8
W47LXLIFT
  0
POLYLINE
  8
W47LXLIFT
 62
8
 66
     1
 70
     9
  0
VERTEX
  8
W47LXLIFT
 62
8
 10
783.288
 20
-7472.685
 30
630.000
 70
    32
  0
VERTEX
  8
W47LXLIFT
 62
8
 10
758.390
 20
-7458.428
 30
630.000
 70
    32
  0
VERTEX
  8
W47LXLIFT
 62
8
 10
751.934
 20
-7453.019
 30
630.000
 70
    32
  0
VERTEX
  8
W47LXLIFT
 62
8
 10
743.941
 20
-7436.864
 30
630.000
 70
    32
  0
VERTEX
  8
W47LXLIFT
 62
8
 10
758.174
 20
-7406.866
 30
630.000
 70
    32
  0
VERTEX
  8
W47LXLIFT
 62
8
 10
767.465
 20
-7402.146
 30
630.000
 70
    32
  0
VERTEX
  8
W47LXLIFT
 62
8
 10
774.934
 20
-7409.537
 30
630.000
 70
    32
  0
VERTEX
  8
W47LXLIFT
 62
8
 10
787.900
 20
-7411.933
 30
630.000
 70
    32
  0
VERTEX
  8
W47LXLIFT
 62
8
 10
788.107
 20
-7417.879
 30
630.000
 70
    32
  0
VERTEX
  8
W47LXLIFT
 62
8
 10
796.870
 20
-7425.850
 30
630.000
 70
    32
  0
VERTEX
  8
W47LXLIFT
 62
8
 10
799.427
 20
-7436.503
 30
630.000
 70
    32
  0
VERTEX
  8
W47LXLIFT
 62
8
 10
803.952
 20
-7451.490
 30
630.000
 70
    32
  0
VERTEX
  8
W47LXLIFT
 62
8
 10
801.385
 20
-7462.730
 30
630.000
 70
    32
  0
VERTEX
  8
W47LXLIFT
 62
8
 10
800.128
 20
-7470.399
 30
630.000
 70
    32
  0
SEQEND
  8
W47LXLIFT
  0
POLYLINE
  8
W47LXLIFT
 62
8
 66
     1
 70
     9
  0
VERTEX
  8
W47LXLIFT
 62
8
 10
717.878
 20
-6859.760
 30
656.000
 70
    32
  0
VERTEX
  8
W47LXLIFT
 62
8
 10
720.350
 20
-6849.135
 30
656.000
 70
    32
  0
VERTEX
  8
W47LXLIFT
 62
8
 10
713.711
 20
-6834.385
 30
656.000
 70
    32
  0
VERTEX
  8
W47LXLIFT
 62
8
 10
722.091
 20
-6826.630
 30
656.000
 70
    32
  0
VERTEX
  8
W47LXLIFT
 62
8
 10
734.030
 20
-6826.727
 30
656.000
 70
    32
  0
VERTEX
  8
W47LXLIFT
 62
8
 10
736.707
 20
-6841.866
 30
656.000
 70
    32
  0
VERTEX
  8
W47LXLIFT
 62
8
 10
746.173
 20
-6842.899
 30
656.000
 70
    32
  0
VERTEX
  8
W47LXLIFT
 62
8
 10
750.993
 20
-6853.967
 30
656.000
 70
    32
  0
VERTEX
  8
W47LXLIFT
 62
8
 10
747.056
 20
-6856.626
 30
656.000
 70
    32
  0
VERTEX
  8
W47LXLIFT
 62
8
 10
753.083
 20
-6866.813
 30
656.000
 70
    32
  0
VERTEX
  8
W47LXLIFT
 62
8
 10
747.218
 20
-6874.583
 30
656.000
 70
    32
  0
VERTEX
  8
W47LXLIFT
 62
8
 10
738.882
 20
-6878.822
 30
656.000
 70
    32
  0
VERTEX
  8
W47LXLIFT
 62
8
 10
732.991
 20
-6871.802
 30
656.000
 70
    32
  0
VERTEX
  8
W47LXLIFT
 62
8
 10
723.294
 20
-6871.047
 30
656.000
 70
    32
  0
SEQEND
  8
W47LXLIFT
  0
POLYLINE
  8
W47LXLIFT
 62
1
 66
     1
 70
     9
  0
VERTEX
  8
W47LXLIFT
 62
1
 10
718.878
 20
-6858.760
 30
666.000
 70
    32
  0
VERTEX
  8
W47LXLIFT
 62
1
 10
721.350
 20
-6848.135
 30
666.000
 70
    32
  0
VERTEX
  8
W47LXLIFT
 62
1
 10
714.711
 20
-6833.385
 30
666.000
 70
    32
  0
VERTEX
  8
W47LXLIFT
 62
1
 10
723.091
 20
-6825.630
 30
666.000
 70
    32
  0
VERTEX
  8
W47LXLIFT
 62
1
 10
735.030
 20
-6825.727
 30
666.000
 70
    32
  0
VERTEX
  8
W47LXLIFT
 62
1
 10
737.707
 20
-6840.866
 30
666.000
 70
    32
  0
VERTEX
  8
W47LXLIFT
 62
1
 10
747.173
 20
-6841.899
 30
666.000
 70
    32
  0
VERTEX
  8
W47LXLIFT
 62
1
 10
751.993
 20
-6852.967
 30
666.000
 70
    32
  0
VERTEX
  8
W47LXLIFT
 62
1
 10
748.056
 20
-6855.626
 30
666.000
 70
    32
  0
VERTEX
  8
W47LXLIFT
 62
1
 10
754.083
 20
-6865.813
 30
666.000
 70
    32
  0
VERTEX
  8
W47LXLIFT
 62
1
 10
748.218
 20
-6873.583
 30
666.000
 70
    32
  0
VERTEX
  8
W47LXLIFT
 62
1
 10
739.882
 20
-6877.822
 30
666.000
 70
    32
  0
VERTEX
  8
W47LXLIFT
 62
1
 10
733.991
 20
-6870.802
 30
666.000
 70
    32
  0
VERTEX
  8
W47LXLIFT
 62
1
 10
724.294
 20
-6870.047
 30
666.000
 70
    32
  0
SEQEND
  8
W47LXLIFT
  0
POLYLINE
  8
W47LXLIFT
 62
4
 66
     1
 70
     9
  0
VERTEX
  8
W47LXLIFT
 62
4
 10
514.572
 20
-7041.364
 30
600.000
 70
    32
  0
VERTEX
  8
W47LXLIFT
 62
4
 10
514.690
 20
-7030.060
 30
600.000
 70
    32
  0
VERTEX
  8
W47LXLIFT
 62
4
 10
509.827
 20
-7007.863
 30
600.000
 70
    32
  0
VERTEX
  8
W47LXLIFT
 62
4
 10
505.068
 20
-6991.847
 30
600.000
 70
    32
  0
VERTEX
  8
W47LXLIFT
 62
4
 10
497.399
 20
-6970.252
 30
600.000
 70
    32
  0
VERTEX
  8
W47LXLIFT
 62
4
 10
501.254
 20
-6965.231
 30
600.000
 70
    32
  0
VERTEX
  8
W47LXLIFT
 62
4
 10
520.636
 20
-6959.899
 30
600.000
 70
    32
  0
VERTEX
  8
W47LXLIFT
 62
4
 10
527.755
 20
-6986.310
 30
600.000
 70
    32
  0
VERTEX
  8
W47LXLIFT
 62
4
 10
533.794
 20
-7014.680
 30
600.000
 70
    32
  0
VERTEX
  8
W47LXLIFT
 62
4
 10
537.092
 20
-7022.463
 30
600.000
 70
    32
  0
VERTEX
  8
W47LXLIFT
 62
4
 10
540.983
 20
-7037.265
 30
600.000
 70
    32
  0
VERTEX
  8
W47LXLIFT
 62
4
 10
550.180
 20
-7051.942
 30
600.000
 70
    32
  0
VERTEX
  8
W47LXLIFT
 62
4
 10
558.182
 20
-7061.326
 30
600.000
 70
    32
  0
VERTEX
  8
W47LXLIFT
 62
4
 10
562.643
 20
-7071.190
 30
600.000
 70
    32
  0
VERTEX
  8
W47LXLIFT
 62
4
 10
559.238
 20
-7078.046
 30
600.000
 70
    32
  0
VERTEX
  8
W47LXLIFT
 62
4
 10
550.874
 20
-7083.701
 30
600.000
 70
    32
  0
VERTEX
  8
W47LXLIFT
 62
4
 10
544.019
 20
-7085.580
 30
600.000
 70
    32
  0
VERTEX
  8
W47LXLIFT
 62
4
 10
540.007
 20
-7077.553
 30
600.000
 70
    32
  0
VERTEX
  8
W47LXLIFT
 62
4
 10
532.138
 20
-7066.241
 30
600.000
 70
    32
  0
VERTEX
  8
W47LXLIFT
 62
4
 10
525.689
 20
-7063.407
 30
600.000
 70
    32
  0
SEQEND
  8
W47LXLIFT
  0
POLYLINE
  8
W47LXLIFT
 62
1
 66
     1
 70
     9
  0
VERTEX
  8
W47LXLIFT
 62
1
 10
526.689
 20
-7062.407
 30
610.000
 70
    32
  0
VERTEX
  8
W47LXLIFT
 62
1
 10
533.138
 20
-7065.241
 30
610.000
 70
    32
  0
VERTEX
  8
W47LXLIFT
 62
1
 10
541.007
 20
-7076.553
 30
610.000
 70
    32
  0
VERTEX
  8
W47LXLIFT
 62
1
 10
545.019
 20
-7084.580
 30
610.000
 70
    32
  0
VERTEX
  8
W47LXLIFT
 62
1
 10
551.874
 20
-7082.701
 30
610.000
 70
    32
  0
VERTEX
  8
W47LXLIFT
 62
1
 10
560.238
 20
-7077.046
 30
610.000
 70
    32
  0
VERTEX
  8
W47LXLIFT
 62
1
 10
563.643
 20
-7070.190
 30
610.000
 70
    32
  0
VERTEX
  8
W47LXLIFT
 62
1
 10
559.182
 20
-7060.326
 30
610.000
 70
    32
  0
VERTEX
  8
W47LXLIFT
 62
1
 10
551.180
 20
-7050.942
 30
610.000
 70
    32
  0
VERTEX
  8
W47LXLIFT
 62
1
 10
541.983
 20
-7036.265
 30
610.000
 70
    32
  0
VERTEX
  8
W47LXLIFT
 62
1
 10
538.092
 20
-7021.463
 30
610.000
 70
    32
  0
VERTEX
  8
W47LXLIFT
 62
1
 10
534.794
 20
-7013.680
 30
610.000
 70
    32
  0
VERTEX
  8
W47LXLIFT
 62
1
 10
528.755
 20
-6985.310
 30
610.000
 70
    32
  0
VERTEX
  8
W47LXLIFT
 62
1
 10
521.636
 20
-6958.899
 30
610.000
 70
    32
  0
VERTEX
  8
W47LXLIFT
 62
1
 10
502.254
 20
-6964.231
 30
610.000
 70
    32
  0
VERTEX
  8
W47LXLIFT
 62
1
 10
498.399
 20
-6969.252
 30
610.000
 70
    32
  0
VERTEX
  8
W47LXLIFT
 62
1
 10
506.068
 20
-6990.847
 30
610.000
 70
    32
  0
VERTEX
  8
W47LXLIFT
 62
1
 10
510.827
 20
-7006.863
 30
610.000
 70
    32
  0
VERTEX
  8
W47LXLIFT
 62
1
 10
515.690
 20
-7029.060
 30
610.000
 70
    32
  0
VERTEX
  8
W47LXLIFT
 62
1
 10
515.572
 20
-7040.364
 30
610.000
 70
    32
  0
SEQEND
  8
W47LXLIFT
  0
POLYLINE
  8
W47LXLIFT
 62
2
 66
     1
 70
     9
  0
VERTEX
  8
W47LXLIFT
 62
2
 10
642.349
 20
-7314.298
 30
621.000
 70
    32
  0
VERTEX
  8
W47LXLIFT
 62
2
 10
649.900
 20
-7319.617
 30
621.000
 70
    32
  0
VERTEX
  8
W47LXLIFT
 62
2
 10
654.806
 20
-7328.148
 30
621.000
 70
    32
  0
VERTEX
  8
W47LXLIFT
 62
2
 10
661.631
 20
-7341.405
 30
621.000
 70
    32
  0
VERTEX
  8
W47LXLIFT
 62
2
 10
667.622
 20
-7348.454
 30
621.000
 70
    32
  0
VERTEX
  8
W47LXLIFT
 62
2
 10
681.264
 20
-7345.639
 30
621.000
 70
    32
  0
VERTEX
  8
W47LXLIFT
 62
2
 10
678.981
 20
-7333.139
 30
621.000
 70
    32
  0
VERTEX
  8
W47LXLIFT
 62
2
 10
674.653
 20
-7324.060
 30
621.000
 70
    32
  0
VERTEX
  8
W47LXLIFT
 62
2
 10
668.138
 20
-7313.547
 30
621.000
 70
    32
  0
VERTEX
  8
W47LXLIFT
 62
2
 10
660.364
 20
-7304.868
 30
621.000
 70
    32
  0
VERTEX
  8
W47LXLIFT
 62
2
 10
656.934
 20
-7300.624
 30
621.000
 70
    32
  0
VERTEX
  8
W47LXLIFT
 62
2
 10
648.415
 20
-7304.088
 30
621.000
 70
    32
  0
VERTEX
  8
W47LXLIFT
 62
2
 10
640.972
 20
-7303.870
 30
621.000
 70
    32
  0
SEQEND
  8
W47LXLIFT
  0
POLYLINE
  8
W47LXLIFT
 62
7
 66
     1
 70
     9
  0
VERTEX
  8
W47LXLIFT
 62
7
 10
643.413
 20
-7275.448
 30
625.000
 70
    32
  0
VERTEX
  8
W47LXLIFT
 62
7
 10
636.817
 20
-7271.392
 30
625.000
 70
    32
  0
VERTEX
  8
W47LXLIFT
 62
7
 10
624.716
 20
-7267.638
 30
625.000
 70
    32
  0
VERTEX
  8
W47LXLIFT
 62
7
 10
622.634
 20
-7256.862
 30
625.000
 70
    32
  0
VERTEX
  8
W47LXLIFT
 62
7
 10
623.144
 20
-7247.764
 30
625.000
 70
    32
  0
VERTEX
  8
W47LXLIFT
 62
7
 10
623.095
 20
-7244.052
 30
625.000
 70
    32
  0
VERTEX
  8
W47LXLIFT
 62
7
 10
611.552
 20
-7229.952
 30
625.000
 70
    32
  0
VERTEX
  8
W47LXLIFT
 62
7
 10
603.346
 20
-7218.953
 30
625.000
 70
    32
  0
VERTEX
  8
W47LXLIFT
 62
7
 10
596.136
 20
-7210.729
 30
625.000
 70
    32
  0
VERTEX
  8
W47LXLIFT
 62
7
 10
607.693
 20
-7196.698
 30
625.000
 70
    32
  0
VERTEX
  8
W47LXLIFT
 62
7
 10
614.082
 20
-7197.271
 30
625.000
 70
    32
  0
VERTEX
  8
W47LXLIFT
 62
7
 10
635.509
 20
-7224.300
 30
625.000
 70
    32
  0
VERTEX
  8
W47LXLIFT
 62
7
 10
642.894
 20
-7232.170
 30
625.000
 70
    32
  0
VERTEX
  8
W47LXLIFT
 62
7
 10
647.117
 20
-7232.506
 30
625.000
 70
    32
  0
VERTEX
  8
W47LXLIFT
 62
7
 10
651.324
 20
-7232.965
 30
625.000
 70
    32
  0
VERTEX
  8
W47LXLIFT
 62
7
 10
655.669
 20
-7237.399
 30
625.000
 70
    32
  0
VERTEX
  8
W47LXLIFT
 62
7
 10
660.754
 20
-7237.414
 30
625.000
 70
    32
  0
VERTEX
  8
W47LXLIFT
 62
7
 10
668.139
 20
-7254.768
 30
625.000
 70
    32
  0
VERTEX
  8
W47LXLIFT
 62
7
 10
667.222
 20
-7258.660
 30
625.000
 70
    32
  0
VERTEX
  8
W47LXLIFT
 62
7
 10
693.582
 20
-7287.252
 30
625.000
 70
    32
  0
VERTEX
  8
W47LXLIFT
 62
7
 10
692.668
 20
-7292.023
 30
625.000
 70
    32
  0
VERTEX
  8
W47LXLIFT
 62
7
 10
690.231
 20
-7294.197
 30
625.000
 70
    32
  0
VERTEX
  8
W47LXLIFT
 62
7
 10
681.655
 20
-7296.711
 30
625.000
 70
    32
  0
VERTEX
  8
W47LXLIFT
 62
7
 10
679.805
 20
-7300.536
 30
625.000
 70
    32
  0
VERTEX
  8
W47LXLIFT
 62
7
 10
674.589
 20
-7302.825
 30
625.000
 70
    32
  0
VERTEX
  8
W47LXLIFT
 62
7
 10
670.372
 20
-7304.249
 30
625.000
 70
    32
  0
VERTEX
  8
W47LXLIFT
 62
7
 10
662.359
 20
-7297.735
 30
625.000
 70
    32
  0
VERTEX
  8
W47LXLIFT
 62
7
 10
652.745
 20
-7286.478
 30
625.000
 70
    32
  0
SEQEND
  8
W47LXLIFT
  0
POLYLINE
  8
W47LXLIFT
 62
1
 66
     1
 70
     9
  0
VERTEX
  8
W47LXLIFT
 62
1
 10
477.691
 20
-6541.225
 30
582.432
 70
    32
  0
VERTEX
  8
W47LXLIFT
 62
1
 10
475.313
 20
-6520.913
 30
586.580
 70
    32
  0
VERTEX
  8
W47LXLIFT
 62
1
 10
473.383
 20
-6505.988
 30
586.580
 70
    32
  0
VERTEX
  8
W47LXLIFT
 62
1
 10
469.791
 20
-6492.689
 30
586.580
 70
    32
  0
VERTEX
  8
W47LXLIFT
 62
1
 10
481.771
 20
-6486.655
 30
586.580
 70
    32
  0
VERTEX
  8
W47LXLIFT
 62
1
 10
483.812
 20
-6498.798
 30
586.580
 70
    32
  0
VERTEX
  8
W47LXLIFT
 62
1
 10
491.509
 20
-6512.485
 30
586.580
 70
    32
  0
VERTEX
  8
W47LXLIFT
 62
1
 10
499.720
 20
-6517.708
 30
586.580
 70
    32
  0
VERTEX
  8
W47LXLIFT
 62
1
 10
499.647
 20
-6529.303
 30
584.986
 70
    32
  0
VERTEX
  8
W47LXLIFT
 62
1
 10
493.266
 20
-6543.866
 30
582.338
 70
    32
  0
VERTEX
  8
W47LXLIFT
 62
1
 10
486.982
 20
-6547.428
 30
581.700
 70
    32
  0
SEQEND
  8
W47LXLIFT
  0
POLYLINE
  8
W47LXLIFT
 62
1
 66
     1
 70
     9
  0
VERTEX
  8
W47LXLIFT
 62
1
 10
469.393
 20
-6719.116
 30
686.772
 70
    32
  0
VERTEX
  8
W47LXLIFT
 62
1
 10
464.889
 20
-6701.352
 30
685.840
 70
    32
  0
VERTEX
  8
W47LXLIFT
 62
1
 10
450.252
 20
-6681.060
 30
685.640
 70
    32
  0
VERTEX
  8
W47LXLIFT
 62
1
 10
443.782
 20
-6667.727
 30
685.640
 70
    32
  0
VERTEX
  8
W47LXLIFT
 62
1
 10
428.877
 20
-6657.297
 30
685.640
 70
    32
  0
VERTEX
  8
W47LXLIFT
 62
1
 10
423.380
 20
-6647.871
 30
685.640
 70
    32
  0
VERTEX
  8
W47LXLIFT
 62
1
 10
423.174
 20
-6633.121
 30
685.640
 70
    32
  0
VERTEX
  8
W47LXLIFT
 62
1
 10
426.777
 20
-6623.315
 30
685.640
 70
    32
  0
VERTEX
  8
W47LXLIFT
 62
1
 10
433.643
 20
-6623.400
 30
685.640
 70
    32
  0
VERTEX
  8
W47LXLIFT
 62
1
 10
452.709
 20
-6651.404
 30
685.640
 70
    32
  0
VERTEX
  8
W47LXLIFT
 62
1
 10
466.736
 20
-6653.713
 30
685.641
 70
    32
  0
VERTEX
  8
W47LXLIFT
 62
1
 10
469.091
 20
-6665.077
 30
685.642
 70
    32
  0
VERTEX
  8
W47LXLIFT
 62
1
 10
472.036
 20
-6670.932
 30
685.643
 70
    32
  0
VERTEX
  8
W47LXLIFT
 62
1
 10
471.514
 20
-6683.841
 30
685.603
 70
    32
  0
VERTEX
  8
W47LXLIFT
 62
1
 10
477.702
 20
-6688.219
 30
685.588
 70
    32
  0
VERTEX
  8
W47LXLIFT
 62
1
 10
483.196
 20
-6689.563
 30
685.568
 70
    32
  0
VERTEX
  8
W47LXLIFT
 62
1
 10
489.254
 20
-6689.245
 30
685.549
 70
    32
  0
VERTEX
  8
W47LXLIFT
 62
1
 10
493.899
 20
-6694.787
 30
685.567
 70
    32
  0
VERTEX
  8
W47LXLIFT
 62
1
 10
511.195
 20
-6707.621
 30
685.640
 70
    32
  0
VERTEX
  8
W47LXLIFT
 62
1
 10
526.180
 20
-6726.400
 30
685.640
 70
    32
  0
VERTEX
  8
W47LXLIFT
 62
1
 10
524.088
 20
-6732.512
 30
685.640
 70
    32
  0
VERTEX
  8
W47LXLIFT
 62
1
 10
518.680
 20
-6736.108
 30
685.640
 70
    32
  0
VERTEX
  8
W47LXLIFT
 62
1
 10
504.976
 20
-6726.345
 30
685.640
 70
    32
  0
VERTEX
  8
W47LXLIFT
 62
1
 10
498.909
 20
-6733.796
 30
685.640
 70
    32
  0
VERTEX
  8
W47LXLIFT
 62
1
 10
476.911
 20
-6732.583
 30
687.242
 70
    32
  0
SEQEND
  8
W47LXLIFT
  0
POLYLINE
  8
W47LXLIFT
 62
8
 66
     1
 70
     9
  0
VERTEX
  8
W47LXLIFT
 62
8
 10
783.978
 20
-7472.906
 30
638.540
 70
    32
  0
VERTEX
  8
W47LXLIFT
 62
8
 10
778.340
 20
-7468.795
 30
638.540
 70
    32
  0
VERTEX
  8
W47LXLIFT
 62
8
 10
774.473
 20
-7462.374
 30
638.540
 70
    32
  0
VERTEX
  8
W47LXLIFT
 62
8
 10
755.608
 20
-7453.126
 30
638.540
 70
    32
  0
VERTEX
  8
W47LXLIFT
 62
8
 10
752.582
 20
-7447.272
 30
638.540
 70
    32
  0
VERTEX
  8
W47LXLIFT
 62
8
 10
754.987
 20
-7444.894
 30
638.540
 70
    32
  0
VERTEX
  8
W47LXLIFT
 62
8
 10
761.363
 20
-7442.680
 30
638.540
 70
    32
  0
VERTEX
  8
W47LXLIFT
 62
8
 10
770.328
 20
-7436.612
 30
638.540
 70
    32
  0
VERTEX
  8
W47LXLIFT
 62
8
 10
780.372
 20
-7438.884
 30
638.540
 70
    32
  0
VERTEX
  8
W47LXLIFT
 62
8
 10
789.624
 20
-7431.763
 30
638.540
 70
    32
  0
VERTEX
  8
W47LXLIFT
 62
8
 10
795.356
 20
-7431.690
 30
638.540
 70
    32
  0
VERTEX
  8
W47LXLIFT
 62
8
 10
802.903
 20
-7440.277
 30
638.540
 70
    32
  0
VERTEX
  8
W47LXLIFT
 62
8
 10
797.944
 20
-7471.683
 30
638.540
 70
    32
  0
SEQEND
  8
W47LXLIFT
  0
POLYLINE
  8
W47LXLIFT
 62
1
 66
     1
 70
     9
  0
VERTEX
  8
W47LXLIFT
 62
1
 10
739.406
 20
-6893.126
 30
543.331
 70
    32
  0
VERTEX
  8
W47LXLIFT
 62
1
 10
741.294
 20
-6891.657
 30
543.327
 70
    32
  0
VERTEX
  8
W47LXLIFT
 62
1
 10
741.026
 20
-6886.343
 30
543.309
 70
    32
  0
VERTEX
  8
W47LXLIFT
 62
1
 10
745.561
 20
-6878.079
 30
543.285
 70
    32
  0
VERTEX
  8
W47LXLIFT
 62
1
 10
741.993
 20
-6872.105
 30
543.262
 70
    32
  0
VERTEX
  8
W47LXLIFT
 62
1
 10
742.133
 20
-6861.063
 30
543.225
 70
    32
  0
VERTEX
  8
W47LXLIFT
 62
1
 10
749.339
 20
-6852.605
 30
543.203
 70
    32
  0
VERTEX
  8
W47LXLIFT
 62
1
 10
754.360
 20
-6850.346
 30
543.200
 70
    32
  0
VERTEX
  8
W47LXLIFT
 62
1
 10
763.249
 20
-6842.610
 30
543.182
 70
    32
  0
VERTEX
  8
W47LXLIFT
 62
1
 10
769.512
 20
-6846.410
 30
543.200
 70
    32
  0
VERTEX
  8
W47LXLIFT
 62
1
 10
779.283
 20
-6849.192
 30
543.218
 70
    32
  0
VERTEX
  8
W47LXLIFT
 62
1
 10
786.462
 20
-6855.323
 30
543.244
 70
    32
  0
VERTEX
  8
W47LXLIFT
 62
1
 10
778.880
 20
-6865.357
 30
543.271
 70
    32
  0
VERTEX
  8
W47LXLIFT
 62
1
 10
778.585
 20
-6884.556
 30
543.336
 70
    32
  0
VERTEX
  8
W47LXLIFT
 62
1
 10
772.209
 20
-6894.366
 30
543.363
 70
    32
  0
VERTEX
  8
W47LXLIFT
 62
1
 10
763.290
 20
-6893.644
 30
543.353
 70
    32
  0
VERTEX
  8
W47LXLIFT
 62
1
 10
742.777
 20
-6909.040
 30
543.387
 70
    32
  0
SEQEND
  8
W47LXLIFT
  0
POLYLINE
  8
W47LXLIFT
 62
7
 66
     1
 70
     9
  0
VERTEX
  8
W47LXLIFT
 62
7
 10
468.393
 20
-6720.116
 30
676.772
 70
    32
  0
VERTEX
  8
W47LXLIFT
 62
7
 10
463.889
 20
-6702.352
 30
675.840
 70
    32
  0
VERTEX
  8
W47LXLIFT
 62
7
 10
449.252
 20
-6682.060
 30
675.640
 70
    32
  0
VERTEX
  8
W47LXLIFT
 62
7
 10
442.782
 20
-6668.727
 30
675.640
 70
    32
  0
VERTEX
  8
W47LXLIFT
 62
7
 10
427.877
 20
-6658.297
 30
675.640
 70
    32
  0
VERTEX
  8
W47LXLIFT
 62
7
 10
422.380
 20
-6648.871
 30
675.640
 70
    32
  0
VERTEX
  8
W47LXLIFT
 62
7
 10
422.174
 20
-6634.121
 30
675.640
 70
    32
  0
VERTEX
  8
W47LXLIFT
 62
7
 10
425.777
 20
-6624.315
 30
675.640
 70
    32
  0
VERTEX
  8
W47LXLIFT
 62
7
 10
432.643
 20
-6624.400
 30
675.640
 70
    32
  0
VERTEX
  8
W47LXLIFT
 62
7
 10
451.709
 20
-6652.404
 30
675.640
 70
    32
  0
VERTEX
  8
W47LXLIFT
 62
7
 10
465.736
 20
-6654.713
 30
675.641
 70
    32
  0
VERTEX
  8
W47LXLIFT
 62
7
 10
468.091
 20
-6666.077
 30
675.642
 70
    32
  0
VERTEX
  8
W47LXLIFT
 62
7
 10
471.036
 20
-6671.932
 30
675.643
 70
    32
  0
VERTEX
  8
W47LXLIFT
 62
7
 10
470.514
 20
-6684.841
 30
675.603
 70
    32
  0
VERTEX
  8
W47LXLIFT
 62
7
 10
476.702
 20
-6689.219
 30
675.588
 70
    32
  0
VERTEX
  8
W47LXLIFT
 62
7
 10
482.196
 20
-6690.563
 30
675.568
 70
    32
  0
VERTEX
  8
W47LXLIFT
 62
7
 10
488.254
 20
-6690.245
 30
675.549
 70
    32
  0
VERTEX
  8
W47LXLIFT
 62
7
 10
492.899
 20
-6695.787
 30
675.567
 70
    32
  0
VERTEX
  8
W47LXLIFT
 62
7
 10
510.195
 20
-6708.621
 30
675.640
 70
    32
  0
VERTEX
  8
W47LXLIFT
 62
7
 10
525.180
 20
-6727.400
 30
675.640
 70
    32
  0
VERTEX
  8
W47LXLIFT
 62
7
 10
523.088
 20
-6733.512
 30
675.640
 70
    32
  0
VERTEX
  8
W47LXLIFT
 62
7
 10
517.680
 20
-6737.108
 30
675.640
 70
    32
  0
VERTEX
  8
W47LXLIFT
 62
7
 10
503.976
 20
-6727.345
 30
675.640
 70
    32
  0
VERTEX
  8
W47LXLIFT
 62
7
 10
497.909
 20
-6734.796
 30
675.640
 70
    32
  0
VERTEX
  8
W47LXLIFT
 62
7
 10
475.911
 20
-6733.583
 30
677.242
 70
    32
  0
SEQEND
  8
W47LXLIFT
  0
POLYLINE
  8
W47LXLIFT
 62
7
 66
     1
 70
     9
  0
VERTEX
  8
W47LXLIFT
 62
7
 10
490.712
 20
-6660.313
 30
559.000
 70
    32
  0
VERTEX
  8
W47LXLIFT
 62
7
 10
494.305
 20
-6668.360
 30
559.000
 70
    32
  0
VERTEX
  8
W47LXLIFT
 62
7
 10
504.364
 20
-6680.936
 30
559.000
 70
    32
  0
VERTEX
  8
W47LXLIFT
 62
7
 10
504.364
 20
-6680.936
 30
559.000
 70
    32
  0
VERTEX
  8
W47LXLIFT
 62
7
 10
512.944
 20
-6688.544
 30
559.672
 70
    32
  0
VERTEX
  8
W47LXLIFT
 62
7
 10
510.391
 20
-6694.671
 30
559.731
 70
    32
  0
VERTEX
  8
W47LXLIFT
 62
7
 10
521.720
 20
-6705.613
 30
559.638
 70
    32
  0
VERTEX
  8
W47LXLIFT
 62
7
 10
513.636
 20
-6715.345
 30
559.907
 70
    32
  0
VERTEX
  8
W47LXLIFT
 62
7
 10
503.555
 20
-6718.619
 30
560.140
 70
    32
  0
VERTEX
  8
W47LXLIFT
 62
7
 10
494.234
 20
-6717.039
 30
560.302
 70
    32
  0
VERTEX
  8
W47LXLIFT
 62
7
 10
486.245
 20
-6710.953
 30
560.385
 70
    32
  0
VERTEX
  8
W47LXLIFT
 62
7
 10
472.884
 20
-6706.416
 30
560.504
 70
    32
  0
VERTEX
  8
W47LXLIFT
 62
7
 10
468.589
 20
-6706.445
 30
560.504
 70
    32
  0
VERTEX
  8
W47LXLIFT
 62
7
 10
463.548
 20
-6691.901
 30
560.611
 70
    32
  0
VERTEX
  8
W47LXLIFT
 62
7
 10
463.571
 20
-6680.235
 30
560.898
 70
    32
  0
VERTEX
  8
W47LXLIFT
 62
7
 10
460.526
 20
-6661.361
 30
562.559
 70
    32
  0
VERTEX
  8
W47LXLIFT
 62
7
 10
466.707
 20
-6644.998
 30
565.289
 70
    32
  0
VERTEX
  8
W47LXLIFT
 62
7
 10
480.267
 20
-6644.648
 30
564.927
 70
    32
  0
VERTEX
  8
W47LXLIFT
 62
7
 10
481.328
 20
-6641.737
 30
565.138
 70
    32
  0
SEQEND
  8
W47LXLIFT
  0
POLYLINE
  8
W47LXLIFT
 62
1
 66
     1
 70
     9
  0
VERTEX
  8
W47LXLIFT
 62
1
 10
482.328
 20
-6640.737
 30
575.138
 70
    32
  0
VERTEX
  8
W47LXLIFT
 62
1
 10
481.267
 20
-6643.648
 30
574.927
 70
    32
  0
VERTEX
  8
W47LXLIFT
 62
1
 10
467.707
 20
-6643.998
 30
575.289
 70
    32
  0
VERTEX
  8
W47LXLIFT
 62
1
 10
461.526
 20
-6660.361
 30
572.559
 70
    32
  0
VERTEX
  8
W47LXLIFT
 62
1
 10
464.571
 20
-6679.235
 30
570.898
 70
    32
  0
VERTEX
  8
W47LXLIFT
 62
1
 10
464.548
 20
-6690.901
 30
570.611
 70
    32
  0
VERTEX
  8
W47LXLIFT
 62
1
 10
469.589
 20
-6705.445
 30
570.504
 70
    32
  0
VERTEX
  8
W47LXLIFT
 62
1
 10
473.884
 20
-6705.416
 30
570.504
 70
    32
  0
VERTEX
  8
W47LXLIFT
 62
1
 10
487.245
 20
-6709.953
 30
570.385
 70
    32
  0
VERTEX
  8
W47LXLIFT
 62
1
 10
495.234
 20
-6716.039
 30
570.302
 70
    32
  0
VERTEX
  8
W47LXLIFT
 62
1
 10
504.555
 20
-6717.619
 30
570.140
 70
    32
  0
VERTEX
  8
W47LXLIFT
 62
1
 10
514.636
 20
-6714.345
 30
569.907
 70
    32
  0
VERTEX
  8
W47LXLIFT
 62
1
 10
522.720
 20
-6704.613
 30
569.638
 70
    32
  0
VERTEX
  8
W47LXLIFT
 62
1
 10
511.391
 20
-6693.671
 30
569.731
 70
    32
  0
VERTEX
  8
W47LXLIFT
 62
1
 10
513.944
 20
-6687.544
 30
569.672
 70
    32
  0
VERTEX
  8
W47LXLIFT
 62
1
 10
505.364
 20
-6679.936
 30
569.000
 70
    32
  0
VERTEX
  8
W47LXLIFT
 62
1
 10
505.364
 20
-6679.936
 30
569.000
 70
    32
  0
VERTEX
  8
W47LXLIFT
 62
1
 10
495.305
 20
-6667.360
 30
569.000
 70
    32
  0
VERTEX
  8
W47LXLIFT
 62
1
 10
491.712
 20
-6659.313
 30
569.000
 70
    32
  0
SEQEND
  8
W47LXLIFT
  0
POLYLINE
  8
W47LXLIFT
 62
6
 66
     1
 70
     9
  0
VERTEX
  8
W47LXLIFT
 62
6
 10
476.691
 20
-6542.225
 30
572.432
 70
    32
  0
VERTEX
  8
W47LXLIFT
 62
6
 10
474.313
 20
-6521.913
 30
576.580
 70
    32
  0
VERTEX
  8
W47LXLIFT
 62
6
 10
472.383
 20
-6506.988
 30
576.580
 70
    32
  0
VERTEX
  8
W47LXLIFT
 62
6
 10
468.791
 20
-6493.689
 30
576.580
 70
    32
  0
VERTEX
  8
W47LXLIFT
 62
6
 10
480.771
 20
-6487.655
 30
576.580
 70
    32
  0
VERTEX
  8
W47LXLIFT
 62
6
 10
482.812
 20
-6499.798
 30
576.580
 70
    32
  0
VERTEX
  8
W47LXLIFT
 62
6
 10
490.509
 20
-6513.485
 30
576.580
 70
    32
  0
VERTEX
  8
W47LXLIFT
 62
6
 10
498.720
 20
-6518.708
 30
576.580
 70
    32
  0
VERTEX
  8
W47LXLIFT
 62
6
 10
498.647
 20
-6530.303
 30
574.986
 70
    32
  0
VERTEX
  8
W47LXLIFT
 62
6
 10
492.266
 20
-6544.866
 30
572.338
 70
    32
  0
VERTEX
  8
W47LXLIFT
 62
6
 10
485.982
 20
-6548.428
 30
571.700
 70
    32
  0
SEQEND
  8
W47LXLIFT
  0
POLYLINE
  8
W47LXLIFT
 62
1
 66
     1
 70
     9
  0
VERTEX
  8
W47LXLIFT
 62
1
 10
784.978
 20
-7471.906
 30
648.540
 70
    32
  0
VERTEX
  8
W47LXLIFT
 62
1
 10
779.340
 20
-7467.795
 30
648.540
 70
    32
  0
VERTEX
  8
W47LXLIFT
 62
1
 10
775.473
 20
-7461.374
 30
648.540
 70
    32
  0
VERTEX
  8
W47LXLIFT
 62
1
 10
756.608
 20
-7452.126
 30
648.540
 70
    32
  0
VERTEX
  8
W47LXLIFT
 62
1
 10
753.582
 20
-7446.272
 30
648.540
 70
    32
  0
VERTEX
  8
W47LXLIFT
 62
1
 10
755.987
 20
-7443.894
 30
648.540
 70
    32
  0
VERTEX
  8
W47LXLIFT
 62
1
 10
762.363
 20
-7441.680
 30
648.540
 70
    32
  0
VERTEX
  8
W47LXLIFT
 62
1
 10
771.328
 20
-7435.612
 30
648.540
 70
    32
  0
VERTEX
  8
W47LXLIFT
 62
1
 10
781.372
 20
-7437.884
 30
648.540
 70
    32
  0
VERTEX
  8
W47LXLIFT
 62
1
 10
790.624
 20
-7430.763
 30
648.540
 70
    32
  0
VERTEX
  8
W47LXLIFT
 62
1
 10
796.356
 20
-7430.690
 30
648.540
 70
    32
  0
VERTEX
  8
W47LXLIFT
 62
1
 10
803.903
 20
-7439.277
 30
648.540
 70
    32
  0
VERTEX
  8
W47LXLIFT
 62
1
 10
798.944
 20
-7470.683
 30
648.540
 70
    32
  0
SEQEND
  8
W47LXLIFT
  0
POLYLINE
  8
W47LXLIFT
 62
8
 66
     1
 70
     9
  0
VERTEX
  8
W47LXLIFT
 62
8
 10
766.724
 20
-7474.007
 30
603.000
 70
    32
  0
VERTEX
  8
W47LXLIFT
 62
8
 10
769.562
 20
-7486.089
 30
603.000
 70
    32
  0
VERTEX
  8
W47LXLIFT
 62
8
 10
778.699
 20
-7490.846
 30
603.000
 70
    32
  0
VERTEX
  8
W47LXLIFT
 62
8
 10
790.291
 20
-7494.789
 30
603.000
 70
    32
  0
VERTEX
  8
W47LXLIFT
 62
8
 10
806.444
 20
-7485.601
 30
603.000
 70
    32
  0
VERTEX
  8
W47LXLIFT
 62
8
 10
807.178
 20
-7463.506
 30
603.000
 70
    32
  0
VERTEX
  8
W47LXLIFT
 62
8
 10
814.510
 20
-7452.378
 30
603.000
 70
    32
  0
VERTEX
  8
W47LXLIFT
 62
8
 10
814.570
 20
-7444.712
 30
603.000
 70
    32
  0
VERTEX
  8
W47LXLIFT
 62
8
 10
806.798
 20
-7443.313
 30
603.000
 70
    32
  0
VERTEX
  8
W47LXLIFT
 62
8
 10
802.850
 20
-7438.357
 30
603.000
 70
    32
  0
VERTEX
  8
W47LXLIFT
 62
8
 10
786.166
 20
-7443.688
 30
603.000
 70
    32
  0
VERTEX
  8
W47LXLIFT
 62
8
 10
775.726
 20
-7437.596
 30
603.000
 70
    32
  0
VERTEX
  8
W47LXLIFT
 62
8
 10
759.671
 20
-7447.365
 30
603.000
 70
    32
  0
SEQEND
  8
W47LXLIFT
  0
POLYLINE
  8
W47LXLIFT
 62
3
 66
     1
 70
     9
  0
VERTEX
  8
W47LXLIFT
 62
3
 10
674.148
 20
-7388.879
 30
603.000
 70
    32
  0
VERTEX
  8
W47LXLIFT
 62
3
 10
680.337
 20
-7396.008
 30
603.000
 70
    32
  0
VERTEX
  8
W47LXLIFT
 62
3
 10
685.816
 20
-7397.994
 30
603.000
 70
    32
  0
VERTEX
  8
W47LXLIFT
 62
3
 10
700.421
 20
-7414.109
 30
603.000
 70
    32
  0
VERTEX
  8
W47LXLIFT
 62
3
 10
711.125
 20
-7431.441
 30
603.000
 70
    32
  0
VERTEX
  8
W47LXLIFT
 62
3
 10
713.285
 20
-7447.066
 30
603.000
 70
    32
  0
VERTEX
  8
W47LXLIFT
 62
3
 10
709.653
 20
-7459.084
 30
603.000
 70
    32
  0
VERTEX
  8
W47LXLIFT
 62
3
 10
720.171
 20
-7503.882
 30
603.000
 70
    32
  0
VERTEX
  8
W47LXLIFT
 62
3
 10
729.429
 20
-7498.969
 30
603.000
 70
    32
  0
VERTEX
  8
W47LXLIFT
 62
3
 10
727.427
 20
-7479.090
 30
603.000
 70
    32
  0
VERTEX
  8
W47LXLIFT
 62
3
 10
731.857
 20
-7465.183
 30
603.000
 70
    32
  0
VERTEX
  8
W47LXLIFT
 62
3
 10
743.520
 20
-7471.906
 30
603.000
 70
    32
  0
VERTEX
  8
W47LXLIFT
 62
3
 10
749.710
 20
-7467.710
 30
603.000
 70
    32
  0
VERTEX
  8
W47LXLIFT
 62
3
 10
744.287
 20
-7450.004
 30
603.000
 70
    32
  0
VERTEX
  8
W47LXLIFT
 62
3
 10
734.213
 20
-7437.111
 30
603.000
 70
    32
  0
VERTEX
  8
W47LXLIFT
 62
3
 10
725.916
 20
-7417.259
 30
603.000
 70
    32
  0
VERTEX
  8
W47LXLIFT
 62
3
 10
717.276
 20
-7400.814
 30
603.000
 70
    32
  0
VERTEX
  8
W47LXLIFT
 62
3
 10
705.993
 20
-7390.438
 30
603.000
 70
    32
  0
VERTEX
  8
W47LXLIFT
 62
3
 10
695.166
 20
-7387.243
 30
603.000
 70
    32
  0
VERTEX
  8
W47LXLIFT
 62
3
 10
686.304
 20
-7378.691
 30
603.000
 70
    32
  0
VERTEX
  8
W47LXLIFT
 62
3
 10
677.917
 20
-7377.197
 30
603.000
 70
    32
  0
SEQEND
  8
W47LXLIFT
  0
POLYLINE
  8
W47LXLIFT
 62
8
 66
     1
 70
     9
  0
VERTEX
  8
W47LXLIFT
 62
8
 10
786.245
 20
-7465.407
 30
593.000
 70
    32
  0
VERTEX
  8
W47LXLIFT
 62
8
 10
801.747
 20
-7466.058
 30
593.000
 70
    32
  0
VERTEX
  8
W47LXLIFT
 62
8
 10
817.867
 20
-7489.015
 30
593.000
 70
    32
  0
VERTEX
  8
W47LXLIFT
 62
8
 10
820.189
 20
-7498.751
 30
593.000
 70
    32
  0
VERTEX
  8
W47LXLIFT
 62
8
 10
826.160
 20
-7506.475
 30
593.000
 70
    32
  0
VERTEX
  8
W47LXLIFT
 62
8
 10
830.844
 20
-7514.377
 30
593.000
 70
    32
  0
VERTEX
  8
W47LXLIFT
 62
8
 10
830.496
 20
-7523.886
 30
593.000
 70
    32
  0
VERTEX
  8
W47LXLIFT
 62
8
 10
821.044
 20
-7526.001
 30
593.000
 70
    32
  0
VERTEX
  8
W47LXLIFT
 62
8
 10
800.805
 20
-7502.025
 30
593.000
 70
    32
  0
VERTEX
  8
W47LXLIFT
 62
8
 10
781.142
 20
-7475.560
 30
593.000
 70
    32
  0
SEQEND
  8
W47LXLIFT
  0
POLYLINE
  8
W47LXLIFT
 62
3
 66
     1
 70
     9
  0
VERTEX
  8
W47LXLIFT
 62
3
 10
695.814
 20
-7397.222
 30
593.000
 70
    32
  0
VERTEX
  8
W47LXLIFT
 62
3
 10
705.436
 20
-7422.313
 30
593.000
 70
    32
  0
VERTEX
  8
W47LXLIFT
 62
3
 10
707.389
 20
-7440.486
 30
593.000
 70
    32
  0
VERTEX
  8
W47LXLIFT
 62
3
 10
709.657
 20
-7446.124
 30
593.000
 70
    32
  0
VERTEX
  8
W47LXLIFT
 62
3
 10
716.908
 20
-7448.448
 30
593.000
 70
    32
  0
VERTEX
  8
W47LXLIFT
 62
3
 10
729.005
 20
-7452.785
 30
593.000
 70
    32
  0
VERTEX
  8
W47LXLIFT
 62
3
 10
735.614
 20
-7460.042
 30
593.000
 70
    32
  0
VERTEX
  8
W47LXLIFT
 62
3
 10
741.747
 20
-7450.553
 30
593.000
 70
    32
  0
VERTEX
  8
W47LXLIFT
 62
3
 10
732.607
 20
-7415.092
 30
593.000
 70
    32
  0
VERTEX
  8
W47LXLIFT
 62
3
 10
727.031
 20
-7404.031
 30
593.000
 70
    32
  0
VERTEX
  8
W47LXLIFT
 62
3
 10
718.691
 20
-7394.554
 30
593.000
 70
    32
  0
VERTEX
  8
W47LXLIFT
 62
3
 10
710.515
 20
-7380.383
 30
593.000
 70
    32
  0
VERTEX
  8
W47LXLIFT
 62
3
 10
699.838
 20
-7375.009
 30
593.000
 70
    32
  0
VERTEX
  8
W47LXLIFT
 62
3
 10
685.480
 20
-7379.947
 30
593.000
 70
    32
  0
SEQEND
  8
W47LXLIFT
  0
POLYLINE
  8
W47LXLIFT
 62
1
 66
     1
 70
     9
  0
VERTEX
  8
W47LXLIFT
 62
1
 10
630.910
 20
-7092.456
 30
615.000
 70
    32
  0
VERTEX
  8
W47LXLIFT
 62
1
 10
635.903
 20
-7093.926
 30
615.000
 70
    32
  0
VERTEX
  8
W47LXLIFT
 62
1
 10
651.701
 20
-7084.997
 30
615.000
 70
    32
  0
VERTEX
  8
W47LXLIFT
 62
1
 10
640.340
 20
-7068.254
 30
615.000
 70
    32
  0
VERTEX
  8
W47LXLIFT
 62
1
 10
625.747
 20
-7042.766
 30
615.000
 70
    32
  0
VERTEX
  8
W47LXLIFT
 62
1
 10
617.522
 20
-7029.721
 30
615.000
 70
    32
  0
VERTEX
  8
W47LXLIFT
 62
1
 10
613.595
 20
-7007.655
 30
615.000
 70
    32
  0
VERTEX
  8
W47LXLIFT
 62
1
 10
609.176
 20
-6994.006
 30
615.000
 70
    32
  0
VERTEX
  8
W47LXLIFT
 62
1
 10
605.148
 20
-6981.488
 30
615.000
 70
    32
  0
VERTEX
  8
W47LXLIFT
 62
1
 10
588.304
 20
-6991.072
 30
615.000
 70
    32
  0
VERTEX
  8
W47LXLIFT
 62
1
 10
593.070
 20
-7003.705
 30
615.000
 70
    32
  0
VERTEX
  8
W47LXLIFT
 62
1
 10
597.972
 20
-7016.674
 30
615.000
 70
    32
  0
VERTEX
  8
W47LXLIFT
 62
1
 10
602.062
 20
-7018.695
 30
615.000
 70
    32
  0
VERTEX
  8
W47LXLIFT
 62
1
 10
606.522
 20
-7024.800
 30
615.000
 70
    32
  0
VERTEX
  8
W47LXLIFT
 62
1
 10
607.728
 20
-7032.412
 30
615.000
 70
    32
  0
VERTEX
  8
W47LXLIFT
 62
1
 10
615.682
 20
-7054.475
 30
615.000
 70
    32
  0
SEQEND
  8
W47LXLIFT
  0
POLYLINE
  8
W47LXLIFT
 62
2
 66
     1
 70
     9
  0
VERTEX
  8
W47LXLIFT
 62
2
 10
738.406
 20
-6894.126
 30
533.331
 70
    32
  0
VERTEX
  8
W47LXLIFT
 62
2
 10
740.294
 20
-6892.657
 30
533.327
 70
    32
  0
VERTEX
  8
W47LXLIFT
 62
2
 10
740.026
 20
-6887.343
 30
533.309
 70
    32
  0
VERTEX
  8
W47LXLIFT
 62
2
 10
744.561
 20
-6879.079
 30
533.285
 70
    32
  0
VERTEX
  8
W47LXLIFT
 62
2
 10
740.993
 20
-6873.105
 30
533.262
 70
    32
  0
VERTEX
  8
W47LXLIFT
 62
2
 10
741.133
 20
-6862.063
 30
533.225
 70
    32
  0
VERTEX
  8
W47LXLIFT
 62
2
 10
748.339
 20
-6853.605
 30
533.203
 70
    32
  0
VERTEX
  8
W47LXLIFT
 62
2
 10
753.360
 20
-6851.346
 30
533.200
 70
    32
  0
VERTEX
  8
W47LXLIFT
 62
2
 10
762.249
 20
-6843.610
 30
533.182
 70
    32
  0
VERTEX
  8
W47LXLIFT
 62
2
 10
768.512
 20
-6847.410
 30
533.200
 70
    32
  0
VERTEX
  8
W47LXLIFT
 62
2
 10
778.283
 20
-6850.192
 30
533.218
 70
    32
  0
VERTEX
  8
W47LXLIFT
 62
2
 10
785.462
 20
-6856.323
 30
533.244
 70
    32
  0
VERTEX
  8
W47LXLIFT
 62
2
 10
777.880
 20
-6866.357
 30
533.271
 70
    32
  0
VERTEX
  8
W47LXLIFT
 62
2
 10
777.585
 20
-6885.556
 30
533.336
 70
    32
  0
VERTEX
  8
W47LXLIFT
 62
2
 10
771.209
 20
-6895.366
 30
533.363
 70
    32
  0
VERTEX
  8
W47LXLIFT
 62
2
 10
762.290
 20
-6894.644
 30
533.353
 70
    32
  0
VERTEX
  8
W47LXLIFT
 62
2
 10
741.777
 20
-6910.040
 30
533.387
 70
    32
  0
SEQEND
  8
W47LXLIFT
  0
POLYLINE
  8
W47LXLIFT
 62
1
 66
     1
 70
     9
  0
VERTEX
  8
W47LXLIFT
 62
1
 10
653.745
 20
-7285.478
 30
635.000
 70
    32
  0
VERTEX
  8
W47LXLIFT
 62
1
 10
663.359
 20
-7296.735
 30
635.000
 70
    32
  0
VERTEX
  8
W47LXLIFT
 62
1
 10
671.372
 20
-7303.249
 30
635.000
 70
    32
  0
VERTEX
  8
W47LXLIFT
 62
1
 10
675.589
 20
-7301.825
 30
635.000
 70
    32
  0
VERTEX
  8
W47LXLIFT
 62
1
 10
680.805
 20
-7299.536
 30
635.000
 70
    32
  0
VERTEX
  8
W47LXLIFT
 62
1
 10
682.655
 20
-7295.711
 30
635.000
 70
    32
  0
VERTEX
  8
W47LXLIFT
 62
1
 10
691.231
 20
-7293.197
 30
635.000
 70
    32
  0
VERTEX
  8
W47LXLIFT
 62
1
 10
693.668
 20
-7291.023
 30
635.000
 70
    32
  0
VERTEX
  8
W47LXLIFT
 62
1
 10
694.582
 20
-7286.252
 30
635.000
 70
    32
  0
VERTEX
  8
W47LXLIFT
 62
1
 10
668.222
 20
-7257.660
 30
635.000
 70
    32
  0
VERTEX
  8
W47LXLIFT
 62
1
 10
669.139
 20
-7253.768
 30
635.000
 70
    32
  0
VERTEX
  8
W47LXLIFT
 62
1
 10
661.754
 20
-7236.414
 30
635.000
 70
    32
  0
VERTEX
  8
W47LXLIFT
 62
1
 10
656.669
 20
-7236.399
 30
635.000
 70
    32
  0
VERTEX
  8
W47LXLIFT
 62
1
 10
652.324
 20
-7231.965
 30
635.000
 70
    32
  0
VERTEX
  8
W47LXLIFT
 62
1
 10
648.117
 20
-7231.506
 30
635.000
 70
    32
  0
VERTEX
  8
W47LXLIFT
 62
1
 10
643.894
 20
-7231.170
 30
635.000
 70
    32
  0
VERTEX
  8
W47LXLIFT
 62
1
 10
636.509
 20
-7223.300
 30
635.000
 70
    32
  0
VERTEX
  8
W47LXLIFT
 62
1
 10
615.082
 20
-7196.271
 30
635.000
 70
    32
  0
VERTEX
  8
W47LXLIFT
 62
1
 10
608.693
 20
-7195.698
 30
635.000
 70
    32
  0
VERTEX
  8
W47LXLIFT
 62
1
 10
597.136
 20
-7209.729
 30
635.000
 70
    32
  0
VERTEX
  8
W47LXLIFT
 62
1
 10
604.346
 20
-7217.953
 30
635.000
 70
    32
  0
VERTEX
  8
W47LXLIFT
 62
1
 10
612.552
 20
-7228.952
 30
635.000
 70
    32
  0
VERTEX
  8
W47LXLIFT
 62
1
 10
624.095
 20
-7243.052
 30
635.000
 70
    32
  0
VERTEX
  8
W47LXLIFT
 62
1
 10
624.144
 20
-7246.764
 30
635.000
 70
    32
  0
VERTEX
  8
W47LXLIFT
 62
1
 10
623.634
 20
-7255.862
 30
635.000
 70
    32
  0
VERTEX
  8
W47LXLIFT
 62
1
 10
625.716
 20
-7266.638
 30
635.000
 70
    32
  0
VERTEX
  8
W47LXLIFT
 62
1
 10
637.817
 20
-7270.392
 30
635.000
 70
    32
  0
VERTEX
  8
W47LXLIFT
 62
1
 10
644.413
 20
-7274.448
 30
635.000
 70
    32
  0
SEQEND
  8
W47LXLIFT
  0
POLYLINE
  8
W47LXLIFT
 62
11
 66
     1
 70
     9
  0
VERTEX
  8
W47LXLIFT
 62
11
 10
889.878
 20
-7241.825
 30
580.000
 70
    32
  0
VERTEX
  8
W47LXLIFT
 62
11
 10
881.696
 20
-7215.573
 30
580.000
 70
    32
  0
VERTEX
  8
W47LXLIFT
 62
11
 10
883.163
 20
-7206.552
 30
580.000
 70
    32
  0
VERTEX
  8
W47LXLIFT
 62
11
 10
895.139
 20
-7191.052
 30
580.000
 70
    32
  0
VERTEX
  8
W47LXLIFT
 62
11
 10
898.921
 20
-7185.349
 30
580.000
 70
    32
  0
VERTEX
  8
W47LXLIFT
 62
11
 10
898.362
 20
-7180.857
 30
580.000
 70
    32
  0
VERTEX
  8
W47LXLIFT
 62
11
 10
889.923
 20
-7173.630
 30
580.000
 70
    32
  0
VERTEX
  8
W47LXLIFT
 62
11
 10
885.307
 20
-7167.312
 30
580.000
 70
    32
  0
VERTEX
  8
W47LXLIFT
 62
11
 10
884.825
 20
-7156.666
 30
580.000
 70
    32
  0
VERTEX
  8
W47LXLIFT
 62
11
 10
887.384
 20
-7144.670
 30
580.000
 70
    32
  0
VERTEX
  8
W47LXLIFT
 62
11
 10
878.822
 20
-7124.903
 30
580.000
 70
    32
  0
VERTEX
  8
W47LXLIFT
 62
11
 10
860.197
 20
-7118.040
 30
580.000
 70
    32
  0
VERTEX
  8
W47LXLIFT
 62
11
 10
858.732
 20
-7128.256
 30
580.000
 70
    32
  0
VERTEX
  8
W47LXLIFT
 62
11
 10
863.668
 20
-7135.757
 30
580.000
 70
    32
  0
VERTEX
  8
W47LXLIFT
 62
11
 10
864.205
 20
-7139.175
 30
580.000
 70
    32
  0
VERTEX
  8
W47LXLIFT
 62
11
 10
849.708
 20
-7169.257
 30
580.000
 70
    32
  0
VERTEX
  8
W47LXLIFT
 62
11
 10
853.983
 20
-7197.166
 30
580.000
 70
    32
  0
VERTEX
  8
W47LXLIFT
 62
11
 10
860.780
 20
-7210.493
 30
580.000
 70
    32
  0
VERTEX
  8
W47LXLIFT
 62
11
 10
865.828
 20
-7218.891
 30
580.000
 70
    32
  0
VERTEX
  8
W47LXLIFT
 62
11
 10
878.624
 20
-7247.434
 30
580.000
 70
    32
  0
VERTEX
  8
W47LXLIFT
 62
11
 10
882.882
 20
-7255.647
 30
580.000
 70
    32
  0
SEQEND
  8
W47LXLIFT
  0
POLYLINE
  8
W47LXLIFT
 62
1
 66
     1
 70
     9
  0
VERTEX
  8
W47LXLIFT
 62
1
 10
643.349
 20
-7313.298
 30
631.000
 70
    32
  0
VERTEX
  8
W47LXLIFT
 62
1
 10
650.900
 20
-7318.617
 30
631.000
 70
    32
  0
VERTEX
  8
W47LXLIFT
 62
1
 10
655.806
 20
-7327.148
 30
631.000
 70
    32
  0
VERTEX
  8
W47LXLIFT
 62
1
 10
662.631
 20
-7340.405
 30
631.000
 70
    32
  0
VERTEX
  8
W47LXLIFT
 62
1
 10
668.622
 20
-7347.454
 30
631.000
 70
    32
  0
VERTEX
  8
W47LXLIFT
 62
1
 10
682.264
 20
-7344.639
 30
631.000
 70
    32
  0
VERTEX
  8
W47LXLIFT
 62
1
 10
679.981
 20
-7332.139
 30
631.000
 70
    32
  0
VERTEX
  8
W47LXLIFT
 62
1
 10
675.653
 20
-7323.060
 30
631.000
 70
    32
  0
VERTEX
  8
W47LXLIFT
 62
1
 10
669.138
 20
-7312.547
 30
631.000
 70
    32
  0
VERTEX
  8
W47LXLIFT
 62
1
 10
661.364
 20
-7303.868
 30
631.000
 70
    32
  0
VERTEX
  8
W47LXLIFT
 62
1
 10
657.934
 20
-7299.624
 30
631.000
 70
    32
  0
VERTEX
  8
W47LXLIFT
 62
1
 10
649.415
 20
-7303.088
 30
631.000
 70
    32
  0
VERTEX
  8
W47LXLIFT
 62
1
 10
641.972
 20
-7302.870
 30
631.000
 70
    32
  0
SEQEND
  8
W47LXLIFT
  0
POLYLINE
  8
W47LXLIFT
 62
1
 66
     1
 70
     9
  0
VERTEX
  8
W47LXLIFT
 62
1
 10
678.917
 20
-7376.197
 30
617.000
 70
    32
  0
VERTEX
  8
W47LXLIFT
 62
1
 10
687.304
 20
-7377.691
 30
617.000
 70
    32
  0
VERTEX
  8
W47LXLIFT
 62
1
 10
696.166
 20
-7386.243
 30
617.000
 70
    32
  0
VERTEX
  8
W47LXLIFT
 62
1
 10
706.993
 20
-7389.438
 30
617.000
 70
    32
  0
VERTEX
  8
W47LXLIFT
 62
1
 10
718.276
 20
-7399.814
 30
617.000
 70
    32
  0
VERTEX
  8
W47LXLIFT
 62
1
 10
726.916
 20
-7416.259
 30
617.000
 70
    32
  0
VERTEX
  8
W47LXLIFT
 62
1
 10
735.213
 20
-7436.111
 30
617.000
 70
    32
  0
VERTEX
  8
W47LXLIFT
 62
1
 10
745.287
 20
-7449.004
 30
617.000
 70
    32
  0
VERTEX
  8
W47LXLIFT
 62
1
 10
750.710
 20
-7466.710
 30
617.000
 70
    32
  0
VERTEX
  8
W47LXLIFT
 62
1
 10
744.520
 20
-7470.906
 30
617.000
 70
    32
  0
VERTEX
  8
W47LXLIFT
 62
1
 10
732.857
 20
-7464.183
 30
617.000
 70
    32
  0
VERTEX
  8
W47LXLIFT
 62
1
 10
728.427
 20
-7478.090
 30
617.000
 70
    32
  0
VERTEX
  8
W47LXLIFT
 62
1
 10
730.429
 20
-7497.969
 30
617.000
 70
    32
  0
VERTEX
  8
W47LXLIFT
 62
1
 10
721.171
 20
-7502.882
 30
617.000
 70
    32
  0
VERTEX
  8
W47LXLIFT
 62
1
 10
710.653
 20
-7458.084
 30
617.000
 70
    32
  0
VERTEX
  8
W47LXLIFT
 62
1
 10
714.285
 20
-7446.066
 30
617.000
 70
    32
  0
VERTEX
  8
W47LXLIFT
 62
1
 10
712.125
 20
-7430.441
 30
617.000
 70
    32
  0
VERTEX
  8
W47LXLIFT
 62
1
 10
701.421
 20
-7413.109
 30
617.000
 70
    32
  0
VERTEX
  8
W47LXLIFT
 62
1
 10
686.816
 20
-7396.994
 30
617.000
 70
    32
  0
VERTEX
  8
W47LXLIFT
 62
1
 10
681.337
 20
-7395.008
 30
617.000
 70
    32
  0
VERTEX
  8
W47LXLIFT
 62
1
 10
675.148
 20
-7387.879
 30
617.000
 70
    32
  0
SEQEND
  8
W47LXLIFT
  0
POLYLINE
  8
W47LXLIFT
 62
4
 66
     1
 70
     9
  0
VERTEX
  8
W47LXLIFT
 62
4
 10
770.961
 20
-7156.190
 30
534.692
 70
    32
  0
VERTEX
  8
W47LXLIFT
 62
4
 10
775.837
 20
-7154.537
 30
534.632
 70
    32
  0
VERTEX
  8
W47LXLIFT
 62
4
 10
776.661
 20
-7139.561
 30
534.460
 70
    32
  0
VERTEX
  8
W47LXLIFT
 62
4
 10
783.838
 20
-7129.879
 30
534.292
 70
    32
  0
VERTEX
  8
W47LXLIFT
 62
4
 10
793.127
 20
-7130.855
 30
534.221
 70
    32
  0
VERTEX
  8
W47LXLIFT
 62
4
 10
807.876
 20
-7131.290
 30
534.140
 70
    32
  0
VERTEX
  8
W47LXLIFT
 62
4
 10
820.994
 20
-7142.914
 30
534.180
 70
    32
  0
VERTEX
  8
W47LXLIFT
 62
4
 10
824.992
 20
-7155.959
 30
534.218
 70
    32
  0
VERTEX
  8
W47LXLIFT
 62
4
 10
828.062
 20
-7159.966
 30
534.236
 70
    32
  0
VERTEX
  8
W47LXLIFT
 62
4
 10
832.252
 20
-7174.859
 30
534.362
 70
    32
  0
VERTEX
  8
W47LXLIFT
 62
4
 10
839.317
 20
-7187.366
 30
534.438
 70
    32
  0
VERTEX
  8
W47LXLIFT
 62
4
 10
829.221
 20
-7195.326
 30
534.613
 70
    32
  0
VERTEX
  8
W47LXLIFT
 62
4
 10
816.999
 20
-7199.322
 30
534.763
 70
    32
  0
VERTEX
  8
W47LXLIFT
 62
4
 10
832.518
 20
-7242.913
 30
535.106
 70
    32
  0
VERTEX
  8
W47LXLIFT
 62
4
 10
838.963
 20
-7251.046
 30
535.139
 70
    32
  0
VERTEX
  8
W47LXLIFT
 62
4
 10
849.752
 20
-7258.680
 30
535.128
 70
    32
  0
VERTEX
  8
W47LXLIFT
 62
4
 10
847.209
 20
-7265.307
 30
535.223
 70
    32
  0
VERTEX
  8
W47LXLIFT
 62
4
 10
837.472
 20
-7272.841
 30
535.391
 70
    32
  0
VERTEX
  8
W47LXLIFT
 62
4
 10
833.407
 20
-7294.149
 30
535.660
 70
    32
  0
VERTEX
  8
W47LXLIFT
 62
4
 10
812.912
 20
-7299.818
 30
535.901
 70
    32
  0
VERTEX
  8
W47LXLIFT
 62
4
 10
809.278
 20
-7297.606
 30
535.908
 70
    32
  0
VERTEX
  8
W47LXLIFT
 62
4
 10
802.108
 20
-7296.534
 30
535.959
 70
    32
  0
VERTEX
  8
W47LXLIFT
 62
4
 10
788.960
 20
-7297.172
 30
536.081
 70
    32
  0
VERTEX
  8
W47LXLIFT
 62
4
 10
780.811
 20
-7292.153
 30
536.097
 70
    32
  0
VERTEX
  8
W47LXLIFT
 62
4
 10
776.495
 20
-7283.952
 30
536.045
 70
    32
  0
VERTEX
  8
W47LXLIFT
 62
4
 10
775.115
 20
-7277.668
 30
535.988
 70
    32
  0
VERTEX
  8
W47LXLIFT
 62
4
 10
777.787
 20
-7267.551
 30
535.853
 70
    32
  0
VERTEX
  8
W47LXLIFT
 62
4
 10
775.078
 20
-7255.572
 30
535.746
 70
    32
  0
VERTEX
  8
W47LXLIFT
 62
4
 10
776.170
 20
-7253.144
 30
535.710
 70
    32
  0
VERTEX
  8
W47LXLIFT
 62
4
 10
780.550
 20
-7250.349
 30
535.641
 70
    32
  0
VERTEX
  8
W47LXLIFT
 62
4
 10
780.910
 20
-7238.655
 30
535.509
 70
    32
  0
VERTEX
  8
W47LXLIFT
 62
4
 10
770.400
 20
-7227.439
 30
535.478
 70
    32
  0
VERTEX
  8
W47LXLIFT
 62
4
 10
774.887
 20
-7221.788
 30
535.377
 70
    32
  0
VERTEX
  8
W47LXLIFT
 62
4
 10
785.299
 20
-7223.762
 30
535.308
 70
    32
  0
VERTEX
  8
W47LXLIFT
 62
4
 10
793.203
 20
-7222.833
 30
535.229
 70
    32
  0
VERTEX
  8
W47LXLIFT
 62
4
 10
800.602
 20
-7226.968
 30
535.210
 70
    32
  0
VERTEX
  8
W47LXLIFT
 62
4
 10
810.124
 20
-7223.288
 30
535.086
 70
    32
  0
VERTEX
  8
W47LXLIFT
 62
4
 10
809.219
 20
-7213.405
 30
534.986
 70
    32
  0
VERTEX
  8
W47LXLIFT
 62
4
 10
803.771
 20
-7206.726
 30
534.960
 70
    32
  0
VERTEX
  8
W47LXLIFT
 62
4
 10
785.867
 20
-7210.390
 30
535.156
 70
    32
  0
VERTEX
  8
W47LXLIFT
 62
4
 10
780.993
 20
-7209.354
 30
535.188
 70
    32
  0
VERTEX
  8
W47LXLIFT
 62
4
 10
768.354
 20
-7216.707
 30
535.378
 70
    32
  0
VERTEX
  8
W47LXLIFT
 62
4
 10
754.800
 20
-7201.882
 30
535.334
 70
    32
  0
VERTEX
  8
W47LXLIFT
 62
4
 10
756.686
 20
-7194.522
 30
535.237
 70
    32
  0
VERTEX
  8
W47LXLIFT
 62
4
 10
749.477
 20
-7155.541
 30
534.873
 70
    32
  0
SEQEND
  8
W47LXLIFT
  0
POLYLINE
  8
W47LXLIFT
 62
1
 66
     1
 70
     9
  0
VERTEX
  8
W47LXLIFT
 62
1
 10
771.961
 20
-7155.190
 30
544.692
 70
    32
  0
VERTEX
  8
W47LXLIFT
 62
1
 10
776.837
 20
-7153.537
 30
544.632
 70
    32
  0
VERTEX
  8
W47LXLIFT
 62
1
 10
777.661
 20
-7138.561
 30
544.460
 70
    32
  0
VERTEX
  8
W47LXLIFT
 62
1
 10
784.838
 20
-7128.879
 30
544.292
 70
    32
  0
VERTEX
  8
W47LXLIFT
 62
1
 10
794.127
 20
-7129.855
 30
544.221
 70
    32
  0
VERTEX
  8
W47LXLIFT
 62
1
 10
808.876
 20
-7130.290
 30
544.140
 70
    32
  0
VERTEX
  8
W47LXLIFT
 62
1
 10
821.994
 20
-7141.914
 30
544.180
 70
    32
  0
VERTEX
  8
W47LXLIFT
 62
1
 10
825.992
 20
-7154.959
 30
544.218
 70
    32
  0
VERTEX
  8
W47LXLIFT
 62
1
 10
829.062
 20
-7158.966
 30
544.236
 70
    32
  0
VERTEX
  8
W47LXLIFT
 62
1
 10
833.252
 20
-7173.859
 30
544.362
 70
    32
  0
VERTEX
  8
W47LXLIFT
 62
1
 10
840.317
 20
-7186.366
 30
544.438
 70
    32
  0
VERTEX
  8
W47LXLIFT
 62
1
 10
830.221
 20
-7194.326
 30
544.613
 70
    32
  0
VERTEX
  8
W47LXLIFT
 62
1
 10
817.999
 20
-7198.322
 30
544.763
 70
    32
  0
VERTEX
  8
W47LXLIFT
 62
1
 10
833.518
 20
-7241.913
 30
545.106
 70
    32
  0
VERTEX
  8
W47LXLIFT
 62
1
 10
839.963
 20
-7250.046
 30
545.139
 70
    32
  0
VERTEX
  8
W47LXLIFT
 62
1
 10
850.752
 20
-7257.680
 30
545.128
 70
    32
  0
VERTEX
  8
W47LXLIFT
 62
1
 10
848.209
 20
-7264.307
 30
545.223
 70
    32
  0
VERTEX
  8
W47LXLIFT
 62
1
 10
838.472
 20
-7271.841
 30
545.391
 70
    32
  0
VERTEX
  8
W47LXLIFT
 62
1
 10
834.407
 20
-7293.149
 30
545.660
 70
    32
  0
VERTEX
  8
W47LXLIFT
 62
1
 10
813.912
 20
-7298.818
 30
545.901
 70
    32
  0
VERTEX
  8
W47LXLIFT
 62
1
 10
810.278
 20
-7296.606
 30
545.908
 70
    32
  0
VERTEX
  8
W47LXLIFT
 62
1
 10
803.108
 20
-7295.534
 30
545.959
 70
    32
  0
VERTEX
  8
W47LXLIFT
 62
1
 10
789.960
 20
-7296.172
 30
546.081
 70
    32
  0
VERTEX
  8
W47LXLIFT
 62
1
 10
781.811
 20
-7291.153
 30
546.097
 70
    32
  0
VERTEX
  8
W47LXLIFT
 62
1
 10
777.495
 20
-7282.952
 30
546.045
 70
    32
  0
VERTEX
  8
W47LXLIFT
 62
1
 10
776.115
 20
-7276.668
 30
545.988
 70
    32
  0
VERTEX
  8
W47LXLIFT
 62
1
 10
778.787
 20
-7266.551
 30
545.853
 70
    32
  0
VERTEX
  8
W47LXLIFT
 62
1
 10
776.078
 20
-7254.572
 30
545.746
 70
    32
  0
VERTEX
  8
W47LXLIFT
 62
1
 10
777.170
 20
-7252.144
 30
545.710
 70
    32
  0
VERTEX
  8
W47LXLIFT
 62
1
 10
781.550
 20
-7249.349
 30
545.641
 70
    32
  0
VERTEX
  8
W47LXLIFT
 62
1
 10
781.910
 20
-7237.655
 30
545.509
 70
    32
  0
VERTEX
  8
W47LXLIFT
 62
1
 10
771.400
 20
-7226.439
 30
545.478
 70
    32
  0
VERTEX
  8
W47LXLIFT
 62
1
 10
775.887
 20
-7220.788
 30
545.377
 70
    32
  0
VERTEX
  8
W47LXLIFT
 62
1
 10
786.299
 20
-7222.762
 30
545.308
 70
    32
  0
VERTEX
  8
W47LXLIFT
 62
1
 10
794.203
 20
-7221.833
 30
545.229
 70
    32
  0
VERTEX
  8
W47LXLIFT
 62
1
 10
801.602
 20
-7225.968
 30
545.210
 70
    32
  0
VERTEX
  8
W47LXLIFT
 62
1
 10
811.124
 20
-7222.288
 30
545.086
 70
    32
  0
VERTEX
  8
W47LXLIFT
 62
1
 10
810.219
 20
-7212.405
 30
544.986
 70
    32
  0
VERTEX
  8
W47LXLIFT
 62
1
 10
804.771
 20
-7205.726
 30
544.960
 70
    32
  0
VERTEX
  8
W47LXLIFT
 62
1
 10
786.867
 20
-7209.390
 30
545.156
 70
    32
  0
VERTEX
  8
W47LXLIFT
 62
1
 10
781.993
 20
-7208.354
 30
545.188
 70
    32
  0
VERTEX
  8
W47LXLIFT
 62
1
 10
769.354
 20
-7215.707
 30
545.378
 70
    32
  0
VERTEX
  8
W47LXLIFT
 62
1
 10
755.800
 20
-7200.882
 30
545.334
 70
    32
  0
VERTEX
  8
W47LXLIFT
 62
1
 10
757.686
 20
-7193.522
 30
545.237
 70
    32
  0
VERTEX
  8
W47LXLIFT
 62
1
 10
750.477
 20
-7154.541
 30
544.873
 70
    32
  0
SEQEND
  8
W47LXLIFT
  0
POINT
  8
W47LXLIFT
 62
4
 10
530.704
 20
-7021.256
 30
610.000
  0
POINT
  8
W47LXLIFT
 62
4
 10
507.931
 20
-7050.894
 30
711.000
  0
LINE
  8
W47LXLIFT
 62
4
 10
507.931
 20
-7050.894
 30
711.000
 11
530.704
 21
-7021.256
 31
610.000
  0
POINT
  8
W47LXLIFT
 62
11
 10
551.363
 20
-6992.683
 30
683.095
  0
POINT
  8
W47LXLIFT
 62
11
 10
618.462
 20
-7043.332
 30
615.000
  0
LINE
  8
W47LXLIFT
 62
11
 10
551.363
 20
-6992.683
 30
683.095
 11
618.462
 21
-7043.332
 31
615.000
  0
POINT
  8
W47LXLIFT
 62
7
 10
645.535
 20
-7251.952
 30
635.000
  0
POINT
  8
W47LXLIFT
 62
7
 10
587.117
 20
-7202.236
 30
737.000
  0
LINE
  8
W47LXLIFT
 62
7
 10
587.117
 20
-7202.236
 30
737.000
 11
645.535
 21
-7251.952
 31
635.000
  0
POINT
  8
W47LXLIFT
 62
4
 10
797.458
 20
-7148.696
 30
684.740
  0
POINT
  8
W47LXLIFT
 62
4
 10
798.566
 20
-7171.714
 30
544.613
  0
LINE
  8
W47LXLIFT
 62
4
 10
797.458
 20
-7148.696
 30
684.740
 11
798.566
 21
-7171.714
 31
544.613
  0
POINT
  8
W47LXLIFT
 62
7
 10
458.703
 20
-6673.332
 30
675.640
  0
POINT
  8
W47LXLIFT
 62
7
 10
483.723
 20
-6680.232
 30
570.898
  0
LINE
  8
W47LXLIFT
 62
7
 10
458.703
 20
-6673.332
 30
675.640
 11
483.723
 21
-6680.232
 31
570.898
  0
POINT
  8
W47LXLIFT
 62
2
 10
662.186
 20
-7318.488
 30
631.000
  0
POINT
  8
W47LXLIFT
 62
2
 10
646.531
 20
-7328.850
 30
685.000
  0
LINE
  8
W47LXLIFT
 62
2
 10
646.531
 20
-7328.850
 30
685.000
 11
662.186
 21
-7318.488
 31
631.000
  0
POINT
  8
W47LXLIFT
 62
4
 10
812.554
 20
-7253.744
 30
535.901
  0
LINE
  8
W47LXLIFT
 62
4
 10
812.554
 20
-7253.744
 30
535.901
 11
855.180
 21
-7239.903
 31
388.717
  0
POINT
  8
W47LXLIFT
 62
4
 10
855.180
 20
-7239.903
 30
388.717
  0
POLYLINE
  8
W47LXLIFT
 62
6
 66
     1
 70
     9
  0
VERTEX
  8
W47LXLIFT
 62
6
 10
592.497
 20
-7208.900
 30
535.915
 70
    32
  0
VERTEX
  8
W47LXLIFT
 62
6
 10
597.903
 20
-7217.361
 30
536.007
 70
    32
  0
VERTEX
  8
W47LXLIFT
 62
6
 10
591.096
 20
-7224.954
 30
536.114
 70
    32
  0
VERTEX
  8
W47LXLIFT
 62
6
 10
591.931
 20
-7235.397
 30
536.186
 70
    32
  0
VERTEX
  8
W47LXLIFT
 62
6
 10
588.363
 20
-7239.347
 30
536.192
 70
    32
  0
VERTEX
  8
W47LXLIFT
 62
6
 10
592.558
 20
-7247.519
 30
536.235
 70
    32
  0
VERTEX
  8
W47LXLIFT
 62
6
 10
581.079
 20
-7253.228
 30
536.227
 70
    32
  0
VERTEX
  8
W47LXLIFT
 62
6
 10
571.098
 20
-7244.891
 30
536.168
 70
    32
  0
VERTEX
  8
W47LXLIFT
 62
6
 10
558.096
 20
-7246.397
 30
536.140
 70
    32
  0
VERTEX
  8
W47LXLIFT
 62
6
 10
548.070
 20
-7244.356
 30
536.105
 70
    32
  0
VERTEX
  8
W47LXLIFT
 62
6
 10
532.068
 20
-7213.163
 30
535.940
 70
    32
  0
VERTEX
  8
W47LXLIFT
 62
6
 10
533.306
 20
-7207.441
 30
535.921
 70
    32
  0
VERTEX
  8
W47LXLIFT
 62
6
 10
518.205
 20
-7186.230
 30
535.792
 70
    32
  0
VERTEX
  8
W47LXLIFT
 62
6
 10
523.799
 20
-7181.035
 30
535.717
 70
    32
  0
VERTEX
  8
W47LXLIFT
 62
6
 10
524.568
 20
-7178.082
 30
535.679
 70
    32
  0
VERTEX
  8
W47LXLIFT
 62
6
 10
523.198
 20
-7174.169
 30
535.634
 70
    32
  0
VERTEX
  8
W47LXLIFT
 62
6
 10
524.789
 20
-7167.507
 30
535.549
 70
    32
  0
VERTEX
  8
W47LXLIFT
 62
6
 10
535.315
 20
-7163.106
 30
535.473
 70
    32
  0
VERTEX
  8
W47LXLIFT
 62
6
 10
539.992
 20
-7165.504
 30
535.493
 70
    32
  0
VERTEX
  8
W47LXLIFT
 62
6
 10
549.293
 20
-7163.820
 30
535.453
 70
    32
  0
VERTEX
  8
W47LXLIFT
 62
6
 10
554.314
 20
-7168.796
 30
535.503
 70
    32
  0
VERTEX
  8
W47LXLIFT
 62
6
 10
557.914
 20
-7169.271
 30
535.501
 70
    32
  0
VERTEX
  8
W47LXLIFT
 62
6
 10
578.051
 20
-7199.688
 30
535.832
 70
    32
  0
VERTEX
  8
W47LXLIFT
 62
6
 10
584.795
 20
-7200.402
 30
535.827
 70
    32
  0
SEQEND
  8
W47LXLIFT
  0
POLYLINE
  8
W47LXLIFT
 62
13
 66
     1
 70
     9
  0
VERTEX
  8
W47LXLIFT
 62
13
 10
678.128
 20
-7100.473
 30
534.407
 70
    32
  0
VERTEX
  8
W47LXLIFT
 62
13
 10
672.540
 20
-7108.595
 30
534.518
 70
    32
  0
VERTEX
  8
W47LXLIFT
 62
13
 10
674.089
 20
-7119.596
 30
534.650
 70
    32
  0
VERTEX
  8
W47LXLIFT
 62
13
 10
681.696
 20
-7129.470
 30
534.755
 70
    32
  0
VERTEX
  8
W47LXLIFT
 62
13
 10
697.529
 20
-7119.756
 30
534.603
 70
    32
  0
VERTEX
  8
W47LXLIFT
 62
13
 10
715.742
 20
-7124.694
 30
534.625
 70
    32
  0
VERTEX
  8
W47LXLIFT
 62
13
 10
712.902
 20
-7136.051
 30
534.770
 70
    32
  0
VERTEX
  8
W47LXLIFT
 62
13
 10
714.809
 20
-7157.826
 30
535.033
 70
    32
  0
VERTEX
  8
W47LXLIFT
 62
13
 10
703.003
 20
-7152.574
 30
534.993
 70
    32
  0
VERTEX
  8
W47LXLIFT
 62
13
 10
694.497
 20
-7146.637
 30
534.938
 70
    32
  0
VERTEX
  8
W47LXLIFT
 62
13
 10
685.949
 20
-7143.828
 30
534.922
 70
    32
  0
VERTEX
  8
W47LXLIFT
 62
13
 10
673.279
 20
-7153.990
 30
535.073
 70
    32
  0
VERTEX
  8
W47LXLIFT
 62
13
 10
670.461
 20
-7174.636
 30
535.332
 70
    32
  0
VERTEX
  8
W47LXLIFT
 62
13
 10
667.565
 20
-7192.127
 30
535.552
 70
    32
  0
VERTEX
  8
W47LXLIFT
 62
13
 10
637.792
 20
-7173.109
 30
535.381
 70
    32
  0
VERTEX
  8
W47LXLIFT
 62
13
 10
638.196
 20
-7164.179
 30
535.271
 70
    32
  0
VERTEX
  8
W47LXLIFT
 62
13
 10
635.417
 20
-7161.338
 30
535.242
 70
    32
  0
VERTEX
  8
W47LXLIFT
 62
13
 10
637.068
 20
-7150.401
 30
535.105
 70
    32
  0
VERTEX
  8
W47LXLIFT
 62
13
 10
660.240
 20
-7137.817
 30
534.902
 70
    32
  0
VERTEX
  8
W47LXLIFT
 62
13
 10
654.152
 20
-7130.601
 30
534.826
 70
    32
  0
VERTEX
  8
W47LXLIFT
 62
13
 10
660.613
 20
-7114.538
 30
534.616
 70
    32
  0
VERTEX
  8
W47LXLIFT
 62
13
 10
661.866
 20
-7104.466
 30
534.490
 70
    32
  0
SEQEND
  8
W47LXLIFT
  0
POLYLINE
  8
W47LXLIFT
 62
1
 66
     1
 70
     9
  0
VERTEX
  8
W47LXLIFT
 62
1
 10
679.128
 20
-7099.473
 30
544.407
 70
    32
  0
VERTEX
  8
W47LXLIFT
 62
1
 10
673.540
 20
-7107.595
 30
544.518
 70
    32
  0
VERTEX
  8
W47LXLIFT
 62
1
 10
675.089
 20
-7118.596
 30
544.650
 70
    32
  0
VERTEX
  8
W47LXLIFT
 62
1
 10
682.696
 20
-7128.470
 30
544.755
 70
    32
  0
VERTEX
  8
W47LXLIFT
 62
1
 10
698.529
 20
-7118.756
 30
544.603
 70
    32
  0
VERTEX
  8
W47LXLIFT
 62
1
 10
716.742
 20
-7123.694
 30
544.625
 70
    32
  0
VERTEX
  8
W47LXLIFT
 62
1
 10
713.902
 20
-7135.051
 30
544.770
 70
    32
  0
VERTEX
  8
W47LXLIFT
 62
1
 10
715.809
 20
-7156.826
 30
545.033
 70
    32
  0
VERTEX
  8
W47LXLIFT
 62
1
 10
704.003
 20
-7151.574
 30
544.993
 70
    32
  0
VERTEX
  8
W47LXLIFT
 62
1
 10
695.497
 20
-7145.637
 30
544.938
 70
    32
  0
VERTEX
  8
W47LXLIFT
 62
1
 10
686.949
 20
-7142.828
 30
544.922
 70
    32
  0
VERTEX
  8
W47LXLIFT
 62
1
 10
674.279
 20
-7152.990
 30
545.073
 70
    32
  0
VERTEX
  8
W47LXLIFT
 62
1
 10
671.461
 20
-7173.636
 30
545.332
 70
    32
  0
VERTEX
  8
W47LXLIFT
 62
1
 10
668.565
 20
-7191.127
 30
545.552
 70
    32
  0
VERTEX
  8
W47LXLIFT
 62
1
 10
638.792
 20
-7172.109
 30
545.381
 70
    32
  0
VERTEX
  8
W47LXLIFT
 62
1
 10
639.196
 20
-7163.179
 30
545.271
 70
    32
  0
VERTEX
  8
W47LXLIFT
 62
1
 10
636.417
 20
-7160.338
 30
545.242
 70
    32
  0
VERTEX
  8
W47LXLIFT
 62
1
 10
638.068
 20
-7149.401
 30
545.105
 70
    32
  0
VERTEX
  8
W47LXLIFT
 62
1
 10
661.240
 20
-7136.817
 30
544.902
 70
    32
  0
VERTEX
  8
W47LXLIFT
 62
1
 10
655.152
 20
-7129.601
 30
544.826
 70
    32
  0
VERTEX
  8
W47LXLIFT
 62
1
 10
661.613
 20
-7113.538
 30
544.616
 70
    32
  0
VERTEX
  8
W47LXLIFT
 62
1
 10
662.866
 20
-7103.466
 30
544.490
 70
    32
  0
SEQEND
  8
W47LXLIFT
  0
POLYLINE
  8
W47LXLIFT
 62
3
 66
     1
 70
     9
  0
VERTEX
  8
W47LXLIFT
 62
3
 10
904.104
 20
-7258.150
 30
534.649
 70
    32
  0
VERTEX
  8
W47LXLIFT
 62
3
 10
888.049
 20
-7275.251
 30
534.975
 70
    32
  0
VERTEX
  8
W47LXLIFT
 62
3
 10
879.903
 20
-7274.778
 30
535.043
 70
    32
  0
VERTEX
  8
W47LXLIFT
 62
3
 10
874.025
 20
-7265.884
 30
534.995
 70
    32
  0
VERTEX
  8
W47LXLIFT
 62
3
 10
869.687
 20
-7255.629
 30
534.920
 70
    32
  0
VERTEX
  8
W47LXLIFT
 62
3
 10
867.015
 20
-7247.245
 30
534.852
 70
    32
  0
VERTEX
  8
W47LXLIFT
 62
3
 10
866.260
 20
-7245.848
 30
534.844
 70
    32
  0
VERTEX
  8
W47LXLIFT
 62
3
 10
871.945
 20
-7242.148
 30
534.753
 70
    32
  0
VERTEX
  8
W47LXLIFT
 62
3
 10
880.547
 20
-7242.858
 30
534.686
 70
    32
  0
VERTEX
  8
W47LXLIFT
 62
3
 10
898.733
 20
-7240.158
 30
534.498
 70
    32
  0
SEQEND
  8
W47LXLIFT
  0
POLYLINE
  8
W47LXLIFT
 62
1
 66
     1
 70
     9
  0
VERTEX
  8
W47LXLIFT
 62
1
 10
905.104
 20
-7257.150
 30
544.649
 70
    32
  0
VERTEX
  8
W47LXLIFT
 62
1
 10
889.049
 20
-7274.251
 30
544.975
 70
    32
  0
VERTEX
  8
W47LXLIFT
 62
1
 10
880.903
 20
-7273.778
 30
545.043
 70
    32
  0
VERTEX
  8
W47LXLIFT
 62
1
 10
875.025
 20
-7264.884
 30
544.995
 70
    32
  0
VERTEX
  8
W47LXLIFT
 62
1
 10
870.687
 20
-7254.629
 30
544.920
 70
    32
  0
VERTEX
  8
W47LXLIFT
 62
1
 10
868.015
 20
-7246.245
 30
544.852
 70
    32
  0
VERTEX
  8
W47LXLIFT
 62
1
 10
867.260
 20
-7244.848
 30
544.844
 70
    32
  0
VERTEX
  8
W47LXLIFT
 62
1
 10
872.945
 20
-7241.148
 30
544.753
 70
    32
  0
VERTEX
  8
W47LXLIFT
 62
1
 10
881.547
 20
-7241.858
 30
544.686
 70
    32
  0
VERTEX
  8
W47LXLIFT
 62
1
 10
899.733
 20
-7239.158
 30
544.498
 70
    32
  0
SEQEND
  8
W47LXLIFT
  0
LINE
  8
W47LXLIFT
 62
1
 10
850.752
 20
-7257.680
 30
545.128
 11
861.496
 21
-7175.765
 31
683.103
  0
LINE
  8
W47LXLIFT
 62
1
 10
813.912
 20
-7298.818
 30
545.901
 11
831.558
 21
-7215.750
 31
683.624
  0
LINE
  8
W47LXLIFT
 62
1
 10
808.876
 20
-7130.290
 30
544.140
 11
809.880
 21
-7087.992
 31
682.696
  0
LINE
  8
W47LXLIFT
 62
1
 10
737.298
 20
-7150.981
 30
685.100
 11
750.477
 21
-7154.541
 31
544.873
  0
LINE
  8
W47LXLIFT
 62
1
 10
781.993
 20
-7208.354
 30
545.188
 11
771.916
 21
-7142.517
 31
684.307
  0
ENDSEC
  0
EOF
