999
********************************
999
*   DXF File - Entities Only   *
999
*        3D Data Format        *
999
*     Output from ENVISAGE     *
999
*     31-Dec-2007 15:42:56     *
999
********************************
  0
SECTION 
  2
HEADER
  9
$ACADVER
  1
AC1009
  9
$EXTMIN
 10
-290000.000
 20
-250000.000
 30
-4000.000
  9
$EXTMAX
 10
320000.000
 20
160000.000
 30
6000.000
  0
ENDSEC
  0
SECTION
  2
ENTITIES
  0
POLYLINE
  8
W47XLIFTS
 62
5
 66
     1
 70
     9
  0
VERTEX
  8
W47XLIFTS
 62
5
 10
893.516
 20
-7172.459
 30
561.251
 70
    32
  0
VERTEX
  8
W47XLIFTS
 62
5
 10
905.352
 20
-7193.404
 30
561.189
 70
    32
  0
VERTEX
  8
W47XLIFTS
 62
5
 10
901.481
 20
-7211.493
 30
561.189
 70
    32
  0
VERTEX
  8
W47XLIFTS
 62
5
 10
894.111
 20
-7215.815
 30
561.189
 70
    32
  0
VERTEX
  8
W47XLIFTS
 62
5
 10
869.993
 20
-7218.955
 30
561.189
 70
    32
  0
VERTEX
  8
W47XLIFTS
 62
5
 10
868.064
 20
-7213.629
 30
561.189
 70
    32
  0
VERTEX
  8
W47XLIFTS
 62
5
 10
853.315
 20
-7201.400
 30
561.189
 70
    32
  0
VERTEX
  8
W47XLIFTS
 62
5
 10
849.353
 20
-7190.915
 30
561.189
 70
    32
  0
VERTEX
  8
W47XLIFTS
 62
5
 10
857.300
 20
-7185.514
 30
561.189
 70
    32
  0
VERTEX
  8
W47XLIFTS
 62
5
 10
857.973
 20
-7180.553
 30
561.189
 70
    32
  0
VERTEX
  8
W47XLIFTS
 62
5
 10
863.774
 20
-7176.368
 30
561.189
 70
    32
  0
VERTEX
  8
W47XLIFTS
 62
5
 10
865.894
 20
-7172.585
 30
561.189
 70
    32
  0
VERTEX
  8
W47XLIFTS
 62
5
 10
864.625
 20
-7162.615
 30
561.189
 70
    32
  0
VERTEX
  8
W47XLIFTS
 62
5
 10
856.135
 20
-7159.564
 30
561.189
 70
    32
  0
VERTEX
  8
W47XLIFTS
 62
5
 10
853.086
 20
-7155.442
 30
561.189
 70
    32
  0
VERTEX
  8
W47XLIFTS
 62
5
 10
850.528
 20
-7149.262
 30
561.189
 70
    32
  0
VERTEX
  8
W47XLIFTS
 62
5
 10
851.452
 20
-7139.495
 30
561.189
 70
    32
  0
VERTEX
  8
W47XLIFTS
 62
5
 10
846.031
 20
-7128.150
 30
561.189
 70
    32
  0
VERTEX
  8
W47XLIFTS
 62
5
 10
846.178
 20
-7123.511
 30
561.189
 70
    32
  0
VERTEX
  8
W47XLIFTS
 62
5
 10
834.676
 20
-7121.277
 30
561.189
 70
    32
  0
VERTEX
  8
W47XLIFTS
 62
5
 10
829.352
 20
-7110.594
 30
561.189
 70
    32
  0
VERTEX
  8
W47XLIFTS
 62
5
 10
815.783
 20
-7094.230
 30
561.189
 70
    32
  0
VERTEX
  8
W47XLIFTS
 62
5
 10
816.303
 20
-7083.471
 30
561.189
 70
    32
  0
VERTEX
  8
W47XLIFTS
 62
5
 10
823.058
 20
-7076.633
 30
561.189
 70
    32
  0
VERTEX
  8
W47XLIFTS
 62
5
 10
835.751
 20
-7074.414
 30
561.189
 70
    32
  0
VERTEX
  8
W47XLIFTS
 62
5
 10
860.725
 20
-7119.430
 30
561.189
 70
    32
  0
VERTEX
  8
W47XLIFTS
 62
5
 10
866.979
 20
-7119.515
 30
561.189
 70
    32
  0
VERTEX
  8
W47XLIFTS
 62
5
 10
882.462
 20
-7155.479
 30
561.189
 70
    32
  0
SEQEND
  8
W47XLIFTS
  0
POLYLINE
  8
W47XLIFTS
 62
5
 66
     1
 70
     9
  0
VERTEX
  8
W47XLIFTS
 62
5
 10
718.641
 20
-6863.624
 30
688.810
 70
    32
  0
VERTEX
  8
W47XLIFTS
 62
5
 10
721.226
 20
-6852.175
 30
688.810
 70
    32
  0
VERTEX
  8
W47XLIFTS
 62
5
 10
715.778
 20
-6836.760
 30
688.810
 70
    32
  0
VERTEX
  8
W47XLIFTS
 62
5
 10
722.657
 20
-6830.029
 30
688.810
 70
    32
  0
VERTEX
  8
W47XLIFTS
 62
5
 10
734.642
 20
-6828.737
 30
688.810
 70
    32
  0
VERTEX
  8
W47XLIFTS
 62
5
 10
737.106
 20
-6844.919
 30
688.810
 70
    32
  0
VERTEX
  8
W47XLIFTS
 62
5
 10
744.575
 20
-6846.507
 30
688.810
 70
    32
  0
VERTEX
  8
W47XLIFTS
 62
5
 10
751.036
 20
-6855.167
 30
688.810
 70
    32
  0
VERTEX
  8
W47XLIFTS
 62
5
 10
747.430
 20
-6858.911
 30
688.810
 70
    32
  0
VERTEX
  8
W47XLIFTS
 62
5
 10
753.297
 20
-6870.743
 30
688.810
 70
    32
  0
VERTEX
  8
W47XLIFTS
 62
5
 10
748.762
 20
-6876.082
 30
688.810
 70
    32
  0
VERTEX
  8
W47XLIFTS
 62
5
 10
741.231
 20
-6881.238
 30
688.810
 70
    32
  0
VERTEX
  8
W47XLIFTS
 62
5
 10
732.868
 20
-6874.306
 30
688.810
 70
    32
  0
VERTEX
  8
W47XLIFTS
 62
5
 10
722.144
 20
-6873.246
 30
688.810
 70
    32
  0
SEQEND
  8
W47XLIFTS
  0
POLYLINE
  8
W47XLIFTS
 62
5
 66
     1
 70
     9
  0
VERTEX
  8
W47XLIFTS
 62
5
 10
476.691
 20
-6542.225
 30
582.432
 70
    32
  0
VERTEX
  8
W47XLIFTS
 62
5
 10
474.313
 20
-6521.913
 30
586.580
 70
    32
  0
VERTEX
  8
W47XLIFTS
 62
5
 10
472.383
 20
-6506.988
 30
586.580
 70
    32
  0
VERTEX
  8
W47XLIFTS
 62
5
 10
468.791
 20
-6493.689
 30
586.580
 70
    32
  0
VERTEX
  8
W47XLIFTS
 62
5
 10
480.771
 20
-6487.655
 30
586.580
 70
    32
  0
VERTEX
  8
W47XLIFTS
 62
5
 10
482.812
 20
-6499.798
 30
586.580
 70
    32
  0
VERTEX
  8
W47XLIFTS
 62
5
 10
490.509
 20
-6513.485
 30
586.580
 70
    32
  0
VERTEX
  8
W47XLIFTS
 62
5
 10
498.720
 20
-6518.708
 30
586.580
 70
    32
  0
VERTEX
  8
W47XLIFTS
 62
5
 10
498.647
 20
-6530.303
 30
584.986
 70
    32
  0
VERTEX
  8
W47XLIFTS
 62
5
 10
492.266
 20
-6544.866
 30
582.338
 70
    32
  0
VERTEX
  8
W47XLIFTS
 62
5
 10
485.982
 20
-6548.428
 30
581.700
 70
    32
  0
SEQEND
  8
W47XLIFTS
  0
POLYLINE
  8
W47XLIFTS
 62
5
 66
     1
 70
     9
  0
VERTEX
  8
W47XLIFTS
 62
5
 10
481.328
 20
-6641.737
 30
565.138
 70
    32
  0
VERTEX
  8
W47XLIFTS
 62
5
 10
480.267
 20
-6644.648
 30
564.927
 70
    32
  0
VERTEX
  8
W47XLIFTS
 62
5
 10
466.707
 20
-6644.998
 30
565.289
 70
    32
  0
VERTEX
  8
W47XLIFTS
 62
5
 10
460.526
 20
-6661.361
 30
562.559
 70
    32
  0
VERTEX
  8
W47XLIFTS
 62
5
 10
463.571
 20
-6680.235
 30
560.898
 70
    32
  0
VERTEX
  8
W47XLIFTS
 62
5
 10
463.548
 20
-6691.901
 30
560.611
 70
    32
  0
VERTEX
  8
W47XLIFTS
 62
5
 10
468.589
 20
-6706.445
 30
560.504
 70
    32
  0
VERTEX
  8
W47XLIFTS
 62
5
 10
472.884
 20
-6706.416
 30
560.504
 70
    32
  0
VERTEX
  8
W47XLIFTS
 62
5
 10
486.245
 20
-6710.953
 30
560.385
 70
    32
  0
VERTEX
  8
W47XLIFTS
 62
5
 10
494.234
 20
-6717.039
 30
560.302
 70
    32
  0
VERTEX
  8
W47XLIFTS
 62
5
 10
503.555
 20
-6718.619
 30
560.140
 70
    32
  0
VERTEX
  8
W47XLIFTS
 62
5
 10
513.636
 20
-6715.345
 30
559.907
 70
    32
  0
VERTEX
  8
W47XLIFTS
 62
5
 10
521.720
 20
-6705.613
 30
559.638
 70
    32
  0
VERTEX
  8
W47XLIFTS
 62
5
 10
510.391
 20
-6694.671
 30
559.731
 70
    32
  0
VERTEX
  8
W47XLIFTS
 62
5
 10
512.944
 20
-6688.544
 30
559.672
 70
    32
  0
VERTEX
  8
W47XLIFTS
 62
5
 10
522.875
 20
-6685.461
 30
559.461
 70
    32
  0
VERTEX
  8
W47XLIFTS
 62
5
 10
537.926
 20
-6680.731
 30
557.153
 70
    32
  0
VERTEX
  8
W47XLIFTS
 62
5
 10
540.507
 20
-6678.898
 30
556.750
 70
    32
  0
SEQEND
  8
W47XLIFTS
  0
POLYLINE
  8
W47XLIFTS
 62
5
 66
     1
 70
     9
  0
VERTEX
  8
W47XLIFTS
 62
5
 10
468.393
 20
-6720.116
 30
686.772
 70
    32
  0
VERTEX
  8
W47XLIFTS
 62
5
 10
463.889
 20
-6702.352
 30
685.840
 70
    32
  0
VERTEX
  8
W47XLIFTS
 62
5
 10
449.252
 20
-6682.060
 30
685.640
 70
    32
  0
VERTEX
  8
W47XLIFTS
 62
5
 10
442.782
 20
-6668.727
 30
685.640
 70
    32
  0
VERTEX
  8
W47XLIFTS
 62
5
 10
427.877
 20
-6658.297
 30
685.640
 70
    32
  0
VERTEX
  8
W47XLIFTS
 62
5
 10
422.380
 20
-6648.871
 30
685.640
 70
    32
  0
VERTEX
  8
W47XLIFTS
 62
5
 10
422.174
 20
-6634.121
 30
685.640
 70
    32
  0
VERTEX
  8
W47XLIFTS
 62
5
 10
425.777
 20
-6624.315
 30
685.640
 70
    32
  0
VERTEX
  8
W47XLIFTS
 62
5
 10
432.643
 20
-6624.400
 30
685.640
 70
    32
  0
VERTEX
  8
W47XLIFTS
 62
5
 10
451.709
 20
-6652.404
 30
685.640
 70
    32
  0
VERTEX
  8
W47XLIFTS
 62
5
 10
465.736
 20
-6654.713
 30
685.641
 70
    32
  0
VERTEX
  8
W47XLIFTS
 62
5
 10
468.091
 20
-6666.077
 30
685.642
 70
    32
  0
VERTEX
  8
W47XLIFTS
 62
5
 10
471.036
 20
-6671.932
 30
685.643
 70
    32
  0
VERTEX
  8
W47XLIFTS
 62
5
 10
470.514
 20
-6684.841
 30
685.603
 70
    32
  0
VERTEX
  8
W47XLIFTS
 62
5
 10
476.702
 20
-6689.219
 30
685.588
 70
    32
  0
VERTEX
  8
W47XLIFTS
 62
5
 10
482.196
 20
-6690.563
 30
685.568
 70
    32
  0
VERTEX
  8
W47XLIFTS
 62
5
 10
488.254
 20
-6690.245
 30
685.549
 70
    32
  0
VERTEX
  8
W47XLIFTS
 62
5
 10
492.899
 20
-6695.787
 30
685.567
 70
    32
  0
VERTEX
  8
W47XLIFTS
 62
5
 10
510.195
 20
-6708.621
 30
685.640
 70
    32
  0
VERTEX
  8
W47XLIFTS
 62
5
 10
525.180
 20
-6727.400
 30
685.640
 70
    32
  0
VERTEX
  8
W47XLIFTS
 62
5
 10
523.088
 20
-6733.512
 30
685.640
 70
    32
  0
VERTEX
  8
W47XLIFTS
 62
5
 10
517.680
 20
-6737.108
 30
685.640
 70
    32
  0
VERTEX
  8
W47XLIFTS
 62
5
 10
503.976
 20
-6727.345
 30
685.640
 70
    32
  0
VERTEX
  8
W47XLIFTS
 62
5
 10
497.909
 20
-6734.796
 30
685.640
 70
    32
  0
VERTEX
  8
W47XLIFTS
 62
5
 10
475.911
 20
-6733.583
 30
687.242
 70
    32
  0
SEQEND
  8
W47XLIFTS
  0
POLYLINE
  8
W47XLIFTS
 62
5
 66
     1
 70
     9
  0
VERTEX
  8
W47XLIFTS
 62
5
 10
783.978
 20
-7472.906
 30
638.540
 70
    32
  0
VERTEX
  8
W47XLIFTS
 62
5
 10
778.340
 20
-7468.795
 30
638.540
 70
    32
  0
VERTEX
  8
W47XLIFTS
 62
5
 10
774.473
 20
-7462.374
 30
638.540
 70
    32
  0
VERTEX
  8
W47XLIFTS
 62
5
 10
755.608
 20
-7453.126
 30
638.540
 70
    32
  0
VERTEX
  8
W47XLIFTS
 62
5
 10
752.582
 20
-7447.272
 30
638.540
 70
    32
  0
VERTEX
  8
W47XLIFTS
 62
5
 10
754.987
 20
-7444.894
 30
638.540
 70
    32
  0
VERTEX
  8
W47XLIFTS
 62
5
 10
761.363
 20
-7442.680
 30
638.540
 70
    32
  0
VERTEX
  8
W47XLIFTS
 62
5
 10
770.328
 20
-7436.612
 30
638.540
 70
    32
  0
VERTEX
  8
W47XLIFTS
 62
5
 10
780.372
 20
-7438.884
 30
638.540
 70
    32
  0
VERTEX
  8
W47XLIFTS
 62
5
 10
789.624
 20
-7431.763
 30
638.540
 70
    32
  0
VERTEX
  8
W47XLIFTS
 62
5
 10
795.356
 20
-7431.690
 30
638.540
 70
    32
  0
VERTEX
  8
W47XLIFTS
 62
5
 10
802.903
 20
-7440.277
 30
638.540
 70
    32
  0
VERTEX
  8
W47XLIFTS
 62
5
 10
797.944
 20
-7471.683
 30
638.540
 70
    32
  0
SEQEND
  8
W47XLIFTS
  0
POLYLINE
  8
W47XLIFTS
 62
5
 66
     1
 70
     9
  0
VERTEX
  8
W47XLIFTS
 62
5
 10
738.266
 20
-7445.761
 30
617.545
 70
    32
  0
VERTEX
  8
W47XLIFTS
 62
5
 10
755.400
 20
-7447.600
 30
617.545
 70
    32
  0
VERTEX
  8
W47XLIFTS
 62
5
 10
768.400
 20
-7434.600
 30
617.545
 70
    32
  0
VERTEX
  8
W47XLIFTS
 62
5
 10
773.800
 20
-7437.900
 30
617.545
 70
    32
  0
VERTEX
  8
W47XLIFTS
 62
5
 10
789.228
 20
-7432.594
 30
617.545
 70
    32
  0
VERTEX
  8
W47XLIFTS
 62
5
 10
788.655
 20
-7418.245
 30
617.545
 70
    32
  0
VERTEX
  8
W47XLIFTS
 62
5
 10
800.566
 20
-7416.542
 30
617.545
 70
    32
  0
VERTEX
  8
W47XLIFTS
 62
5
 10
802.548
 20
-7425.724
 30
617.545
 70
    32
  0
VERTEX
  8
W47XLIFTS
 62
5
 10
806.443
 20
-7429.798
 30
617.545
 70
    32
  0
VERTEX
  8
W47XLIFTS
 62
5
 10
804.849
 20
-7436.886
 30
617.545
 70
    32
  0
VERTEX
  8
W47XLIFTS
 62
5
 10
808.500
 20
-7444.500
 30
617.545
 70
    32
  0
VERTEX
  8
W47XLIFTS
 62
5
 10
814.700
 20
-7447.200
 30
617.545
 70
    32
  0
VERTEX
  8
W47XLIFTS
 62
5
 10
812.800
 20
-7456.100
 30
617.545
 70
    32
  0
VERTEX
  8
W47XLIFTS
 62
5
 10
806.200
 20
-7467.100
 30
617.545
 70
    32
  0
VERTEX
  8
W47XLIFTS
 62
5
 10
800.500
 20
-7464.400
 30
617.545
 70
    32
  0
VERTEX
  8
W47XLIFTS
 62
5
 10
790.600
 20
-7467.000
 30
617.545
 70
    32
  0
VERTEX
  8
W47XLIFTS
 62
5
 10
759.800
 20
-7467.500
 30
617.545
 70
    32
  0
VERTEX
  8
W47XLIFTS
 62
5
 10
747.500
 20
-7465.200
 30
617.545
 70
    32
  0
VERTEX
  8
W47XLIFTS
 62
5
 10
740.000
 20
-7460.500
 30
617.545
 70
    32
  0
VERTEX
  8
W47XLIFTS
 62
5
 10
731.834
 20
-7459.990
 30
618.776
 70
    32
  0
SEQEND
  8
W47XLIFTS
  0
POLYLINE
  8
W47XLIFTS
 62
5
 66
     1
 70
     9
  0
VERTEX
  8
W47XLIFTS
 62
5
 10
645.408
 20
-7291.553
 30
596.156
 70
    32
  0
VERTEX
  8
W47XLIFTS
 62
5
 10
655.021
 20
-7296.562
 30
596.261
 70
    32
  0
VERTEX
  8
W47XLIFTS
 62
5
 10
661.667
 20
-7302.628
 30
596.261
 70
    32
  0
VERTEX
  8
W47XLIFTS
 62
5
 10
669.265
 20
-7300.898
 30
596.261
 70
    32
  0
VERTEX
  8
W47XLIFTS
 62
5
 10
676.969
 20
-7296.685
 30
596.261
 70
    32
  0
VERTEX
  8
W47XLIFTS
 62
5
 10
684.959
 20
-7307.720
 30
596.261
 70
    32
  0
VERTEX
  8
W47XLIFTS
 62
5
 10
683.573
 20
-7309.589
 30
596.261
 70
    32
  0
VERTEX
  8
W47XLIFTS
 62
5
 10
695.858
 20
-7319.066
 30
596.261
 70
    32
  0
VERTEX
  8
W47XLIFTS
 62
5
 10
709.898
 20
-7319.412
 30
596.261
 70
    32
  0
VERTEX
  8
W47XLIFTS
 62
5
 10
722.802
 20
-7327.485
 30
596.261
 70
    32
  0
VERTEX
  8
W47XLIFTS
 62
5
 10
722.366
 20
-7333.374
 30
596.261
 70
    32
  0
VERTEX
  8
W47XLIFTS
 62
5
 10
713.503
 20
-7334.117
 30
596.261
 70
    32
  0
VERTEX
  8
W47XLIFTS
 62
5
 10
708.844
 20
-7338.397
 30
596.261
 70
    32
  0
VERTEX
  8
W47XLIFTS
 62
5
 10
695.137
 20
-7341.921
 30
596.261
 70
    32
  0
VERTEX
  8
W47XLIFTS
 62
5
 10
688.835
 20
-7354.153
 30
596.261
 70
    32
  0
VERTEX
  8
W47XLIFTS
 62
5
 10
672.079
 20
-7347.472
 30
596.261
 70
    32
  0
VERTEX
  8
W47XLIFTS
 62
5
 10
666.455
 20
-7343.689
 30
596.261
 70
    32
  0
VERTEX
  8
W47XLIFTS
 62
5
 10
664.134
 20
-7338.305
 30
596.261
 70
    32
  0
VERTEX
  8
W47XLIFTS
 62
5
 10
654.754
 20
-7329.263
 30
596.261
 70
    32
  0
VERTEX
  8
W47XLIFTS
 62
5
 10
650.592
 20
-7318.887
 30
596.261
 70
    32
  0
VERTEX
  8
W47XLIFTS
 62
5
 10
638.272
 20
-7301.449
 30
596.314
 70
    32
  0
SEQEND
  8
W47XLIFTS
  0
POLYLINE
  8
W47XLIFTS
 62
5
 66
     1
 70
     9
  0
VERTEX
  8
W47XLIFTS
 62
5
 10
602.985
 20
-7219.075
 30
630.103
 70
    32
  0
VERTEX
  8
W47XLIFTS
 62
5
 10
596.276
 20
-7210.265
 30
630.074
 70
    32
  0
VERTEX
  8
W47XLIFTS
 62
5
 10
606.343
 20
-7196.779
 30
630.500
 70
    32
  0
VERTEX
  8
W47XLIFTS
 62
5
 10
614.386
 20
-7196.934
 30
630.997
 70
    32
  0
VERTEX
  8
W47XLIFTS
 62
5
 10
630.475
 20
-7220.510
 30
630.822
 70
    32
  0
VERTEX
  8
W47XLIFTS
 62
5
 10
644.459
 20
-7233.123
 30
631.108
 70
    32
  0
VERTEX
  8
W47XLIFTS
 62
5
 10
650.092
 20
-7232.286
 30
631.122
 70
    32
  0
VERTEX
  8
W47XLIFTS
 62
5
 10
655.562
 20
-7239.176
 30
631.160
 70
    32
  0
VERTEX
  8
W47XLIFTS
 62
5
 10
660.785
 20
-7237.447
 30
631.160
 70
    32
  0
VERTEX
  8
W47XLIFTS
 62
5
 10
667.915
 20
-7254.970
 30
631.160
 70
    32
  0
VERTEX
  8
W47XLIFTS
 62
5
 10
667.146
 20
-7258.617
 30
631.160
 70
    32
  0
VERTEX
  8
W47XLIFTS
 62
5
 10
693.051
 20
-7287.326
 30
631.160
 70
    32
  0
VERTEX
  8
W47XLIFTS
 62
5
 10
692.154
 20
-7292.780
 30
631.160
 70
    32
  0
VERTEX
  8
W47XLIFTS
 62
5
 10
689.133
 20
-7294.897
 30
631.160
 70
    32
  0
VERTEX
  8
W47XLIFTS
 62
5
 10
681.105
 20
-7296.447
 30
631.160
 70
    32
  0
VERTEX
  8
W47XLIFTS
 62
5
 10
678.380
 20
-7300.822
 30
631.160
 70
    32
  0
VERTEX
  8
W47XLIFTS
 62
5
 10
672.065
 20
-7304.817
 30
631.160
 70
    32
  0
VERTEX
  8
W47XLIFTS
 62
5
 10
666.935
 20
-7303.158
 30
631.160
 70
    32
  0
VERTEX
  8
W47XLIFTS
 62
5
 10
652.640
 20
-7286.581
 30
631.160
 70
    32
  0
VERTEX
  8
W47XLIFTS
 62
5
 10
644.830
 20
-7276.505
 30
631.160
 70
    32
  0
VERTEX
  8
W47XLIFTS
 62
5
 10
635.640
 20
-7269.969
 30
631.160
 70
    32
  0
VERTEX
  8
W47XLIFTS
 62
5
 10
624.027
 20
-7267.168
 30
631.160
 70
    32
  0
VERTEX
  8
W47XLIFTS
 62
5
 10
623.749
 20
-7257.283
 30
631.160
 70
    32
  0
VERTEX
  8
W47XLIFTS
 62
5
 10
622.680
 20
-7246.880
 30
631.160
 70
    32
  0
VERTEX
  8
W47XLIFTS
 62
5
 10
623.240
 20
-7243.700
 30
631.160
 70
    32
  0
VERTEX
  8
W47XLIFTS
 62
5
 10
611.702
 20
-7230.446
 30
630.689
 70
    32
  0
SEQEND
  8
W47XLIFTS
  0
POLYLINE
  8
W47XLIFTS
 62
5
 66
     1
 70
     9
  0
VERTEX
  8
W47XLIFTS
 62
5
 10
639.978
 20
-7303.709
 30
631.160
 70
    32
  0
VERTEX
  8
W47XLIFTS
 62
5
 10
650.194
 20
-7304.057
 30
631.160
 70
    32
  0
VERTEX
  8
W47XLIFTS
 62
5
 10
657.934
 20
-7301.636
 30
631.160
 70
    32
  0
VERTEX
  8
W47XLIFTS
 62
5
 10
674.158
 20
-7321.579
 30
631.160
 70
    32
  0
VERTEX
  8
W47XLIFTS
 62
5
 10
681.283
 20
-7345.217
 30
631.160
 70
    32
  0
VERTEX
  8
W47XLIFTS
 62
5
 10
668.832
 20
-7349.330
 30
631.160
 70
    32
  0
VERTEX
  8
W47XLIFTS
 62
5
 10
660.533
 20
-7340.240
 30
631.160
 70
    32
  0
VERTEX
  8
W47XLIFTS
 62
5
 10
649.027
 20
-7318.921
 30
631.160
 70
    32
  0
VERTEX
  8
W47XLIFTS
 62
5
 10
642.515
 20
-7314.370
 30
631.160
 70
    32
  0
SEQEND
  8
W47XLIFTS
  0
POLYLINE
  8
W47XLIFTS
 62
5
 66
     1
 70
     9
  0
VERTEX
  8
W47XLIFTS
 62
5
 10
610.012
 20
-7072.421
 30
615.442
 70
    32
  0
VERTEX
  8
W47XLIFTS
 62
5
 10
614.858
 20
-7067.045
 30
616.201
 70
    32
  0
VERTEX
  8
W47XLIFTS
 62
5
 10
614.732
 20
-7052.051
 30
616.362
 70
    32
  0
VERTEX
  8
W47XLIFTS
 62
5
 10
610.070
 20
-7043.817
 30
616.490
 70
    32
  0
VERTEX
  8
W47XLIFTS
 62
5
 10
604.238
 20
-7021.661
 30
616.490
 70
    32
  0
VERTEX
  8
W47XLIFTS
 62
5
 10
596.404
 20
-7017.510
 30
616.490
 70
    32
  0
VERTEX
  8
W47XLIFTS
 62
5
 10
591.652
 20
-7000.317
 30
616.490
 70
    32
  0
VERTEX
  8
W47XLIFTS
 62
5
 10
587.043
 20
-6992.271
 30
616.490
 70
    32
  0
VERTEX
  8
W47XLIFTS
 62
5
 10
596.161
 20
-6985.970
 30
616.490
 70
    32
  0
VERTEX
  8
W47XLIFTS
 62
5
 10
605.606
 20
-6983.414
 30
616.490
 70
    32
  0
VERTEX
  8
W47XLIFTS
 62
5
 10
611.416
 20
-6997.858
 30
616.490
 70
    32
  0
VERTEX
  8
W47XLIFTS
 62
5
 10
615.995
 20
-7025.678
 30
616.487
 70
    32
  0
VERTEX
  8
W47XLIFTS
 62
5
 10
622.835
 20
-7043.465
 30
616.486
 70
    32
  0
VERTEX
  8
W47XLIFTS
 62
5
 10
630.431
 20
-7052.828
 30
616.497
 70
    32
  0
VERTEX
  8
W47XLIFTS
 62
5
 10
636.143
 20
-7062.603
 30
616.691
 70
    32
  0
VERTEX
  8
W47XLIFTS
 62
5
 10
648.723
 20
-7081.335
 30
616.721
 70
    32
  0
VERTEX
  8
W47XLIFTS
 62
5
 10
651.391
 20
-7088.297
 30
616.434
 70
    32
  0
VERTEX
  8
W47XLIFTS
 62
5
 10
641.122
 20
-7092.556
 30
615.631
 70
    32
  0
VERTEX
  8
W47XLIFTS
 62
5
 10
638.107
 20
-7097.332
 30
615.191
 70
    32
  0
VERTEX
  8
W47XLIFTS
 62
5
 10
626.634
 20
-7093.887
 30
614.804
 70
    32
  0
SEQEND
  8
W47XLIFTS
  0
POLYLINE
  8
W47XLIFTS
 62
5
 66
     1
 70
     9
  0
VERTEX
  8
W47XLIFTS
 62
5
 10
506.503
 20
-6992.398
 30
610.100
 70
    32
  0
VERTEX
  8
W47XLIFTS
 62
5
 10
498.501
 20
-6967.345
 30
610.100
 70
    32
  0
VERTEX
  8
W47XLIFTS
 62
5
 10
520.830
 20
-6959.095
 30
610.100
 70
    32
  0
VERTEX
  8
W47XLIFTS
 62
5
 10
540.080
 20
-7036.215
 30
610.110
 70
    32
  0
VERTEX
  8
W47XLIFTS
 62
5
 10
562.076
 20
-7066.694
 30
609.279
 70
    32
  0
VERTEX
  8
W47XLIFTS
 62
5
 10
562.555
 20
-7072.562
 30
609.195
 70
    32
  0
VERTEX
  8
W47XLIFTS
 62
5
 10
555.389
 20
-7079.698
 30
609.130
 70
    32
  0
VERTEX
  8
W47XLIFTS
 62
5
 10
545.964
 20
-7088.660
 30
608.915
 70
    32
  0
VERTEX
  8
W47XLIFTS
 62
5
 10
536.896
 20
-7070.647
 30
609.427
 70
    32
  0
VERTEX
  8
W47XLIFTS
 62
5
 10
531.060
 20
-7063.603
 30
609.611
 70
    32
  0
VERTEX
  8
W47XLIFTS
 62
5
 10
526.690
 20
-7062.596
 30
609.655
 70
    32
  0
VERTEX
  8
W47XLIFTS
 62
5
 10
516.720
 20
-7039.816
 30
610.095
 70
    32
  0
VERTEX
  8
W47XLIFTS
 62
5
 10
516.619
 20
-7033.841
 30
610.095
 70
    32
  0
VERTEX
  8
W47XLIFTS
 62
5
 10
509.853
 20
-7000.759
 30
610.100
 70
    32
  0
SEQEND
  8
W47XLIFTS
  0
ENDSEC
  0
EOF
