999
********************************
999
*   DXF File - Entities Only   *
999
*        3D Data Format        *
999
*     Output from ENVISAGE     *
999
*     31-Dec-2007 15:43:53     *
999
********************************
  0
SECTION 
  2
HEADER
  9
$ACADVER
  1
AC1009
  9
$EXTMIN
 10
-290000.000
 20
-250000.000
 30
-4000.000
  9
$EXTMAX
 10
320000.000
 20
160000.000
 30
6000.000
  0
ENDSEC
  0
SECTION
  2
ENTITIES
  0
POLYLINE
  8
W48LXLIFT
 62
8
 66
     1
 70
     9
  0
VERTEX
  8
W48LXLIFT
 62
8
 10
1019.464
 20
-7986.101
 30
390.000
 70
    32
  0
VERTEX
  8
W48LXLIFT
 62
8
 10
1022.802
 20
-7990.740
 30
390.000
 70
    32
  0
VERTEX
  8
W48LXLIFT
 62
8
 10
1030.682
 20
-7996.120
 30
390.000
 70
    32
  0
VERTEX
  8
W48LXLIFT
 62
8
 10
1048.697
 20
-8014.680
 30
390.000
 70
    32
  0
VERTEX
  8
W48LXLIFT
 62
8
 10
1051.270
 20
-8019.761
 30
390.000
 70
    32
  0
VERTEX
  8
W48LXLIFT
 62
8
 10
1053.624
 20
-8023.484
 30
390.000
 70
    32
  0
VERTEX
  8
W48LXLIFT
 62
8
 10
1052.547
 20
-8039.750
 30
390.000
 70
    32
  0
VERTEX
  8
W48LXLIFT
 62
8
 10
1053.659
 20
-8044.908
 30
390.000
 70
    32
  0
VERTEX
  8
W48LXLIFT
 62
8
 10
1066.174
 20
-8060.493
 30
390.000
 70
    32
  0
VERTEX
  8
W48LXLIFT
 62
8
 10
1083.798
 20
-8055.176
 30
390.000
 70
    32
  0
VERTEX
  8
W48LXLIFT
 62
8
 10
1086.475
 20
-8078.165
 30
390.000
 70
    32
  0
VERTEX
  8
W48LXLIFT
 62
8
 10
1100.514
 20
-8096.770
 30
390.000
 70
    32
  0
VERTEX
  8
W48LXLIFT
 62
8
 10
1102.190
 20
-8105.422
 30
390.000
 70
    32
  0
VERTEX
  8
W48LXLIFT
 62
8
 10
1107.278
 20
-8113.244
 30
390.000
 70
    32
  0
VERTEX
  8
W48LXLIFT
 62
8
 10
1106.765
 20
-8121.413
 30
390.000
 70
    32
  0
VERTEX
  8
W48LXLIFT
 62
8
 10
1112.921
 20
-8133.882
 30
390.000
 70
    32
  0
VERTEX
  8
W48LXLIFT
 62
8
 10
1109.270
 20
-8147.776
 30
390.000
 70
    32
  0
VERTEX
  8
W48LXLIFT
 62
8
 10
1120.102
 20
-8187.213
 30
390.000
 70
    32
  0
VERTEX
  8
W48LXLIFT
 62
8
 10
1127.267
 20
-8195.815
 30
390.000
 70
    32
  0
VERTEX
  8
W48LXLIFT
 62
8
 10
1131.272
 20
-8204.090
 30
390.000
 70
    32
  0
VERTEX
  8
W48LXLIFT
 62
8
 10
1137.232
 20
-8215.834
 30
390.000
 70
    32
  0
VERTEX
  8
W48LXLIFT
 62
8
 10
1140.059
 20
-8223.225
 30
390.000
 70
    32
  0
VERTEX
  8
W48LXLIFT
 62
8
 10
1142.209
 20
-8232.836
 30
390.000
 70
    32
  0
VERTEX
  8
W48LXLIFT
 62
8
 10
1148.540
 20
-8242.688
 30
390.000
 70
    32
  0
VERTEX
  8
W48LXLIFT
 62
8
 10
1145.399
 20
-8259.247
 30
390.000
 70
    32
  0
VERTEX
  8
W48LXLIFT
 62
8
 10
1128.037
 20
-8269.142
 30
390.000
 70
    32
  0
VERTEX
  8
W48LXLIFT
 62
8
 10
1125.640
 20
-8264.908
 30
390.000
 70
    32
  0
VERTEX
  8
W48LXLIFT
 62
8
 10
1123.187
 20
-8259.091
 30
390.000
 70
    32
  0
VERTEX
  8
W48LXLIFT
 62
8
 10
1117.810
 20
-8258.844
 30
390.000
 70
    32
  0
VERTEX
  8
W48LXLIFT
 62
8
 10
1112.892
 20
-8255.775
 30
390.000
 70
    32
  0
VERTEX
  8
W48LXLIFT
 62
8
 10
1116.437
 20
-8246.399
 30
390.000
 70
    32
  0
VERTEX
  8
W48LXLIFT
 62
8
 10
1094.374
 20
-8204.752
 30
390.000
 70
    32
  0
VERTEX
  8
W48LXLIFT
 62
8
 10
1094.190
 20
-8190.044
 30
390.000
 70
    32
  0
VERTEX
  8
W48LXLIFT
 62
8
 10
1084.531
 20
-8152.688
 30
390.000
 70
    32
  0
VERTEX
  8
W48LXLIFT
 62
8
 10
1071.462
 20
-8150.935
 30
390.000
 70
    32
  0
VERTEX
  8
W48LXLIFT
 62
8
 10
1061.460
 20
-8129.209
 30
390.000
 70
    32
  0
VERTEX
  8
W48LXLIFT
 62
8
 10
1060.560
 20
-8117.723
 30
390.000
 70
    32
  0
VERTEX
  8
W48LXLIFT
 62
8
 10
1053.487
 20
-8106.238
 30
390.000
 70
    32
  0
VERTEX
  8
W48LXLIFT
 62
8
 10
1048.624
 20
-8078.105
 30
390.000
 70
    32
  0
VERTEX
  8
W48LXLIFT
 62
8
 10
1045.671
 20
-8075.356
 30
390.000
 70
    32
  0
VERTEX
  8
W48LXLIFT
 62
8
 10
1027.100
 20
-8067.162
 30
390.000
 70
    32
  0
VERTEX
  8
W48LXLIFT
 62
8
 10
1026.566
 20
-8054.980
 30
390.000
 70
    32
  0
VERTEX
  8
W48LXLIFT
 62
8
 10
1027.903
 20
-8048.709
 30
390.000
 70
    32
  0
VERTEX
  8
W48LXLIFT
 62
8
 10
1026.015
 20
-8043.677
 30
390.000
 70
    32
  0
VERTEX
  8
W48LXLIFT
 62
8
 10
1014.220
 20
-8035.265
 30
390.000
 70
    32
  0
VERTEX
  8
W48LXLIFT
 62
8
 10
1014.490
 20
-8030.522
 30
390.000
 70
    32
  0
VERTEX
  8
W48LXLIFT
 62
8
 10
1008.061
 20
-8022.040
 30
390.000
 70
    32
  0
VERTEX
  8
W48LXLIFT
 62
8
 10
1007.657
 20
-8017.564
 30
390.000
 70
    32
  0
VERTEX
  8
W48LXLIFT
 62
8
 10
1011.741
 20
-8004.875
 30
390.000
 70
    32
  0
VERTEX
  8
W48LXLIFT
 62
8
 10
1006.046
 20
-7995.757
 30
390.000
 70
    32
  0
SEQEND
  8
W48LXLIFT
  0
POLYLINE
  8
W48LXLIFT
 62
8
 66
     1
 70
     9
  0
VERTEX
  8
W48LXLIFT
 62
8
 10
1006.093
 20
-7995.832
 30
390.000
 70
    32
  0
VERTEX
  8
W48LXLIFT
 62
8
 10
995.700
 20
-7980.778
 30
390.000
 70
    32
  0
VERTEX
  8
W48LXLIFT
 62
8
 10
984.178
 20
-7965.670
 30
390.000
 70
    32
  0
VERTEX
  8
W48LXLIFT
 62
8
 10
969.467
 20
-7953.508
 30
390.000
 70
    32
  0
VERTEX
  8
W48LXLIFT
 62
8
 10
958.404
 20
-7955.295
 30
390.000
 70
    32
  0
VERTEX
  8
W48LXLIFT
 62
8
 10
946.974
 20
-7960.487
 30
390.000
 70
    32
  0
VERTEX
  8
W48LXLIFT
 62
8
 10
922.417
 20
-7965.051
 30
390.000
 70
    32
  0
VERTEX
  8
W48LXLIFT
 62
8
 10
917.855
 20
-7955.551
 30
390.000
 70
    32
  0
VERTEX
  8
W48LXLIFT
 62
8
 10
909.893
 20
-7952.614
 30
390.000
 70
    32
  0
VERTEX
  8
W48LXLIFT
 62
8
 10
907.770
 20
-7947.859
 30
390.000
 70
    32
  0
VERTEX
  8
W48LXLIFT
 62
8
 10
901.897
 20
-7943.310
 30
390.000
 70
    32
  0
VERTEX
  8
W48LXLIFT
 62
8
 10
897.279
 20
-7943.817
 30
390.000
 70
    32
  0
VERTEX
  8
W48LXLIFT
 62
8
 10
895.771
 20
-7922.153
 30
390.000
 70
    32
  0
VERTEX
  8
W48LXLIFT
 62
8
 10
857.496
 20
-7906.148
 30
390.000
 70
    32
  0
VERTEX
  8
W48LXLIFT
 62
8
 10
859.422
 20
-7895.879
 30
390.000
 70
    32
  0
VERTEX
  8
W48LXLIFT
 62
8
 10
868.701
 20
-7895.376
 30
390.000
 70
    32
  0
VERTEX
  8
W48LXLIFT
 62
8
 10
875.544
 20
-7890.885
 30
390.000
 70
    32
  0
VERTEX
  8
W48LXLIFT
 62
8
 10
873.876
 20
-7884.502
 30
390.000
 70
    32
  0
VERTEX
  8
W48LXLIFT
 62
8
 10
868.466
 20
-7877.888
 30
390.000
 70
    32
  0
VERTEX
  8
W48LXLIFT
 62
8
 10
866.304
 20
-7870.669
 30
390.000
 70
    32
  0
VERTEX
  8
W48LXLIFT
 62
8
 10
875.890
 20
-7864.420
 30
390.000
 70
    32
  0
VERTEX
  8
W48LXLIFT
 62
8
 10
880.460
 20
-7864.598
 30
390.000
 70
    32
  0
VERTEX
  8
W48LXLIFT
 62
8
 10
888.113
 20
-7875.232
 30
390.000
 70
    32
  0
VERTEX
  8
W48LXLIFT
 62
8
 10
898.130
 20
-7881.023
 30
390.000
 70
    32
  0
VERTEX
  8
W48LXLIFT
 62
8
 10
910.746
 20
-7890.577
 30
390.000
 70
    32
  0
VERTEX
  8
W48LXLIFT
 62
8
 10
915.760
 20
-7897.693
 30
390.000
 70
    32
  0
VERTEX
  8
W48LXLIFT
 62
8
 10
920.325
 20
-7905.241
 30
390.000
 70
    32
  0
VERTEX
  8
W48LXLIFT
 62
8
 10
926.041
 20
-7908.819
 30
390.000
 70
    32
  0
VERTEX
  8
W48LXLIFT
 62
8
 10
929.554
 20
-7913.549
 30
390.000
 70
    32
  0
VERTEX
  8
W48LXLIFT
 62
8
 10
935.159
 20
-7914.715
 30
390.000
 70
    32
  0
VERTEX
  8
W48LXLIFT
 62
8
 10
944.351
 20
-7912.434
 30
390.000
 70
    32
  0
VERTEX
  8
W48LXLIFT
 62
8
 10
956.519
 20
-7922.418
 30
390.000
 70
    32
  0
VERTEX
  8
W48LXLIFT
 62
8
 10
969.967
 20
-7927.257
 30
390.000
 70
    32
  0
VERTEX
  8
W48LXLIFT
 62
8
 10
988.441
 20
-7948.412
 30
390.000
 70
    32
  0
VERTEX
  8
W48LXLIFT
 62
8
 10
1008.654
 20
-7975.898
 30
390.000
 70
    32
  0
VERTEX
  8
W48LXLIFT
 62
8
 10
1014.295
 20
-7984.188
 30
390.000
 70
    32
  0
VERTEX
  8
W48LXLIFT
 62
8
 10
1018.323
 20
-7984.214
 30
390.000
 70
    32
  0
VERTEX
  8
W48LXLIFT
 62
8
 10
1019.515
 20
-7986.173
 30
390.000
 70
    32
  0
SEQEND
  8
W48LXLIFT
  0
POLYLINE
  8
W48LXLIFT
 62
8
 66
     1
 70
     9
  0
VERTEX
  8
W48LXLIFT
 62
8
 10
1184.864
 20
-8337.119
 30
393.000
 70
    32
  0
VERTEX
  8
W48LXLIFT
 62
8
 10
1175.364
 20
-8306.907
 30
393.000
 70
    32
  0
VERTEX
  8
W48LXLIFT
 62
8
 10
1178.226
 20
-8298.239
 30
393.000
 70
    32
  0
VERTEX
  8
W48LXLIFT
 62
8
 10
1170.896
 20
-8272.098
 30
393.000
 70
    32
  0
VERTEX
  8
W48LXLIFT
 62
8
 10
1166.214
 20
-8266.043
 30
393.000
 70
    32
  0
VERTEX
  8
W48LXLIFT
 62
8
 10
1168.897
 20
-8253.062
 30
393.000
 70
    32
  0
VERTEX
  8
W48LXLIFT
 62
8
 10
1121.715
 20
-8270.442
 30
393.000
 70
    32
  0
VERTEX
  8
W48LXLIFT
 62
8
 10
1126.414
 20
-8278.327
 30
393.000
 70
    32
  0
VERTEX
  8
W48LXLIFT
 62
8
 10
1128.493
 20
-8285.280
 30
393.000
 70
    32
  0
VERTEX
  8
W48LXLIFT
 62
8
 10
1124.095
 20
-8293.320
 30
393.000
 70
    32
  0
VERTEX
  8
W48LXLIFT
 62
8
 10
1131.011
 20
-8318.134
 30
393.000
 70
    32
  0
VERTEX
  8
W48LXLIFT
 62
8
 10
1132.765
 20
-8322.830
 30
393.000
 70
    32
  0
VERTEX
  8
W48LXLIFT
 62
8
 10
1138.504
 20
-8327.041
 30
393.000
 70
    32
  0
VERTEX
  8
W48LXLIFT
 62
8
 10
1146.181
 20
-8344.483
 30
393.000
 70
    32
  0
VERTEX
  8
W48LXLIFT
 62
8
 10
1153.642
 20
-8347.022
 30
393.000
 70
    32
  0
VERTEX
  8
W48LXLIFT
 62
8
 10
1160.613
 20
-8352.946
 30
393.000
 70
    32
  0
VERTEX
  8
W48LXLIFT
 62
8
 10
1171.415
 20
-8349.290
 30
393.000
 70
    32
  0
VERTEX
  8
W48LXLIFT
 62
8
 10
1174.762
 20
-8341.898
 30
393.000
 70
    32
  0
VERTEX
  8
W48LXLIFT
 62
8
 10
1176.735
 20
-8339.070
 30
393.000
 70
    32
  0
SEQEND
  8
W48LXLIFT
  0
POLYLINE
  8
W48LXLIFT
 62
8
 66
     1
 70
     9
  0
VERTEX
  8
W48LXLIFT
 62
8
 10
1010.252
 20
-7976.914
 30
399.000
 70
    32
  0
VERTEX
  8
W48LXLIFT
 62
8
 10
996.294
 20
-7955.110
 30
399.000
 70
    32
  0
VERTEX
  8
W48LXLIFT
 62
8
 10
979.771
 20
-7930.493
 30
399.000
 70
    32
  0
VERTEX
  8
W48LXLIFT
 62
8
 10
970.405
 20
-7923.800
 30
399.000
 70
    32
  0
VERTEX
  8
W48LXLIFT
 62
8
 10
958.988
 20
-7921.183
 30
399.000
 70
    32
  0
VERTEX
  8
W48LXLIFT
 62
8
 10
943.493
 20
-7918.468
 30
399.000
 70
    32
  0
VERTEX
  8
W48LXLIFT
 62
8
 10
928.974
 20
-7914.400
 30
399.000
 70
    32
  0
VERTEX
  8
W48LXLIFT
 62
8
 10
924.959
 20
-7911.981
 30
399.000
 70
    32
  0
VERTEX
  8
W48LXLIFT
 62
8
 10
922.134
 20
-7908.056
 30
399.000
 70
    32
  0
VERTEX
  8
W48LXLIFT
 62
8
 10
913.921
 20
-7889.267
 30
399.000
 70
    32
  0
VERTEX
  8
W48LXLIFT
 62
8
 10
909.132
 20
-7887.730
 30
399.000
 70
    32
  0
VERTEX
  8
W48LXLIFT
 62
8
 10
903.708
 20
-7888.925
 30
399.000
 70
    32
  0
VERTEX
  8
W48LXLIFT
 62
8
 10
899.156
 20
-7887.868
 30
399.000
 70
    32
  0
VERTEX
  8
W48LXLIFT
 62
8
 10
895.112
 20
-7883.303
 30
399.000
 70
    32
  0
VERTEX
  8
W48LXLIFT
 62
8
 10
892.824
 20
-7878.016
 30
399.000
 70
    32
  0
VERTEX
  8
W48LXLIFT
 62
8
 10
878.821
 20
-7866.536
 30
399.000
 70
    32
  0
VERTEX
  8
W48LXLIFT
 62
8
 10
866.687
 20
-7869.093
 30
399.000
 70
    32
  0
VERTEX
  8
W48LXLIFT
 62
8
 10
866.020
 20
-7888.639
 30
399.000
 70
    32
  0
VERTEX
  8
W48LXLIFT
 62
8
 10
870.751
 20
-7894.009
 30
399.000
 70
    32
  0
VERTEX
  8
W48LXLIFT
 62
8
 10
875.243
 20
-7909.735
 30
399.000
 70
    32
  0
VERTEX
  8
W48LXLIFT
 62
8
 10
877.811
 20
-7913.303
 30
399.000
 70
    32
  0
VERTEX
  8
W48LXLIFT
 62
8
 10
890.494
 20
-7918.584
 30
399.000
 70
    32
  0
VERTEX
  8
W48LXLIFT
 62
8
 10
893.031
 20
-7921.958
 30
399.000
 70
    32
  0
VERTEX
  8
W48LXLIFT
 62
8
 10
896.602
 20
-7934.447
 30
399.000
 70
    32
  0
VERTEX
  8
W48LXLIFT
 62
8
 10
901.577
 20
-7942.565
 30
399.000
 70
    32
  0
VERTEX
  8
W48LXLIFT
 62
8
 10
931.190
 20
-7971.521
 30
399.000
 70
    32
  0
VERTEX
  8
W48LXLIFT
 62
8
 10
944.040
 20
-7957.615
 30
399.000
 70
    32
  0
VERTEX
  8
W48LXLIFT
 62
8
 10
962.293
 20
-7948.054
 30
399.000
 70
    32
  0
VERTEX
  8
W48LXLIFT
 62
8
 10
982.094
 20
-7957.204
 30
399.000
 70
    32
  0
VERTEX
  8
W48LXLIFT
 62
8
 10
986.636
 20
-7964.118
 30
399.000
 70
    32
  0
VERTEX
  8
W48LXLIFT
 62
8
 10
990.801
 20
-7974.121
 30
399.000
 70
    32
  0
VERTEX
  8
W48LXLIFT
 62
8
 10
1002.863
 20
-7988.623
 30
399.000
 70
    32
  0
SEQEND
  8
W48LXLIFT
  0
POLYLINE
  8
W48LXLIFT
 62
2
 66
     1
 70
     9
  0
VERTEX
  8
W48LXLIFT
 62
2
 10
1226.215
 20
-8130.241
 30
402.000
 70
    32
  0
VERTEX
  8
W48LXLIFT
 62
2
 10
1243.889
 20
-8127.705
 30
402.000
 70
    32
  0
VERTEX
  8
W48LXLIFT
 62
2
 10
1248.829
 20
-8122.525
 30
402.000
 70
    32
  0
VERTEX
  8
W48LXLIFT
 62
2
 10
1271.754
 20
-8122.168
 30
402.000
 70
    32
  0
VERTEX
  8
W48LXLIFT
 62
2
 10
1278.191
 20
-8132.919
 30
402.000
 70
    32
  0
VERTEX
  8
W48LXLIFT
 62
2
 10
1283.253
 20
-8139.351
 30
402.000
 70
    32
  0
VERTEX
  8
W48LXLIFT
 62
2
 10
1309.297
 20
-8159.283
 30
402.000
 70
    32
  0
VERTEX
  8
W48LXLIFT
 62
2
 10
1303.741
 20
-8175.197
 30
402.000
 70
    32
  0
VERTEX
  8
W48LXLIFT
 62
2
 10
1302.776
 20
-8179.576
 30
402.000
 70
    32
  0
VERTEX
  8
W48LXLIFT
 62
2
 10
1303.537
 20
-8183.794
 30
402.000
 70
    32
  0
VERTEX
  8
W48LXLIFT
 62
2
 10
1322.804
 20
-8215.536
 30
402.000
 70
    32
  0
VERTEX
  8
W48LXLIFT
 62
2
 10
1289.387
 20
-8235.034
 30
402.000
 70
    32
  0
VERTEX
  8
W48LXLIFT
 62
2
 10
1262.737
 20
-8196.798
 30
402.000
 70
    32
  0
VERTEX
  8
W48LXLIFT
 62
2
 10
1234.947
 20
-8197.622
 30
402.000
 70
    32
  0
VERTEX
  8
W48LXLIFT
 62
2
 10
1219.164
 20
-8180.055
 30
402.000
 70
    32
  0
VERTEX
  8
W48LXLIFT
 62
2
 10
1222.662
 20
-8163.239
 30
402.000
 70
    32
  0
VERTEX
  8
W48LXLIFT
 62
2
 10
1225.036
 20
-8143.656
 30
402.000
 70
    32
  0
VERTEX
  8
W48LXLIFT
 62
2
 10
1223.281
 20
-8141.669
 30
402.000
 70
    32
  0
SEQEND
  8
W48LXLIFT
  0
POLYLINE
  8
W48LXLIFT
 62
8
 66
     1
 70
     9
  0
VERTEX
  8
W48LXLIFT
 62
8
 10
1016.838
 20
-7986.366
 30
409.000
 70
    32
  0
VERTEX
  8
W48LXLIFT
 62
8
 10
1025.307
 20
-7996.629
 30
409.000
 70
    32
  0
VERTEX
  8
W48LXLIFT
 62
8
 10
1049.730
 20
-8014.911
 30
409.000
 70
    32
  0
VERTEX
  8
W48LXLIFT
 62
8
 10
1052.847
 20
-8026.318
 30
409.000
 70
    32
  0
VERTEX
  8
W48LXLIFT
 62
8
 10
1051.746
 20
-8035.777
 30
409.000
 70
    32
  0
VERTEX
  8
W48LXLIFT
 62
8
 10
1056.742
 20
-8052.655
 30
409.000
 70
    32
  0
VERTEX
  8
W48LXLIFT
 62
8
 10
1065.299
 20
-8055.814
 30
409.000
 70
    32
  0
VERTEX
  8
W48LXLIFT
 62
8
 10
1074.986
 20
-8057.834
 30
409.000
 70
    32
  0
VERTEX
  8
W48LXLIFT
 62
8
 10
1084.798
 20
-8074.931
 30
409.000
 70
    32
  0
VERTEX
  8
W48LXLIFT
 62
8
 10
1098.303
 20
-8090.236
 30
409.000
 70
    32
  0
VERTEX
  8
W48LXLIFT
 62
8
 10
1103.676
 20
-8100.561
 30
409.000
 70
    32
  0
VERTEX
  8
W48LXLIFT
 62
8
 10
1097.233
 20
-8114.189
 30
409.000
 70
    32
  0
VERTEX
  8
W48LXLIFT
 62
8
 10
1098.405
 20
-8118.979
 30
409.000
 70
    32
  0
VERTEX
  8
W48LXLIFT
 62
8
 10
1104.328
 20
-8129.016
 30
409.000
 70
    32
  0
VERTEX
  8
W48LXLIFT
 62
8
 10
1111.852
 20
-8140.826
 30
409.000
 70
    32
  0
VERTEX
  8
W48LXLIFT
 62
8
 10
1111.026
 20
-8147.054
 30
409.000
 70
    32
  0
VERTEX
  8
W48LXLIFT
 62
8
 10
1124.923
 20
-8171.935
 30
409.000
 70
    32
  0
VERTEX
  8
W48LXLIFT
 62
8
 10
1125.507
 20
-8178.015
 30
409.000
 70
    32
  0
VERTEX
  8
W48LXLIFT
 62
8
 10
1120.635
 20
-8187.804
 30
409.000
 70
    32
  0
VERTEX
  8
W48LXLIFT
 62
8
 10
1129.000
 20
-8203.342
 30
409.000
 70
    32
  0
VERTEX
  8
W48LXLIFT
 62
8
 10
1136.560
 20
-8245.459
 30
409.000
 70
    32
  0
VERTEX
  8
W48LXLIFT
 62
8
 10
1149.813
 20
-8267.338
 30
409.000
 70
    32
  0
VERTEX
  8
W48LXLIFT
 62
8
 10
1145.632
 20
-8275.979
 30
409.000
 70
    32
  0
VERTEX
  8
W48LXLIFT
 62
8
 10
1130.649
 20
-8279.395
 30
409.000
 70
    32
  0
VERTEX
  8
W48LXLIFT
 62
8
 10
1125.655
 20
-8274.864
 30
409.000
 70
    32
  0
VERTEX
  8
W48LXLIFT
 62
8
 10
1112.707
 20
-8232.184
 30
409.000
 70
    32
  0
VERTEX
  8
W48LXLIFT
 62
8
 10
1095.226
 20
-8211.506
 30
409.000
 70
    32
  0
VERTEX
  8
W48LXLIFT
 62
8
 10
1082.493
 20
-8189.145
 30
409.000
 70
    32
  0
VERTEX
  8
W48LXLIFT
 62
8
 10
1082.420
 20
-8183.023
 30
409.000
 70
    32
  0
VERTEX
  8
W48LXLIFT
 62
8
 10
1076.242
 20
-8164.503
 30
409.000
 70
    32
  0
VERTEX
  8
W48LXLIFT
 62
8
 10
1068.773
 20
-8136.512
 30
409.000
 70
    32
  0
VERTEX
  8
W48LXLIFT
 62
8
 10
1064.915
 20
-8132.355
 30
409.000
 70
    32
  0
VERTEX
  8
W48LXLIFT
 62
8
 10
1060.743
 20
-8128.966
 30
409.000
 70
    32
  0
VERTEX
  8
W48LXLIFT
 62
8
 10
1058.361
 20
-8123.097
 30
409.000
 70
    32
  0
VERTEX
  8
W48LXLIFT
 62
8
 10
1054.161
 20
-8117.561
 30
409.000
 70
    32
  0
VERTEX
  8
W48LXLIFT
 62
8
 10
1052.946
 20
-8103.378
 30
409.000
 70
    32
  0
VERTEX
  8
W48LXLIFT
 62
8
 10
1053.917
 20
-8088.921
 30
409.000
 70
    32
  0
VERTEX
  8
W48LXLIFT
 62
8
 10
1049.920
 20
-8077.497
 30
409.000
 70
    32
  0
VERTEX
  8
W48LXLIFT
 62
8
 10
1042.058
 20
-8071.239
 30
409.000
 70
    32
  0
VERTEX
  8
W48LXLIFT
 62
8
 10
1032.940
 20
-8068.051
 30
409.000
 70
    32
  0
VERTEX
  8
W48LXLIFT
 62
8
 10
1028.629
 20
-8048.513
 30
409.000
 70
    32
  0
VERTEX
  8
W48LXLIFT
 62
8
 10
1016.764
 20
-8032.026
 30
409.000
 70
    32
  0
VERTEX
  8
W48LXLIFT
 62
8
 10
1015.087
 20
-8026.083
 30
409.000
 70
    32
  0
VERTEX
  8
W48LXLIFT
 62
8
 10
1009.155
 20
-8019.194
 30
409.000
 70
    32
  0
VERTEX
  8
W48LXLIFT
 62
8
 10
1011.303
 20
-8011.040
 30
409.000
 70
    32
  0
VERTEX
  8
W48LXLIFT
 62
8
 10
1009.971
 20
-8007.232
 30
409.000
 70
    32
  0
VERTEX
  8
W48LXLIFT
 62
8
 10
1009.868
 20
-8007.090
 30
409.000
 70
    32
  0
VERTEX
  8
W48LXLIFT
 62
8
 10
1004.112
 20
-8006.466
 30
409.000
 70
    32
  0
VERTEX
  8
W48LXLIFT
 62
8
 10
999.478
 20
-7999.726
 30
409.000
 70
    32
  0
SEQEND
  8
W48LXLIFT
  0
POLYLINE
  8
W48LXLIFT
 62
8
 66
     1
 70
     9
  0
VERTEX
  8
W48LXLIFT
 62
8
 10
1016.838
 20
-7986.366
 30
409.000
 70
    32
  0
VERTEX
  8
W48LXLIFT
 62
8
 10
1012.084
 20
-7980.362
 30
409.000
 70
    32
  0
VERTEX
  8
W48LXLIFT
 62
8
 10
1006.490
 20
-7979.513
 30
409.000
 70
    32
  0
VERTEX
  8
W48LXLIFT
 62
8
 10
1001.389
 20
-7982.209
 30
409.000
 70
    32
  0
VERTEX
  8
W48LXLIFT
 62
8
 10
936.907
 20
-7958.090
 30
409.000
 70
    32
  0
VERTEX
  8
W48LXLIFT
 62
8
 10
929.018
 20
-7946.976
 30
409.000
 70
    32
  0
VERTEX
  8
W48LXLIFT
 62
8
 10
921.793
 20
-7938.743
 30
409.000
 70
    32
  0
VERTEX
  8
W48LXLIFT
 62
8
 10
906.473
 20
-7942.293
 30
409.000
 70
    32
  0
VERTEX
  8
W48LXLIFT
 62
8
 10
907.154
 20
-7955.885
 30
409.000
 70
    32
  0
VERTEX
  8
W48LXLIFT
 62
8
 10
909.713
 20
-7962.602
 30
409.000
 70
    32
  0
VERTEX
  8
W48LXLIFT
 62
8
 10
929.159
 20
-7966.591
 30
409.000
 70
    32
  0
VERTEX
  8
W48LXLIFT
 62
8
 10
942.346
 20
-7975.733
 30
409.000
 70
    32
  0
VERTEX
  8
W48LXLIFT
 62
8
 10
954.482
 20
-7976.641
 30
409.000
 70
    32
  0
VERTEX
  8
W48LXLIFT
 62
8
 10
962.333
 20
-7982.583
 30
409.000
 70
    32
  0
VERTEX
  8
W48LXLIFT
 62
8
 10
970.034
 20
-7983.649
 30
409.000
 70
    32
  0
VERTEX
  8
W48LXLIFT
 62
8
 10
999.979
 20
-7999.340
 30
409.000
 70
    32
  0
SEQEND
  8
W48LXLIFT
  0
POLYLINE
  8
W48LXLIFT
 62
1
 66
     1
 70
     9
  0
VERTEX
  8
W48LXLIFT
 62
1
 10
1017.838
 20
-7985.366
 30
419.000
 70
    32
  0
VERTEX
  8
W48LXLIFT
 62
1
 10
1026.307
 20
-7995.629
 30
419.000
 70
    32
  0
VERTEX
  8
W48LXLIFT
 62
1
 10
1050.730
 20
-8013.911
 30
419.000
 70
    32
  0
VERTEX
  8
W48LXLIFT
 62
1
 10
1053.847
 20
-8025.318
 30
419.000
 70
    32
  0
VERTEX
  8
W48LXLIFT
 62
1
 10
1052.746
 20
-8034.777
 30
419.000
 70
    32
  0
VERTEX
  8
W48LXLIFT
 62
1
 10
1057.742
 20
-8051.655
 30
419.000
 70
    32
  0
VERTEX
  8
W48LXLIFT
 62
1
 10
1066.299
 20
-8054.814
 30
419.000
 70
    32
  0
VERTEX
  8
W48LXLIFT
 62
1
 10
1075.986
 20
-8056.834
 30
419.000
 70
    32
  0
VERTEX
  8
W48LXLIFT
 62
1
 10
1085.798
 20
-8073.931
 30
419.000
 70
    32
  0
VERTEX
  8
W48LXLIFT
 62
1
 10
1099.303
 20
-8089.236
 30
419.000
 70
    32
  0
VERTEX
  8
W48LXLIFT
 62
1
 10
1104.676
 20
-8099.561
 30
419.000
 70
    32
  0
VERTEX
  8
W48LXLIFT
 62
1
 10
1098.233
 20
-8113.189
 30
419.000
 70
    32
  0
VERTEX
  8
W48LXLIFT
 62
1
 10
1099.405
 20
-8117.979
 30
419.000
 70
    32
  0
VERTEX
  8
W48LXLIFT
 62
1
 10
1105.328
 20
-8128.016
 30
419.000
 70
    32
  0
VERTEX
  8
W48LXLIFT
 62
1
 10
1112.852
 20
-8139.826
 30
419.000
 70
    32
  0
VERTEX
  8
W48LXLIFT
 62
1
 10
1112.026
 20
-8146.054
 30
419.000
 70
    32
  0
VERTEX
  8
W48LXLIFT
 62
1
 10
1125.923
 20
-8170.935
 30
419.000
 70
    32
  0
VERTEX
  8
W48LXLIFT
 62
1
 10
1126.507
 20
-8177.015
 30
419.000
 70
    32
  0
VERTEX
  8
W48LXLIFT
 62
1
 10
1121.635
 20
-8186.804
 30
419.000
 70
    32
  0
VERTEX
  8
W48LXLIFT
 62
1
 10
1130.000
 20
-8202.342
 30
419.000
 70
    32
  0
VERTEX
  8
W48LXLIFT
 62
1
 10
1137.560
 20
-8244.459
 30
419.000
 70
    32
  0
VERTEX
  8
W48LXLIFT
 62
1
 10
1150.813
 20
-8266.338
 30
419.000
 70
    32
  0
VERTEX
  8
W48LXLIFT
 62
1
 10
1146.632
 20
-8274.979
 30
419.000
 70
    32
  0
VERTEX
  8
W48LXLIFT
 62
1
 10
1131.649
 20
-8278.395
 30
419.000
 70
    32
  0
VERTEX
  8
W48LXLIFT
 62
1
 10
1126.655
 20
-8273.864
 30
419.000
 70
    32
  0
VERTEX
  8
W48LXLIFT
 62
1
 10
1113.707
 20
-8231.184
 30
419.000
 70
    32
  0
VERTEX
  8
W48LXLIFT
 62
1
 10
1096.226
 20
-8210.506
 30
419.000
 70
    32
  0
VERTEX
  8
W48LXLIFT
 62
1
 10
1083.493
 20
-8188.145
 30
419.000
 70
    32
  0
VERTEX
  8
W48LXLIFT
 62
1
 10
1083.420
 20
-8182.023
 30
419.000
 70
    32
  0
VERTEX
  8
W48LXLIFT
 62
1
 10
1077.242
 20
-8163.503
 30
419.000
 70
    32
  0
VERTEX
  8
W48LXLIFT
 62
1
 10
1069.773
 20
-8135.512
 30
419.000
 70
    32
  0
VERTEX
  8
W48LXLIFT
 62
1
 10
1065.915
 20
-8131.355
 30
419.000
 70
    32
  0
VERTEX
  8
W48LXLIFT
 62
1
 10
1061.743
 20
-8127.966
 30
419.000
 70
    32
  0
VERTEX
  8
W48LXLIFT
 62
1
 10
1059.361
 20
-8122.097
 30
419.000
 70
    32
  0
VERTEX
  8
W48LXLIFT
 62
1
 10
1055.161
 20
-8116.561
 30
419.000
 70
    32
  0
VERTEX
  8
W48LXLIFT
 62
1
 10
1053.946
 20
-8102.378
 30
419.000
 70
    32
  0
VERTEX
  8
W48LXLIFT
 62
1
 10
1054.917
 20
-8087.921
 30
419.000
 70
    32
  0
VERTEX
  8
W48LXLIFT
 62
1
 10
1050.920
 20
-8076.497
 30
419.000
 70
    32
  0
VERTEX
  8
W48LXLIFT
 62
1
 10
1043.058
 20
-8070.239
 30
419.000
 70
    32
  0
VERTEX
  8
W48LXLIFT
 62
1
 10
1033.940
 20
-8067.051
 30
419.000
 70
    32
  0
VERTEX
  8
W48LXLIFT
 62
1
 10
1029.629
 20
-8047.513
 30
419.000
 70
    32
  0
VERTEX
  8
W48LXLIFT
 62
1
 10
1017.764
 20
-8031.026
 30
419.000
 70
    32
  0
VERTEX
  8
W48LXLIFT
 62
1
 10
1016.087
 20
-8025.083
 30
419.000
 70
    32
  0
VERTEX
  8
W48LXLIFT
 62
1
 10
1010.155
 20
-8018.194
 30
419.000
 70
    32
  0
VERTEX
  8
W48LXLIFT
 62
1
 10
1012.303
 20
-8010.040
 30
419.000
 70
    32
  0
VERTEX
  8
W48LXLIFT
 62
1
 10
1010.971
 20
-8006.232
 30
419.000
 70
    32
  0
VERTEX
  8
W48LXLIFT
 62
1
 10
1010.868
 20
-8006.090
 30
419.000
 70
    32
  0
VERTEX
  8
W48LXLIFT
 62
1
 10
1005.112
 20
-8005.466
 30
419.000
 70
    32
  0
VERTEX
  8
W48LXLIFT
 62
1
 10
1000.478
 20
-7998.726
 30
419.000
 70
    32
  0
SEQEND
  8
W48LXLIFT
  0
POLYLINE
  8
W48LXLIFT
 62
1
 66
     1
 70
     9
  0
VERTEX
  8
W48LXLIFT
 62
1
 10
1000.979
 20
-7998.340
 30
433.000
 70
    32
  0
VERTEX
  8
W48LXLIFT
 62
1
 10
971.034
 20
-7982.649
 30
433.000
 70
    32
  0
VERTEX
  8
W48LXLIFT
 62
1
 10
963.333
 20
-7981.583
 30
433.000
 70
    32
  0
VERTEX
  8
W48LXLIFT
 62
1
 10
955.482
 20
-7975.641
 30
433.000
 70
    32
  0
VERTEX
  8
W48LXLIFT
 62
1
 10
943.346
 20
-7974.733
 30
433.000
 70
    32
  0
VERTEX
  8
W48LXLIFT
 62
1
 10
930.159
 20
-7965.591
 30
433.000
 70
    32
  0
VERTEX
  8
W48LXLIFT
 62
1
 10
910.713
 20
-7961.602
 30
433.000
 70
    32
  0
VERTEX
  8
W48LXLIFT
 62
1
 10
908.154
 20
-7954.885
 30
433.000
 70
    32
  0
VERTEX
  8
W48LXLIFT
 62
1
 10
907.473
 20
-7941.293
 30
433.000
 70
    32
  0
VERTEX
  8
W48LXLIFT
 62
1
 10
922.793
 20
-7937.743
 30
433.000
 70
    32
  0
VERTEX
  8
W48LXLIFT
 62
1
 10
930.018
 20
-7945.976
 30
433.000
 70
    32
  0
VERTEX
  8
W48LXLIFT
 62
1
 10
937.907
 20
-7957.090
 30
433.000
 70
    32
  0
VERTEX
  8
W48LXLIFT
 62
1
 10
1002.389
 20
-7981.209
 30
433.000
 70
    32
  0
VERTEX
  8
W48LXLIFT
 62
1
 10
1007.490
 20
-7978.513
 30
433.000
 70
    32
  0
VERTEX
  8
W48LXLIFT
 62
1
 10
1013.084
 20
-7979.362
 30
433.000
 70
    32
  0
VERTEX
  8
W48LXLIFT
 62
1
 10
1017.838
 20
-7985.366
 30
433.000
 70
    32
  0
SEQEND
  8
W48LXLIFT
  0
POLYLINE
  8
W48LXLIFT
 62
2
 66
     1
 70
     9
  0
VERTEX
  8
W48LXLIFT
 62
2
 10
1157.889
 20
-8143.229
 30
420.000
 70
    32
  0
VERTEX
  8
W48LXLIFT
 62
2
 10
1168.390
 20
-8141.413
 30
420.000
 70
    32
  0
VERTEX
  8
W48LXLIFT
 62
2
 10
1174.170
 20
-8142.670
 30
420.000
 70
    32
  0
VERTEX
  8
W48LXLIFT
 62
2
 10
1181.616
 20
-8146.845
 30
420.000
 70
    32
  0
VERTEX
  8
W48LXLIFT
 62
2
 10
1189.411
 20
-8145.785
 30
420.000
 70
    32
  0
VERTEX
  8
W48LXLIFT
 62
2
 10
1200.379
 20
-8151.542
 30
420.000
 70
    32
  0
VERTEX
  8
W48LXLIFT
 62
2
 10
1198.434
 20
-8156.517
 30
420.000
 70
    32
  0
VERTEX
  8
W48LXLIFT
 62
2
 10
1207.462
 20
-8166.052
 30
420.000
 70
    32
  0
VERTEX
  8
W48LXLIFT
 62
2
 10
1213.165
 20
-8168.557
 30
420.000
 70
    32
  0
VERTEX
  8
W48LXLIFT
 62
2
 10
1214.399
 20
-8176.443
 30
420.000
 70
    32
  0
VERTEX
  8
W48LXLIFT
 62
2
 10
1233.077
 20
-8189.001
 30
420.000
 70
    32
  0
VERTEX
  8
W48LXLIFT
 62
2
 10
1239.590
 20
-8189.622
 30
420.000
 70
    32
  0
VERTEX
  8
W48LXLIFT
 62
2
 10
1244.732
 20
-8195.563
 30
420.000
 70
    32
  0
VERTEX
  8
W48LXLIFT
 62
2
 10
1252.335
 20
-8189.117
 30
420.000
 70
    32
  0
VERTEX
  8
W48LXLIFT
 62
2
 10
1245.603
 20
-8172.837
 30
420.000
 70
    32
  0
VERTEX
  8
W48LXLIFT
 62
2
 10
1246.246
 20
-8158.075
 30
420.000
 70
    32
  0
VERTEX
  8
W48LXLIFT
 62
2
 10
1247.127
 20
-8149.966
 30
420.000
 70
    32
  0
VERTEX
  8
W48LXLIFT
 62
2
 10
1241.597
 20
-8141.379
 30
420.000
 70
    32
  0
VERTEX
  8
W48LXLIFT
 62
2
 10
1225.344
 20
-8132.493
 30
420.000
 70
    32
  0
VERTEX
  8
W48LXLIFT
 62
2
 10
1177.783
 20
-8129.778
 30
420.000
 70
    32
  0
VERTEX
  8
W48LXLIFT
 62
2
 10
1159.559
 20
-8129.894
 30
420.000
 70
    32
  0
SEQEND
  8
W48LXLIFT
  0
POLYLINE
  8
W48LXLIFT
 62
27
 66
     1
 70
     9
  0
VERTEX
  8
W48LXLIFT
 62
27
 10
907.858
 20
-7310.326
 30
389.000
 70
    32
  0
VERTEX
  8
W48LXLIFT
 62
27
 10
896.925
 20
-7298.585
 30
389.000
 70
    32
  0
VERTEX
  8
W48LXLIFT
 62
27
 10
882.260
 20
-7297.367
 30
389.000
 70
    32
  0
VERTEX
  8
W48LXLIFT
 62
27
 10
868.451
 20
-7297.050
 30
389.000
 70
    32
  0
VERTEX
  8
W48LXLIFT
 62
27
 10
859.743
 20
-7308.307
 30
389.000
 70
    32
  0
VERTEX
  8
W48LXLIFT
 62
27
 10
850.592
 20
-7308.021
 30
389.000
 70
    32
  0
VERTEX
  8
W48LXLIFT
 62
27
 10
849.219
 20
-7305.331
 30
389.000
 70
    32
  0
VERTEX
  8
W48LXLIFT
 62
27
 10
843.957
 20
-7301.417
 30
389.000
 70
    32
  0
VERTEX
  8
W48LXLIFT
 62
27
 10
839.000
 20
-7302.785
 30
389.000
 70
    32
  0
VERTEX
  8
W48LXLIFT
 62
27
 10
835.024
 20
-7299.467
 30
389.000
 70
    32
  0
VERTEX
  8
W48LXLIFT
 62
27
 10
833.394
 20
-7293.079
 30
389.000
 70
    32
  0
VERTEX
  8
W48LXLIFT
 62
27
 10
837.744
 20
-7289.340
 30
389.000
 70
    32
  0
VERTEX
  8
W48LXLIFT
 62
27
 10
849.011
 20
-7288.661
 30
389.000
 70
    32
  0
VERTEX
  8
W48LXLIFT
 62
27
 10
862.866
 20
-7273.422
 30
389.000
 70
    32
  0
VERTEX
  8
W48LXLIFT
 62
27
 10
871.739
 20
-7283.932
 30
389.000
 70
    32
  0
VERTEX
  8
W48LXLIFT
 62
27
 10
901.113
 20
-7289.463
 30
389.000
 70
    32
  0
VERTEX
  8
W48LXLIFT
 62
27
 10
908.872
 20
-7277.479
 30
389.000
 70
    32
  0
VERTEX
  8
W48LXLIFT
 62
27
 10
911.863
 20
-7265.004
 30
389.000
 70
    32
  0
VERTEX
  8
W48LXLIFT
 62
27
 10
919.339
 20
-7260.660
 30
389.000
 70
    32
  0
VERTEX
  8
W48LXLIFT
 62
27
 10
929.617
 20
-7259.498
 30
389.000
 70
    32
  0
VERTEX
  8
W48LXLIFT
 62
27
 10
936.140
 20
-7261.545
 30
389.000
 70
    32
  0
VERTEX
  8
W48LXLIFT
 62
27
 10
946.330
 20
-7254.194
 30
389.000
 70
    32
  0
VERTEX
  8
W48LXLIFT
 62
27
 10
952.095
 20
-7265.943
 30
389.000
 70
    32
  0
VERTEX
  8
W48LXLIFT
 62
27
 10
950.045
 20
-7273.221
 30
389.000
 70
    32
  0
VERTEX
  8
W48LXLIFT
 62
27
 10
943.658
 20
-7274.851
 30
389.000
 70
    32
  0
VERTEX
  8
W48LXLIFT
 62
27
 10
937.861
 20
-7281.559
 30
389.000
 70
    32
  0
VERTEX
  8
W48LXLIFT
 62
27
 10
921.309
 20
-7293.002
 30
389.000
 70
    32
  0
SEQEND
  8
W48LXLIFT
  0
POLYLINE
  8
W48LXLIFT
 62
1
 66
     1
 70
     9
  0
VERTEX
  8
W48LXLIFT
 62
1
 10
908.858
 20
-7309.326
 30
398.000
 70
    32
  0
VERTEX
  8
W48LXLIFT
 62
1
 10
897.925
 20
-7297.585
 30
398.000
 70
    32
  0
VERTEX
  8
W48LXLIFT
 62
1
 10
883.260
 20
-7296.367
 30
398.000
 70
    32
  0
VERTEX
  8
W48LXLIFT
 62
1
 10
869.451
 20
-7296.050
 30
398.000
 70
    32
  0
VERTEX
  8
W48LXLIFT
 62
1
 10
860.743
 20
-7307.307
 30
398.000
 70
    32
  0
VERTEX
  8
W48LXLIFT
 62
1
 10
851.592
 20
-7307.021
 30
398.000
 70
    32
  0
VERTEX
  8
W48LXLIFT
 62
1
 10
850.219
 20
-7304.331
 30
398.000
 70
    32
  0
VERTEX
  8
W48LXLIFT
 62
1
 10
844.957
 20
-7300.417
 30
398.000
 70
    32
  0
VERTEX
  8
W48LXLIFT
 62
1
 10
840.000
 20
-7301.785
 30
398.000
 70
    32
  0
VERTEX
  8
W48LXLIFT
 62
1
 10
836.024
 20
-7298.467
 30
398.000
 70
    32
  0
VERTEX
  8
W48LXLIFT
 62
1
 10
834.394
 20
-7292.079
 30
398.000
 70
    32
  0
VERTEX
  8
W48LXLIFT
 62
1
 10
838.744
 20
-7288.340
 30
398.000
 70
    32
  0
VERTEX
  8
W48LXLIFT
 62
1
 10
850.011
 20
-7287.661
 30
398.000
 70
    32
  0
VERTEX
  8
W48LXLIFT
 62
1
 10
863.866
 20
-7272.422
 30
398.000
 70
    32
  0
VERTEX
  8
W48LXLIFT
 62
1
 10
872.739
 20
-7282.932
 30
398.000
 70
    32
  0
VERTEX
  8
W48LXLIFT
 62
1
 10
902.113
 20
-7288.463
 30
398.000
 70
    32
  0
VERTEX
  8
W48LXLIFT
 62
1
 10
909.872
 20
-7276.479
 30
398.000
 70
    32
  0
VERTEX
  8
W48LXLIFT
 62
1
 10
912.863
 20
-7264.004
 30
398.000
 70
    32
  0
VERTEX
  8
W48LXLIFT
 62
1
 10
920.339
 20
-7259.660
 30
398.000
 70
    32
  0
VERTEX
  8
W48LXLIFT
 62
1
 10
930.617
 20
-7258.498
 30
398.000
 70
    32
  0
VERTEX
  8
W48LXLIFT
 62
1
 10
937.140
 20
-7260.545
 30
398.000
 70
    32
  0
VERTEX
  8
W48LXLIFT
 62
1
 10
947.330
 20
-7253.194
 30
398.000
 70
    32
  0
VERTEX
  8
W48LXLIFT
 62
1
 10
953.095
 20
-7264.943
 30
398.000
 70
    32
  0
VERTEX
  8
W48LXLIFT
 62
1
 10
951.045
 20
-7272.221
 30
398.000
 70
    32
  0
VERTEX
  8
W48LXLIFT
 62
1
 10
944.658
 20
-7273.851
 30
398.000
 70
    32
  0
VERTEX
  8
W48LXLIFT
 62
1
 10
938.861
 20
-7280.559
 30
398.000
 70
    32
  0
VERTEX
  8
W48LXLIFT
 62
1
 10
922.309
 20
-7292.002
 30
398.000
 70
    32
  0
SEQEND
  8
W48LXLIFT
  0
POLYLINE
  8
W48LXLIFT
 62
2
 66
     1
 70
     9
  0
VERTEX
  8
W48LXLIFT
 62
2
 10
769.831
 20
-6869.419
 30
423.000
 70
    32
  0
VERTEX
  8
W48LXLIFT
 62
2
 10
769.135
 20
-6874.658
 30
423.000
 70
    32
  0
VERTEX
  8
W48LXLIFT
 62
2
 10
767.509
 20
-6879.802
 30
423.000
 70
    32
  0
VERTEX
  8
W48LXLIFT
 62
2
 10
767.872
 20
-6882.132
 30
423.000
 70
    32
  0
VERTEX
  8
W48LXLIFT
 62
2
 10
759.304
 20
-6885.851
 30
423.000
 70
    32
  0
VERTEX
  8
W48LXLIFT
 62
2
 10
753.975
 20
-6884.572
 30
423.000
 70
    32
  0
VERTEX
  8
W48LXLIFT
 62
2
 10
752.445
 20
-6879.084
 30
423.000
 70
    32
  0
VERTEX
  8
W48LXLIFT
 62
2
 10
759.906
 20
-6872.594
 30
423.000
 70
    32
  0
VERTEX
  8
W48LXLIFT
 62
2
 10
762.206
 20
-6867.186
 30
423.000
 70
    32
  0
SEQEND
  8
W48LXLIFT
  0
POLYLINE
  8
W48LXLIFT
 62
6
 66
     1
 70
     9
  0
VERTEX
  8
W48LXLIFT
 62
6
 10
838.177
 20
-7080.214
 30
418.000
 70
    32
  0
VERTEX
  8
W48LXLIFT
 62
6
 10
836.572
 20
-7094.183
 30
418.000
 70
    32
  0
VERTEX
  8
W48LXLIFT
 62
6
 10
850.417
 20
-7110.322
 30
418.000
 70
    32
  0
VERTEX
  8
W48LXLIFT
 62
6
 10
869.789
 20
-7121.347
 30
418.000
 70
    32
  0
VERTEX
  8
W48LXLIFT
 62
6
 10
880.309
 20
-7139.634
 30
418.000
 70
    32
  0
VERTEX
  8
W48LXLIFT
 62
6
 10
878.625
 20
-7143.634
 30
418.000
 70
    32
  0
VERTEX
  8
W48LXLIFT
 62
6
 10
879.451
 20
-7157.384
 30
418.000
 70
    32
  0
VERTEX
  8
W48LXLIFT
 62
6
 10
875.658
 20
-7168.274
 30
418.000
 70
    32
  0
VERTEX
  8
W48LXLIFT
 62
6
 10
885.735
 20
-7188.062
 30
418.000
 70
    32
  0
VERTEX
  8
W48LXLIFT
 62
6
 10
905.478
 20
-7220.384
 30
418.000
 70
    32
  0
VERTEX
  8
W48LXLIFT
 62
6
 10
894.092
 20
-7232.574
 30
418.000
 70
    32
  0
VERTEX
  8
W48LXLIFT
 62
6
 10
885.127
 20
-7240.133
 30
418.000
 70
    32
  0
VERTEX
  8
W48LXLIFT
 62
6
 10
886.652
 20
-7247.889
 30
418.000
 70
    32
  0
VERTEX
  8
W48LXLIFT
 62
6
 10
875.550
 20
-7251.684
 30
418.000
 70
    32
  0
VERTEX
  8
W48LXLIFT
 62
6
 10
868.569
 20
-7222.149
 30
418.000
 70
    32
  0
VERTEX
  8
W48LXLIFT
 62
6
 10
862.599
 20
-7210.869
 30
418.000
 70
    32
  0
VERTEX
  8
W48LXLIFT
 62
6
 10
861.794
 20
-7201.092
 30
418.000
 70
    32
  0
VERTEX
  8
W48LXLIFT
 62
6
 10
862.357
 20
-7182.473
 30
418.000
 70
    32
  0
VERTEX
  8
W48LXLIFT
 62
6
 10
865.321
 20
-7168.292
 30
418.000
 70
    32
  0
VERTEX
  8
W48LXLIFT
 62
6
 10
857.325
 20
-7126.865
 30
418.000
 70
    32
  0
VERTEX
  8
W48LXLIFT
 62
6
 10
848.233
 20
-7122.871
 30
418.000
 70
    32
  0
VERTEX
  8
W48LXLIFT
 62
6
 10
844.613
 20
-7124.906
 30
418.000
 70
    32
  0
VERTEX
  8
W48LXLIFT
 62
6
 10
856.945
 20
-7172.736
 30
418.000
 70
    32
  0
VERTEX
  8
W48LXLIFT
 62
6
 10
848.567
 20
-7173.841
 30
418.000
 70
    32
  0
VERTEX
  8
W48LXLIFT
 62
6
 10
844.093
 20
-7169.367
 30
418.000
 70
    32
  0
VERTEX
  8
W48LXLIFT
 62
6
 10
834.704
 20
-7166.016
 30
418.000
 70
    32
  0
VERTEX
  8
W48LXLIFT
 62
6
 10
834.534
 20
-7159.560
 30
418.000
 70
    32
  0
VERTEX
  8
W48LXLIFT
 62
6
 10
838.654
 20
-7148.977
 30
418.000
 70
    32
  0
VERTEX
  8
W48LXLIFT
 62
6
 10
837.930
 20
-7139.466
 30
418.000
 70
    32
  0
VERTEX
  8
W48LXLIFT
 62
6
 10
834.107
 20
-7127.415
 30
418.000
 70
    32
  0
VERTEX
  8
W48LXLIFT
 62
6
 10
829.162
 20
-7109.692
 30
418.000
 70
    32
  0
VERTEX
  8
W48LXLIFT
 62
6
 10
824.834
 20
-7099.509
 30
418.000
 70
    32
  0
VERTEX
  8
W48LXLIFT
 62
6
 10
821.930
 20
-7087.235
 30
418.000
 70
    32
  0
SEQEND
  8
W48LXLIFT
  0
POLYLINE
  8
W48LXLIFT
 62
1
 66
     1
 70
     9
  0
VERTEX
  8
W48LXLIFT
 62
1
 10
839.177
 20
-7079.214
 30
428.000
 70
    32
  0
VERTEX
  8
W48LXLIFT
 62
1
 10
837.572
 20
-7093.183
 30
428.000
 70
    32
  0
VERTEX
  8
W48LXLIFT
 62
1
 10
851.417
 20
-7109.322
 30
428.000
 70
    32
  0
VERTEX
  8
W48LXLIFT
 62
1
 10
870.789
 20
-7120.347
 30
428.000
 70
    32
  0
VERTEX
  8
W48LXLIFT
 62
1
 10
881.309
 20
-7138.634
 30
428.000
 70
    32
  0
VERTEX
  8
W48LXLIFT
 62
1
 10
879.625
 20
-7142.634
 30
428.000
 70
    32
  0
VERTEX
  8
W48LXLIFT
 62
1
 10
880.451
 20
-7156.384
 30
428.000
 70
    32
  0
VERTEX
  8
W48LXLIFT
 62
1
 10
876.658
 20
-7167.274
 30
428.000
 70
    32
  0
VERTEX
  8
W48LXLIFT
 62
1
 10
886.735
 20
-7187.062
 30
428.000
 70
    32
  0
VERTEX
  8
W48LXLIFT
 62
1
 10
906.478
 20
-7219.384
 30
428.000
 70
    32
  0
VERTEX
  8
W48LXLIFT
 62
1
 10
895.092
 20
-7231.574
 30
428.000
 70
    32
  0
VERTEX
  8
W48LXLIFT
 62
1
 10
886.127
 20
-7239.133
 30
428.000
 70
    32
  0
VERTEX
  8
W48LXLIFT
 62
1
 10
887.652
 20
-7246.889
 30
428.000
 70
    32
  0
VERTEX
  8
W48LXLIFT
 62
1
 10
876.550
 20
-7250.684
 30
428.000
 70
    32
  0
VERTEX
  8
W48LXLIFT
 62
1
 10
869.569
 20
-7221.149
 30
428.000
 70
    32
  0
VERTEX
  8
W48LXLIFT
 62
1
 10
863.599
 20
-7209.869
 30
428.000
 70
    32
  0
VERTEX
  8
W48LXLIFT
 62
1
 10
862.794
 20
-7200.092
 30
428.000
 70
    32
  0
VERTEX
  8
W48LXLIFT
 62
1
 10
863.357
 20
-7181.473
 30
428.000
 70
    32
  0
VERTEX
  8
W48LXLIFT
 62
1
 10
866.321
 20
-7167.292
 30
428.000
 70
    32
  0
VERTEX
  8
W48LXLIFT
 62
1
 10
858.325
 20
-7125.865
 30
428.000
 70
    32
  0
VERTEX
  8
W48LXLIFT
 62
1
 10
849.233
 20
-7121.871
 30
428.000
 70
    32
  0
VERTEX
  8
W48LXLIFT
 62
1
 10
845.613
 20
-7123.906
 30
428.000
 70
    32
  0
VERTEX
  8
W48LXLIFT
 62
1
 10
857.945
 20
-7171.736
 30
428.000
 70
    32
  0
VERTEX
  8
W48LXLIFT
 62
1
 10
849.567
 20
-7172.841
 30
428.000
 70
    32
  0
VERTEX
  8
W48LXLIFT
 62
1
 10
845.093
 20
-7168.367
 30
428.000
 70
    32
  0
VERTEX
  8
W48LXLIFT
 62
1
 10
835.704
 20
-7165.016
 30
428.000
 70
    32
  0
VERTEX
  8
W48LXLIFT
 62
1
 10
835.534
 20
-7158.560
 30
428.000
 70
    32
  0
VERTEX
  8
W48LXLIFT
 62
1
 10
839.654
 20
-7147.977
 30
428.000
 70
    32
  0
VERTEX
  8
W48LXLIFT
 62
1
 10
838.930
 20
-7138.466
 30
428.000
 70
    32
  0
VERTEX
  8
W48LXLIFT
 62
1
 10
835.107
 20
-7126.415
 30
428.000
 70
    32
  0
VERTEX
  8
W48LXLIFT
 62
1
 10
830.162
 20
-7108.692
 30
428.000
 70
    32
  0
VERTEX
  8
W48LXLIFT
 62
1
 10
825.834
 20
-7098.509
 30
428.000
 70
    32
  0
VERTEX
  8
W48LXLIFT
 62
1
 10
822.930
 20
-7086.235
 30
428.000
 70
    32
  0
SEQEND
  8
W48LXLIFT
  0
POLYLINE
  8
W48LXLIFT
 62
2
 66
     1
 70
     9
  0
VERTEX
  8
W48LXLIFT
 62
2
 10
761.783
 20
-6882.363
 30
444.000
 70
    32
  0
VERTEX
  8
W48LXLIFT
 62
2
 10
759.081
 20
-6875.983
 30
444.000
 70
    32
  0
VERTEX
  8
W48LXLIFT
 62
2
 10
760.127
 20
-6869.418
 30
444.000
 70
    32
  0
VERTEX
  8
W48LXLIFT
 62
2
 10
762.124
 20
-6862.824
 30
444.000
 70
    32
  0
VERTEX
  8
W48LXLIFT
 62
2
 10
765.433
 20
-6858.531
 30
444.000
 70
    32
  0
VERTEX
  8
W48LXLIFT
 62
2
 10
766.180
 20
-6853.365
 30
444.000
 70
    32
  0
VERTEX
  8
W48LXLIFT
 62
2
 10
770.300
 20
-6851.729
 30
444.000
 70
    32
  0
VERTEX
  8
W48LXLIFT
 62
2
 10
776.019
 20
-6852.192
 30
444.000
 70
    32
  0
VERTEX
  8
W48LXLIFT
 62
2
 10
780.586
 20
-6851.640
 30
444.000
 70
    32
  0
VERTEX
  8
W48LXLIFT
 62
2
 10
785.141
 20
-6856.380
 30
444.000
 70
    32
  0
VERTEX
  8
W48LXLIFT
 62
2
 10
787.188
 20
-6863.657
 30
444.000
 70
    32
  0
VERTEX
  8
W48LXLIFT
 62
2
 10
786.534
 20
-6872.746
 30
444.000
 70
    32
  0
VERTEX
  8
W48LXLIFT
 62
2
 10
783.554
 20
-6880.686
 30
444.000
 70
    32
  0
VERTEX
  8
W48LXLIFT
 62
2
 10
779.003
 20
-6887.479
 30
444.000
 70
    32
  0
VERTEX
  8
W48LXLIFT
 62
2
 10
775.737
 20
-6886.675
 30
444.000
 70
    32
  0
VERTEX
  8
W48LXLIFT
 62
2
 10
769.952
 20
-6888.091
 30
444.000
 70
    32
  0
SEQEND
  8
W48LXLIFT
  0
POLYLINE
  8
W48LXLIFT
 62
2
 66
     1
 70
     9
  0
VERTEX
  8
W48LXLIFT
 62
2
 10
768.371
 20
-6896.331
 30
458.000
 70
    32
  0
VERTEX
  8
W48LXLIFT
 62
2
 10
764.433
 20
-6903.227
 30
458.000
 70
    32
  0
VERTEX
  8
W48LXLIFT
 62
2
 10
764.569
 20
-6915.096
 30
458.000
 70
    32
  0
VERTEX
  8
W48LXLIFT
 62
2
 10
763.675
 20
-6921.876
 30
458.000
 70
    32
  0
VERTEX
  8
W48LXLIFT
 62
2
 10
771.973
 20
-6924.602
 30
458.000
 70
    32
  0
VERTEX
  8
W48LXLIFT
 62
2
 10
786.687
 20
-6917.700
 30
458.000
 70
    32
  0
VERTEX
  8
W48LXLIFT
 62
2
 10
797.854
 20
-6903.078
 30
458.000
 70
    32
  0
VERTEX
  8
W48LXLIFT
 62
2
 10
794.341
 20
-6898.136
 30
458.000
 70
    32
  0
VERTEX
  8
W48LXLIFT
 62
2
 10
791.872
 20
-6879.193
 30
458.000
 70
    32
  0
VERTEX
  8
W48LXLIFT
 62
2
 10
785.806
 20
-6869.599
 30
458.000
 70
    32
  0
VERTEX
  8
W48LXLIFT
 62
2
 10
777.608
 20
-6867.772
 30
458.000
 70
    32
  0
VERTEX
  8
W48LXLIFT
 62
2
 10
772.927
 20
-6873.471
 30
458.000
 70
    32
  0
VERTEX
  8
W48LXLIFT
 62
2
 10
771.020
 20
-6885.499
 30
458.000
 70
    32
  0
SEQEND
  8
W48LXLIFT
  0
POLYLINE
  8
W48LXLIFT
 62
2
 66
     1
 70
     9
  0
VERTEX
  8
W48LXLIFT
 62
2
 10
762.972
 20
-6853.705
 30
471.000
 70
    32
  0
VERTEX
  8
W48LXLIFT
 62
2
 10
765.523
 20
-6859.114
 30
471.000
 70
    32
  0
VERTEX
  8
W48LXLIFT
 62
2
 10
759.648
 20
-6868.896
 30
471.000
 70
    32
  0
VERTEX
  8
W48LXLIFT
 62
2
 10
757.378
 20
-6879.350
 30
471.000
 70
    32
  0
VERTEX
  8
W48LXLIFT
 62
2
 10
753.892
 20
-6885.062
 30
471.000
 70
    32
  0
VERTEX
  8
W48LXLIFT
 62
2
 10
760.334
 20
-6890.940
 30
471.000
 70
    32
  0
VERTEX
  8
W48LXLIFT
 62
2
 10
766.373
 20
-6889.881
 30
471.000
 70
    32
  0
VERTEX
  8
W48LXLIFT
 62
2
 10
784.008
 20
-6905.590
 30
471.000
 70
    32
  0
VERTEX
  8
W48LXLIFT
 62
2
 10
788.509
 20
-6902.822
 30
471.000
 70
    32
  0
VERTEX
  8
W48LXLIFT
 62
2
 10
793.383
 20
-6901.944
 30
471.000
 70
    32
  0
VERTEX
  8
W48LXLIFT
 62
2
 10
800.551
 20
-6893.830
 30
471.000
 70
    32
  0
VERTEX
  8
W48LXLIFT
 62
2
 10
802.171
 20
-6886.857
 30
471.000
 70
    32
  0
VERTEX
  8
W48LXLIFT
 62
2
 10
800.854
 20
-6881.972
 30
471.000
 70
    32
  0
VERTEX
  8
W48LXLIFT
 62
2
 10
770.967
 20
-6850.393
 30
471.000
 70
    32
  0
SEQEND
  8
W48LXLIFT
  0
POLYLINE
  8
W48LXLIFT
 62
2
 66
     1
 70
     9
  0
VERTEX
  8
W48LXLIFT
 62
2
 10
753.035
 20
-6889.013
 30
481.000
 70
    32
  0
VERTEX
  8
W48LXLIFT
 62
2
 10
768.360
 20
-6900.866
 30
481.000
 70
    32
  0
VERTEX
  8
W48LXLIFT
 62
2
 10
774.478
 20
-6905.681
 30
481.000
 70
    32
  0
VERTEX
  8
W48LXLIFT
 62
2
 10
788.585
 20
-6914.303
 30
481.000
 70
    32
  0
VERTEX
  8
W48LXLIFT
 62
2
 10
799.448
 20
-6916.391
 30
481.000
 70
    32
  0
VERTEX
  8
W48LXLIFT
 62
2
 10
806.836
 20
-6910.708
 30
481.000
 70
    32
  0
VERTEX
  8
W48LXLIFT
 62
2
 10
806.515
 20
-6903.281
 30
481.000
 70
    32
  0
VERTEX
  8
W48LXLIFT
 62
2
 10
801.119
 20
-6895.690
 30
481.000
 70
    32
  0
VERTEX
  8
W48LXLIFT
 62
2
 10
795.793
 20
-6888.804
 30
481.000
 70
    32
  0
VERTEX
  8
W48LXLIFT
 62
2
 10
792.246
 20
-6876.232
 30
481.000
 70
    32
  0
VERTEX
  8
W48LXLIFT
 62
2
 10
790.657
 20
-6874.451
 30
481.000
 70
    32
  0
VERTEX
  8
W48LXLIFT
 62
2
 10
777.850
 20
-6873.421
 30
481.000
 70
    32
  0
VERTEX
  8
W48LXLIFT
 62
2
 10
763.631
 20
-6869.191
 30
481.000
 70
    32
  0
VERTEX
  8
W48LXLIFT
 62
2
 10
756.664
 20
-6874.252
 30
481.000
 70
    32
  0
VERTEX
  8
W48LXLIFT
 62
2
 10
760.599
 20
-6877.815
 30
481.000
 70
    32
  0
SEQEND
  8
W48LXLIFT
  0
POLYLINE
  8
W48LXLIFT
 62
7
 66
     1
 70
     9
  0
VERTEX
  8
W48LXLIFT
 62
7
 10
661.037
 20
-7212.281
 30
478.000
 70
    32
  0
VERTEX
  8
W48LXLIFT
 62
7
 10
668.904
 20
-7198.173
 30
478.000
 70
    32
  0
VERTEX
  8
W48LXLIFT
 62
7
 10
664.124
 20
-7184.321
 30
478.000
 70
    32
  0
VERTEX
  8
W48LXLIFT
 62
7
 10
663.382
 20
-7169.325
 30
478.000
 70
    32
  0
VERTEX
  8
W48LXLIFT
 62
7
 10
657.221
 20
-7147.616
 30
478.000
 70
    32
  0
VERTEX
  8
W48LXLIFT
 62
7
 10
666.295
 20
-7141.273
 30
478.000
 70
    32
  0
VERTEX
  8
W48LXLIFT
 62
7
 10
675.240
 20
-7142.785
 30
478.000
 70
    32
  0
VERTEX
  8
W48LXLIFT
 62
7
 10
676.519
 20
-7150.499
 30
478.000
 70
    32
  0
VERTEX
  8
W48LXLIFT
 62
7
 10
695.150
 20
-7150.623
 30
478.000
 70
    32
  0
VERTEX
  8
W48LXLIFT
 62
7
 10
736.490
 20
-7176.324
 30
478.000
 70
    32
  0
VERTEX
  8
W48LXLIFT
 62
7
 10
742.695
 20
-7174.285
 30
478.000
 70
    32
  0
VERTEX
  8
W48LXLIFT
 62
7
 10
754.695
 20
-7184.190
 30
478.000
 70
    32
  0
VERTEX
  8
W48LXLIFT
 62
7
 10
760.051
 20
-7205.070
 30
478.000
 70
    32
  0
VERTEX
  8
W48LXLIFT
 62
7
 10
765.963
 20
-7210.354
 30
478.000
 70
    32
  0
VERTEX
  8
W48LXLIFT
 62
7
 10
763.231
 20
-7225.771
 30
478.000
 70
    32
  0
VERTEX
  8
W48LXLIFT
 62
7
 10
756.275
 20
-7230.393
 30
478.000
 70
    32
  0
VERTEX
  8
W48LXLIFT
 62
7
 10
748.985
 20
-7215.739
 30
478.000
 70
    32
  0
VERTEX
  8
W48LXLIFT
 62
7
 10
718.115
 20
-7221.297
 30
478.000
 70
    32
  0
VERTEX
  8
W48LXLIFT
 62
7
 10
717.771
 20
-7228.548
 30
478.000
 70
    32
  0
VERTEX
  8
W48LXLIFT
 62
7
 10
698.972
 20
-7230.916
 30
478.000
 70
    32
  0
VERTEX
  8
W48LXLIFT
 62
7
 10
688.935
 20
-7242.579
 30
478.000
 70
    32
  0
SEQEND
  8
W48LXLIFT
  0
POLYLINE
  8
W48LXLIFT
 62
2
 66
     1
 70
     9
  0
VERTEX
  8
W48LXLIFT
 62
2
 10
806.240
 20
-6943.688
 30
496.000
 70
    32
  0
VERTEX
  8
W48LXLIFT
 62
2
 10
801.144
 20
-6929.847
 30
496.000
 70
    32
  0
VERTEX
  8
W48LXLIFT
 62
2
 10
802.598
 20
-6919.002
 30
496.000
 70
    32
  0
VERTEX
  8
W48LXLIFT
 62
2
 10
799.279
 20
-6909.935
 30
496.000
 70
    32
  0
VERTEX
  8
W48LXLIFT
 62
2
 10
791.825
 20
-6904.453
 30
496.000
 70
    32
  0
VERTEX
  8
W48LXLIFT
 62
2
 10
787.124
 20
-6896.475
 30
496.000
 70
    32
  0
VERTEX
  8
W48LXLIFT
 62
2
 10
785.749
 20
-6885.594
 30
496.000
 70
    32
  0
VERTEX
  8
W48LXLIFT
 62
2
 10
762.952
 20
-6875.818
 30
496.000
 70
    32
  0
VERTEX
  8
W48LXLIFT
 62
2
 10
757.301
 20
-6881.669
 30
496.000
 70
    32
  0
VERTEX
  8
W48LXLIFT
 62
2
 10
747.479
 20
-6906.978
 30
496.000
 70
    32
  0
VERTEX
  8
W48LXLIFT
 62
2
 10
749.408
 20
-6911.967
 30
496.000
 70
    32
  0
VERTEX
  8
W48LXLIFT
 62
2
 10
785.643
 20
-6923.509
 30
496.000
 70
    32
  0
VERTEX
  8
W48LXLIFT
 62
2
 10
789.785
 20
-6929.944
 30
496.000
 70
    32
  0
VERTEX
  8
W48LXLIFT
 62
2
 10
794.774
 20
-6941.814
 30
496.000
 70
    32
  0
VERTEX
  8
W48LXLIFT
 62
2
 10
799.873
 20
-6945.196
 30
496.000
 70
    32
  0
SEQEND
  8
W48LXLIFT
  0
POLYLINE
  8
W48LXLIFT
 62
13
 66
     1
 70
     9
  0
VERTEX
  8
W48LXLIFT
 62
13
 10
717.302
 20
-7377.114
 30
492.000
 70
    32
  0
VERTEX
  8
W48LXLIFT
 62
13
 10
726.365
 20
-7389.106
 30
492.000
 70
    32
  0
VERTEX
  8
W48LXLIFT
 62
13
 10
737.144
 20
-7415.187
 30
492.000
 70
    32
  0
VERTEX
  8
W48LXLIFT
 62
13
 10
770.443
 20
-7459.756
 30
492.000
 70
    32
  0
VERTEX
  8
W48LXLIFT
 62
13
 10
790.854
 20
-7445.247
 30
492.000
 70
    32
  0
VERTEX
  8
W48LXLIFT
 62
13
 10
790.198
 20
-7428.249
 30
492.000
 70
    32
  0
VERTEX
  8
W48LXLIFT
 62
13
 10
797.647
 20
-7413.251
 30
492.000
 70
    32
  0
VERTEX
  8
W48LXLIFT
 62
13
 10
799.378
 20
-7406.738
 30
492.000
 70
    32
  0
VERTEX
  8
W48LXLIFT
 62
13
 10
796.783
 20
-7393.382
 30
492.000
 70
    32
  0
VERTEX
  8
W48LXLIFT
 62
13
 10
788.546
 20
-7391.045
 30
492.000
 70
    32
  0
VERTEX
  8
W48LXLIFT
 62
13
 10
780.014
 20
-7382.987
 30
492.000
 70
    32
  0
VERTEX
  8
W48LXLIFT
 62
13
 10
779.025
 20
-7373.557
 30
492.000
 70
    32
  0
VERTEX
  8
W48LXLIFT
 62
13
 10
775.111
 20
-7369.871
 30
492.000
 70
    32
  0
VERTEX
  8
W48LXLIFT
 62
13
 10
764.134
 20
-7368.079
 30
492.000
 70
    32
  0
VERTEX
  8
W48LXLIFT
 62
13
 10
746.431
 20
-7373.656
 30
492.000
 70
    32
  0
VERTEX
  8
W48LXLIFT
 62
13
 10
738.058
 20
-7372.493
 30
492.000
 70
    32
  0
VERTEX
  8
W48LXLIFT
 62
13
 10
731.463
 20
-7366.401
 30
492.000
 70
    32
  0
SEQEND
  8
W48LXLIFT
  0
POLYLINE
  8
W48LXLIFT
 62
2
 66
     1
 70
     9
  0
VERTEX
  8
W48LXLIFT
 62
2
 10
787.379
 20
-6923.677
 30
504.000
 70
    32
  0
VERTEX
  8
W48LXLIFT
 62
2
 10
779.041
 20
-6920.440
 30
504.000
 70
    32
  0
VERTEX
  8
W48LXLIFT
 62
2
 10
771.134
 20
-6920.994
 30
504.000
 70
    32
  0
VERTEX
  8
W48LXLIFT
 62
2
 10
761.425
 20
-6914.313
 30
504.000
 70
    32
  0
VERTEX
  8
W48LXLIFT
 62
2
 10
752.821
 20
-6911.157
 30
504.000
 70
    32
  0
VERTEX
  8
W48LXLIFT
 62
2
 10
740.769
 20
-6901.937
 30
504.000
 70
    32
  0
VERTEX
  8
W48LXLIFT
 62
2
 10
741.262
 20
-6873.665
 30
504.000
 70
    32
  0
VERTEX
  8
W48LXLIFT
 62
2
 10
760.258
 20
-6870.511
 30
504.000
 70
    32
  0
VERTEX
  8
W48LXLIFT
 62
2
 10
784.984
 20
-6894.223
 30
504.000
 70
    32
  0
VERTEX
  8
W48LXLIFT
 62
2
 10
785.370
 20
-6899.771
 30
504.000
 70
    32
  0
VERTEX
  8
W48LXLIFT
 62
2
 10
791.869
 20
-6907.548
 30
504.000
 70
    32
  0
VERTEX
  8
W48LXLIFT
 62
2
 10
793.918
 20
-6909.218
 30
504.000
 70
    32
  0
SEQEND
  8
W48LXLIFT
  0
POLYLINE
  8
W48LXLIFT
 62
13
 66
     1
 70
     9
  0
VERTEX
  8
W48LXLIFT
 62
13
 10
716.330
 20
-7355.274
 30
502.000
 70
    32
  0
VERTEX
  8
W48LXLIFT
 62
13
 10
723.567
 20
-7366.516
 30
502.000
 70
    32
  0
VERTEX
  8
W48LXLIFT
 62
13
 10
739.662
 20
-7376.419
 30
502.000
 70
    32
  0
VERTEX
  8
W48LXLIFT
 62
13
 10
748.713
 20
-7380.658
 30
502.000
 70
    32
  0
VERTEX
  8
W48LXLIFT
 62
13
 10
758.284
 20
-7394.122
 30
502.000
 70
    32
  0
VERTEX
  8
W48LXLIFT
 62
13
 10
768.054
 20
-7405.288
 30
502.000
 70
    32
  0
VERTEX
  8
W48LXLIFT
 62
13
 10
776.379
 20
-7409.719
 30
502.000
 70
    32
  0
VERTEX
  8
W48LXLIFT
 62
13
 10
781.216
 20
-7411.671
 30
502.000
 70
    32
  0
VERTEX
  8
W48LXLIFT
 62
13
 10
784.541
 20
-7418.471
 30
502.000
 70
    32
  0
VERTEX
  8
W48LXLIFT
 62
13
 10
787.263
 20
-7429.580
 30
502.000
 70
    32
  0
VERTEX
  8
W48LXLIFT
 62
13
 10
792.810
 20
-7442.994
 30
502.000
 70
    32
  0
VERTEX
  8
W48LXLIFT
 62
13
 10
790.516
 20
-7450.231
 30
502.000
 70
    32
  0
VERTEX
  8
W48LXLIFT
 62
13
 10
791.637
 20
-7464.850
 30
502.000
 70
    32
  0
VERTEX
  8
W48LXLIFT
 62
13
 10
794.244
 20
-7477.011
 30
502.000
 70
    32
  0
VERTEX
  8
W48LXLIFT
 62
13
 10
791.459
 20
-7480.069
 30
502.000
 70
    32
  0
VERTEX
  8
W48LXLIFT
 62
13
 10
786.002
 20
-7481.037
 30
502.000
 70
    32
  0
VERTEX
  8
W48LXLIFT
 62
13
 10
774.884
 20
-7474.495
 30
502.000
 70
    32
  0
VERTEX
  8
W48LXLIFT
 62
13
 10
768.927
 20
-7466.116
 30
502.000
 70
    32
  0
VERTEX
  8
W48LXLIFT
 62
13
 10
761.824
 20
-7463.403
 30
502.000
 70
    32
  0
VERTEX
  8
W48LXLIFT
 62
13
 10
755.070
 20
-7451.172
 30
502.000
 70
    32
  0
VERTEX
  8
W48LXLIFT
 62
13
 10
748.950
 20
-7447.113
 30
502.000
 70
    32
  0
VERTEX
  8
W48LXLIFT
 62
13
 10
746.282
 20
-7434.564
 30
502.000
 70
    32
  0
VERTEX
  8
W48LXLIFT
 62
13
 10
739.299
 20
-7428.532
 30
502.000
 70
    32
  0
VERTEX
  8
W48LXLIFT
 62
13
 10
734.550
 20
-7414.875
 30
502.000
 70
    32
  0
VERTEX
  8
W48LXLIFT
 62
13
 10
730.699
 20
-7405.969
 30
502.000
 70
    32
  0
VERTEX
  8
W48LXLIFT
 62
13
 10
729.082
 20
-7398.387
 30
502.000
 70
    32
  0
VERTEX
  8
W48LXLIFT
 62
13
 10
725.143
 20
-7392.239
 30
502.000
 70
    32
  0
VERTEX
  8
W48LXLIFT
 62
13
 10
720.450
 20
-7380.482
 30
502.000
 70
    32
  0
VERTEX
  8
W48LXLIFT
 62
13
 10
711.060
 20
-7373.035
 30
502.000
 70
    32
  0
VERTEX
  8
W48LXLIFT
 62
13
 10
702.249
 20
-7362.157
 30
502.000
 70
    32
  0
SEQEND
  8
W48LXLIFT
  0
POLYLINE
  8
W48LXLIFT
 62
7
 66
     1
 70
     9
  0
VERTEX
  8
W48LXLIFT
 62
7
 10
658.703
 20
-7151.521
 30
504.000
 70
    32
  0
VERTEX
  8
W48LXLIFT
 62
7
 10
660.253
 20
-7161.739
 30
504.000
 70
    32
  0
VERTEX
  8
W48LXLIFT
 62
7
 10
669.275
 20
-7182.924
 30
504.000
 70
    32
  0
VERTEX
  8
W48LXLIFT
 62
7
 10
670.024
 20
-7194.896
 30
504.000
 70
    32
  0
VERTEX
  8
W48LXLIFT
 62
7
 10
688.368
 20
-7209.023
 30
504.000
 70
    32
  0
VERTEX
  8
W48LXLIFT
 62
7
 10
705.369
 20
-7202.760
 30
504.000
 70
    32
  0
VERTEX
  8
W48LXLIFT
 62
7
 10
705.440
 20
-7193.761
 30
504.000
 70
    32
  0
VERTEX
  8
W48LXLIFT
 62
7
 10
710.718
 20
-7186.021
 30
504.000
 70
    32
  0
VERTEX
  8
W48LXLIFT
 62
7
 10
719.826
 20
-7187.308
 30
504.000
 70
    32
  0
VERTEX
  8
W48LXLIFT
 62
7
 10
726.927
 20
-7190.776
 30
504.000
 70
    32
  0
VERTEX
  8
W48LXLIFT
 62
7
 10
732.374
 20
-7180.544
 30
504.000
 70
    32
  0
VERTEX
  8
W48LXLIFT
 62
7
 10
729.109
 20
-7170.036
 30
504.000
 70
    32
  0
VERTEX
  8
W48LXLIFT
 62
7
 10
717.719
 20
-7161.747
 30
504.000
 70
    32
  0
VERTEX
  8
W48LXLIFT
 62
7
 10
714.828
 20
-7157.226
 30
504.000
 70
    32
  0
VERTEX
  8
W48LXLIFT
 62
7
 10
703.215
 20
-7148.017
 30
504.000
 70
    32
  0
VERTEX
  8
W48LXLIFT
 62
7
 10
687.932
 20
-7140.015
 30
504.000
 70
    32
  0
VERTEX
  8
W48LXLIFT
 62
7
 10
684.411
 20
-7138.853
 30
504.000
 70
    32
  0
VERTEX
  8
W48LXLIFT
 62
7
 10
677.480
 20
-7141.084
 30
504.000
 70
    32
  0
VERTEX
  8
W48LXLIFT
 62
7
 10
672.101
 20
-7143.830
 30
504.000
 70
    32
  0
VERTEX
  8
W48LXLIFT
 62
7
 10
666.201
 20
-7142.202
 30
504.000
 70
    32
  0
SEQEND
  8
W48LXLIFT
  0
POLYLINE
  8
W48LXLIFT
 62
2
 66
     1
 70
     9
  0
VERTEX
  8
W48LXLIFT
 62
2
 10
749.654
 20
-6907.156
 30
515.000
 70
    32
  0
VERTEX
  8
W48LXLIFT
 62
2
 10
753.128
 20
-6901.883
 30
515.000
 70
    32
  0
VERTEX
  8
W48LXLIFT
 62
2
 10
763.671
 20
-6901.397
 30
515.000
 70
    32
  0
VERTEX
  8
W48LXLIFT
 62
2
 10
767.379
 20
-6905.552
 30
515.000
 70
    32
  0
VERTEX
  8
W48LXLIFT
 62
2
 10
771.090
 20
-6904.100
 30
515.000
 70
    32
  0
VERTEX
  8
W48LXLIFT
 62
2
 10
783.497
 20
-6887.734
 30
515.000
 70
    32
  0
VERTEX
  8
W48LXLIFT
 62
2
 10
781.106
 20
-6883.612
 30
515.000
 70
    32
  0
VERTEX
  8
W48LXLIFT
 62
2
 10
769.755
 20
-6875.834
 30
515.000
 70
    32
  0
VERTEX
  8
W48LXLIFT
 62
2
 10
761.485
 20
-6869.962
 30
515.000
 70
    32
  0
VERTEX
  8
W48LXLIFT
 62
2
 10
754.116
 20
-6858.383
 30
515.000
 70
    32
  0
VERTEX
  8
W48LXLIFT
 62
2
 10
750.525
 20
-6856.516
 30
515.000
 70
    32
  0
VERTEX
  8
W48LXLIFT
 62
2
 10
744.154
 20
-6859.535
 30
515.000
 70
    32
  0
VERTEX
  8
W48LXLIFT
 62
2
 10
736.579
 20
-6871.172
 30
515.000
 70
    32
  0
VERTEX
  8
W48LXLIFT
 62
2
 10
737.020
 20
-6884.227
 30
515.000
 70
    32
  0
VERTEX
  8
W48LXLIFT
 62
2
 10
741.473
 20
-6897.771
 30
515.000
 70
    32
  0
VERTEX
  8
W48LXLIFT
 62
2
 10
743.848
 20
-6904.600
 30
515.000
 70
    32
  0
SEQEND
  8
W48LXLIFT
  0
POLYLINE
  8
W48LXLIFT
 62
13
 66
     1
 70
     9
  0
VERTEX
  8
W48LXLIFT
 62
13
 10
702.994
 20
-7339.851
 30
515.000
 70
    32
  0
VERTEX
  8
W48LXLIFT
 62
13
 10
714.717
 20
-7350.275
 30
515.000
 70
    32
  0
VERTEX
  8
W48LXLIFT
 62
13
 10
723.331
 20
-7366.791
 30
515.000
 70
    32
  0
VERTEX
  8
W48LXLIFT
 62
13
 10
730.631
 20
-7372.814
 30
515.000
 70
    32
  0
VERTEX
  8
W48LXLIFT
 62
13
 10
738.935
 20
-7377.368
 30
515.000
 70
    32
  0
VERTEX
  8
W48LXLIFT
 62
13
 10
745.025
 20
-7385.328
 30
515.000
 70
    32
  0
VERTEX
  8
W48LXLIFT
 62
13
 10
748.447
 20
-7394.539
 30
515.000
 70
    32
  0
VERTEX
  8
W48LXLIFT
 62
13
 10
753.471
 20
-7408.432
 30
515.000
 70
    32
  0
VERTEX
  8
W48LXLIFT
 62
13
 10
762.447
 20
-7423.181
 30
515.000
 70
    32
  0
VERTEX
  8
W48LXLIFT
 62
13
 10
778.118
 20
-7440.070
 30
515.000
 70
    32
  0
VERTEX
  8
W48LXLIFT
 62
13
 10
786.548
 20
-7461.029
 30
515.000
 70
    32
  0
VERTEX
  8
W48LXLIFT
 62
13
 10
790.384
 20
-7476.737
 30
515.000
 70
    32
  0
VERTEX
  8
W48LXLIFT
 62
13
 10
795.375
 20
-7491.947
 30
515.000
 70
    32
  0
VERTEX
  8
W48LXLIFT
 62
13
 10
799.549
 20
-7497.819
 30
515.000
 70
    32
  0
VERTEX
  8
W48LXLIFT
 62
13
 10
794.956
 20
-7500.761
 30
515.000
 70
    32
  0
VERTEX
  8
W48LXLIFT
 62
13
 10
788.007
 20
-7493.411
 30
515.000
 70
    32
  0
VERTEX
  8
W48LXLIFT
 62
13
 10
780.025
 20
-7495.528
 30
515.000
 70
    32
  0
VERTEX
  8
W48LXLIFT
 62
13
 10
773.308
 20
-7493.511
 30
515.000
 70
    32
  0
VERTEX
  8
W48LXLIFT
 62
13
 10
767.690
 20
-7489.095
 30
515.000
 70
    32
  0
VERTEX
  8
W48LXLIFT
 62
13
 10
761.430
 20
-7470.583
 30
515.000
 70
    32
  0
VERTEX
  8
W48LXLIFT
 62
13
 10
751.279
 20
-7451.602
 30
515.000
 70
    32
  0
VERTEX
  8
W48LXLIFT
 62
13
 10
743.712
 20
-7437.469
 30
515.000
 70
    32
  0
VERTEX
  8
W48LXLIFT
 62
13
 10
730.240
 20
-7401.229
 30
515.000
 70
    32
  0
VERTEX
  8
W48LXLIFT
 62
13
 10
728.673
 20
-7398.570
 30
515.000
 70
    32
  0
VERTEX
  8
W48LXLIFT
 62
13
 10
718.979
 20
-7389.937
 30
515.000
 70
    32
  0
VERTEX
  8
W48LXLIFT
 62
13
 10
710.417
 20
-7372.737
 30
515.000
 70
    32
  0
VERTEX
  8
W48LXLIFT
 62
13
 10
693.739
 20
-7345.029
 30
515.000
 70
    32
  0
SEQEND
  8
W48LXLIFT
  0
POLYLINE
  8
W48LXLIFT
 62
1
 66
     1
 70
     9
  0
VERTEX
  8
W48LXLIFT
 62
1
 10
665.268
 20
-7142.577
 30
514.000
 70
    32
  0
VERTEX
  8
W48LXLIFT
 62
1
 10
674.142
 20
-7143.384
 30
514.000
 70
    32
  0
VERTEX
  8
W48LXLIFT
 62
1
 10
684.695
 20
-7138.362
 30
514.000
 70
    32
  0
VERTEX
  8
W48LXLIFT
 62
1
 10
698.576
 20
-7142.724
 30
514.000
 70
    32
  0
VERTEX
  8
W48LXLIFT
 62
1
 10
706.055
 20
-7150.667
 30
514.000
 70
    32
  0
VERTEX
  8
W48LXLIFT
 62
1
 10
717.055
 20
-7155.677
 30
514.000
 70
    32
  0
VERTEX
  8
W48LXLIFT
 62
1
 10
718.883
 20
-7160.522
 30
514.000
 70
    32
  0
VERTEX
  8
W48LXLIFT
 62
1
 10
728.908
 20
-7167.195
 30
514.000
 70
    32
  0
VERTEX
  8
W48LXLIFT
 62
1
 10
732.420
 20
-7176.988
 30
514.000
 70
    32
  0
VERTEX
  8
W48LXLIFT
 62
1
 10
728.421
 20
-7188.347
 30
514.000
 70
    32
  0
VERTEX
  8
W48LXLIFT
 62
1
 10
726.099
 20
-7189.782
 30
514.000
 70
    32
  0
VERTEX
  8
W48LXLIFT
 62
1
 10
711.063
 20
-7181.066
 30
514.000
 70
    32
  0
VERTEX
  8
W48LXLIFT
 62
1
 10
703.675
 20
-7195.697
 30
514.000
 70
    32
  0
VERTEX
  8
W48LXLIFT
 62
1
 10
703.215
 20
-7200.660
 30
514.000
 70
    32
  0
VERTEX
  8
W48LXLIFT
 62
1
 10
685.788
 20
-7205.717
 30
514.000
 70
    32
  0
VERTEX
  8
W48LXLIFT
 62
1
 10
667.727
 20
-7192.898
 30
514.000
 70
    32
  0
VERTEX
  8
W48LXLIFT
 62
1
 10
667.877
 20
-7180.825
 30
514.000
 70
    32
  0
VERTEX
  8
W48LXLIFT
 62
1
 10
659.381
 20
-7152.798
 30
514.000
 70
    32
  0
SEQEND
  8
W48LXLIFT
  0
POLYLINE
  8
W48LXLIFT
 62
13
 66
     1
 70
     9
  0
VERTEX
  8
W48LXLIFT
 62
13
 10
757.174
 20
-7464.445
 30
522.000
 70
    32
  0
VERTEX
  8
W48LXLIFT
 62
13
 10
769.535
 20
-7504.278
 30
522.000
 70
    32
  0
VERTEX
  8
W48LXLIFT
 62
13
 10
772.265
 20
-7507.512
 30
522.000
 70
    32
  0
VERTEX
  8
W48LXLIFT
 62
13
 10
773.555
 20
-7524.491
 30
522.000
 70
    32
  0
VERTEX
  8
W48LXLIFT
 62
13
 10
789.604
 20
-7519.012
 30
522.000
 70
    32
  0
VERTEX
  8
W48LXLIFT
 62
13
 10
787.745
 20
-7509.876
 30
522.000
 70
    32
  0
VERTEX
  8
W48LXLIFT
 62
13
 10
795.129
 20
-7505.705
 30
522.000
 70
    32
  0
VERTEX
  8
W48LXLIFT
 62
13
 10
792.296
 20
-7498.232
 30
522.000
 70
    32
  0
VERTEX
  8
W48LXLIFT
 62
13
 10
796.173
 20
-7495.799
 30
522.000
 70
    32
  0
VERTEX
  8
W48LXLIFT
 62
13
 10
786.715
 20
-7482.040
 30
522.000
 70
    32
  0
VERTEX
  8
W48LXLIFT
 62
13
 10
787.852
 20
-7476.057
 30
522.000
 70
    32
  0
VERTEX
  8
W48LXLIFT
 62
13
 10
781.605
 20
-7456.349
 30
522.000
 70
    32
  0
SEQEND
  8
W48LXLIFT
  0
POLYLINE
  8
W48LXLIFT
 62
1
 66
     1
 70
     9
  0
VERTEX
  8
W48LXLIFT
 62
1
 10
782.605
 20
-7455.349
 30
548.000
 70
    32
  0
VERTEX
  8
W48LXLIFT
 62
1
 10
788.852
 20
-7475.057
 30
548.000
 70
    32
  0
VERTEX
  8
W48LXLIFT
 62
1
 10
787.715
 20
-7481.040
 30
548.000
 70
    32
  0
VERTEX
  8
W48LXLIFT
 62
1
 10
797.173
 20
-7494.799
 30
548.000
 70
    32
  0
VERTEX
  8
W48LXLIFT
 62
1
 10
793.296
 20
-7497.232
 30
548.000
 70
    32
  0
VERTEX
  8
W48LXLIFT
 62
1
 10
796.129
 20
-7504.705
 30
548.000
 70
    32
  0
VERTEX
  8
W48LXLIFT
 62
1
 10
788.745
 20
-7508.876
 30
548.000
 70
    32
  0
VERTEX
  8
W48LXLIFT
 62
1
 10
790.604
 20
-7518.012
 30
548.000
 70
    32
  0
VERTEX
  8
W48LXLIFT
 62
1
 10
774.555
 20
-7523.491
 30
548.000
 70
    32
  0
VERTEX
  8
W48LXLIFT
 62
1
 10
773.265
 20
-7506.512
 30
548.000
 70
    32
  0
VERTEX
  8
W48LXLIFT
 62
1
 10
770.535
 20
-7503.278
 30
548.000
 70
    32
  0
VERTEX
  8
W48LXLIFT
 62
1
 10
758.174
 20
-7463.445
 30
548.000
 70
    32
  0
SEQEND
  8
W48LXLIFT
  0
POLYLINE
  8
W48LXLIFT
 62
5
 66
     1
 70
     9
  0
VERTEX
  8
W48LXLIFT
 62
5
 10
704.530
 20
-6890.156
 30
419.221
 70
    32
  0
VERTEX
  8
W48LXLIFT
 62
5
 10
693.308
 20
-6882.549
 30
418.921
 70
    32
  0
VERTEX
  8
W48LXLIFT
 62
5
 10
690.250
 20
-6882.300
 30
418.903
 70
    32
  0
VERTEX
  8
W48LXLIFT
 62
5
 10
680.169
 20
-6891.841
 30
419.868
 70
    32
  0
VERTEX
  8
W48LXLIFT
 62
5
 10
678.947
 20
-6896.402
 30
420.321
 70
    32
  0
VERTEX
  8
W48LXLIFT
 62
5
 10
674.032
 20
-6899.422
 30
420.630
 70
    32
  0
VERTEX
  8
W48LXLIFT
 62
5
 10
675.603
 20
-6903.878
 30
421.067
 70
    32
  0
VERTEX
  8
W48LXLIFT
 62
5
 10
680.798
 20
-6909.484
 30
421.610
 70
    32
  0
VERTEX
  8
W48LXLIFT
 62
5
 10
690.148
 20
-6912.529
 30
421.891
 70
    32
  0
VERTEX
  8
W48LXLIFT
 62
5
 10
701.002
 20
-6912.127
 30
421.660
 70
    32
  0
SEQEND
  8
W48LXLIFT
  0
POLYLINE
  8
W48LXLIFT
 62
5
 66
     1
 70
     9
  0
VERTEX
  8
W48LXLIFT
 62
5
 10
763.126
 20
-6865.469
 30
415.450
 70
    32
  0
VERTEX
  8
W48LXLIFT
 62
5
 10
771.628
 20
-6866.498
 30
415.532
 70
    32
  0
VERTEX
  8
W48LXLIFT
 62
5
 10
777.770
 20
-6888.404
 30
418.158
 70
    32
  0
VERTEX
  8
W48LXLIFT
 62
5
 10
773.456
 20
-6890.753
 30
418.465
 70
    32
  0
VERTEX
  8
W48LXLIFT
 62
5
 10
770.823
 20
-6887.976
 30
418.142
 70
    32
  0
VERTEX
  8
W48LXLIFT
 62
5
 10
765.360
 20
-6889.087
 30
418.304
 70
    32
  0
SEQEND
  8
W48LXLIFT
  0
POLYLINE
  8
W48LXLIFT
 62
5
 66
     1
 70
     9
  0
VERTEX
  8
W48LXLIFT
 62
5
 10
1232.392
 20
-8130.452
 30
432.930
 70
    32
  0
VERTEX
  8
W48LXLIFT
 62
5
 10
1263.191
 20
-8126.421
 30
432.930
 70
    32
  0
VERTEX
  8
W48LXLIFT
 62
5
 10
1270.366
 20
-8145.634
 30
432.930
 70
    32
  0
VERTEX
  8
W48LXLIFT
 62
5
 10
1276.922
 20
-8150.640
 30
432.930
 70
    32
  0
VERTEX
  8
W48LXLIFT
 62
5
 10
1278.139
 20
-8162.914
 30
432.930
 70
    32
  0
VERTEX
  8
W48LXLIFT
 62
5
 10
1276.842
 20
-8164.954
 30
432.930
 70
    32
  0
VERTEX
  8
W48LXLIFT
 62
5
 10
1277.067
 20
-8185.870
 30
432.930
 70
    32
  0
VERTEX
  8
W48LXLIFT
 62
5
 10
1272.739
 20
-8194.693
 30
432.930
 70
    32
  0
VERTEX
  8
W48LXLIFT
 62
5
 10
1232.792
 20
-8197.236
 30
432.930
 70
    32
  0
VERTEX
  8
W48LXLIFT
 62
5
 10
1219.697
 20
-8182.722
 30
432.930
 70
    32
  0
VERTEX
  8
W48LXLIFT
 62
5
 10
1225.426
 20
-8147.541
 30
432.930
 70
    32
  0
VERTEX
  8
W48LXLIFT
 62
5
 10
1225.160
 20
-8141.693
 30
432.930
 70
    32
  0
SEQEND
  8
W48LXLIFT
  0
LINE
  8
W48LXLIFT
 62
5
 10
1233.871
 20
-8086.527
 30
0.000
 11
1227.712
 21
-8089.510
 31
0.000
  0
POLYLINE
  8
W48LXLIFT
 62
5
 66
     1
 70
     9
  0
VERTEX
  8
W48LXLIFT
 62
5
 10
1245.660
 20
-8101.516
 30
0.000
 70
    32
  0
VERTEX
  8
W48LXLIFT
 62
5
 10
1233.871
 20
-8086.527
 30
0.000
 70
    32
  0
VERTEX
  8
W48LXLIFT
 62
5
 10
1227.712
 20
-8089.510
 30
0.000
 70
    32
  0
VERTEX
  8
W48LXLIFT
 62
5
 10
1218.790
 20
-8086.046
 30
0.000
 70
    32
  0
VERTEX
  8
W48LXLIFT
 62
5
 10
1203.720
 20
-8065.326
 30
0.000
 70
    32
  0
VERTEX
  8
W48LXLIFT
 62
5
 10
1193.568
 20
-8072.172
 30
0.000
 70
    32
  0
VERTEX
  8
W48LXLIFT
 62
5
 10
1236.503
 20
-8132.238
 30
0.000
 70
    32
  0
VERTEX
  8
W48LXLIFT
 62
5
 10
1250.474
 20
-8151.105
 30
0.000
 70
    32
  0
VERTEX
  8
W48LXLIFT
 62
5
 10
1256.002
 20
-8162.873
 30
0.000
 70
    32
  0
VERTEX
  8
W48LXLIFT
 62
5
 10
1259.673
 20
-8179.932
 30
0.000
 70
    32
  0
VERTEX
  8
W48LXLIFT
 62
5
 10
1258.182
 20
-8185.828
 30
0.000
 70
    32
  0
VERTEX
  8
W48LXLIFT
 62
5
 10
1272.620
 20
-8212.067
 30
0.000
 70
    32
  0
VERTEX
  8
W48LXLIFT
 62
5
 10
1288.976
 20
-8235.211
 30
0.000
 70
    32
  0
VERTEX
  8
W48LXLIFT
 62
5
 10
1309.482
 20
-8227.121
 30
0.000
 70
    32
  0
VERTEX
  8
W48LXLIFT
 62
5
 10
1323.490
 20
-8217.346
 30
0.000
 70
    32
  0
VERTEX
  8
W48LXLIFT
 62
5
 10
1308.506
 20
-8194.234
 30
0.000
 70
    32
  0
VERTEX
  8
W48LXLIFT
 62
5
 10
1304.351
 20
-8178.120
 30
0.000
 70
    32
  0
VERTEX
  8
W48LXLIFT
 62
5
 10
1311.461
 20
-8163.050
 30
0.000
 70
    32
  0
VERTEX
  8
W48LXLIFT
 62
5
 10
1301.850
 20
-8153.065
 30
0.000
 70
    32
  0
VERTEX
  8
W48LXLIFT
 62
5
 10
1282.817
 20
-8137.431
 30
0.000
 70
    32
  0
VERTEX
  8
W48LXLIFT
 62
5
 10
1275.987
 20
-8125.013
 30
0.000
 70
    32
  0
VERTEX
  8
W48LXLIFT
 62
5
 10
1269.140
 20
-8120.912
 30
0.000
 70
    32
  0
VERTEX
  8
W48LXLIFT
 62
5
 10
1264.758
 20
-8110.589
 30
0.000
 70
    32
  0
VERTEX
  8
W48LXLIFT
 62
5
 10
1246.012
 20
-8110.438
 30
0.000
 70
    32
  0
SEQEND
  8
W48LXLIFT
  0
TEXT
  8
W48LXLIFT
 62
1
 10
1311.461
 20
-8163.050
 30
0.000
 40
4.101
  1
?elev & location
 41
 1.0 
  0
POLYLINE
  8
W48LXLIFT
 62
8
 66
     1
 70
     9
  0
VERTEX
  8
W48LXLIFT
 62
8
 10
1112.451
 20
-8237.284
 30
377.206
 70
    32
  0
VERTEX
  8
W48LXLIFT
 62
8
 10
1130.844
 20
-8238.664
 30
377.206
 70
    32
  0
VERTEX
  8
W48LXLIFT
 62
8
 10
1135.521
 20
-8243.105
 30
377.204
 70
    32
  0
VERTEX
  8
W48LXLIFT
 62
8
 10
1137.180
 20
-8247.901
 30
377.201
 70
    32
  0
VERTEX
  8
W48LXLIFT
 62
8
 10
1151.761
 20
-8267.489
 30
377.193
 70
    32
  0
VERTEX
  8
W48LXLIFT
 62
8
 10
1164.850
 20
-8293.090
 30
377.182
 70
    32
  0
VERTEX
  8
W48LXLIFT
 62
8
 10
1175.432
 20
-8305.881
 30
377.176
 70
    32
  0
VERTEX
  8
W48LXLIFT
 62
8
 10
1175.844
 20
-8311.810
 30
377.173
 70
    32
  0
VERTEX
  8
W48LXLIFT
 62
8
 10
1185.322
 20
-8325.630
 30
377.167
 70
    32
  0
VERTEX
  8
W48LXLIFT
 62
8
 10
1185.345
 20
-8334.904
 30
377.163
 70
    32
  0
VERTEX
  8
W48LXLIFT
 62
8
 10
1210.267
 20
-8365.165
 30
377.150
 70
    32
  0
VERTEX
  8
W48LXLIFT
 62
8
 10
1203.585
 20
-8370.065
 30
377.148
 70
    32
  0
VERTEX
  8
W48LXLIFT
 62
8
 10
1191.709
 20
-8356.254
 30
377.154
 70
    32
  0
VERTEX
  8
W48LXLIFT
 62
8
 10
1178.719
 20
-8357.472
 30
377.153
 70
    32
  0
VERTEX
  8
W48LXLIFT
 62
8
 10
1169.635
 20
-8343.145
 30
377.160
 70
    32
  0
VERTEX
  8
W48LXLIFT
 62
8
 10
1153.062
 20
-8339.775
 30
377.161
 70
    32
  0
VERTEX
  8
W48LXLIFT
 62
8
 10
1152.304
 20
-8331.586
 30
377.165
 70
    32
  0
VERTEX
  8
W48LXLIFT
 62
8
 10
1145.243
 20
-8314.354
 30
377.173
 70
    32
  0
VERTEX
  8
W48LXLIFT
 62
8
 10
1141.713
 20
-8311.477
 30
377.174
 70
    32
  0
VERTEX
  8
W48LXLIFT
 62
8
 10
1130.013
 20
-8286.278
 30
377.185
 70
    32
  0
VERTEX
  8
W48LXLIFT
 62
8
 10
1109.554
 20
-8265.534
 30
377.194
 70
    32
  0
VERTEX
  8
W48LXLIFT
 62
8
 10
1100.878
 20
-8254.298
 30
377.199
 70
    32
  0
VERTEX
  8
W48LXLIFT
 62
8
 10
1106.650
 20
-8243.834
 30
377.204
 70
    32
  0
SEQEND
  8
W48LXLIFT
  0
POLYLINE
  8
W48LXLIFT
 62
8
 66
     1
 70
     9
  0
VERTEX
  8
W48LXLIFT
 62
8
 10
1022.899
 20
-8008.569
 30
377.308
 70
    32
  0
VERTEX
  8
W48LXLIFT
 62
8
 10
1031.781
 20
-8002.494
 30
377.311
 70
    32
  0
VERTEX
  8
W48LXLIFT
 62
8
 10
1075.089
 20
-8067.370
 30
377.282
 70
    32
  0
VERTEX
  8
W48LXLIFT
 62
8
 10
1077.198
 20
-8068.010
 30
377.281
 70
    32
  0
VERTEX
  8
W48LXLIFT
 62
8
 10
1085.188
 20
-8082.484
 30
377.275
 70
    32
  0
VERTEX
  8
W48LXLIFT
 62
8
 10
1068.349
 20
-8097.236
 30
377.268
 70
    32
  0
VERTEX
  8
W48LXLIFT
 62
8
 10
1060.501
 20
-8097.416
 30
377.268
 70
    32
  0
VERTEX
  8
W48LXLIFT
 62
8
 10
1053.454
 20
-8087.060
 30
377.272
 70
    32
  0
VERTEX
  8
W48LXLIFT
 62
8
 10
1057.369
 20
-8083.753
 30
377.274
 70
    32
  0
VERTEX
  8
W48LXLIFT
 62
8
 10
1055.293
 20
-8080.027
 30
377.275
 70
    32
  0
VERTEX
  8
W48LXLIFT
 62
8
 10
1062.388
 20
-8074.497
 30
377.278
 70
    32
  0
VERTEX
  8
W48LXLIFT
 62
8
 10
1048.797
 20
-8067.739
 30
377.281
 70
    32
  0
VERTEX
  8
W48LXLIFT
 62
8
 10
1047.621
 20
-8077.018
 30
377.277
 70
    32
  0
VERTEX
  8
W48LXLIFT
 62
8
 10
1041.664
 20
-8080.074
 30
377.275
 70
    32
  0
VERTEX
  8
W48LXLIFT
 62
8
 10
1034.063
 20
-8067.174
 30
377.281
 70
    32
  0
VERTEX
  8
W48LXLIFT
 62
8
 10
1031.162
 20
-8058.151
 30
377.285
 70
    32
  0
VERTEX
  8
W48LXLIFT
 62
8
 10
1025.908
 20
-8023.853
 30
377.301
 70
    32
  0
VERTEX
  8
W48LXLIFT
 62
8
 10
1015.103
 20
-8011.590
 30
377.393
 70
    32
  0
SEQEND
  8
W48LXLIFT
  0
POLYLINE
  8
W48LXLIFT
 62
8
 66
     1
 70
     9
  0
VERTEX
  8
W48LXLIFT
 62
8
 10
1077.198
 20
-8068.010
 30
377.281
 70
    32
  0
VERTEX
  8
W48LXLIFT
 62
8
 10
1091.936
 20
-8061.321
 30
377.285
 70
    32
  0
VERTEX
  8
W48LXLIFT
 62
8
 10
1106.150
 20
-8054.869
 30
377.289
 70
    32
  0
VERTEX
  8
W48LXLIFT
 62
8
 10
1110.838
 20
-8055.149
 30
377.289
 70
    32
  0
VERTEX
  8
W48LXLIFT
 62
8
 10
1115.168
 20
-8067.168
 30
377.283
 70
    32
  0
VERTEX
  8
W48LXLIFT
 62
8
 10
1111.836
 20
-8076.935
 30
377.279
 70
    32
  0
VERTEX
  8
W48LXLIFT
 62
8
 10
1116.201
 20
-8087.508
 30
377.274
 70
    32
  0
VERTEX
  8
W48LXLIFT
 62
8
 10
1114.977
 20
-8104.474
 30
377.265
 70
    32
  0
VERTEX
  8
W48LXLIFT
 62
8
 10
1117.517
 20
-8125.677
 30
377.255
 70
    32
  0
VERTEX
  8
W48LXLIFT
 62
8
 10
1106.133
 20
-8133.260
 30
377.252
 70
    32
  0
VERTEX
  8
W48LXLIFT
 62
8
 10
1112.867
 20
-8144.828
 30
377.246
 70
    32
  0
VERTEX
  8
W48LXLIFT
 62
8
 10
1132.211
 20
-8169.122
 30
377.236
 70
    32
  0
VERTEX
  8
W48LXLIFT
 62
8
 10
1129.614
 20
-8172.885
 30
377.234
 70
    32
  0
VERTEX
  8
W48LXLIFT
 62
8
 10
1144.182
 20
-8185.596
 30
377.228
 70
    32
  0
VERTEX
  8
W48LXLIFT
 62
8
 10
1154.650
 20
-8199.126
 30
377.222
 70
    32
  0
VERTEX
  8
W48LXLIFT
 62
8
 10
1164.535
 20
-8224.235
 30
377.211
 70
    32
  0
VERTEX
  8
W48LXLIFT
 62
8
 10
1163.487
 20
-8236.372
 30
377.206
 70
    32
  0
VERTEX
  8
W48LXLIFT
 62
8
 10
1164.814
 20
-8242.504
 30
377.203
 70
    32
  0
VERTEX
  8
W48LXLIFT
 62
8
 10
1147.658
 20
-8240.873
 30
377.204
 70
    32
  0
VERTEX
  8
W48LXLIFT
 62
8
 10
1144.322
 20
-8242.883
 30
377.204
 70
    32
  0
VERTEX
  8
W48LXLIFT
 62
8
 10
1140.839
 20
-8230.679
 30
377.209
 70
    32
  0
VERTEX
  8
W48LXLIFT
 62
8
 10
1136.157
 20
-8221.760
 30
377.213
 70
    32
  0
VERTEX
  8
W48LXLIFT
 62
8
 10
1120.841
 20
-8199.978
 30
377.222
 70
    32
  0
VERTEX
  8
W48LXLIFT
 62
8
 10
1113.794
 20
-8202.741
 30
377.221
 70
    32
  0
VERTEX
  8
W48LXLIFT
 62
8
 10
1108.452
 20
-8207.532
 30
377.219
 70
    32
  0
VERTEX
  8
W48LXLIFT
 62
8
 10
1100.140
 20
-8208.292
 30
377.219
 70
    32
  0
VERTEX
  8
W48LXLIFT
 62
8
 10
1097.317
 20
-8175.798
 30
377.233
 70
    32
  0
VERTEX
  8
W48LXLIFT
 62
8
 10
1089.910
 20
-8164.504
 30
377.238
 70
    32
  0
VERTEX
  8
W48LXLIFT
 62
8
 10
1088.427
 20
-8149.960
 30
377.244
 70
    32
  0
VERTEX
  8
W48LXLIFT
 62
8
 10
1094.484
 20
-8144.207
 30
377.247
 70
    32
  0
VERTEX
  8
W48LXLIFT
 62
8
 10
1094.081
 20
-8132.477
 30
377.252
 70
    32
  0
VERTEX
  8
W48LXLIFT
 62
8
 10
1084.646
 20
-8127.809
 30
377.254
 70
    32
  0
VERTEX
  8
W48LXLIFT
 62
8
 10
1092.457
 20
-8104.919
 30
377.264
 70
    32
  0
VERTEX
  8
W48LXLIFT
 62
8
 10
1090.894
 20
-8088.029
 30
377.272
 70
    32
  0
VERTEX
  8
W48LXLIFT
 62
8
 10
1085.188
 20
-8082.484
 30
377.275
 70
    32
  0
SEQEND
  8
W48LXLIFT
  0
POLYLINE
  8
W48LXLIFT
 62
6
 66
     1
 70
     9
  0
VERTEX
  8
W48LXLIFT
 62
6
 10
1079.510
 20
-7962.952
 30
377.356
 70
    32
  0
VERTEX
  8
W48LXLIFT
 62
6
 10
1091.037
 20
-7979.014
 30
377.349
 70
    32
  0
VERTEX
  8
W48LXLIFT
 62
6
 10
1102.092
 20
-7986.806
 30
377.392
 70
    32
  0
VERTEX
  8
W48LXLIFT
 62
6
 10
1112.869
 20
-7998.412
 30
377.407
 70
    32
  0
VERTEX
  8
W48LXLIFT
 62
6
 10
1115.165
 20
-8005.599
 30
377.379
 70
    32
  0
VERTEX
  8
W48LXLIFT
 62
6
 10
1114.352
 20
-8011.226
 30
377.335
 70
    32
  0
VERTEX
  8
W48LXLIFT
 62
6
 10
1128.823
 20
-8032.122
 30
377.321
 70
    32
  0
VERTEX
  8
W48LXLIFT
 62
6
 10
1134.259
 20
-8031.634
 30
377.370
 70
    32
  0
VERTEX
  8
W48LXLIFT
 62
6
 10
1139.203
 20
-8037.956
 30
377.371
 70
    32
  0
VERTEX
  8
W48LXLIFT
 62
6
 10
1147.433
 20
-8044.383
 30
377.399
 70
    32
  0
VERTEX
  8
W48LXLIFT
 62
6
 10
1146.002
 20
-8047.947
 30
377.363
 70
    32
  0
VERTEX
  8
W48LXLIFT
 62
6
 10
1141.367
 20
-8060.856
 30
377.288
 70
    32
  0
VERTEX
  8
W48LXLIFT
 62
6
 10
1132.860
 20
-8058.349
 30
377.289
 70
    32
  0
VERTEX
  8
W48LXLIFT
 62
6
 10
1127.637
 20
-8058.680
 30
377.288
 70
    32
  0
VERTEX
  8
W48LXLIFT
 62
6
 10
1116.709
 20
-8051.827
 30
377.291
 70
    32
  0
VERTEX
  8
W48LXLIFT
 62
6
 10
1112.487
 20
-8046.069
 30
377.294
 70
    32
  0
VERTEX
  8
W48LXLIFT
 62
6
 10
1101.014
 20
-8039.069
 30
377.297
 70
    32
  0
VERTEX
  8
W48LXLIFT
 62
6
 10
1100.744
 20
-8031.396
 30
377.300
 70
    32
  0
VERTEX
  8
W48LXLIFT
 62
6
 10
1070.485
 20
-7977.396
 30
377.325
 70
    32
  0
VERTEX
  8
W48LXLIFT
 62
6
 10
1072.986
 20
-7965.391
 30
377.331
 70
    32
  0
SEQEND
  8
W48LXLIFT
  0
POLYLINE
  8
W48LXLIFT
 62
1
 66
     1
 70
     9
  0
VERTEX
  8
W48LXLIFT
 62
1
 10
1080.510
 20
-7961.952
 30
387.356
 70
    32
  0
VERTEX
  8
W48LXLIFT
 62
1
 10
1092.037
 20
-7978.014
 30
387.349
 70
    32
  0
VERTEX
  8
W48LXLIFT
 62
1
 10
1103.092
 20
-7985.806
 30
387.392
 70
    32
  0
VERTEX
  8
W48LXLIFT
 62
1
 10
1113.869
 20
-7997.412
 30
387.407
 70
    32
  0
VERTEX
  8
W48LXLIFT
 62
1
 10
1116.165
 20
-8004.599
 30
387.379
 70
    32
  0
VERTEX
  8
W48LXLIFT
 62
1
 10
1115.352
 20
-8010.226
 30
387.335
 70
    32
  0
VERTEX
  8
W48LXLIFT
 62
1
 10
1129.823
 20
-8031.122
 30
387.321
 70
    32
  0
VERTEX
  8
W48LXLIFT
 62
1
 10
1135.259
 20
-8030.634
 30
387.370
 70
    32
  0
VERTEX
  8
W48LXLIFT
 62
1
 10
1140.203
 20
-8036.956
 30
387.371
 70
    32
  0
VERTEX
  8
W48LXLIFT
 62
1
 10
1148.433
 20
-8043.383
 30
387.399
 70
    32
  0
VERTEX
  8
W48LXLIFT
 62
1
 10
1147.002
 20
-8046.947
 30
387.363
 70
    32
  0
VERTEX
  8
W48LXLIFT
 62
1
 10
1142.367
 20
-8059.856
 30
387.288
 70
    32
  0
VERTEX
  8
W48LXLIFT
 62
1
 10
1133.860
 20
-8057.349
 30
387.289
 70
    32
  0
VERTEX
  8
W48LXLIFT
 62
1
 10
1128.637
 20
-8057.680
 30
387.288
 70
    32
  0
VERTEX
  8
W48LXLIFT
 62
1
 10
1117.709
 20
-8050.827
 30
387.291
 70
    32
  0
VERTEX
  8
W48LXLIFT
 62
1
 10
1113.487
 20
-8045.069
 30
387.294
 70
    32
  0
VERTEX
  8
W48LXLIFT
 62
1
 10
1102.014
 20
-8038.069
 30
387.297
 70
    32
  0
VERTEX
  8
W48LXLIFT
 62
1
 10
1101.744
 20
-8030.396
 30
387.300
 70
    32
  0
VERTEX
  8
W48LXLIFT
 62
1
 10
1071.485
 20
-7976.396
 30
387.325
 70
    32
  0
VERTEX
  8
W48LXLIFT
 62
1
 10
1073.986
 20
-7964.391
 30
387.331
 70
    32
  0
SEQEND
  8
W48LXLIFT
  0
POLYLINE
  8
W48LXLIFT
 62
1
 66
     1
 70
     9
  0
VERTEX
  8
W48LXLIFT
 62
1
 10
1160.559
 20
-8128.894
 30
430.000
 70
    32
  0
VERTEX
  8
W48LXLIFT
 62
1
 10
1178.783
 20
-8128.778
 30
430.000
 70
    32
  0
VERTEX
  8
W48LXLIFT
 62
1
 10
1226.344
 20
-8131.493
 30
430.000
 70
    32
  0
VERTEX
  8
W48LXLIFT
 62
1
 10
1242.597
 20
-8140.379
 30
430.000
 70
    32
  0
VERTEX
  8
W48LXLIFT
 62
1
 10
1248.127
 20
-8148.966
 30
430.000
 70
    32
  0
VERTEX
  8
W48LXLIFT
 62
1
 10
1247.246
 20
-8157.075
 30
430.000
 70
    32
  0
VERTEX
  8
W48LXLIFT
 62
1
 10
1246.603
 20
-8171.837
 30
430.000
 70
    32
  0
VERTEX
  8
W48LXLIFT
 62
1
 10
1253.335
 20
-8188.117
 30
430.000
 70
    32
  0
VERTEX
  8
W48LXLIFT
 62
1
 10
1245.732
 20
-8194.563
 30
430.000
 70
    32
  0
VERTEX
  8
W48LXLIFT
 62
1
 10
1240.590
 20
-8188.622
 30
430.000
 70
    32
  0
VERTEX
  8
W48LXLIFT
 62
1
 10
1234.077
 20
-8188.001
 30
430.000
 70
    32
  0
VERTEX
  8
W48LXLIFT
 62
1
 10
1215.399
 20
-8175.443
 30
430.000
 70
    32
  0
VERTEX
  8
W48LXLIFT
 62
1
 10
1214.165
 20
-8167.557
 30
430.000
 70
    32
  0
VERTEX
  8
W48LXLIFT
 62
1
 10
1208.462
 20
-8165.052
 30
430.000
 70
    32
  0
VERTEX
  8
W48LXLIFT
 62
1
 10
1199.434
 20
-8155.517
 30
430.000
 70
    32
  0
VERTEX
  8
W48LXLIFT
 62
1
 10
1201.379
 20
-8150.542
 30
430.000
 70
    32
  0
VERTEX
  8
W48LXLIFT
 62
1
 10
1190.411
 20
-8144.785
 30
430.000
 70
    32
  0
VERTEX
  8
W48LXLIFT
 62
1
 10
1182.616
 20
-8145.845
 30
430.000
 70
    32
  0
VERTEX
  8
W48LXLIFT
 62
1
 10
1175.170
 20
-8141.670
 30
430.000
 70
    32
  0
VERTEX
  8
W48LXLIFT
 62
1
 10
1169.390
 20
-8140.413
 30
430.000
 70
    32
  0
VERTEX
  8
W48LXLIFT
 62
1
 10
1158.889
 20
-8142.229
 30
430.000
 70
    32
  0
SEQEND
  8
W48LXLIFT
  0
POLYLINE
  8
W48LXLIFT
 62
1
 66
     1
 70
     9
  0
VERTEX
  8
W48LXLIFT
 62
1
 10
744.848
 20
-6903.600
 30
525.000
 70
    32
  0
VERTEX
  8
W48LXLIFT
 62
1
 10
742.473
 20
-6896.771
 30
525.000
 70
    32
  0
VERTEX
  8
W48LXLIFT
 62
1
 10
738.020
 20
-6883.227
 30
525.000
 70
    32
  0
VERTEX
  8
W48LXLIFT
 62
1
 10
737.579
 20
-6870.172
 30
525.000
 70
    32
  0
VERTEX
  8
W48LXLIFT
 62
1
 10
745.154
 20
-6858.535
 30
525.000
 70
    32
  0
VERTEX
  8
W48LXLIFT
 62
1
 10
751.525
 20
-6855.516
 30
525.000
 70
    32
  0
VERTEX
  8
W48LXLIFT
 62
1
 10
755.116
 20
-6857.383
 30
525.000
 70
    32
  0
VERTEX
  8
W48LXLIFT
 62
1
 10
762.485
 20
-6868.962
 30
525.000
 70
    32
  0
VERTEX
  8
W48LXLIFT
 62
1
 10
770.755
 20
-6874.834
 30
525.000
 70
    32
  0
VERTEX
  8
W48LXLIFT
 62
1
 10
782.106
 20
-6882.612
 30
525.000
 70
    32
  0
VERTEX
  8
W48LXLIFT
 62
1
 10
784.497
 20
-6886.734
 30
525.000
 70
    32
  0
VERTEX
  8
W48LXLIFT
 62
1
 10
772.090
 20
-6903.100
 30
525.000
 70
    32
  0
VERTEX
  8
W48LXLIFT
 62
1
 10
768.379
 20
-6904.552
 30
525.000
 70
    32
  0
VERTEX
  8
W48LXLIFT
 62
1
 10
764.671
 20
-6900.397
 30
525.000
 70
    32
  0
VERTEX
  8
W48LXLIFT
 62
1
 10
754.128
 20
-6900.883
 30
525.000
 70
    32
  0
VERTEX
  8
W48LXLIFT
 62
1
 10
750.654
 20
-6906.156
 30
525.000
 70
    32
  0
SEQEND
  8
W48LXLIFT
  0
POLYLINE
  8
W48LXLIFT
 62
7
 66
     1
 70
     9
  0
VERTEX
  8
W48LXLIFT
 62
7
 10
697.946
 20
-7237.359
 30
492.000
 70
    32
  0
VERTEX
  8
W48LXLIFT
 62
7
 10
708.072
 20
-7222.183
 30
492.000
 70
    32
  0
VERTEX
  8
W48LXLIFT
 62
7
 10
729.291
 20
-7215.939
 30
492.000
 70
    32
  0
VERTEX
  8
W48LXLIFT
 62
7
 10
741.427
 20
-7219.818
 30
492.000
 70
    32
  0
VERTEX
  8
W48LXLIFT
 62
7
 10
750.919
 20
-7218.460
 30
492.000
 70
    32
  0
VERTEX
  8
W48LXLIFT
 62
7
 10
755.982
 20
-7215.724
 30
492.000
 70
    32
  0
VERTEX
  8
W48LXLIFT
 62
7
 10
762.103
 20
-7210.079
 30
492.000
 70
    32
  0
VERTEX
  8
W48LXLIFT
 62
7
 10
758.370
 20
-7207.558
 30
492.000
 70
    32
  0
VERTEX
  8
W48LXLIFT
 62
7
 10
755.357
 20
-7198.164
 30
492.000
 70
    32
  0
VERTEX
  8
W48LXLIFT
 62
7
 10
756.508
 20
-7177.187
 30
492.000
 70
    32
  0
VERTEX
  8
W48LXLIFT
 62
7
 10
743.442
 20
-7169.119
 30
492.000
 70
    32
  0
VERTEX
  8
W48LXLIFT
 62
7
 10
737.510
 20
-7177.001
 30
492.000
 70
    32
  0
VERTEX
  8
W48LXLIFT
 62
7
 10
733.699
 20
-7177.554
 30
492.000
 70
    32
  0
VERTEX
  8
W48LXLIFT
 62
7
 10
715.544
 20
-7165.664
 30
492.000
 70
    32
  0
VERTEX
  8
W48LXLIFT
 62
7
 10
703.270
 20
-7159.620
 30
492.000
 70
    32
  0
VERTEX
  8
W48LXLIFT
 62
7
 10
693.429
 20
-7152.601
 30
492.000
 70
    32
  0
VERTEX
  8
W48LXLIFT
 62
7
 10
690.659
 20
-7153.708
 30
492.000
 70
    32
  0
VERTEX
  8
W48LXLIFT
 62
7
 10
686.563
 20
-7144.761
 30
492.000
 70
    32
  0
VERTEX
  8
W48LXLIFT
 62
7
 10
683.525
 20
-7141.854
 30
492.000
 70
    32
  0
VERTEX
  8
W48LXLIFT
 62
7
 10
666.281
 20
-7143.224
 30
492.000
 70
    32
  0
VERTEX
  8
W48LXLIFT
 62
7
 10
663.715
 20
-7148.713
 30
492.000
 70
    32
  0
VERTEX
  8
W48LXLIFT
 62
7
 10
665.814
 20
-7155.306
 30
492.000
 70
    32
  0
VERTEX
  8
W48LXLIFT
 62
7
 10
668.283
 20
-7179.101
 30
492.000
 70
    32
  0
VERTEX
  8
W48LXLIFT
 62
7
 10
664.092
 20
-7193.831
 30
492.000
 70
    32
  0
VERTEX
  8
W48LXLIFT
 62
7
 10
661.091
 20
-7201.893
 30
492.000
 70
    32
  0
SEQEND
  8
W48LXLIFT
  0
POLYLINE
  8
W48LXLIFT
 62
13
 66
     1
 70
     9
  0
VERTEX
  8
W48LXLIFT
 62
13
 10
731.463
 20
-7366.401
 30
492.000
 70
    32
  0
VERTEX
  8
W48LXLIFT
 62
13
 10
723.043
 20
-7349.855
 30
492.000
 70
    32
  0
VERTEX
  8
W48LXLIFT
 62
13
 10
712.380
 20
-7326.818
 30
492.000
 70
    32
  0
VERTEX
  8
W48LXLIFT
 62
13
 10
712.741
 20
-7298.209
 30
492.000
 70
    32
  0
VERTEX
  8
W48LXLIFT
 62
13
 10
703.643
 20
-7301.334
 30
492.000
 70
    32
  0
VERTEX
  8
W48LXLIFT
 62
13
 10
698.311
 20
-7333.262
 30
492.000
 70
    32
  0
VERTEX
  8
W48LXLIFT
 62
13
 10
703.109
 20
-7347.747
 30
492.000
 70
    32
  0
VERTEX
  8
W48LXLIFT
 62
13
 10
708.093
 20
-7357.033
 30
492.000
 70
    32
  0
VERTEX
  8
W48LXLIFT
 62
13
 10
710.540
 20
-7367.906
 30
492.000
 70
    32
  0
VERTEX
  8
W48LXLIFT
 62
13
 10
717.312
 20
-7377.106
 30
492.000
 70
    32
  0
SEQEND
  8
W48LXLIFT
  0
POLYLINE
  8
W48LXLIFT
 62
8
 66
     1
 70
     9
  0
VERTEX
  8
W48LXLIFT
 62
8
 10
806.907
 20
-7352.119
 30
483.000
 70
    32
  0
VERTEX
  8
W48LXLIFT
 62
8
 10
809.851
 20
-7351.104
 30
483.000
 70
    32
  0
VERTEX
  8
W48LXLIFT
 62
8
 10
817.856
 20
-7348.109
 30
483.000
 70
    32
  0
VERTEX
  8
W48LXLIFT
 62
8
 10
824.080
 20
-7341.852
 30
483.000
 70
    32
  0
VERTEX
  8
W48LXLIFT
 62
8
 10
836.145
 20
-7340.929
 30
483.000
 70
    32
  0
VERTEX
  8
W48LXLIFT
 62
8
 10
841.957
 20
-7350.166
 30
483.000
 70
    32
  0
VERTEX
  8
W48LXLIFT
 62
8
 10
842.396
 20
-7359.125
 30
483.000
 70
    32
  0
VERTEX
  8
W48LXLIFT
 62
8
 10
837.469
 20
-7365.538
 30
483.000
 70
    32
  0
VERTEX
  8
W48LXLIFT
 62
8
 10
838.520
 20
-7370.505
 30
483.000
 70
    32
  0
VERTEX
  8
W48LXLIFT
 62
8
 10
828.592
 20
-7370.339
 30
483.000
 70
    32
  0
VERTEX
  8
W48LXLIFT
 62
8
 10
820.931
 20
-7375.031
 30
483.000
 70
    32
  0
VERTEX
  8
W48LXLIFT
 62
8
 10
813.030
 20
-7372.561
 30
483.000
 70
    32
  0
SEQEND
  8
W48LXLIFT
  0
POLYLINE
  8
W48LXLIFT
 62
13
 66
     1
 70
     9
  0
VERTEX
  8
W48LXLIFT
 62
13
 10
737.854
 20
-7340.512
 30
478.000
 70
    32
  0
VERTEX
  8
W48LXLIFT
 62
13
 10
740.105
 20
-7343.224
 30
478.000
 70
    32
  0
VERTEX
  8
W48LXLIFT
 62
13
 10
738.125
 20
-7360.911
 30
478.000
 70
    32
  0
VERTEX
  8
W48LXLIFT
 62
13
 10
740.840
 20
-7366.095
 30
478.000
 70
    32
  0
VERTEX
  8
W48LXLIFT
 62
13
 10
758.065
 20
-7377.891
 30
478.000
 70
    32
  0
VERTEX
  8
W48LXLIFT
 62
13
 10
757.688
 20
-7391.312
 30
478.000
 70
    32
  0
VERTEX
  8
W48LXLIFT
 62
13
 10
764.299
 20
-7394.697
 30
478.000
 70
    32
  0
VERTEX
  8
W48LXLIFT
 62
13
 10
775.576
 20
-7394.335
 30
478.000
 70
    32
  0
VERTEX
  8
W48LXLIFT
 62
13
 10
786.787
 20
-7400.703
 30
478.000
 70
    32
  0
VERTEX
  8
W48LXLIFT
 62
13
 10
795.554
 20
-7399.538
 30
478.000
 70
    32
  0
VERTEX
  8
W48LXLIFT
 62
13
 10
800.659
 20
-7409.601
 30
478.000
 70
    32
  0
VERTEX
  8
W48LXLIFT
 62
13
 10
787.535
 20
-7422.380
 30
478.000
 70
    32
  0
VERTEX
  8
W48LXLIFT
 62
13
 10
794.763
 20
-7446.349
 30
478.000
 70
    32
  0
VERTEX
  8
W48LXLIFT
 62
13
 10
790.743
 20
-7457.831
 30
478.000
 70
    32
  0
VERTEX
  8
W48LXLIFT
 62
13
 10
794.270
 20
-7465.673
 30
478.000
 70
    32
  0
VERTEX
  8
W48LXLIFT
 62
13
 10
791.503
 20
-7474.216
 30
478.000
 70
    32
  0
VERTEX
  8
W48LXLIFT
 62
13
 10
797.472
 20
-7481.400
 30
478.000
 70
    32
  0
VERTEX
  8
W48LXLIFT
 62
13
 10
804.488
 20
-7482.019
 30
478.000
 70
    32
  0
VERTEX
  8
W48LXLIFT
 62
13
 10
808.970
 20
-7487.565
 30
478.000
 70
    32
  0
VERTEX
  8
W48LXLIFT
 62
13
 10
807.863
 20
-7493.742
 30
478.000
 70
    32
  0
VERTEX
  8
W48LXLIFT
 62
13
 10
819.504
 20
-7508.753
 30
478.000
 70
    32
  0
VERTEX
  8
W48LXLIFT
 62
13
 10
821.728
 20
-7509.759
 30
478.000
 70
    32
  0
VERTEX
  8
W48LXLIFT
 62
13
 10
831.247
 20
-7519.055
 30
478.000
 70
    32
  0
VERTEX
  8
W48LXLIFT
 62
13
 10
830.055
 20
-7522.382
 30
478.000
 70
    32
  0
VERTEX
  8
W48LXLIFT
 62
13
 10
804.979
 20
-7544.736
 30
478.000
 70
    32
  0
VERTEX
  8
W48LXLIFT
 62
13
 10
790.068
 20
-7553.180
 30
478.000
 70
    32
  0
VERTEX
  8
W48LXLIFT
 62
13
 10
782.589
 20
-7540.385
 30
478.000
 70
    32
  0
VERTEX
  8
W48LXLIFT
 62
13
 10
764.431
 20
-7512.111
 30
478.000
 70
    32
  0
VERTEX
  8
W48LXLIFT
 62
13
 10
749.329
 20
-7496.326
 30
478.000
 70
    32
  0
VERTEX
  8
W48LXLIFT
 62
13
 10
756.055
 20
-7489.713
 30
478.000
 70
    32
  0
VERTEX
  8
W48LXLIFT
 62
13
 10
768.092
 20
-7482.988
 30
478.000
 70
    32
  0
VERTEX
  8
W48LXLIFT
 62
13
 10
784.667
 20
-7502.362
 30
478.000
 70
    32
  0
VERTEX
  8
W48LXLIFT
 62
13
 10
789.075
 20
-7513.566
 30
478.000
 70
    32
  0
VERTEX
  8
W48LXLIFT
 62
13
 10
798.224
 20
-7519.460
 30
478.000
 70
    32
  0
VERTEX
  8
W48LXLIFT
 62
13
 10
801.074
 20
-7514.523
 30
478.000
 70
    32
  0
VERTEX
  8
W48LXLIFT
 62
13
 10
788.885
 20
-7498.285
 30
478.000
 70
    32
  0
VERTEX
  8
W48LXLIFT
 62
13
 10
782.113
 20
-7484.665
 30
478.000
 70
    32
  0
VERTEX
  8
W48LXLIFT
 62
13
 10
769.458
 20
-7443.963
 30
478.000
 70
    32
  0
VERTEX
  8
W48LXLIFT
 62
13
 10
763.097
 20
-7424.551
 30
478.000
 70
    32
  0
VERTEX
  8
W48LXLIFT
 62
13
 10
758.250
 20
-7418.187
 30
478.000
 70
    32
  0
VERTEX
  8
W48LXLIFT
 62
13
 10
752.009
 20
-7418.203
 30
478.000
 70
    32
  0
VERTEX
  8
W48LXLIFT
 62
13
 10
746.345
 20
-7411.449
 30
478.000
 70
    32
  0
VERTEX
  8
W48LXLIFT
 62
13
 10
732.821
 20
-7411.684
 30
478.000
 70
    32
  0
VERTEX
  8
W48LXLIFT
 62
13
 10
698.246
 20
-7357.133
 30
478.000
 70
    32
  0
VERTEX
  8
W48LXLIFT
 62
13
 10
709.821
 20
-7352.031
 30
478.000
 70
    32
  0
VERTEX
  8
W48LXLIFT
 62
13
 10
716.637
 20
-7346.000
 30
478.000
 70
    32
  0
VERTEX
  8
W48LXLIFT
 62
13
 10
716.376
 20
-7334.866
 30
478.000
 70
    32
  0
SEQEND
  8
W48LXLIFT
  0
LINE
  8
W48LXLIFT
 62
3
 10
487.580
 20
-7236.861
 30
378.000
 11
561.370
 21
-7237.337
 31
256.000
  0
POINT
  8
W48LXLIFT
 62
3
 10
561.370
 20
-7237.337
 30
256.000
  0
POINT
  8
W48LXLIFT
 62
3
 10
487.580
 20
-7236.861
 30
378.000
  0
POINT
  8
W48LXLIFT
 62
8
 10
812.554
 20
-7253.744
 30
535.901
  0
LINE
  8
W48LXLIFT
 62
8
 10
812.554
 20
-7253.744
 30
535.901
 11
855.180
 21
-7239.903
 31
388.717
  0
POINT
  8
W48LXLIFT
 62
8
 10
855.180
 20
-7239.903
 30
388.717
  0
POINT
  8
W48LXLIFT
 62
4
 10
812.554
 20
-7253.744
 30
535.901
  0
LINE
  8
W48LXLIFT
 62
4
 10
812.554
 20
-7253.744
 30
535.901
 11
855.180
 21
-7239.903
 31
388.717
  0
POINT
  8
W48LXLIFT
 62
4
 10
855.180
 20
-7239.903
 30
388.717
  0
POINT
  8
W48LXLIFT
 62
4
 10
858.626
 20
-7254.056
 30
378.508
  0
LINE
  8
W48LXLIFT
 62
4
 10
858.626
 20
-7254.056
 30
378.508
 11
979.010
 21
-7296.283
 31
242.523
  0
POINT
  8
W48LXLIFT
 62
4
 10
979.010
 20
-7296.283
 30
242.523
  0
POLYLINE
  8
W48LXLIFT
 62
3
 66
     1
 70
     9
  0
VERTEX
  8
W48LXLIFT
 62
3
 10
511.828
 20
-7235.522
 30
377.666
 70
    32
  0
VERTEX
  8
W48LXLIFT
 62
3
 10
514.975
 20
-7241.354
 30
377.669
 70
    32
  0
VERTEX
  8
W48LXLIFT
 62
3
 10
531.914
 20
-7257.980
 30
377.677
 70
    32
  0
VERTEX
  8
W48LXLIFT
 62
3
 10
531.152
 20
-7268.060
 30
377.681
 70
    32
  0
VERTEX
  8
W48LXLIFT
 62
3
 10
525.460
 20
-7274.689
 30
377.678
 70
    32
  0
VERTEX
  8
W48LXLIFT
 62
3
 10
519.199
 20
-7276.308
 30
377.676
 70
    32
  0
VERTEX
  8
W48LXLIFT
 62
3
 10
512.095
 20
-7275.185
 30
377.675
 70
    32
  0
VERTEX
  8
W48LXLIFT
 62
3
 10
507.420
 20
-7266.998
 30
377.677
 70
    32
  0
VERTEX
  8
W48LXLIFT
 62
3
 10
501.837
 20
-7261.782
 30
377.674
 70
    32
  0
VERTEX
  8
W48LXLIFT
 62
3
 10
500.035
 20
-7250.456
 30
377.670
 70
    32
  0
VERTEX
  8
W48LXLIFT
 62
3
 10
496.514
 20
-7246.299
 30
377.668
 70
    32
  0
VERTEX
  8
W48LXLIFT
 62
3
 10
492.487
 20
-7246.819
 30
377.668
 70
    32
  0
VERTEX
  8
W48LXLIFT
 62
3
 10
491.251
 20
-7248.854
 30
377.668
 70
    32
  0
VERTEX
  8
W48LXLIFT
 62
3
 10
489.751
 20
-7260.381
 30
377.672
 70
    32
  0
VERTEX
  8
W48LXLIFT
 62
3
 10
485.818
 20
-7264.843
 30
377.673
 70
    32
  0
VERTEX
  8
W48LXLIFT
 62
3
 10
486.042
 20
-7270.011
 30
377.674
 70
    32
  0
VERTEX
  8
W48LXLIFT
 62
3
 10
490.569
 20
-7281.552
 30
377.666
 70
    32
  0
VERTEX
  8
W48LXLIFT
 62
3
 10
493.855
 20
-7306.969
 30
377.647
 70
    32
  0
VERTEX
  8
W48LXLIFT
 62
3
 10
489.919
 20
-7314.178
 30
377.641
 70
    32
  0
VERTEX
  8
W48LXLIFT
 62
3
 10
476.742
 20
-7313.502
 30
377.639
 70
    32
  0
VERTEX
  8
W48LXLIFT
 62
3
 10
469.179
 20
-7297.638
 30
377.649
 70
    32
  0
VERTEX
  8
W48LXLIFT
 62
3
 10
462.326
 20
-7289.596
 30
377.654
 70
    32
  0
VERTEX
  8
W48LXLIFT
 62
3
 10
462.636
 20
-7278.235
 30
377.663
 70
    32
  0
VERTEX
  8
W48LXLIFT
 62
3
 10
459.647
 20
-7273.636
 30
377.666
 70
    32
  0
VERTEX
  8
W48LXLIFT
 62
3
 10
458.637
 20
-7263.683
 30
377.669
 70
    32
  0
VERTEX
  8
W48LXLIFT
 62
3
 10
458.355
 20
-7256.146
 30
377.666
 70
    32
  0
VERTEX
  8
W48LXLIFT
 62
3
 10
464.391
 20
-7247.949
 30
377.664
 70
    32
  0
VERTEX
  8
W48LXLIFT
 62
3
 10
472.539
 20
-7240.422
 30
377.662
 70
    32
  0
VERTEX
  8
W48LXLIFT
 62
3
 10
469.385
 20
-7233.745
 30
377.659
 70
    32
  0
VERTEX
  8
W48LXLIFT
 62
3
 10
458.869
 20
-7227.825
 30
377.656
 70
    32
  0
VERTEX
  8
W48LXLIFT
 62
3
 10
465.276
 20
-7213.691
 30
377.651
 70
    32
  0
VERTEX
  8
W48LXLIFT
 62
3
 10
468.448
 20
-7213.707
 30
377.652
 70
    32
  0
VERTEX
  8
W48LXLIFT
 62
3
 10
480.607
 20
-7220.073
 30
377.656
 70
    32
  0
VERTEX
  8
W48LXLIFT
 62
3
 10
503.427
 20
-7228.479
 30
377.662
 70
    32
  0
SEQEND
  8
W48LXLIFT
  0
POLYLINE
  8
W48LXLIFT
 62
1
 66
     1
 70
     9
  0
VERTEX
  8
W48LXLIFT
 62
1
 10
512.828
 20
-7234.522
 30
387.666
 70
    32
  0
VERTEX
  8
W48LXLIFT
 62
1
 10
515.975
 20
-7240.354
 30
387.669
 70
    32
  0
VERTEX
  8
W48LXLIFT
 62
1
 10
532.914
 20
-7256.980
 30
387.677
 70
    32
  0
VERTEX
  8
W48LXLIFT
 62
1
 10
532.152
 20
-7267.060
 30
387.681
 70
    32
  0
VERTEX
  8
W48LXLIFT
 62
1
 10
526.460
 20
-7273.689
 30
387.678
 70
    32
  0
VERTEX
  8
W48LXLIFT
 62
1
 10
520.199
 20
-7275.308
 30
387.676
 70
    32
  0
VERTEX
  8
W48LXLIFT
 62
1
 10
513.095
 20
-7274.185
 30
387.675
 70
    32
  0
VERTEX
  8
W48LXLIFT
 62
1
 10
508.420
 20
-7265.998
 30
387.677
 70
    32
  0
VERTEX
  8
W48LXLIFT
 62
1
 10
502.837
 20
-7260.782
 30
387.674
 70
    32
  0
VERTEX
  8
W48LXLIFT
 62
1
 10
501.035
 20
-7249.456
 30
387.670
 70
    32
  0
VERTEX
  8
W48LXLIFT
 62
1
 10
497.514
 20
-7245.299
 30
387.668
 70
    32
  0
VERTEX
  8
W48LXLIFT
 62
1
 10
493.487
 20
-7245.819
 30
387.668
 70
    32
  0
VERTEX
  8
W48LXLIFT
 62
1
 10
492.251
 20
-7247.854
 30
387.668
 70
    32
  0
VERTEX
  8
W48LXLIFT
 62
1
 10
490.751
 20
-7259.381
 30
387.672
 70
    32
  0
VERTEX
  8
W48LXLIFT
 62
1
 10
486.818
 20
-7263.843
 30
387.673
 70
    32
  0
VERTEX
  8
W48LXLIFT
 62
1
 10
487.042
 20
-7269.011
 30
387.674
 70
    32
  0
VERTEX
  8
W48LXLIFT
 62
1
 10
491.569
 20
-7280.552
 30
387.666
 70
    32
  0
VERTEX
  8
W48LXLIFT
 62
1
 10
494.855
 20
-7305.969
 30
387.647
 70
    32
  0
VERTEX
  8
W48LXLIFT
 62
1
 10
490.919
 20
-7313.178
 30
387.641
 70
    32
  0
VERTEX
  8
W48LXLIFT
 62
1
 10
477.742
 20
-7312.502
 30
387.639
 70
    32
  0
VERTEX
  8
W48LXLIFT
 62
1
 10
470.179
 20
-7296.638
 30
387.649
 70
    32
  0
VERTEX
  8
W48LXLIFT
 62
1
 10
463.326
 20
-7288.596
 30
387.654
 70
    32
  0
VERTEX
  8
W48LXLIFT
 62
1
 10
463.636
 20
-7277.235
 30
387.663
 70
    32
  0
VERTEX
  8
W48LXLIFT
 62
1
 10
460.647
 20
-7272.636
 30
387.666
 70
    32
  0
VERTEX
  8
W48LXLIFT
 62
1
 10
459.637
 20
-7262.683
 30
387.669
 70
    32
  0
VERTEX
  8
W48LXLIFT
 62
1
 10
459.355
 20
-7255.146
 30
387.666
 70
    32
  0
VERTEX
  8
W48LXLIFT
 62
1
 10
465.391
 20
-7246.949
 30
387.664
 70
    32
  0
VERTEX
  8
W48LXLIFT
 62
1
 10
473.539
 20
-7239.422
 30
387.662
 70
    32
  0
VERTEX
  8
W48LXLIFT
 62
1
 10
470.385
 20
-7232.745
 30
387.659
 70
    32
  0
VERTEX
  8
W48LXLIFT
 62
1
 10
459.869
 20
-7226.825
 30
387.656
 70
    32
  0
VERTEX
  8
W48LXLIFT
 62
1
 10
466.276
 20
-7212.691
 30
387.651
 70
    32
  0
VERTEX
  8
W48LXLIFT
 62
1
 10
469.448
 20
-7212.707
 30
387.652
 70
    32
  0
VERTEX
  8
W48LXLIFT
 62
1
 10
481.607
 20
-7219.073
 30
387.656
 70
    32
  0
VERTEX
  8
W48LXLIFT
 62
1
 10
504.427
 20
-7227.479
 30
387.662
 70
    32
  0
SEQEND
  8
W48LXLIFT
  0
POLYLINE
  8
W48LXLIFT
 62
1
 66
     1
 70
     9
  0
VERTEX
  8
W48LXLIFT
 62
1
 10
807.907
 20
-7351.119
 30
495.000
 70
    32
  0
VERTEX
  8
W48LXLIFT
 62
1
 10
810.851
 20
-7350.104
 30
495.000
 70
    32
  0
VERTEX
  8
W48LXLIFT
 62
1
 10
818.856
 20
-7347.109
 30
495.000
 70
    32
  0
VERTEX
  8
W48LXLIFT
 62
1
 10
825.080
 20
-7340.852
 30
495.000
 70
    32
  0
VERTEX
  8
W48LXLIFT
 62
1
 10
837.145
 20
-7339.929
 30
495.000
 70
    32
  0
VERTEX
  8
W48LXLIFT
 62
1
 10
842.957
 20
-7349.166
 30
495.000
 70
    32
  0
VERTEX
  8
W48LXLIFT
 62
1
 10
843.396
 20
-7358.125
 30
495.000
 70
    32
  0
VERTEX
  8
W48LXLIFT
 62
1
 10
838.469
 20
-7364.538
 30
495.000
 70
    32
  0
VERTEX
  8
W48LXLIFT
 62
1
 10
839.520
 20
-7369.505
 30
495.000
 70
    32
  0
VERTEX
  8
W48LXLIFT
 62
1
 10
829.592
 20
-7369.339
 30
495.000
 70
    32
  0
VERTEX
  8
W48LXLIFT
 62
1
 10
821.931
 20
-7374.031
 30
495.000
 70
    32
  0
VERTEX
  8
W48LXLIFT
 62
1
 10
814.030
 20
-7371.561
 30
495.000
 70
    32
  0
SEQEND
  8
W48LXLIFT
  0
POLYLINE
  8
W48LXLIFT
 62
4
 66
     1
 70
     9
  0
VERTEX
  8
W48LXLIFT
 62
4
 10
765.666
 20
-7261.401
 30
378.306
 70
    32
  0
VERTEX
  8
W48LXLIFT
 62
4
 10
769.167
 20
-7258.998
 30
378.325
 70
    32
  0
VERTEX
  8
W48LXLIFT
 62
4
 10
778.537
 20
-7257.942
 30
378.357
 70
    32
  0
VERTEX
  8
W48LXLIFT
 62
4
 10
779.657
 20
-7243.959
 30
378.403
 70
    32
  0
VERTEX
  8
W48LXLIFT
 62
4
 10
785.106
 20
-7236.342
 30
378.443
 70
    32
  0
VERTEX
  8
W48LXLIFT
 62
4
 10
793.207
 20
-7226.075
 30
378.499
 70
    32
  0
VERTEX
  8
W48LXLIFT
 62
4
 10
799.412
 20
-7225.954
 30
378.519
 70
    32
  0
VERTEX
  8
W48LXLIFT
 62
4
 10
801.709
 20
-7227.546
 30
378.522
 70
    32
  0
VERTEX
  8
W48LXLIFT
 62
4
 10
809.800
 20
-7239.377
 30
378.512
 70
    32
  0
VERTEX
  8
W48LXLIFT
 62
4
 10
816.607
 20
-7238.584
 30
378.535
 70
    32
  0
VERTEX
  8
W48LXLIFT
 62
4
 10
816.806
 20
-7227.058
 30
378.571
 70
    32
  0
VERTEX
  8
W48LXLIFT
 62
4
 10
837.303
 20
-7210.044
 30
378.686
 70
    32
  0
VERTEX
  8
W48LXLIFT
 62
4
 10
843.012
 20
-7211.178
 30
378.701
 70
    32
  0
VERTEX
  8
W48LXLIFT
 62
4
 10
847.397
 20
-7210.544
 30
378.717
 70
    32
  0
VERTEX
  8
W48LXLIFT
 62
4
 10
857.582
 20
-7203.795
 30
378.769
 70
    32
  0
VERTEX
  8
W48LXLIFT
 62
4
 10
859.247
 20
-7196.584
 30
378.796
 70
    32
  0
VERTEX
  8
W48LXLIFT
 62
4
 10
879.592
 20
-7200.889
 30
378.847
 70
    32
  0
VERTEX
  8
W48LXLIFT
 62
4
 10
906.487
 20
-7225.137
 30
378.861
 70
    32
  0
VERTEX
  8
W48LXLIFT
 62
4
 10
904.221
 20
-7232.579
 30
378.841
 70
    32
  0
VERTEX
  8
W48LXLIFT
 62
4
 10
911.176
 20
-7240.682
 30
378.957
 70
    32
  0
VERTEX
  8
W48LXLIFT
 62
4
 10
891.699
 20
-7264.322
 30
378.733
 70
    32
  0
VERTEX
  8
W48LXLIFT
 62
4
 10
889.501
 20
-7263.413
 30
378.715
 70
    32
  0
VERTEX
  8
W48LXLIFT
 62
4
 10
881.038
 20
-7265.012
 30
378.658
 70
    32
  0
VERTEX
  8
W48LXLIFT
 62
4
 10
876.091
 20
-7269.619
 30
378.629
 70
    32
  0
VERTEX
  8
W48LXLIFT
 62
4
 10
851.947
 20
-7284.342
 30
378.508
 70
    32
  0
VERTEX
  8
W48LXLIFT
 62
4
 10
835.785
 20
-7293.220
 30
378.431
 70
    32
  0
VERTEX
  8
W48LXLIFT
 62
4
 10
803.307
 20
-7289.526
 30
378.340
 70
    32
  0
VERTEX
  8
W48LXLIFT
 62
4
 10
800.249
 20
-7289.277
 30
378.331
 70
    32
  0
VERTEX
  8
W48LXLIFT
 62
4
 10
795.866
 20
-7285.934
 30
378.327
 70
    32
  0
VERTEX
  8
W48LXLIFT
 62
4
 10
787.629
 20
-7284.374
 30
378.306
 70
    32
  0
VERTEX
  8
W48LXLIFT
 62
4
 10
772.011
 20
-7303.477
 30
378.199
 70
    32
  0
VERTEX
  8
W48LXLIFT
 62
4
 10
766.618
 20
-7306.303
 30
378.174
 70
    32
  0
VERTEX
  8
W48LXLIFT
 62
4
 10
759.107
 20
-7301.880
 30
378.164
 70
    32
  0
VERTEX
  8
W48LXLIFT
 62
4
 10
758.067
 20
-7295.480
 30
378.180
 70
    32
  0
VERTEX
  8
W48LXLIFT
 62
4
 10
749.839
 20
-7274.033
 30
378.219
 70
    32
  0
VERTEX
  8
W48LXLIFT
 62
4
 10
754.724
 20
-7263.220
 30
378.267
 70
    32
  0
SEQEND
  8
W48LXLIFT
  0
POLYLINE
  8
W48LXLIFT
 62
1
 66
     1
 70
     9
  0
VERTEX
  8
W48LXLIFT
 62
1
 10
766.666
 20
-7260.401
 30
388.306
 70
    32
  0
VERTEX
  8
W48LXLIFT
 62
1
 10
770.167
 20
-7257.998
 30
388.325
 70
    32
  0
VERTEX
  8
W48LXLIFT
 62
1
 10
779.537
 20
-7256.942
 30
388.357
 70
    32
  0
VERTEX
  8
W48LXLIFT
 62
1
 10
780.657
 20
-7242.959
 30
388.403
 70
    32
  0
VERTEX
  8
W48LXLIFT
 62
1
 10
786.106
 20
-7235.342
 30
388.443
 70
    32
  0
VERTEX
  8
W48LXLIFT
 62
1
 10
794.207
 20
-7225.075
 30
388.499
 70
    32
  0
VERTEX
  8
W48LXLIFT
 62
1
 10
800.412
 20
-7224.954
 30
388.519
 70
    32
  0
VERTEX
  8
W48LXLIFT
 62
1
 10
802.709
 20
-7226.546
 30
388.522
 70
    32
  0
VERTEX
  8
W48LXLIFT
 62
1
 10
810.800
 20
-7238.377
 30
388.512
 70
    32
  0
VERTEX
  8
W48LXLIFT
 62
1
 10
817.607
 20
-7237.584
 30
388.535
 70
    32
  0
VERTEX
  8
W48LXLIFT
 62
1
 10
817.806
 20
-7226.058
 30
388.571
 70
    32
  0
VERTEX
  8
W48LXLIFT
 62
1
 10
838.303
 20
-7209.044
 30
388.686
 70
    32
  0
VERTEX
  8
W48LXLIFT
 62
1
 10
844.012
 20
-7210.178
 30
388.701
 70
    32
  0
VERTEX
  8
W48LXLIFT
 62
1
 10
848.397
 20
-7209.544
 30
388.717
 70
    32
  0
VERTEX
  8
W48LXLIFT
 62
1
 10
858.582
 20
-7202.795
 30
388.769
 70
    32
  0
VERTEX
  8
W48LXLIFT
 62
1
 10
860.247
 20
-7195.584
 30
388.796
 70
    32
  0
VERTEX
  8
W48LXLIFT
 62
1
 10
880.592
 20
-7199.889
 30
388.847
 70
    32
  0
VERTEX
  8
W48LXLIFT
 62
1
 10
907.487
 20
-7224.137
 30
388.861
 70
    32
  0
VERTEX
  8
W48LXLIFT
 62
1
 10
905.221
 20
-7231.579
 30
388.841
 70
    32
  0
VERTEX
  8
W48LXLIFT
 62
1
 10
912.176
 20
-7239.682
 30
388.957
 70
    32
  0
VERTEX
  8
W48LXLIFT
 62
1
 10
892.699
 20
-7263.322
 30
388.733
 70
    32
  0
VERTEX
  8
W48LXLIFT
 62
1
 10
890.501
 20
-7262.413
 30
388.715
 70
    32
  0
VERTEX
  8
W48LXLIFT
 62
1
 10
882.038
 20
-7264.012
 30
388.658
 70
    32
  0
VERTEX
  8
W48LXLIFT
 62
1
 10
877.091
 20
-7268.619
 30
388.629
 70
    32
  0
VERTEX
  8
W48LXLIFT
 62
1
 10
852.947
 20
-7283.342
 30
388.508
 70
    32
  0
VERTEX
  8
W48LXLIFT
 62
1
 10
836.785
 20
-7292.220
 30
388.431
 70
    32
  0
VERTEX
  8
W48LXLIFT
 62
1
 10
804.307
 20
-7288.526
 30
388.340
 70
    32
  0
VERTEX
  8
W48LXLIFT
 62
1
 10
801.249
 20
-7288.277
 30
388.331
 70
    32
  0
VERTEX
  8
W48LXLIFT
 62
1
 10
796.866
 20
-7284.934
 30
388.327
 70
    32
  0
VERTEX
  8
W48LXLIFT
 62
1
 10
788.629
 20
-7283.374
 30
388.306
 70
    32
  0
VERTEX
  8
W48LXLIFT
 62
1
 10
773.011
 20
-7302.477
 30
388.199
 70
    32
  0
VERTEX
  8
W48LXLIFT
 62
1
 10
767.618
 20
-7305.303
 30
388.174
 70
    32
  0
VERTEX
  8
W48LXLIFT
 62
1
 10
760.107
 20
-7300.880
 30
388.164
 70
    32
  0
VERTEX
  8
W48LXLIFT
 62
1
 10
759.067
 20
-7294.480
 30
388.180
 70
    32
  0
VERTEX
  8
W48LXLIFT
 62
1
 10
750.839
 20
-7273.033
 30
388.219
 70
    32
  0
VERTEX
  8
W48LXLIFT
 62
1
 10
755.724
 20
-7262.220
 30
388.267
 70
    32
  0
SEQEND
  8
W48LXLIFT
  0
ENDSEC
  0
EOF
