999
********************************
999
*   DXF File - Entities Only   *
999
*        3D Data Format        *
999
*     Output from ENVISAGE     *
999
*     31-Dec-2007 15:44:14     *
999
********************************
  0
SECTION 
  2
HEADER
  9
$ACADVER
  1
AC1009
  9
$EXTMIN
 10
-290000.000
 20
-250000.000
 30
-4000.000
  9
$EXTMAX
 10
320000.000
 20
160000.000
 30
6000.000
  0
ENDSEC
  0
SECTION
  2
ENTITIES
  0
POLYLINE
  8
W48XLIFTS
 62
5
 66
     1
 70
     9
  0
VERTEX
  8
W48XLIFTS
 62
5
 10
704.530
 20
-6890.156
 30
419.221
 70
    32
  0
VERTEX
  8
W48XLIFTS
 62
5
 10
693.308
 20
-6882.549
 30
418.921
 70
    32
  0
VERTEX
  8
W48XLIFTS
 62
5
 10
690.250
 20
-6882.300
 30
418.903
 70
    32
  0
VERTEX
  8
W48XLIFTS
 62
5
 10
680.169
 20
-6891.841
 30
419.868
 70
    32
  0
VERTEX
  8
W48XLIFTS
 62
5
 10
678.947
 20
-6896.402
 30
420.321
 70
    32
  0
VERTEX
  8
W48XLIFTS
 62
5
 10
674.032
 20
-6899.422
 30
420.630
 70
    32
  0
VERTEX
  8
W48XLIFTS
 62
5
 10
675.603
 20
-6903.878
 30
421.067
 70
    32
  0
VERTEX
  8
W48XLIFTS
 62
5
 10
680.798
 20
-6909.484
 30
421.610
 70
    32
  0
VERTEX
  8
W48XLIFTS
 62
5
 10
690.148
 20
-6912.529
 30
421.891
 70
    32
  0
VERTEX
  8
W48XLIFTS
 62
5
 10
701.002
 20
-6912.127
 30
421.660
 70
    32
  0
SEQEND
  8
W48XLIFTS
  0
POLYLINE
  8
W48XLIFTS
 62
5
 66
     1
 70
     9
  0
VERTEX
  8
W48XLIFTS
 62
5
 10
742.517
 20
-6895.158
 30
419.156
 70
    32
  0
VERTEX
  8
W48XLIFTS
 62
5
 10
763.126
 20
-6865.469
 30
415.450
 70
    32
  0
VERTEX
  8
W48XLIFTS
 62
5
 10
771.628
 20
-6866.498
 30
415.532
 70
    32
  0
VERTEX
  8
W48XLIFTS
 62
5
 10
777.770
 20
-6888.404
 30
418.158
 70
    32
  0
VERTEX
  8
W48XLIFTS
 62
5
 10
773.456
 20
-6890.753
 30
418.465
 70
    32
  0
VERTEX
  8
W48XLIFTS
 62
5
 10
770.823
 20
-6887.976
 30
418.142
 70
    32
  0
VERTEX
  8
W48XLIFTS
 62
5
 10
765.360
 20
-6889.087
 30
418.304
 70
    32
  0
VERTEX
  8
W48XLIFTS
 62
5
 10
742.196
 20
-6901.363
 30
419.910
 70
    32
  0
SEQEND
  8
W48XLIFTS
  0
POLYLINE
  8
W48XLIFTS
 62
5
 66
     1
 70
     9
  0
VERTEX
  8
W48XLIFTS
 62
5
 10
821.847
 20
-7087.639
 30
446.265
 70
    32
  0
VERTEX
  8
W48XLIFTS
 62
5
 10
837.179
 20
-7094.742
 30
444.923
 70
    32
  0
VERTEX
  8
W48XLIFTS
 62
5
 10
851.800
 20
-7109.865
 30
442.775
 70
    32
  0
VERTEX
  8
W48XLIFTS
 62
5
 10
865.121
 20
-7118.228
 30
441.243
 70
    32
  0
VERTEX
  8
W48XLIFTS
 62
5
 10
875.154
 20
-7126.594
 30
439.748
 70
    32
  0
VERTEX
  8
W48XLIFTS
 62
5
 10
879.995
 20
-7140.290
 30
437.903
 70
    32
  0
VERTEX
  8
W48XLIFTS
 62
5
 10
879.940
 20
-7156.780
 30
435.681
 70
    32
  0
VERTEX
  8
W48XLIFTS
 62
5
 10
876.287
 20
-7168.283
 30
434.273
 70
    32
  0
VERTEX
  8
W48XLIFTS
 62
5
 10
895.583
 20
-7202.950
 30
429.070
 70
    32
  0
VERTEX
  8
W48XLIFTS
 62
5
 10
905.200
 20
-7220.086
 30
429.070
 70
    32
  0
VERTEX
  8
W48XLIFTS
 62
5
 10
896.663
 20
-7230.023
 30
429.070
 70
    32
  0
VERTEX
  8
W48XLIFTS
 62
5
 10
884.300
 20
-7239.798
 30
429.070
 70
    32
  0
VERTEX
  8
W48XLIFTS
 62
5
 10
886.864
 20
-7249.202
 30
429.070
 70
    32
  0
VERTEX
  8
W48XLIFTS
 62
5
 10
876.071
 20
-7251.754
 30
429.070
 70
    32
  0
VERTEX
  8
W48XLIFTS
 62
5
 10
867.685
 20
-7222.208
 30
429.070
 70
    32
  0
VERTEX
  8
W48XLIFTS
 62
5
 10
862.905
 20
-7212.822
 30
429.070
 70
    32
  0
VERTEX
  8
W48XLIFTS
 62
5
 10
861.789
 20
-7204.770
 30
429.070
 70
    32
  0
VERTEX
  8
W48XLIFTS
 62
5
 10
862.100
 20
-7186.938
 30
431.771
 70
    32
  0
VERTEX
  8
W48XLIFTS
 62
5
 10
865.286
 20
-7166.306
 30
434.993
 70
    32
  0
VERTEX
  8
W48XLIFTS
 62
5
 10
857.182
 20
-7127.015
 30
441.079
 70
    32
  0
VERTEX
  8
W48XLIFTS
 62
5
 10
849.253
 20
-7122.527
 30
442.016
 70
    32
  0
VERTEX
  8
W48XLIFTS
 62
5
 10
849.579
 20
-7138.015
 30
441.472
 70
    32
  0
VERTEX
  8
W48XLIFTS
 62
5
 10
857.090
 20
-7173.463
 30
440.125
 70
    32
  0
VERTEX
  8
W48XLIFTS
 62
5
 10
849.491
 20
-7173.528
 30
440.723
 70
    32
  0
VERTEX
  8
W48XLIFTS
 62
5
 10
844.876
 20
-7169.232
 30
441.178
 70
    32
  0
VERTEX
  8
W48XLIFTS
 62
5
 10
835.185
 20
-7166.683
 30
441.997
 70
    32
  0
VERTEX
  8
W48XLIFTS
 62
5
 10
835.472
 20
-7157.572
 30
442.168
 70
    32
  0
VERTEX
  8
W48XLIFTS
 62
5
 10
839.431
 20
-7150.426
 30
442.008
 70
    32
  0
VERTEX
  8
W48XLIFTS
 62
5
 10
837.795
 20
-7138.481
 30
442.392
 70
    32
  0
SEQEND
  8
W48XLIFTS
  0
POLYLINE
  8
W48XLIFTS
 62
5
 66
     1
 70
     9
  0
VERTEX
  8
W48XLIFTS
 62
5
 10
654.068
 20
-7238.077
 30
477.470
 70
    32
  0
VERTEX
  8
W48XLIFTS
 62
5
 10
665.142
 20
-7228.435
 30
477.765
 70
    32
  0
VERTEX
  8
W48XLIFTS
 62
5
 10
659.256
 20
-7219.366
 30
477.727
 70
    32
  0
VERTEX
  8
W48XLIFTS
 62
5
 10
660.419
 20
-7206.004
 30
477.858
 70
    32
  0
VERTEX
  8
W48XLIFTS
 62
5
 10
655.914
 20
-7196.220
 30
477.904
 70
    32
  0
VERTEX
  8
W48XLIFTS
 62
5
 10
660.908
 20
-7186.928
 30
477.904
 70
    32
  0
VERTEX
  8
W48XLIFTS
 62
5
 10
666.120
 20
-7157.886
 30
477.904
 70
    32
  0
VERTEX
  8
W48XLIFTS
 62
5
 10
669.989
 20
-7153.330
 30
477.904
 70
    32
  0
VERTEX
  8
W48XLIFTS
 62
5
 10
675.645
 20
-7155.419
 30
477.904
 70
    32
  0
VERTEX
  8
W48XLIFTS
 62
5
 10
688.061
 20
-7147.801
 30
477.904
 70
    32
  0
VERTEX
  8
W48XLIFTS
 62
5
 10
698.855
 20
-7150.071
 30
477.904
 70
    32
  0
VERTEX
  8
W48XLIFTS
 62
5
 10
702.583
 20
-7159.984
 30
477.904
 70
    32
  0
VERTEX
  8
W48XLIFTS
 62
5
 10
702.352
 20
-7171.036
 30
477.904
 70
    32
  0
VERTEX
  8
W48XLIFTS
 62
5
 10
705.478
 20
-7175.184
 30
477.904
 70
    32
  0
VERTEX
  8
W48XLIFTS
 62
5
 10
757.549
 20
-7178.988
 30
477.904
 70
    32
  0
VERTEX
  8
W48XLIFTS
 62
5
 10
762.371
 20
-7193.547
 30
477.904
 70
    32
  0
VERTEX
  8
W48XLIFTS
 62
5
 10
745.298
 20
-7216.307
 30
477.904
 70
    32
  0
VERTEX
  8
W48XLIFTS
 62
5
 10
738.620
 20
-7213.111
 30
477.904
 70
    32
  0
VERTEX
  8
W48XLIFTS
 62
5
 10
731.865
 20
-7223.576
 30
477.904
 70
    32
  0
VERTEX
  8
W48XLIFTS
 62
5
 10
719.461
 20
-7223.131
 30
477.904
 70
    32
  0
VERTEX
  8
W48XLIFTS
 62
5
 10
698.245
 20
-7241.394
 30
478.037
 70
    32
  0
VERTEX
  8
W48XLIFTS
 62
5
 10
687.465
 20
-7239.441
 30
478.129
 70
    32
  0
VERTEX
  8
W48XLIFTS
 62
5
 10
686.428
 20
-7230.835
 30
478.037
 70
    32
  0
VERTEX
  8
W48XLIFTS
 62
5
 10
676.025
 20
-7230.701
 30
478.052
 70
    32
  0
VERTEX
  8
W48XLIFTS
 62
5
 10
675.097
 20
-7245.511
 30
478.217
 70
    32
  0
VERTEX
  8
W48XLIFTS
 62
5
 10
675.912
 20
-7254.994
 30
478.942
 70
    32
  0
VERTEX
  8
W48XLIFTS
 62
5
 10
690.791
 20
-7272.262
 30
480.718
 70
    32
  0
VERTEX
  8
W48XLIFTS
 62
5
 10
699.157
 20
-7270.858
 30
481.010
 70
    32
  0
VERTEX
  8
W48XLIFTS
 62
5
 10
709.620
 20
-7278.290
 30
481.911
 70
    32
  0
VERTEX
  8
W48XLIFTS
 62
5
 10
719.866
 20
-7294.438
 30
483.187
 70
    32
  0
VERTEX
  8
W48XLIFTS
 62
5
 10
723.017
 20
-7311.907
 30
484.244
 70
    32
  0
VERTEX
  8
W48XLIFTS
 62
5
 10
727.430
 20
-7323.190
 30
485.062
 70
    32
  0
VERTEX
  8
W48XLIFTS
 62
5
 10
728.221
 20
-7333.803
 30
485.663
 70
    32
  0
VERTEX
  8
W48XLIFTS
 62
5
 10
726.897
 20
-7342.812
 30
486.156
 70
    32
  0
VERTEX
  8
W48XLIFTS
 62
5
 10
732.990
 20
-7349.034
 30
486.680
 70
    32
  0
VERTEX
  8
W48XLIFTS
 62
5
 10
735.762
 20
-7356.575
 30
487.371
 70
    32
  0
VERTEX
  8
W48XLIFTS
 62
5
 10
734.890
 20
-7363.128
 30
487.657
 70
    32
  0
VERTEX
  8
W48XLIFTS
 62
5
 10
745.137
 20
-7364.617
 30
487.664
 70
    32
  0
VERTEX
  8
W48XLIFTS
 62
5
 10
799.881
 20
-7354.156
 30
487.730
 70
    32
  0
VERTEX
  8
W48XLIFTS
 62
5
 10
812.334
 20
-7348.514
 30
487.730
 70
    32
  0
VERTEX
  8
W48XLIFTS
 62
5
 10
822.347
 20
-7340.408
 30
487.730
 70
    32
  0
VERTEX
  8
W48XLIFTS
 62
5
 10
835.976
 20
-7339.641
 30
487.730
 70
    32
  0
VERTEX
  8
W48XLIFTS
 62
5
 10
842.937
 20
-7351.640
 30
487.730
 70
    32
  0
VERTEX
  8
W48XLIFTS
 62
5
 10
844.555
 20
-7360.286
 30
487.730
 70
    32
  0
VERTEX
  8
W48XLIFTS
 62
5
 10
832.713
 20
-7370.791
 30
487.730
 70
    32
  0
VERTEX
  8
W48XLIFTS
 62
5
 10
806.104
 20
-7377.382
 30
487.730
 70
    32
  0
VERTEX
  8
W48XLIFTS
 62
5
 10
801.156
 20
-7371.061
 30
487.730
 70
    32
  0
VERTEX
  8
W48XLIFTS
 62
5
 10
780.652
 20
-7370.536
 30
487.730
 70
    32
  0
VERTEX
  8
W48XLIFTS
 62
5
 10
778.210
 20
-7375.182
 30
487.730
 70
    32
  0
VERTEX
  8
W48XLIFTS
 62
5
 10
758.365
 20
-7373.486
 30
487.739
 70
    32
  0
VERTEX
  8
W48XLIFTS
 62
5
 10
757.144
 20
-7384.082
 30
487.866
 70
    32
  0
VERTEX
  8
W48XLIFTS
 62
5
 10
761.875
 20
-7395.344
 30
487.991
 70
    32
  0
VERTEX
  8
W48XLIFTS
 62
5
 10
788.063
 20
-7410.845
 30
488.155
 70
    32
  0
VERTEX
  8
W48XLIFTS
 62
5
 10
788.859
 20
-7423.786
 30
488.223
 70
    32
  0
VERTEX
  8
W48XLIFTS
 62
5
 10
793.446
 20
-7436.601
 30
488.304
 70
    32
  0
VERTEX
  8
W48XLIFTS
 62
5
 10
793.524
 20
-7448.314
 30
488.371
 70
    32
  0
VERTEX
  8
W48XLIFTS
 62
5
 10
791.127
 20
-7455.923
 30
488.408
 70
    32
  0
VERTEX
  8
W48XLIFTS
 62
5
 10
794.155
 20
-7464.379
 30
488.464
 70
    32
  0
VERTEX
  8
W48XLIFTS
 62
5
 10
790.610
 20
-7473.534
 30
488.508
 70
    32
  0
VERTEX
  8
W48XLIFTS
 62
5
 10
798.584
 20
-7486.423
 30
488.606
 70
    32
  0
VERTEX
  8
W48XLIFTS
 62
5
 10
803.966
 20
-7482.860
 30
488.602
 70
    32
  0
VERTEX
  8
W48XLIFTS
 62
5
 10
808.759
 20
-7496.962
 30
488.693
 70
    32
  0
VERTEX
  8
W48XLIFTS
 62
5
 10
816.672
 20
-7507.012
 30
488.765
 70
    32
  0
VERTEX
  8
W48XLIFTS
 62
5
 10
821.153
 20
-7510.691
 30
488.793
 70
    32
  0
VERTEX
  8
W48XLIFTS
 62
5
 10
826.463
 20
-7503.406
 30
488.766
 70
    32
  0
VERTEX
  8
W48XLIFTS
 62
5
 10
829.258
 20
-7493.271
 30
488.719
 70
    32
  0
VERTEX
  8
W48XLIFTS
 62
5
 10
841.940
 20
-7494.895
 30
488.753
 70
    32
  0
VERTEX
  8
W48XLIFTS
 62
5
 10
839.715
 20
-7509.259
 30
488.823
 70
    32
  0
VERTEX
  8
W48XLIFTS
 62
5
 10
833.544
 20
-7518.756
 30
488.860
 70
    32
  0
VERTEX
  8
W48XLIFTS
 62
5
 10
807.295
 20
-7544.395
 30
487.441
 70
    32
  0
VERTEX
  8
W48XLIFTS
 62
5
 10
816.347
 20
-7561.014
 30
486.814
 70
    32
  0
VERTEX
  8
W48XLIFTS
 62
5
 10
819.705
 20
-7570.772
 30
487.147
 70
    32
  0
VERTEX
  8
W48XLIFTS
 62
5
 10
838.780
 20
-7600.490
 30
488.330
 70
    32
  0
VERTEX
  8
W48XLIFTS
 62
5
 10
852.824
 20
-7620.729
 30
489.029
 70
    32
  0
VERTEX
  8
W48XLIFTS
 62
5
 10
865.370
 20
-7635.673
 30
489.531
 70
    32
  0
VERTEX
  8
W48XLIFTS
 62
5
 10
876.802
 20
-7646.694
 30
489.682
 70
    32
  0
VERTEX
  8
W48XLIFTS
 62
5
 10
856.362
 20
-7652.784
 30
489.720
 70
    32
  0
VERTEX
  8
W48XLIFTS
 62
5
 10
840.191
 20
-7631.506
 30
489.309
 70
    32
  0
VERTEX
  8
W48XLIFTS
 62
5
 10
832.356
 20
-7611.402
 30
488.552
 70
    32
  0
VERTEX
  8
W48XLIFTS
 62
5
 10
804.530
 20
-7572.277
 30
487.002
 70
    32
  0
VERTEX
  8
W48XLIFTS
 62
5
 10
795.339
 20
-7557.654
 30
486.402
 70
    32
  0
VERTEX
  8
W48XLIFTS
 62
5
 10
791.303
 20
-7554.411
 30
486.263
 70
    32
  0
VERTEX
  8
W48XLIFTS
 62
5
 10
783.085
 20
-7541.930
 30
486.637
 70
    32
  0
VERTEX
  8
W48XLIFTS
 62
5
 10
779.336
 20
-7533.693
 30
487.068
 70
    32
  0
VERTEX
  8
W48XLIFTS
 62
5
 10
765.115
 20
-7513.367
 30
487.056
 70
    32
  0
VERTEX
  8
W48XLIFTS
 62
5
 10
749.564
 20
-7497.834
 30
486.529
 70
    32
  0
VERTEX
  8
W48XLIFTS
 62
5
 10
736.398
 20
-7464.373
 30
485.368
 70
    32
  0
VERTEX
  8
W48XLIFTS
 62
5
 10
746.572
 20
-7458.365
 30
485.908
 70
    32
  0
VERTEX
  8
W48XLIFTS
 62
5
 10
764.476
 20
-7485.536
 30
487.283
 70
    32
  0
VERTEX
  8
W48XLIFTS
 62
5
 10
771.246
 20
-7483.353
 30
487.663
 70
    32
  0
VERTEX
  8
W48XLIFTS
 62
5
 10
785.851
 20
-7505.052
 30
487.996
 70
    32
  0
VERTEX
  8
W48XLIFTS
 62
5
 10
794.053
 20
-7519.544
 30
488.310
 70
    32
  0
VERTEX
  8
W48XLIFTS
 62
5
 10
800.948
 20
-7519.265
 30
488.615
 70
    32
  0
VERTEX
  8
W48XLIFTS
 62
5
 10
793.471
 20
-7503.108
 30
488.338
 70
    32
  0
VERTEX
  8
W48XLIFTS
 62
5
 10
783.709
 20
-7493.253
 30
488.141
 70
    32
  0
VERTEX
  8
W48XLIFTS
 62
5
 10
779.744
 20
-7480.960
 30
488.144
 70
    32
  0
VERTEX
  8
W48XLIFTS
 62
5
 10
764.633
 20
-7423.332
 30
487.285
 70
    32
  0
VERTEX
  8
W48XLIFTS
 62
5
 10
767.619
 20
-7418.381
 30
487.519
 70
    32
  0
VERTEX
  8
W48XLIFTS
 62
5
 10
766.026
 20
-7410.493
 30
487.625
 70
    32
  0
VERTEX
  8
W48XLIFTS
 62
5
 10
753.348
 20
-7420.195
 30
486.511
 70
    32
  0
VERTEX
  8
W48XLIFTS
 62
5
 10
747.496
 20
-7409.790
 30
486.365
 70
    32
  0
VERTEX
  8
W48XLIFTS
 62
5
 10
730.879
 20
-7411.733
 30
485.025
 70
    32
  0
VERTEX
  8
W48XLIFTS
 62
5
 10
722.307
 20
-7399.989
 30
485.380
 70
    32
  0
VERTEX
  8
W48XLIFTS
 62
5
 10
708.416
 20
-7380.055
 30
485.085
 70
    32
  0
VERTEX
  8
W48XLIFTS
 62
5
 10
696.250
 20
-7355.157
 30
483.863
 70
    32
  0
VERTEX
  8
W48XLIFTS
 62
5
 10
714.363
 20
-7352.848
 30
485.652
 70
    32
  0
VERTEX
  8
W48XLIFTS
 62
5
 10
713.869
 20
-7329.125
 30
484.673
 70
    32
  0
VERTEX
  8
W48XLIFTS
 62
5
 10
707.195
 20
-7314.019
 30
483.696
 70
    32
  0
VERTEX
  8
W48XLIFTS
 62
5
 10
698.049
 20
-7298.583
 30
482.395
 70
    32
  0
VERTEX
  8
W48XLIFTS
 62
5
 10
687.082
 20
-7284.541
 30
481.105
 70
    32
  0
VERTEX
  8
W48XLIFTS
 62
5
 10
672.450
 20
-7269.193
 30
479.562
 70
    32
  0
VERTEX
  8
W48XLIFTS
 62
5
 10
659.009
 20
-7252.935
 30
478.133
 70
    32
  0
SEQEND
  8
W48XLIFTS
  0
POLYLINE
  8
W48XLIFTS
 62
5
 66
     1
 70
     9
  0
VERTEX
  8
W48XLIFTS
 62
5
 10
668.671
 20
-7144.208
 30
514.205
 70
    32
  0
VERTEX
  8
W48XLIFTS
 62
5
 10
690.383
 20
-7142.820
 30
514.351
 70
    32
  0
VERTEX
  8
W48XLIFTS
 62
5
 10
700.329
 20
-7147.231
 30
514.348
 70
    32
  0
VERTEX
  8
W48XLIFTS
 62
5
 10
711.181
 20
-7154.599
 30
514.344
 70
    32
  0
VERTEX
  8
W48XLIFTS
 62
5
 10
728.077
 20
-7170.454
 30
514.340
 70
    32
  0
VERTEX
  8
W48XLIFTS
 62
5
 10
732.844
 20
-7178.713
 30
514.340
 70
    32
  0
VERTEX
  8
W48XLIFTS
 62
5
 10
726.694
 20
-7191.986
 30
514.340
 70
    32
  0
VERTEX
  8
W48XLIFTS
 62
5
 10
711.133
 20
-7186.038
 30
514.340
 70
    32
  0
VERTEX
  8
W48XLIFTS
 62
5
 10
708.152
 20
-7187.820
 30
514.340
 70
    32
  0
VERTEX
  8
W48XLIFTS
 62
5
 10
702.486
 20
-7196.100
 30
514.340
 70
    32
  0
VERTEX
  8
W48XLIFTS
 62
5
 10
700.707
 20
-7202.868
 30
514.340
 70
    32
  0
VERTEX
  8
W48XLIFTS
 62
5
 10
685.547
 20
-7206.872
 30
514.340
 70
    32
  0
VERTEX
  8
W48XLIFTS
 62
5
 10
674.606
 20
-7200.889
 30
514.340
 70
    32
  0
VERTEX
  8
W48XLIFTS
 62
5
 10
666.468
 20
-7193.207
 30
514.340
 70
    32
  0
VERTEX
  8
W48XLIFTS
 62
5
 10
668.543
 20
-7185.218
 30
514.337
 70
    32
  0
VERTEX
  8
W48XLIFTS
 62
5
 10
667.740
 20
-7180.437
 30
514.335
 70
    32
  0
VERTEX
  8
W48XLIFTS
 62
5
 10
659.412
 20
-7152.217
 30
514.015
 70
    32
  0
SEQEND
  8
W48XLIFTS
  0
POLYLINE
  8
W48XLIFTS
 62
5
 66
     1
 70
     9
  0
VERTEX
  8
W48XLIFTS
 62
5
 10
717.567
 20
-7355.022
 30
514.220
 70
    32
  0
VERTEX
  8
W48XLIFTS
 62
5
 10
723.038
 20
-7367.200
 30
514.220
 70
    32
  0
VERTEX
  8
W48XLIFTS
 62
5
 10
728.318
 20
-7373.401
 30
514.220
 70
    32
  0
VERTEX
  8
W48XLIFTS
 62
5
 10
744.388
 20
-7382.664
 30
514.220
 70
    32
  0
VERTEX
  8
W48XLIFTS
 62
5
 10
755.563
 20
-7391.745
 30
514.220
 70
    32
  0
VERTEX
  8
W48XLIFTS
 62
5
 10
767.855
 20
-7408.320
 30
514.220
 70
    32
  0
VERTEX
  8
W48XLIFTS
 62
5
 10
774.893
 20
-7412.442
 30
514.220
 70
    32
  0
VERTEX
  8
W48XLIFTS
 62
5
 10
782.306
 20
-7414.396
 30
514.220
 70
    32
  0
VERTEX
  8
W48XLIFTS
 62
5
 10
787.013
 20
-7430.225
 30
514.220
 70
    32
  0
VERTEX
  8
W48XLIFTS
 62
5
 10
791.779
 20
-7441.171
 30
514.220
 70
    32
  0
VERTEX
  8
W48XLIFTS
 62
5
 10
793.143
 20
-7448.638
 30
514.220
 70
    32
  0
VERTEX
  8
W48XLIFTS
 62
5
 10
791.275
 20
-7456.790
 30
514.220
 70
    32
  0
VERTEX
  8
W48XLIFTS
 62
5
 10
792.816
 20
-7464.173
 30
514.220
 70
    32
  0
VERTEX
  8
W48XLIFTS
 62
5
 10
790.742
 20
-7481.349
 30
514.220
 70
    32
  0
VERTEX
  8
W48XLIFTS
 62
5
 10
794.716
 20
-7489.763
 30
514.220
 70
    32
  0
VERTEX
  8
W48XLIFTS
 62
5
 10
794.892
 20
-7498.304
 30
514.220
 70
    32
  0
VERTEX
  8
W48XLIFTS
 62
5
 10
790.257
 20
-7510.089
 30
514.220
 70
    32
  0
VERTEX
  8
W48XLIFTS
 62
5
 10
789.746
 20
-7515.397
 30
514.220
 70
    32
  0
VERTEX
  8
W48XLIFTS
 62
5
 10
781.632
 20
-7521.961
 30
514.220
 70
    32
  0
VERTEX
  8
W48XLIFTS
 62
5
 10
773.694
 20
-7525.192
 30
514.220
 70
    32
  0
VERTEX
  8
W48XLIFTS
 62
5
 10
773.752
 20
-7513.811
 30
514.220
 70
    32
  0
VERTEX
  8
W48XLIFTS
 62
5
 10
765.615
 20
-7482.382
 30
514.220
 70
    32
  0
VERTEX
  8
W48XLIFTS
 62
5
 10
754.523
 20
-7452.420
 30
514.220
 70
    32
  0
VERTEX
  8
W48XLIFTS
 62
5
 10
742.651
 20
-7434.609
 30
514.220
 70
    32
  0
VERTEX
  8
W48XLIFTS
 62
5
 10
723.114
 20
-7386.751
 30
514.220
 70
    32
  0
VERTEX
  8
W48XLIFTS
 62
5
 10
713.457
 20
-7376.745
 30
514.220
 70
    32
  0
VERTEX
  8
W48XLIFTS
 62
5
 10
706.627
 20
-7367.412
 30
514.220
 70
    32
  0
SEQEND
  8
W48XLIFTS
  0
POLYLINE
  8
W48XLIFTS
 62
5
 66
     1
 70
     9
  0
VERTEX
  8
W48XLIFTS
 62
5
 10
1030.452
 20
-7996.804
 30
416.940
 70
    32
  0
VERTEX
  8
W48XLIFTS
 62
5
 10
1027.238
 20
-7993.746
 30
416.671
 70
    32
  0
VERTEX
  8
W48XLIFTS
 62
5
 10
1017.831
 20
-7984.159
 30
415.399
 70
    32
  0
VERTEX
  8
W48XLIFTS
 62
5
 10
1007.997
 20
-7974.130
 30
410.676
 70
    32
  0
VERTEX
  8
W48XLIFTS
 62
5
 10
1002.070
 20
-7964.257
 30
409.195
 70
    32
  0
VERTEX
  8
W48XLIFTS
 62
5
 10
978.964
 20
-7928.282
 30
409.187
 70
    32
  0
VERTEX
  8
W48XLIFTS
 62
5
 10
969.435
 20
-7921.934
 30
409.188
 70
    32
  0
VERTEX
  8
W48XLIFTS
 62
5
 10
952.045
 20
-7918.686
 30
409.235
 70
    32
  0
VERTEX
  8
W48XLIFTS
 62
5
 10
944.358
 20
-7911.549
 30
409.235
 70
    32
  0
VERTEX
  8
W48XLIFTS
 62
5
 10
933.470
 20
-7916.491
 30
409.290
 70
    32
  0
VERTEX
  8
W48XLIFTS
 62
5
 10
922.833
 20
-7905.637
 30
409.290
 70
    32
  0
VERTEX
  8
W48XLIFTS
 62
5
 10
907.990
 20
-7885.106
 30
409.279
 70
    32
  0
VERTEX
  8
W48XLIFTS
 62
5
 10
904.132
 20
-7885.476
 30
409.290
 70
    32
  0
VERTEX
  8
W48XLIFTS
 62
5
 10
892.606
 20
-7877.460
 30
409.290
 70
    32
  0
VERTEX
  8
W48XLIFTS
 62
5
 10
880.516
 20
-7862.373
 30
409.290
 70
    32
  0
VERTEX
  8
W48XLIFTS
 62
5
 10
867.160
 20
-7870.284
 30
409.290
 70
    32
  0
VERTEX
  8
W48XLIFTS
 62
5
 10
867.379
 20
-7889.074
 30
409.290
 70
    32
  0
VERTEX
  8
W48XLIFTS
 62
5
 10
871.150
 20
-7893.822
 30
409.290
 70
    32
  0
VERTEX
  8
W48XLIFTS
 62
5
 10
860.232
 20
-7895.758
 30
409.290
 70
    32
  0
VERTEX
  8
W48XLIFTS
 62
5
 10
858.195
 20
-7904.781
 30
409.290
 70
    32
  0
VERTEX
  8
W48XLIFTS
 62
5
 10
876.370
 20
-7910.997
 30
409.294
 70
    32
  0
VERTEX
  8
W48XLIFTS
 62
5
 10
895.183
 20
-7923.102
 30
409.307
 70
    32
  0
VERTEX
  8
W48XLIFTS
 62
5
 10
896.797
 20
-7931.919
 30
409.325
 70
    32
  0
VERTEX
  8
W48XLIFTS
 62
5
 10
893.779
 20
-7935.325
 30
409.331
 70
    32
  0
VERTEX
  8
W48XLIFTS
 62
5
 10
886.809
 20
-7931.210
 30
409.321
 70
    32
  0
VERTEX
  8
W48XLIFTS
 62
5
 10
880.513
 20
-7941.370
 30
409.324
 70
    32
  0
VERTEX
  8
W48XLIFTS
 62
5
 10
914.234
 20
-7959.816
 30
409.374
 70
    32
  0
VERTEX
  8
W48XLIFTS
 62
5
 10
934.464
 20
-7967.205
 30
409.393
 70
    32
  0
VERTEX
  8
W48XLIFTS
 62
5
 10
943.274
 20
-7974.909
 30
410.062
 70
    32
  0
VERTEX
  8
W48XLIFTS
 62
5
 10
955.609
 20
-7975.888
 30
410.930
 70
    32
  0
VERTEX
  8
W48XLIFTS
 62
5
 10
961.389
 20
-7982.744
 30
411.602
 70
    32
  0
VERTEX
  8
W48XLIFTS
 62
5
 10
972.225
 20
-7984.239
 30
412.370
 70
    32
  0
VERTEX
  8
W48XLIFTS
 62
5
 10
998.259
 20
-7999.362
 30
414.768
 70
    32
  0
VERTEX
  8
W48XLIFTS
 62
5
 10
1003.888
 20
-8006.451
 30
415.469
 70
    32
  0
VERTEX
  8
W48XLIFTS
 62
5
 10
1011.198
 20
-8007.603
 30
416.009
 70
    32
  0
VERTEX
  8
W48XLIFTS
 62
5
 10
1007.269
 20
-8020.037
 30
416.539
 70
    32
  0
VERTEX
  8
W48XLIFTS
 62
5
 10
1010.656
 20
-8028.119
 30
417.270
 70
    32
  0
VERTEX
  8
W48XLIFTS
 62
5
 10
1016.155
 20
-8036.881
 30
417.077
 70
    32
  0
VERTEX
  8
W48XLIFTS
 62
5
 10
1023.374
 20
-8040.463
 30
416.936
 70
    32
  0
VERTEX
  8
W48XLIFTS
 62
5
 10
1028.632
 20
-8047.509
 30
416.737
 70
    32
  0
VERTEX
  8
W48XLIFTS
 62
5
 10
1026.668
 20
-8059.167
 30
416.502
 70
    32
  0
VERTEX
  8
W48XLIFTS
 62
5
 10
1029.728
 20
-8070.652
 30
416.238
 70
    32
  0
VERTEX
  8
W48XLIFTS
 62
5
 10
1048.534
 20
-8076.814
 30
415.942
 70
    32
  0
VERTEX
  8
W48XLIFTS
 62
5
 10
1053.689
 20
-8108.179
 30
415.613
 70
    32
  0
VERTEX
  8
W48XLIFTS
 62
5
 10
1056.176
 20
-8111.030
 30
415.858
 70
    32
  0
VERTEX
  8
W48XLIFTS
 62
5
 10
1060.491
 20
-8120.844
 30
416.535
 70
    32
  0
VERTEX
  8
W48XLIFTS
 62
5
 10
1061.573
 20
-8128.850
 30
417.006
 70
    32
  0
VERTEX
  8
W48XLIFTS
 62
5
 10
1072.155
 20
-8151.081
 30
418.148
 70
    32
  0
VERTEX
  8
W48XLIFTS
 62
5
 10
1082.359
 20
-8190.218
 30
418.147
 70
    32
  0
VERTEX
  8
W48XLIFTS
 62
5
 10
1096.164
 20
-8209.442
 30
418.137
 70
    32
  0
VERTEX
  8
W48XLIFTS
 62
5
 10
1106.353
 20
-8226.374
 30
418.133
 70
    32
  0
VERTEX
  8
W48XLIFTS
 62
5
 10
1114.984
 20
-8245.441
 30
418.133
 70
    32
  0
VERTEX
  8
W48XLIFTS
 62
5
 10
1113.326
 20
-8256.071
 30
418.133
 70
    32
  0
VERTEX
  8
W48XLIFTS
 62
5
 10
1127.595
 20
-8287.044
 30
418.133
 70
    32
  0
VERTEX
  8
W48XLIFTS
 62
5
 10
1123.330
 20
-8293.685
 30
418.134
 70
    32
  0
VERTEX
  8
W48XLIFTS
 62
5
 10
1130.662
 20
-8322.423
 30
418.133
 70
    32
  0
VERTEX
  8
W48XLIFTS
 62
5
 10
1137.240
 20
-8325.055
 30
418.132
 70
    32
  0
VERTEX
  8
W48XLIFTS
 62
5
 10
1145.141
 20
-8345.039
 30
418.131
 70
    32
  0
VERTEX
  8
W48XLIFTS
 62
5
 10
1153.423
 20
-8346.991
 30
418.131
 70
    32
  0
VERTEX
  8
W48XLIFTS
 62
5
 10
1160.839
 20
-8353.221
 30
418.131
 70
    32
  0
VERTEX
  8
W48XLIFTS
 62
5
 10
1170.540
 20
-8349.894
 30
418.131
 70
    32
  0
VERTEX
  8
W48XLIFTS
 62
5
 10
1173.045
 20
-8340.612
 30
418.131
 70
    32
  0
VERTEX
  8
W48XLIFTS
 62
5
 10
1184.284
 20
-8336.962
 30
418.131
 70
    32
  0
VERTEX
  8
W48XLIFTS
 62
5
 10
1174.675
 20
-8304.084
 30
418.272
 70
    32
  0
VERTEX
  8
W48XLIFTS
 62
5
 10
1178.021
 20
-8297.276
 30
418.311
 70
    32
  0
VERTEX
  8
W48XLIFTS
 62
5
 10
1168.580
 20
-8281.994
 30
418.442
 70
    32
  0
VERTEX
  8
W48XLIFTS
 62
5
 10
1170.212
 20
-8271.048
 30
418.515
 70
    32
  0
VERTEX
  8
W48XLIFTS
 62
5
 10
1165.632
 20
-8266.269
 30
418.560
 70
    32
  0
VERTEX
  8
W48XLIFTS
 62
5
 10
1167.836
 20
-8253.074
 30
418.646
 70
    32
  0
VERTEX
  8
W48XLIFTS
 62
5
 10
1158.900
 20
-8242.103
 30
418.747
 70
    32
  0
VERTEX
  8
W48XLIFTS
 62
5
 10
1150.120
 20
-8218.890
 30
418.842
 70
    32
  0
VERTEX
  8
W48XLIFTS
 62
5
 10
1138.103
 20
-8217.323
 30
418.598
 70
    32
  0
VERTEX
  8
W48XLIFTS
 62
5
 10
1127.860
 20
-8192.691
 30
418.584
 70
    32
  0
VERTEX
  8
W48XLIFTS
 62
5
 10
1122.049
 20
-8186.645
 30
418.509
 70
    32
  0
VERTEX
  8
W48XLIFTS
 62
5
 10
1126.483
 20
-8175.270
 30
419.043
 70
    32
  0
VERTEX
  8
W48XLIFTS
 62
5
 10
1118.689
 20
-8159.802
 30
419.256
 70
    32
  0
VERTEX
  8
W48XLIFTS
 62
5
 10
1113.365
 20
-8152.248
 30
419.273
 70
    32
  0
VERTEX
  8
W48XLIFTS
 62
5
 10
1109.791
 20
-8142.518
 30
419.798
 70
    32
  0
VERTEX
  8
W48XLIFTS
 62
5
 10
1112.864
 20
-8131.550
 30
420.468
 70
    32
  0
VERTEX
  8
W48XLIFTS
 62
5
 10
1106.969
 20
-8122.429
 30
419.093
 70
    32
  0
VERTEX
  8
W48XLIFTS
 62
5
 10
1107.895
 20
-8113.278
 30
418.359
 70
    32
  0
VERTEX
  8
W48XLIFTS
 62
5
 10
1103.847
 20
-8109.311
 30
417.879
 70
    32
  0
VERTEX
  8
W48XLIFTS
 62
5
 10
1100.347
 20
-8094.586
 30
416.618
 70
    32
  0
VERTEX
  8
W48XLIFTS
 62
5
 10
1086.918
 20
-8077.532
 30
415.403
 70
    32
  0
VERTEX
  8
W48XLIFTS
 62
5
 10
1083.666
 20
-8055.205
 30
416.390
 70
    32
  0
VERTEX
  8
W48XLIFTS
 62
5
 10
1079.990
 20
-8054.532
 30
416.390
 70
    32
  0
VERTEX
  8
W48XLIFTS
 62
5
 10
1066.892
 20
-8059.658
 30
416.175
 70
    32
  0
VERTEX
  8
W48XLIFTS
 62
5
 10
1061.114
 20
-8056.055
 30
416.255
 70
    32
  0
VERTEX
  8
W48XLIFTS
 62
5
 10
1053.223
 20
-8040.888
 30
416.740
 70
    32
  0
VERTEX
  8
W48XLIFTS
 62
5
 10
1054.582
 20
-8025.783
 30
417.169
 70
    32
  0
VERTEX
  8
W48XLIFTS
 62
5
 10
1049.671
 20
-8014.085
 30
417.506
 70
    32
  0
SEQEND
  8
W48XLIFTS
  0
POLYLINE
  8
W48XLIFTS
 62
5
 66
     1
 70
     9
  0
VERTEX
  8
W48XLIFTS
 62
5
 10
1232.392
 20
-8130.452
 30
432.930
 70
    32
  0
VERTEX
  8
W48XLIFTS
 62
5
 10
1263.191
 20
-8126.421
 30
432.930
 70
    32
  0
VERTEX
  8
W48XLIFTS
 62
5
 10
1270.366
 20
-8145.634
 30
432.930
 70
    32
  0
VERTEX
  8
W48XLIFTS
 62
5
 10
1276.922
 20
-8150.640
 30
432.930
 70
    32
  0
VERTEX
  8
W48XLIFTS
 62
5
 10
1278.139
 20
-8162.914
 30
432.930
 70
    32
  0
VERTEX
  8
W48XLIFTS
 62
5
 10
1276.842
 20
-8164.954
 30
432.930
 70
    32
  0
VERTEX
  8
W48XLIFTS
 62
5
 10
1277.067
 20
-8185.870
 30
432.930
 70
    32
  0
VERTEX
  8
W48XLIFTS
 62
5
 10
1272.739
 20
-8194.693
 30
432.930
 70
    32
  0
VERTEX
  8
W48XLIFTS
 62
5
 10
1232.792
 20
-8197.236
 30
432.930
 70
    32
  0
VERTEX
  8
W48XLIFTS
 62
5
 10
1219.697
 20
-8182.722
 30
432.930
 70
    32
  0
VERTEX
  8
W48XLIFTS
 62
5
 10
1225.426
 20
-8147.541
 30
432.930
 70
    32
  0
VERTEX
  8
W48XLIFTS
 62
5
 10
1225.160
 20
-8141.693
 30
432.930
 70
    32
  0
SEQEND
  8
W48XLIFTS
  0
POLYLINE
  8
W48XLIFTS
 62
5
 66
     1
 70
     9
  0
VERTEX
  8
W48XLIFTS
 62
5
 10
1229.817
 20
-8123.108
 30
393.400
 70
    32
  0
VERTEX
  8
W48XLIFTS
 62
5
 10
1250.474
 20
-8151.105
 30
393.400
 70
    32
  0
VERTEX
  8
W48XLIFTS
 62
5
 10
1256.002
 20
-8162.873
 30
393.400
 70
    32
  0
VERTEX
  8
W48XLIFTS
 62
5
 10
1259.673
 20
-8179.932
 30
393.400
 70
    32
  0
VERTEX
  8
W48XLIFTS
 62
5
 10
1258.182
 20
-8185.828
 30
393.400
 70
    32
  0
VERTEX
  8
W48XLIFTS
 62
5
 10
1272.620
 20
-8212.067
 30
393.400
 70
    32
  0
VERTEX
  8
W48XLIFTS
 62
5
 10
1288.976
 20
-8235.211
 30
393.400
 70
    32
  0
VERTEX
  8
W48XLIFTS
 62
5
 10
1309.482
 20
-8227.121
 30
393.400
 70
    32
  0
VERTEX
  8
W48XLIFTS
 62
5
 10
1323.490
 20
-8217.346
 30
393.400
 70
    32
  0
VERTEX
  8
W48XLIFTS
 62
5
 10
1308.506
 20
-8194.234
 30
393.400
 70
    32
  0
VERTEX
  8
W48XLIFTS
 62
5
 10
1304.351
 20
-8178.120
 30
393.400
 70
    32
  0
VERTEX
  8
W48XLIFTS
 62
5
 10
1311.461
 20
-8163.050
 30
393.400
 70
    32
  0
VERTEX
  8
W48XLIFTS
 62
5
 10
1301.850
 20
-8153.065
 30
393.400
 70
    32
  0
VERTEX
  8
W48XLIFTS
 62
5
 10
1282.817
 20
-8137.431
 30
393.400
 70
    32
  0
VERTEX
  8
W48XLIFTS
 62
5
 10
1275.987
 20
-8125.013
 30
393.400
 70
    32
  0
VERTEX
  8
W48XLIFTS
 62
5
 10
1269.140
 20
-8120.912
 30
393.400
 70
    32
  0
VERTEX
  8
W48XLIFTS
 62
5
 10
1264.758
 20
-8110.589
 30
393.400
 70
    32
  0
VERTEX
  8
W48XLIFTS
 62
5
 10
1246.012
 20
-8110.438
 30
393.400
 70
    32
  0
SEQEND
  8
W48XLIFTS
  0
POLYLINE
  8
W48XLIFTS
 62
5
 66
     1
 70
     9
  0
VERTEX
  8
W48XLIFTS
 62
5
 10
743.330
 20
-7250.288
 30
523.730
 70
    32
  0
VERTEX
  8
W48XLIFTS
 62
5
 10
760.076
 20
-7253.431
 30
523.730
 70
    32
  0
VERTEX
  8
W48XLIFTS
 62
5
 10
762.114
 20
-7254.992
 30
523.730
 70
    32
  0
VERTEX
  8
W48XLIFTS
 62
5
 10
771.105
 20
-7248.393
 30
523.730
 70
    32
  0
VERTEX
  8
W48XLIFTS
 62
5
 10
771.184
 20
-7233.035
 30
523.730
 70
    32
  0
VERTEX
  8
W48XLIFTS
 62
5
 10
763.312
 20
-7224.485
 30
523.730
 70
    32
  0
VERTEX
  8
W48XLIFTS
 62
5
 10
747.313
 20
-7226.619
 30
523.714
 70
    32
  0
VERTEX
  8
W48XLIFTS
 62
5
 10
742.074
 20
-7238.572
 30
523.717
 70
    32
  0
SEQEND
  8
W48XLIFTS
  0
ENDSEC
  0
EOF
