999
********************************
999
*   DXF File - Entities Only   *
999
*        3D Data Format        *
999
*     Output from ENVISAGE     *
999
*     31-Dec-2007 15:46:04     *
999
********************************
  0
SECTION 
  2
HEADER
  9
$ACADVER
  1
AC1009
  9
$EXTMIN
 10
-290000.000
 20
-250000.000
 30
-4000.000
  9
$EXTMAX
 10
320000.000
 20
160000.000
 30
6000.000
  0
ENDSEC
  0
SECTION
  2
ENTITIES
  0
POLYLINE
  8
W50LXLIFT
 62
3
 66
     1
 70
     9
  0
VERTEX
  8
W50LXLIFT
 62
3
 10
1172.583
 20
-8080.203
 30
237.000
 70
    32
  0
VERTEX
  8
W50LXLIFT
 62
3
 10
1173.883
 20
-8073.236
 30
237.000
 70
    32
  0
VERTEX
  8
W50LXLIFT
 62
3
 10
1167.410
 20
-8050.711
 30
237.000
 70
    32
  0
VERTEX
  8
W50LXLIFT
 62
3
 10
1160.030
 20
-8029.620
 30
237.000
 70
    32
  0
VERTEX
  8
W50LXLIFT
 62
3
 10
1156.321
 20
-8013.354
 30
237.000
 70
    32
  0
VERTEX
  8
W50LXLIFT
 62
3
 10
1143.861
 20
-7994.703
 30
237.000
 70
    32
  0
VERTEX
  8
W50LXLIFT
 62
3
 10
1138.568
 20
-7988.126
 30
237.000
 70
    32
  0
VERTEX
  8
W50LXLIFT
 62
3
 10
1129.890
 20
-7987.762
 30
237.000
 70
    32
  0
VERTEX
  8
W50LXLIFT
 62
3
 10
1122.590
 20
-7993.260
 30
237.000
 70
    32
  0
VERTEX
  8
W50LXLIFT
 62
3
 10
1125.912
 20
-8009.593
 30
237.000
 70
    32
  0
VERTEX
  8
W50LXLIFT
 62
3
 10
1134.491
 20
-8034.823
 30
237.000
 70
    32
  0
VERTEX
  8
W50LXLIFT
 62
3
 10
1141.098
 20
-8060.635
 30
237.000
 70
    32
  0
VERTEX
  8
W50LXLIFT
 62
3
 10
1147.832
 20
-8078.927
 30
237.000
 70
    32
  0
VERTEX
  8
W50LXLIFT
 62
3
 10
1154.941
 20
-8089.296
 30
237.000
 70
    32
  0
VERTEX
  8
W50LXLIFT
 62
3
 10
1165.180
 20
-8085.560
 30
237.000
 70
    32
  0
SEQEND
  8
W50LXLIFT
  0
POLYLINE
  8
W50LXLIFT
 62
2
 66
     1
 70
     9
  0
VERTEX
  8
W50LXLIFT
 62
2
 10
1175.735
 20
-7973.268
 30
242.000
 70
    32
  0
VERTEX
  8
W50LXLIFT
 62
2
 10
1173.446
 20
-7979.597
 30
242.000
 70
    32
  0
VERTEX
  8
W50LXLIFT
 62
2
 10
1174.759
 20
-7988.830
 30
242.000
 70
    32
  0
VERTEX
  8
W50LXLIFT
 62
2
 10
1178.974
 20
-7997.976
 30
242.000
 70
    32
  0
VERTEX
  8
W50LXLIFT
 62
2
 10
1183.753
 20
-8004.942
 30
242.000
 70
    32
  0
VERTEX
  8
W50LXLIFT
 62
2
 10
1183.134
 20
-8010.569
 30
242.000
 70
    32
  0
VERTEX
  8
W50LXLIFT
 62
2
 10
1180.811
 20
-8013.188
 30
242.000
 70
    32
  0
VERTEX
  8
W50LXLIFT
 62
2
 10
1183.780
 20
-8019.203
 30
242.000
 70
    32
  0
VERTEX
  8
W50LXLIFT
 62
2
 10
1190.161
 20
-8021.563
 30
242.000
 70
    32
  0
VERTEX
  8
W50LXLIFT
 62
2
 10
1197.723
 20
-8020.512
 30
242.000
 70
    32
  0
VERTEX
  8
W50LXLIFT
 62
2
 10
1203.080
 20
-8031.770
 30
242.000
 70
    32
  0
VERTEX
  8
W50LXLIFT
 62
2
 10
1212.045
 20
-8037.578
 30
242.000
 70
    32
  0
VERTEX
  8
W50LXLIFT
 62
2
 10
1219.867
 20
-8042.154
 30
242.000
 70
    32
  0
VERTEX
  8
W50LXLIFT
 62
2
 10
1227.537
 20
-8035.529
 30
242.000
 70
    32
  0
VERTEX
  8
W50LXLIFT
 62
2
 10
1224.534
 20
-8029.760
 30
242.000
 70
    32
  0
VERTEX
  8
W50LXLIFT
 62
2
 10
1224.695
 20
-8024.256
 30
242.000
 70
    32
  0
VERTEX
  8
W50LXLIFT
 62
2
 10
1230.328
 20
-8015.203
 30
242.000
 70
    32
  0
VERTEX
  8
W50LXLIFT
 62
2
 10
1230.403
 20
-8005.919
 30
242.000
 70
    32
  0
VERTEX
  8
W50LXLIFT
 62
2
 10
1226.295
 20
-7995.595
 30
242.000
 70
    32
  0
VERTEX
  8
W50LXLIFT
 62
2
 10
1219.758
 20
-7987.748
 30
242.000
 70
    32
  0
VERTEX
  8
W50LXLIFT
 62
2
 10
1213.431
 20
-7981.502
 30
242.000
 70
    32
  0
VERTEX
  8
W50LXLIFT
 62
2
 10
1200.253
 20
-7963.471
 30
242.000
 70
    32
  0
VERTEX
  8
W50LXLIFT
 62
2
 10
1196.773
 20
-7961.024
 30
242.000
 70
    32
  0
VERTEX
  8
W50LXLIFT
 62
2
 10
1192.200
 20
-7962.692
 30
242.000
 70
    32
  0
SEQEND
  8
W50LXLIFT
  0
POLYLINE
  8
W50LXLIFT
 62
6
 66
     1
 70
     9
  0
VERTEX
  8
W50LXLIFT
 62
6
 10
1090.450
 20
-8005.627
 30
239.000
 70
    32
  0
VERTEX
  8
W50LXLIFT
 62
6
 10
1085.023
 20
-7993.983
 30
239.000
 70
    32
  0
VERTEX
  8
W50LXLIFT
 62
6
 10
1080.386
 20
-7986.032
 30
239.000
 70
    32
  0
VERTEX
  8
W50LXLIFT
 62
6
 10
1074.272
 20
-7976.111
 30
239.000
 70
    32
  0
VERTEX
  8
W50LXLIFT
 62
6
 10
1070.047
 20
-7953.900
 30
239.000
 70
    32
  0
VERTEX
  8
W50LXLIFT
 62
6
 10
1063.562
 20
-7948.761
 30
239.000
 70
    32
  0
VERTEX
  8
W50LXLIFT
 62
6
 10
1053.460
 20
-7932.929
 30
239.000
 70
    32
  0
VERTEX
  8
W50LXLIFT
 62
6
 10
1047.218
 20
-7931.783
 30
239.000
 70
    32
  0
VERTEX
  8
W50LXLIFT
 62
6
 10
1028.604
 20
-7917.933
 30
239.000
 70
    32
  0
VERTEX
  8
W50LXLIFT
 62
6
 10
1031.352
 20
-7910.163
 30
239.000
 70
    32
  0
VERTEX
  8
W50LXLIFT
 62
6
 10
1031.079
 20
-7895.866
 30
239.000
 70
    32
  0
VERTEX
  8
W50LXLIFT
 62
6
 10
1029.414
 20
-7886.897
 30
239.000
 70
    32
  0
VERTEX
  8
W50LXLIFT
 62
6
 10
1020.188
 20
-7877.221
 30
239.000
 70
    32
  0
VERTEX
  8
W50LXLIFT
 62
6
 10
1007.544
 20
-7877.354
 30
239.000
 70
    32
  0
VERTEX
  8
W50LXLIFT
 62
6
 10
995.724
 20
-7883.572
 30
239.000
 70
    32
  0
VERTEX
  8
W50LXLIFT
 62
6
 10
993.205
 20
-7891.941
 30
239.000
 70
    32
  0
VERTEX
  8
W50LXLIFT
 62
6
 10
993.602
 20
-7904.496
 30
239.000
 70
    32
  0
VERTEX
  8
W50LXLIFT
 62
6
 10
1000.841
 20
-7914.893
 30
239.000
 70
    32
  0
VERTEX
  8
W50LXLIFT
 62
6
 10
1015.623
 20
-7926.120
 30
239.000
 70
    32
  0
VERTEX
  8
W50LXLIFT
 62
6
 10
1024.346
 20
-7922.661
 30
239.000
 70
    32
  0
VERTEX
  8
W50LXLIFT
 62
6
 10
1044.455
 20
-7936.599
 30
239.000
 70
    32
  0
VERTEX
  8
W50LXLIFT
 62
6
 10
1050.739
 20
-7955.401
 30
239.000
 70
    32
  0
VERTEX
  8
W50LXLIFT
 62
6
 10
1048.865
 20
-7971.964
 30
239.000
 70
    32
  0
VERTEX
  8
W50LXLIFT
 62
6
 10
1050.054
 20
-7984.696
 30
239.000
 70
    32
  0
VERTEX
  8
W50LXLIFT
 62
6
 10
1057.692
 20
-8003.691
 30
239.000
 70
    32
  0
VERTEX
  8
W50LXLIFT
 62
6
 10
1062.455
 20
-8007.263
 30
239.000
 70
    32
  0
VERTEX
  8
W50LXLIFT
 62
6
 10
1064.897
 20
-8011.696
 30
239.000
 70
    32
  0
VERTEX
  8
W50LXLIFT
 62
6
 10
1080.037
 20
-8011.230
 30
239.000
 70
    32
  0
SEQEND
  8
W50LXLIFT
  0
POLYLINE
  8
W50LXLIFT
 62
8
 66
     1
 70
     9
  0
VERTEX
  8
W50LXLIFT
 62
8
 10
988.416
 20
-7811.490
 30
242.000
 70
    32
  0
VERTEX
  8
W50LXLIFT
 62
8
 10
984.616
 20
-7784.566
 30
242.000
 70
    32
  0
VERTEX
  8
W50LXLIFT
 62
8
 10
980.434
 20
-7779.130
 30
242.000
 70
    32
  0
VERTEX
  8
W50LXLIFT
 62
8
 10
961.715
 20
-7764.261
 30
242.000
 70
    32
  0
VERTEX
  8
W50LXLIFT
 62
8
 10
941.605
 20
-7754.279
 30
242.000
 70
    32
  0
VERTEX
  8
W50LXLIFT
 62
8
 10
939.403
 20
-7759.553
 30
242.000
 70
    32
  0
VERTEX
  8
W50LXLIFT
 62
8
 10
932.891
 20
-7770.363
 30
242.000
 70
    32
  0
VERTEX
  8
W50LXLIFT
 62
8
 10
950.469
 20
-7780.484
 30
242.000
 70
    32
  0
VERTEX
  8
W50LXLIFT
 62
8
 10
954.329
 20
-7796.488
 30
242.000
 70
    32
  0
VERTEX
  8
W50LXLIFT
 62
8
 10
961.093
 20
-7806.251
 30
242.000
 70
    32
  0
VERTEX
  8
W50LXLIFT
 62
8
 10
970.055
 20
-7816.016
 30
242.000
 70
    32
  0
VERTEX
  8
W50LXLIFT
 62
8
 10
973.292
 20
-7814.470
 30
242.000
 70
    32
  0
VERTEX
  8
W50LXLIFT
 62
8
 10
978.512
 20
-7817.480
 30
242.000
 70
    32
  0
SEQEND
  8
W50LXLIFT
  0
POLYLINE
  8
W50LXLIFT
 62
7
 66
     1
 70
     9
  0
VERTEX
  8
W50LXLIFT
 62
7
 10
1339.993
 20
-8247.851
 30
247.000
 70
    32
  0
VERTEX
  8
W50LXLIFT
 62
7
 10
1332.354
 20
-8235.578
 30
247.000
 70
    32
  0
VERTEX
  8
W50LXLIFT
 62
7
 10
1320.756
 20
-8221.640
 30
247.000
 70
    32
  0
VERTEX
  8
W50LXLIFT
 62
7
 10
1317.956
 20
-8213.112
 30
247.000
 70
    32
  0
VERTEX
  8
W50LXLIFT
 62
7
 10
1310.198
 20
-8195.793
 30
247.000
 70
    32
  0
VERTEX
  8
W50LXLIFT
 62
7
 10
1310.487
 20
-8190.119
 30
247.000
 70
    32
  0
VERTEX
  8
W50LXLIFT
 62
7
 10
1304.947
 20
-8190.603
 30
247.000
 70
    32
  0
VERTEX
  8
W50LXLIFT
 62
7
 10
1295.519
 20
-8184.784
 30
247.000
 70
    32
  0
VERTEX
  8
W50LXLIFT
 62
7
 10
1301.746
 20
-8154.304
 30
247.000
 70
    32
  0
VERTEX
  8
W50LXLIFT
 62
7
 10
1292.935
 20
-8138.963
 30
247.000
 70
    32
  0
VERTEX
  8
W50LXLIFT
 62
7
 10
1298.610
 20
-8134.665
 30
247.000
 70
    32
  0
VERTEX
  8
W50LXLIFT
 62
7
 10
1310.856
 20
-8144.303
 30
247.000
 70
    32
  0
VERTEX
  8
W50LXLIFT
 62
7
 10
1316.002
 20
-8144.764
 30
247.000
 70
    32
  0
VERTEX
  8
W50LXLIFT
 62
7
 10
1331.890
 20
-8154.007
 30
247.000
 70
    32
  0
VERTEX
  8
W50LXLIFT
 62
7
 10
1334.009
 20
-8159.542
 30
247.000
 70
    32
  0
VERTEX
  8
W50LXLIFT
 62
7
 10
1331.920
 20
-8168.402
 30
247.000
 70
    32
  0
VERTEX
  8
W50LXLIFT
 62
7
 10
1328.482
 20
-8181.205
 30
247.000
 70
    32
  0
VERTEX
  8
W50LXLIFT
 62
7
 10
1325.170
 20
-8196.101
 30
247.000
 70
    32
  0
VERTEX
  8
W50LXLIFT
 62
7
 10
1325.989
 20
-8201.503
 30
247.000
 70
    32
  0
VERTEX
  8
W50LXLIFT
 62
7
 10
1337.014
 20
-8219.251
 30
247.000
 70
    32
  0
VERTEX
  8
W50LXLIFT
 62
7
 10
1353.989
 20
-8237.958
 30
247.000
 70
    32
  0
SEQEND
  8
W50LXLIFT
  0
POLYLINE
  8
W50LXLIFT
 62
2
 66
     1
 70
     9
  0
VERTEX
  8
W50LXLIFT
 62
2
 10
1174.213
 20
-7964.796
 30
250.000
 70
    32
  0
VERTEX
  8
W50LXLIFT
 62
2
 10
1174.356
 20
-7980.527
 30
250.000
 70
    32
  0
VERTEX
  8
W50LXLIFT
 62
2
 10
1183.936
 20
-7998.685
 30
250.000
 70
    32
  0
VERTEX
  8
W50LXLIFT
 62
2
 10
1185.577
 20
-8006.976
 30
250.000
 70
    32
  0
VERTEX
  8
W50LXLIFT
 62
2
 10
1180.315
 20
-8014.792
 30
250.000
 70
    32
  0
VERTEX
  8
W50LXLIFT
 62
2
 10
1184.860
 20
-8022.577
 30
250.000
 70
    32
  0
VERTEX
  8
W50LXLIFT
 62
2
 10
1201.096
 20
-8020.751
 30
250.000
 70
    32
  0
VERTEX
  8
W50LXLIFT
 62
2
 10
1217.007
 20
-8036.093
 30
250.000
 70
    32
  0
VERTEX
  8
W50LXLIFT
 62
2
 10
1224.405
 20
-8036.202
 30
250.000
 70
    32
  0
VERTEX
  8
W50LXLIFT
 62
2
 10
1228.174
 20
-8023.700
 30
250.000
 70
    32
  0
VERTEX
  8
W50LXLIFT
 62
2
 10
1224.114
 20
-8007.693
 30
250.000
 70
    32
  0
VERTEX
  8
W50LXLIFT
 62
2
 10
1217.130
 20
-7990.240
 30
250.000
 70
    32
  0
VERTEX
  8
W50LXLIFT
 62
2
 10
1211.134
 20
-7979.157
 30
250.000
 70
    32
  0
VERTEX
  8
W50LXLIFT
 62
2
 10
1201.318
 20
-7968.817
 30
250.000
 70
    32
  0
VERTEX
  8
W50LXLIFT
 62
2
 10
1190.058
 20
-7963.476
 30
250.000
 70
    32
  0
VERTEX
  8
W50LXLIFT
 62
2
 10
1181.458
 20
-7964.254
 30
250.000
 70
    32
  0
SEQEND
  8
W50LXLIFT
  0
POLYLINE
  8
W50LXLIFT
 62
3
 66
     1
 70
     9
  0
VERTEX
  8
W50LXLIFT
 62
3
 10
1119.465
 20
-8010.775
 30
252.000
 70
    32
  0
VERTEX
  8
W50LXLIFT
 62
3
 10
1116.909
 20
-8023.146
 30
252.000
 70
    32
  0
VERTEX
  8
W50LXLIFT
 62
3
 10
1122.490
 20
-8035.738
 30
252.000
 70
    32
  0
VERTEX
  8
W50LXLIFT
 62
3
 10
1124.232
 20
-8049.196
 30
252.000
 70
    32
  0
VERTEX
  8
W50LXLIFT
 62
3
 10
1127.275
 20
-8064.862
 30
252.000
 70
    32
  0
VERTEX
  8
W50LXLIFT
 62
3
 10
1127.819
 20
-8069.593
 30
252.000
 70
    32
  0
VERTEX
  8
W50LXLIFT
 62
3
 10
1133.516
 20
-8078.495
 30
252.000
 70
    32
  0
VERTEX
  8
W50LXLIFT
 62
3
 10
1134.517
 20
-8087.695
 30
252.000
 70
    32
  0
VERTEX
  8
W50LXLIFT
 62
3
 10
1135.881
 20
-8093.241
 30
252.000
 70
    32
  0
VERTEX
  8
W50LXLIFT
 62
3
 10
1151.839
 20
-8084.084
 30
252.000
 70
    32
  0
VERTEX
  8
W50LXLIFT
 62
3
 10
1157.015
 20
-8080.591
 30
252.000
 70
    32
  0
VERTEX
  8
W50LXLIFT
 62
3
 10
1154.026
 20
-8071.657
 30
252.000
 70
    32
  0
VERTEX
  8
W50LXLIFT
 62
3
 10
1150.614
 20
-8060.524
 30
252.000
 70
    32
  0
VERTEX
  8
W50LXLIFT
 62
3
 10
1150.284
 20
-8053.122
 30
252.000
 70
    32
  0
VERTEX
  8
W50LXLIFT
 62
3
 10
1149.824
 20
-8046.580
 30
252.000
 70
    32
  0
VERTEX
  8
W50LXLIFT
 62
3
 10
1142.000
 20
-8030.949
 30
252.000
 70
    32
  0
VERTEX
  8
W50LXLIFT
 62
3
 10
1138.512
 20
-8018.232
 30
252.000
 70
    32
  0
VERTEX
  8
W50LXLIFT
 62
3
 10
1128.634
 20
-8013.728
 30
252.000
 70
    32
  0
SEQEND
  8
W50LXLIFT
  0
POLYLINE
  8
W50LXLIFT
 62
6
 66
     1
 70
     9
  0
VERTEX
  8
W50LXLIFT
 62
6
 10
1092.718
 20
-8012.714
 30
252.000
 70
    32
  0
VERTEX
  8
W50LXLIFT
 62
6
 10
1092.373
 20
-8009.583
 30
252.000
 70
    32
  0
VERTEX
  8
W50LXLIFT
 62
6
 10
1086.555
 20
-7998.150
 30
252.000
 70
    32
  0
VERTEX
  8
W50LXLIFT
 62
6
 10
1081.172
 20
-7989.673
 30
252.000
 70
    32
  0
VERTEX
  8
W50LXLIFT
 62
6
 10
1074.277
 20
-7976.632
 30
252.000
 70
    32
  0
VERTEX
  8
W50LXLIFT
 62
6
 10
1067.599
 20
-7955.894
 30
252.000
 70
    32
  0
VERTEX
  8
W50LXLIFT
 62
6
 10
1056.620
 20
-7939.096
 30
252.000
 70
    32
  0
VERTEX
  8
W50LXLIFT
 62
6
 10
1034.955
 20
-7936.083
 30
252.000
 70
    32
  0
VERTEX
  8
W50LXLIFT
 62
6
 10
1024.648
 20
-7916.495
 30
252.000
 70
    32
  0
VERTEX
  8
W50LXLIFT
 62
6
 10
1024.585
 20
-7908.568
 30
252.000
 70
    32
  0
VERTEX
  8
W50LXLIFT
 62
6
 10
1029.696
 20
-7893.001
 30
252.000
 70
    32
  0
VERTEX
  8
W50LXLIFT
 62
6
 10
1021.188
 20
-7879.402
 30
252.000
 70
    32
  0
VERTEX
  8
W50LXLIFT
 62
6
 10
1012.583
 20
-7873.958
 30
252.000
 70
    32
  0
VERTEX
  8
W50LXLIFT
 62
6
 10
1007.212
 20
-7866.237
 30
252.000
 70
    32
  0
VERTEX
  8
W50LXLIFT
 62
6
 10
1004.833
 20
-7848.661
 30
252.000
 70
    32
  0
VERTEX
  8
W50LXLIFT
 62
6
 10
997.692
 20
-7844.757
 30
252.000
 70
    32
  0
VERTEX
  8
W50LXLIFT
 62
6
 10
996.403
 20
-7847.893
 30
252.000
 70
    32
  0
VERTEX
  8
W50LXLIFT
 62
6
 10
991.891
 20
-7858.650
 30
252.000
 70
    32
  0
VERTEX
  8
W50LXLIFT
 62
6
 10
992.984
 20
-7865.161
 30
252.000
 70
    32
  0
VERTEX
  8
W50LXLIFT
 62
6
 10
994.657
 20
-7876.159
 30
252.000
 70
    32
  0
VERTEX
  8
W50LXLIFT
 62
6
 10
995.901
 20
-7885.835
 30
252.000
 70
    32
  0
VERTEX
  8
W50LXLIFT
 62
6
 10
991.011
 20
-7897.854
 30
252.000
 70
    32
  0
VERTEX
  8
W50LXLIFT
 62
6
 10
992.354
 20
-7906.037
 30
252.000
 70
    32
  0
VERTEX
  8
W50LXLIFT
 62
6
 10
999.742
 20
-7912.051
 30
252.000
 70
    32
  0
VERTEX
  8
W50LXLIFT
 62
6
 10
1008.627
 20
-7931.487
 30
252.000
 70
    32
  0
VERTEX
  8
W50LXLIFT
 62
6
 10
1016.722
 20
-7932.393
 30
252.000
 70
    32
  0
VERTEX
  8
W50LXLIFT
 62
6
 10
1019.071
 20
-7935.574
 30
252.000
 70
    32
  0
VERTEX
  8
W50LXLIFT
 62
6
 10
1021.037
 20
-7940.458
 30
252.000
 70
    32
  0
VERTEX
  8
W50LXLIFT
 62
6
 10
1025.259
 20
-7944.550
 30
252.000
 70
    32
  0
VERTEX
  8
W50LXLIFT
 62
6
 10
1029.848
 20
-7946.624
 30
252.000
 70
    32
  0
VERTEX
  8
W50LXLIFT
 62
6
 10
1037.310
 20
-7947.560
 30
252.000
 70
    32
  0
VERTEX
  8
W50LXLIFT
 62
6
 10
1042.113
 20
-7960.726
 30
252.000
 70
    32
  0
VERTEX
  8
W50LXLIFT
 62
6
 10
1044.476
 20
-7973.398
 30
252.000
 70
    32
  0
VERTEX
  8
W50LXLIFT
 62
6
 10
1042.922
 20
-7985.794
 30
252.000
 70
    32
  0
VERTEX
  8
W50LXLIFT
 62
6
 10
1044.939
 20
-7993.262
 30
252.000
 70
    32
  0
VERTEX
  8
W50LXLIFT
 62
6
 10
1047.723
 20
-8001.473
 30
252.000
 70
    32
  0
VERTEX
  8
W50LXLIFT
 62
6
 10
1050.240
 20
-8010.210
 30
252.000
 70
    32
  0
VERTEX
  8
W50LXLIFT
 62
6
 10
1052.667
 20
-8014.534
 30
252.000
 70
    32
  0
VERTEX
  8
W50LXLIFT
 62
6
 10
1059.936
 20
-8020.091
 30
252.000
 70
    32
  0
VERTEX
  8
W50LXLIFT
 62
6
 10
1076.042
 20
-8019.125
 30
252.000
 70
    32
  0
SEQEND
  8
W50LXLIFT
  0
POLYLINE
  8
W50LXLIFT
 62
8
 66
     1
 70
     9
  0
VERTEX
  8
W50LXLIFT
 62
8
 10
936.273
 20
-7777.377
 30
252.000
 70
    32
  0
VERTEX
  8
W50LXLIFT
 62
8
 10
963.055
 20
-7814.403
 30
252.000
 70
    32
  0
VERTEX
  8
W50LXLIFT
 62
8
 10
959.712
 20
-7828.666
 30
252.000
 70
    32
  0
VERTEX
  8
W50LXLIFT
 62
8
 10
963.867
 20
-7836.958
 30
252.000
 70
    32
  0
VERTEX
  8
W50LXLIFT
 62
8
 10
962.055
 20
-7848.562
 30
252.000
 70
    32
  0
VERTEX
  8
W50LXLIFT
 62
8
 10
964.218
 20
-7852.972
 30
252.000
 70
    32
  0
VERTEX
  8
W50LXLIFT
 62
8
 10
964.409
 20
-7857.965
 30
252.000
 70
    32
  0
VERTEX
  8
W50LXLIFT
 62
8
 10
975.960
 20
-7868.880
 30
252.000
 70
    32
  0
VERTEX
  8
W50LXLIFT
 62
8
 10
979.328
 20
-7867.376
 30
252.000
 70
    32
  0
VERTEX
  8
W50LXLIFT
 62
8
 10
987.249
 20
-7854.431
 30
252.000
 70
    32
  0
VERTEX
  8
W50LXLIFT
 62
8
 10
987.503
 20
-7851.077
 30
252.000
 70
    32
  0
VERTEX
  8
W50LXLIFT
 62
8
 10
982.123
 20
-7842.160
 30
252.000
 70
    32
  0
VERTEX
  8
W50LXLIFT
 62
8
 10
980.419
 20
-7830.529
 30
252.000
 70
    32
  0
VERTEX
  8
W50LXLIFT
 62
8
 10
978.739
 20
-7797.475
 30
252.000
 70
    32
  0
VERTEX
  8
W50LXLIFT
 62
8
 10
975.170
 20
-7786.129
 30
252.000
 70
    32
  0
VERTEX
  8
W50LXLIFT
 62
8
 10
965.220
 20
-7770.428
 30
252.000
 70
    32
  0
VERTEX
  8
W50LXLIFT
 62
8
 10
956.143
 20
-7762.274
 30
252.000
 70
    32
  0
VERTEX
  8
W50LXLIFT
 62
8
 10
945.343
 20
-7758.887
 30
252.000
 70
    32
  0
SEQEND
  8
W50LXLIFT
  0
POLYLINE
  8
W50LXLIFT
 62
7
 66
     1
 70
     9
  0
VERTEX
  8
W50LXLIFT
 62
7
 10
1294.268
 20
-8145.070
 30
257.000
 70
    32
  0
VERTEX
  8
W50LXLIFT
 62
7
 10
1296.507
 20
-8148.665
 30
257.000
 70
    32
  0
VERTEX
  8
W50LXLIFT
 62
7
 10
1295.500
 20
-8155.116
 30
257.000
 70
    32
  0
VERTEX
  8
W50LXLIFT
 62
7
 10
1303.571
 20
-8165.221
 30
257.000
 70
    32
  0
VERTEX
  8
W50LXLIFT
 62
7
 10
1306.024
 20
-8178.084
 30
257.000
 70
    32
  0
VERTEX
  8
W50LXLIFT
 62
7
 10
1303.852
 20
-8185.621
 30
257.000
 70
    32
  0
VERTEX
  8
W50LXLIFT
 62
7
 10
1314.213
 20
-8210.137
 30
257.000
 70
    32
  0
VERTEX
  8
W50LXLIFT
 62
7
 10
1314.831
 20
-8214.500
 30
257.000
 70
    32
  0
VERTEX
  8
W50LXLIFT
 62
7
 10
1317.690
 20
-8221.580
 30
257.000
 70
    32
  0
VERTEX
  8
W50LXLIFT
 62
7
 10
1325.795
 20
-8237.470
 30
257.000
 70
    32
  0
VERTEX
  8
W50LXLIFT
 62
7
 10
1332.773
 20
-8238.303
 30
257.000
 70
    32
  0
VERTEX
  8
W50LXLIFT
 62
7
 10
1340.552
 20
-8231.525
 30
257.000
 70
    32
  0
VERTEX
  8
W50LXLIFT
 62
7
 10
1338.779
 20
-8225.610
 30
257.000
 70
    32
  0
VERTEX
  8
W50LXLIFT
 62
7
 10
1331.442
 20
-8221.645
 30
257.000
 70
    32
  0
VERTEX
  8
W50LXLIFT
 62
7
 10
1328.210
 20
-8215.391
 30
257.000
 70
    32
  0
VERTEX
  8
W50LXLIFT
 62
7
 10
1322.868
 20
-8199.088
 30
257.000
 70
    32
  0
VERTEX
  8
W50LXLIFT
 62
7
 10
1326.730
 20
-8186.017
 30
257.000
 70
    32
  0
VERTEX
  8
W50LXLIFT
 62
7
 10
1327.247
 20
-8179.055
 30
257.000
 70
    32
  0
VERTEX
  8
W50LXLIFT
 62
7
 10
1326.719
 20
-8174.077
 30
257.000
 70
    32
  0
VERTEX
  8
W50LXLIFT
 62
7
 10
1329.665
 20
-8166.402
 30
257.000
 70
    32
  0
VERTEX
  8
W50LXLIFT
 62
7
 10
1332.276
 20
-8164.019
 30
257.000
 70
    32
  0
VERTEX
  8
W50LXLIFT
 62
7
 10
1330.084
 20
-8157.100
 30
257.000
 70
    32
  0
VERTEX
  8
W50LXLIFT
 62
7
 10
1322.583
 20
-8154.683
 30
257.000
 70
    32
  0
VERTEX
  8
W50LXLIFT
 62
7
 10
1315.051
 20
-8151.192
 30
257.000
 70
    32
  0
VERTEX
  8
W50LXLIFT
 62
7
 10
1306.667
 20
-8144.937
 30
257.000
 70
    32
  0
VERTEX
  8
W50LXLIFT
 62
7
 10
1299.498
 20
-8138.107
 30
257.000
 70
    32
  0
SEQEND
  8
W50LXLIFT
  0
POLYLINE
  8
W50LXLIFT
 62
2
 66
     1
 70
     9
  0
VERTEX
  8
W50LXLIFT
 62
2
 10
1196.019
 20
-7967.621
 30
259.000
 70
    32
  0
VERTEX
  8
W50LXLIFT
 62
2
 10
1187.697
 20
-7973.818
 30
259.000
 70
    32
  0
VERTEX
  8
W50LXLIFT
 62
2
 10
1186.449
 20
-7978.473
 30
259.000
 70
    32
  0
VERTEX
  8
W50LXLIFT
 62
2
 10
1191.526
 20
-7995.303
 30
259.000
 70
    32
  0
VERTEX
  8
W50LXLIFT
 62
2
 10
1185.600
 20
-8005.306
 30
259.000
 70
    32
  0
VERTEX
  8
W50LXLIFT
 62
2
 10
1185.332
 20
-8016.578
 30
259.000
 70
    32
  0
VERTEX
  8
W50LXLIFT
 62
2
 10
1190.442
 20
-8018.583
 30
259.000
 70
    32
  0
VERTEX
  8
W50LXLIFT
 62
2
 10
1199.906
 20
-8017.895
 30
259.000
 70
    32
  0
VERTEX
  8
W50LXLIFT
 62
2
 10
1208.332
 20
-8027.298
 30
259.000
 70
    32
  0
VERTEX
  8
W50LXLIFT
 62
2
 10
1214.854
 20
-8038.118
 30
259.000
 70
    32
  0
VERTEX
  8
W50LXLIFT
 62
2
 10
1218.851
 20
-8036.567
 30
259.000
 70
    32
  0
VERTEX
  8
W50LXLIFT
 62
2
 10
1221.765
 20
-8032.972
 30
259.000
 70
    32
  0
VERTEX
  8
W50LXLIFT
 62
2
 10
1215.094
 20
-8014.589
 30
259.000
 70
    32
  0
VERTEX
  8
W50LXLIFT
 62
2
 10
1211.672
 20
-8007.490
 30
259.000
 70
    32
  0
VERTEX
  8
W50LXLIFT
 62
2
 10
1208.647
 20
-8002.397
 30
259.000
 70
    32
  0
VERTEX
  8
W50LXLIFT
 62
2
 10
1208.413
 20
-7988.978
 30
259.000
 70
    32
  0
VERTEX
  8
W50LXLIFT
 62
2
 10
1205.234
 20
-7977.642
 30
259.000
 70
    32
  0
VERTEX
  8
W50LXLIFT
 62
2
 10
1201.488
 20
-7972.758
 30
259.000
 70
    32
  0
SEQEND
  8
W50LXLIFT
  0
POLYLINE
  8
W50LXLIFT
 62
3
 66
     1
 70
     9
  0
VERTEX
  8
W50LXLIFT
 62
3
 10
1157.714
 20
-8079.457
 30
258.000
 70
    32
  0
VERTEX
  8
W50LXLIFT
 62
3
 10
1157.321
 20
-8076.132
 30
258.000
 70
    32
  0
VERTEX
  8
W50LXLIFT
 62
3
 10
1143.537
 20
-8050.109
 30
258.000
 70
    32
  0
VERTEX
  8
W50LXLIFT
 62
3
 10
1139.315
 20
-8045.470
 30
258.000
 70
    32
  0
VERTEX
  8
W50LXLIFT
 62
3
 10
1132.886
 20
-8033.155
 30
258.000
 70
    32
  0
VERTEX
  8
W50LXLIFT
 62
3
 10
1127.346
 20
-8023.358
 30
258.000
 70
    32
  0
VERTEX
  8
W50LXLIFT
 62
3
 10
1122.195
 20
-8012.612
 30
258.000
 70
    32
  0
VERTEX
  8
W50LXLIFT
 62
3
 10
1115.408
 20
-8012.184
 30
258.000
 70
    32
  0
VERTEX
  8
W50LXLIFT
 62
3
 10
1108.889
 20
-8015.943
 30
258.000
 70
    32
  0
VERTEX
  8
W50LXLIFT
 62
3
 10
1117.201
 20
-8037.708
 30
258.000
 70
    32
  0
VERTEX
  8
W50LXLIFT
 62
3
 10
1119.150
 20
-8048.864
 30
258.000
 70
    32
  0
VERTEX
  8
W50LXLIFT
 62
3
 10
1130.795
 20
-8073.190
 30
258.000
 70
    32
  0
VERTEX
  8
W50LXLIFT
 62
3
 10
1139.688
 20
-8089.699
 30
258.000
 70
    32
  0
SEQEND
  8
W50LXLIFT
  0
POLYLINE
  8
W50LXLIFT
 62
6
 66
     1
 70
     9
  0
VERTEX
  8
W50LXLIFT
 62
6
 10
1085.813
 20
-8011.747
 30
260.000
 70
    32
  0
VERTEX
  8
W50LXLIFT
 62
6
 10
1076.030
 20
-7993.160
 30
260.000
 70
    32
  0
VERTEX
  8
W50LXLIFT
 62
6
 10
1070.777
 20
-7986.547
 30
260.000
 70
    32
  0
VERTEX
  8
W50LXLIFT
 62
6
 10
1069.529
 20
-7981.337
 30
260.000
 70
    32
  0
VERTEX
  8
W50LXLIFT
 62
6
 10
1071.030
 20
-7974.519
 30
260.000
 70
    32
  0
VERTEX
  8
W50LXLIFT
 62
6
 10
1059.932
 20
-7959.761
 30
260.000
 70
    32
  0
VERTEX
  8
W50LXLIFT
 62
6
 10
1054.908
 20
-7948.155
 30
260.000
 70
    32
  0
VERTEX
  8
W50LXLIFT
 62
6
 10
1042.474
 20
-7938.228
 30
260.000
 70
    32
  0
VERTEX
  8
W50LXLIFT
 62
6
 10
1032.775
 20
-7935.803
 30
260.000
 70
    32
  0
VERTEX
  8
W50LXLIFT
 62
6
 10
1023.114
 20
-7927.539
 30
260.000
 70
    32
  0
VERTEX
  8
W50LXLIFT
 62
6
 10
1019.273
 20
-7919.436
 30
260.000
 70
    32
  0
VERTEX
  8
W50LXLIFT
 62
6
 10
1018.936
 20
-7910.150
 30
260.000
 70
    32
  0
VERTEX
  8
W50LXLIFT
 62
6
 10
1017.748
 20
-7892.947
 30
260.000
 70
    32
  0
VERTEX
  8
W50LXLIFT
 62
6
 10
1019.016
 20
-7887.288
 30
260.000
 70
    32
  0
VERTEX
  8
W50LXLIFT
 62
6
 10
1010.611
 20
-7876.883
 30
260.000
 70
    32
  0
VERTEX
  8
W50LXLIFT
 62
6
 10
1008.513
 20
-7873.183
 30
260.000
 70
    32
  0
VERTEX
  8
W50LXLIFT
 62
6
 10
1005.098
 20
-7859.173
 30
260.000
 70
    32
  0
VERTEX
  8
W50LXLIFT
 62
6
 10
1001.349
 20
-7850.015
 30
260.000
 70
    32
  0
VERTEX
  8
W50LXLIFT
 62
6
 10
995.842
 20
-7850.717
 30
260.000
 70
    32
  0
VERTEX
  8
W50LXLIFT
 62
6
 10
991.542
 20
-7868.499
 30
260.000
 70
    32
  0
VERTEX
  8
W50LXLIFT
 62
6
 10
991.689
 20
-7871.788
 30
260.000
 70
    32
  0
VERTEX
  8
W50LXLIFT
 62
6
 10
994.713
 20
-7876.881
 30
260.000
 70
    32
  0
VERTEX
  8
W50LXLIFT
 62
6
 10
994.072
 20
-7884.265
 30
260.000
 70
    32
  0
VERTEX
  8
W50LXLIFT
 62
6
 10
995.128
 20
-7894.222
 30
260.000
 70
    32
  0
VERTEX
  8
W50LXLIFT
 62
6
 10
1002.633
 20
-7915.492
 30
260.000
 70
    32
  0
VERTEX
  8
W50LXLIFT
 62
6
 10
1016.057
 20
-7934.109
 30
260.000
 70
    32
  0
VERTEX
  8
W50LXLIFT
 62
6
 10
1030.093
 20
-7943.391
 30
260.000
 70
    32
  0
VERTEX
  8
W50LXLIFT
 62
6
 10
1039.058
 20
-7949.542
 30
260.000
 70
    32
  0
VERTEX
  8
W50LXLIFT
 62
6
 10
1042.972
 20
-7956.713
 30
260.000
 70
    32
  0
VERTEX
  8
W50LXLIFT
 62
6
 10
1049.351
 20
-7973.230
 30
260.000
 70
    32
  0
VERTEX
  8
W50LXLIFT
 62
6
 10
1040.523
 20
-7983.311
 30
260.000
 70
    32
  0
VERTEX
  8
W50LXLIFT
 62
6
 10
1044.834
 20
-7987.776
 30
260.000
 70
    32
  0
VERTEX
  8
W50LXLIFT
 62
6
 10
1053.628
 20
-8007.538
 30
260.000
 70
    32
  0
VERTEX
  8
W50LXLIFT
 62
6
 10
1055.813
 20
-8011.502
 30
260.000
 70
    32
  0
VERTEX
  8
W50LXLIFT
 62
6
 10
1062.624
 20
-8014.762
 30
260.000
 70
    32
  0
VERTEX
  8
W50LXLIFT
 62
6
 10
1075.381
 20
-8017.760
 30
260.000
 70
    32
  0
VERTEX
  8
W50LXLIFT
 62
6
 10
1086.687
 20
-8018.222
 30
260.000
 70
    32
  0
SEQEND
  8
W50LXLIFT
  0
POLYLINE
  8
W50LXLIFT
 62
8
 66
     1
 70
     9
  0
VERTEX
  8
W50LXLIFT
 62
8
 10
960.801
 20
-7853.567
 30
267.000
 70
    32
  0
VERTEX
  8
W50LXLIFT
 62
8
 10
971.927
 20
-7855.259
 30
267.000
 70
    32
  0
VERTEX
  8
W50LXLIFT
 62
8
 10
982.045
 20
-7853.536
 30
267.000
 70
    32
  0
VERTEX
  8
W50LXLIFT
 62
8
 10
979.628
 20
-7845.578
 30
267.000
 70
    32
  0
VERTEX
  8
W50LXLIFT
 62
8
 10
974.916
 20
-7835.274
 30
267.000
 70
    32
  0
VERTEX
  8
W50LXLIFT
 62
8
 10
972.546
 20
-7829.146
 30
267.000
 70
    32
  0
VERTEX
  8
W50LXLIFT
 62
8
 10
970.078
 20
-7800.508
 30
267.000
 70
    32
  0
VERTEX
  8
W50LXLIFT
 62
8
 10
963.933
 20
-7787.543
 30
267.000
 70
    32
  0
VERTEX
  8
W50LXLIFT
 62
8
 10
960.724
 20
-7774.694
 30
267.000
 70
    32
  0
VERTEX
  8
W50LXLIFT
 62
8
 10
951.974
 20
-7767.507
 30
267.000
 70
    32
  0
VERTEX
  8
W50LXLIFT
 62
8
 10
940.327
 20
-7763.791
 30
267.000
 70
    32
  0
VERTEX
  8
W50LXLIFT
 62
8
 10
938.048
 20
-7766.913
 30
267.000
 70
    32
  0
VERTEX
  8
W50LXLIFT
 62
8
 10
934.945
 20
-7769.223
 30
267.000
 70
    32
  0
VERTEX
  8
W50LXLIFT
 62
8
 10
934.368
 20
-7778.313
 30
267.000
 70
    32
  0
VERTEX
  8
W50LXLIFT
 62
8
 10
942.261
 20
-7784.056
 30
267.000
 70
    32
  0
VERTEX
  8
W50LXLIFT
 62
8
 10
947.125
 20
-7796.330
 30
267.000
 70
    32
  0
VERTEX
  8
W50LXLIFT
 62
8
 10
952.588
 20
-7803.225
 30
267.000
 70
    32
  0
VERTEX
  8
W50LXLIFT
 62
8
 10
956.815
 20
-7816.412
 30
267.000
 70
    32
  0
VERTEX
  8
W50LXLIFT
 62
8
 10
958.242
 20
-7825.984
 30
267.000
 70
    32
  0
VERTEX
  8
W50LXLIFT
 62
8
 10
959.205
 20
-7842.148
 30
267.000
 70
    32
  0
SEQEND
  8
W50LXLIFT
  0
POLYLINE
  8
W50LXLIFT
 62
7
 66
     1
 70
     9
  0
VERTEX
  8
W50LXLIFT
 62
7
 10
1329.044
 20
-8230.503
 30
269.000
 70
    32
  0
VERTEX
  8
W50LXLIFT
 62
7
 10
1333.426
 20
-8229.764
 30
269.000
 70
    32
  0
VERTEX
  8
W50LXLIFT
 62
7
 10
1335.384
 20
-8228.418
 30
269.000
 70
    32
  0
VERTEX
  8
W50LXLIFT
 62
7
 10
1328.162
 20
-8213.403
 30
269.000
 70
    32
  0
VERTEX
  8
W50LXLIFT
 62
7
 10
1323.704
 20
-8202.251
 30
269.000
 70
    32
  0
VERTEX
  8
W50LXLIFT
 62
7
 10
1322.118
 20
-8194.225
 30
269.000
 70
    32
  0
VERTEX
  8
W50LXLIFT
 62
7
 10
1322.263
 20
-8188.966
 30
269.000
 70
    32
  0
VERTEX
  8
W50LXLIFT
 62
7
 10
1325.679
 20
-8174.698
 30
269.000
 70
    32
  0
VERTEX
  8
W50LXLIFT
 62
7
 10
1326.013
 20
-8161.736
 30
269.000
 70
    32
  0
VERTEX
  8
W50LXLIFT
 62
7
 10
1319.878
 20
-8156.435
 30
269.000
 70
    32
  0
VERTEX
  8
W50LXLIFT
 62
7
 10
1313.557
 20
-8153.683
 30
269.000
 70
    32
  0
VERTEX
  8
W50LXLIFT
 62
7
 10
1309.535
 20
-8147.687
 30
269.000
 70
    32
  0
VERTEX
  8
W50LXLIFT
 62
7
 10
1301.866
 20
-8143.417
 30
269.000
 70
    32
  0
VERTEX
  8
W50LXLIFT
 62
7
 10
1298.781
 20
-8145.163
 30
269.000
 70
    32
  0
VERTEX
  8
W50LXLIFT
 62
7
 10
1295.693
 20
-8152.063
 30
269.000
 70
    32
  0
VERTEX
  8
W50LXLIFT
 62
7
 10
1299.725
 20
-8159.696
 30
269.000
 70
    32
  0
VERTEX
  8
W50LXLIFT
 62
7
 10
1303.374
 20
-8179.779
 30
269.000
 70
    32
  0
VERTEX
  8
W50LXLIFT
 62
7
 10
1302.707
 20
-8188.166
 30
269.000
 70
    32
  0
VERTEX
  8
W50LXLIFT
 62
7
 10
1309.145
 20
-8201.243
 30
269.000
 70
    32
  0
VERTEX
  8
W50LXLIFT
 62
7
 10
1318.521
 20
-8227.260
 30
269.000
 70
    32
  0
VERTEX
  8
W50LXLIFT
 62
7
 10
1322.428
 20
-8235.313
 30
269.000
 70
    32
  0
SEQEND
  8
W50LXLIFT
  0
POLYLINE
  8
W50LXLIFT
 62
2
 66
     1
 70
     9
  0
VERTEX
  8
W50LXLIFT
 62
2
 10
1225.232
 20
-8055.411
 30
268.000
 70
    32
  0
VERTEX
  8
W50LXLIFT
 62
2
 10
1220.799
 20
-8033.829
 30
268.000
 70
    32
  0
VERTEX
  8
W50LXLIFT
 62
2
 10
1216.896
 20
-8020.182
 30
268.000
 70
    32
  0
VERTEX
  8
W50LXLIFT
 62
2
 10
1206.953
 20
-8004.014
 30
268.000
 70
    32
  0
VERTEX
  8
W50LXLIFT
 62
2
 10
1209.951
 20
-7984.467
 30
268.000
 70
    32
  0
VERTEX
  8
W50LXLIFT
 62
2
 10
1201.018
 20
-7970.835
 30
268.000
 70
    32
  0
VERTEX
  8
W50LXLIFT
 62
2
 10
1190.106
 20
-7968.100
 30
268.000
 70
    32
  0
VERTEX
  8
W50LXLIFT
 62
2
 10
1187.812
 20
-7974.299
 30
268.000
 70
    32
  0
VERTEX
  8
W50LXLIFT
 62
2
 10
1191.902
 20
-7998.219
 30
268.000
 70
    32
  0
VERTEX
  8
W50LXLIFT
 62
2
 10
1186.363
 20
-8011.107
 30
268.000
 70
    32
  0
VERTEX
  8
W50LXLIFT
 62
2
 10
1190.247
 20
-8016.329
 30
268.000
 70
    32
  0
VERTEX
  8
W50LXLIFT
 62
2
 10
1200.109
 20
-8017.653
 30
268.000
 70
    32
  0
VERTEX
  8
W50LXLIFT
 62
2
 10
1208.684
 20
-8032.866
 30
268.000
 70
    32
  0
VERTEX
  8
W50LXLIFT
 62
2
 10
1218.382
 20
-8057.547
 30
268.000
 70
    32
  0
SEQEND
  8
W50LXLIFT
  0
POLYLINE
  8
W50LXLIFT
 62
3
 66
     1
 70
     9
  0
VERTEX
  8
W50LXLIFT
 62
3
 10
1142.212
 20
-8099.402
 30
268.000
 70
    32
  0
VERTEX
  8
W50LXLIFT
 62
3
 10
1144.145
 20
-8086.676
 30
268.000
 70
    32
  0
VERTEX
  8
W50LXLIFT
 62
3
 10
1148.093
 20
-8076.068
 30
268.000
 70
    32
  0
VERTEX
  8
W50LXLIFT
 62
3
 10
1145.845
 20
-8057.573
 30
268.000
 70
    32
  0
VERTEX
  8
W50LXLIFT
 62
3
 10
1130.692
 20
-8042.210
 30
268.000
 70
    32
  0
VERTEX
  8
W50LXLIFT
 62
3
 10
1125.169
 20
-8033.604
 30
268.000
 70
    32
  0
VERTEX
  8
W50LXLIFT
 62
3
 10
1117.859
 20
-8009.777
 30
268.000
 70
    32
  0
VERTEX
  8
W50LXLIFT
 62
3
 10
1123.123
 20
-8004.328
 30
268.000
 70
    32
  0
VERTEX
  8
W50LXLIFT
 62
3
 10
1120.469
 20
-7999.287
 30
268.000
 70
    32
  0
VERTEX
  8
W50LXLIFT
 62
3
 10
1106.237
 20
-7999.898
 30
268.000
 70
    32
  0
VERTEX
  8
W50LXLIFT
 62
3
 10
1098.845
 20
-8014.274
 30
268.000
 70
    32
  0
VERTEX
  8
W50LXLIFT
 62
3
 10
1106.022
 20
-8031.733
 30
268.000
 70
    32
  0
VERTEX
  8
W50LXLIFT
 62
3
 10
1107.789
 20
-8042.804
 30
268.000
 70
    32
  0
VERTEX
  8
W50LXLIFT
 62
3
 10
1116.623
 20
-8059.250
 30
268.000
 70
    32
  0
VERTEX
  8
W50LXLIFT
 62
3
 10
1123.334
 20
-8074.315
 30
268.000
 70
    32
  0
VERTEX
  8
W50LXLIFT
 62
3
 10
1124.407
 20
-8083.272
 30
268.000
 70
    32
  0
VERTEX
  8
W50LXLIFT
 62
3
 10
1125.282
 20
-8093.143
 30
268.000
 70
    32
  0
VERTEX
  8
W50LXLIFT
 62
3
 10
1132.432
 20
-8103.936
 30
268.000
 70
    32
  0
SEQEND
  8
W50LXLIFT
  0
POLYLINE
  8
W50LXLIFT
 62
6
 66
     1
 70
     9
  0
VERTEX
  8
W50LXLIFT
 62
6
 10
981.000
 20
-7860.690
 30
271.000
 70
    32
  0
VERTEX
  8
W50LXLIFT
 62
6
 10
985.779
 20
-7879.494
 30
271.000
 70
    32
  0
VERTEX
  8
W50LXLIFT
 62
6
 10
987.688
 20
-7894.734
 30
271.000
 70
    32
  0
VERTEX
  8
W50LXLIFT
 62
6
 10
984.596
 20
-7902.513
 30
271.000
 70
    32
  0
VERTEX
  8
W50LXLIFT
 62
6
 10
986.861
 20
-7912.337
 30
271.000
 70
    32
  0
VERTEX
  8
W50LXLIFT
 62
6
 10
994.091
 20
-7925.153
 30
271.000
 70
    32
  0
VERTEX
  8
W50LXLIFT
 62
6
 10
1001.852
 20
-7937.356
 30
271.000
 70
    32
  0
VERTEX
  8
W50LXLIFT
 62
6
 10
1007.784
 20
-7944.890
 30
271.000
 70
    32
  0
VERTEX
  8
W50LXLIFT
 62
6
 10
1014.132
 20
-7945.320
 30
271.000
 70
    32
  0
VERTEX
  8
W50LXLIFT
 62
6
 10
1024.321
 20
-7952.977
 30
271.000
 70
    32
  0
VERTEX
  8
W50LXLIFT
 62
6
 10
1030.855
 20
-7968.393
 30
271.000
 70
    32
  0
VERTEX
  8
W50LXLIFT
 62
6
 10
1036.792
 20
-7974.608
 30
271.000
 70
    32
  0
VERTEX
  8
W50LXLIFT
 62
6
 10
1058.935
 20
-8023.243
 30
271.000
 70
    32
  0
VERTEX
  8
W50LXLIFT
 62
6
 10
1084.937
 20
-8013.110
 30
271.000
 70
    32
  0
VERTEX
  8
W50LXLIFT
 62
6
 10
1088.434
 20
-8009.413
 30
271.000
 70
    32
  0
VERTEX
  8
W50LXLIFT
 62
6
 10
1087.391
 20
-8001.969
 30
271.000
 70
    32
  0
VERTEX
  8
W50LXLIFT
 62
6
 10
1075.375
 20
-7993.917
 30
271.000
 70
    32
  0
VERTEX
  8
W50LXLIFT
 62
6
 10
1065.785
 20
-7981.760
 30
271.000
 70
    32
  0
VERTEX
  8
W50LXLIFT
 62
6
 10
1055.588
 20
-7963.040
 30
271.000
 70
    32
  0
VERTEX
  8
W50LXLIFT
 62
6
 10
1047.274
 20
-7948.619
 30
271.000
 70
    32
  0
VERTEX
  8
W50LXLIFT
 62
6
 10
1036.887
 20
-7942.316
 30
271.000
 70
    32
  0
VERTEX
  8
W50LXLIFT
 62
6
 10
1026.916
 20
-7937.456
 30
271.000
 70
    32
  0
VERTEX
  8
W50LXLIFT
 62
6
 10
1018.355
 20
-7927.273
 30
271.000
 70
    32
  0
VERTEX
  8
W50LXLIFT
 62
6
 10
1011.347
 20
-7907.387
 30
271.000
 70
    32
  0
VERTEX
  8
W50LXLIFT
 62
6
 10
1009.720
 20
-7887.663
 30
271.000
 70
    32
  0
VERTEX
  8
W50LXLIFT
 62
6
 10
1001.469
 20
-7879.223
 30
271.000
 70
    32
  0
VERTEX
  8
W50LXLIFT
 62
6
 10
997.140
 20
-7871.044
 30
271.000
 70
    32
  0
VERTEX
  8
W50LXLIFT
 62
6
 10
995.247
 20
-7851.847
 30
271.000
 70
    32
  0
SEQEND
  8
W50LXLIFT
  0
POLYLINE
  8
W50LXLIFT
 62
2
 66
     1
 70
     9
  0
VERTEX
  8
W50LXLIFT
 62
2
 10
1251.192
 20
-8084.712
 30
278.000
 70
    32
  0
VERTEX
  8
W50LXLIFT
 62
2
 10
1246.585
 20
-8071.909
 30
278.000
 70
    32
  0
VERTEX
  8
W50LXLIFT
 62
2
 10
1241.758
 20
-8068.377
 30
278.000
 70
    32
  0
VERTEX
  8
W50LXLIFT
 62
2
 10
1235.838
 20
-8065.440
 30
278.000
 70
    32
  0
VERTEX
  8
W50LXLIFT
 62
2
 10
1230.017
 20
-8052.774
 30
278.000
 70
    32
  0
VERTEX
  8
W50LXLIFT
 62
2
 10
1220.083
 20
-8032.533
 30
278.000
 70
    32
  0
VERTEX
  8
W50LXLIFT
 62
2
 10
1212.873
 20
-8007.408
 30
278.000
 70
    32
  0
VERTEX
  8
W50LXLIFT
 62
2
 10
1217.895
 20
-8004.432
 30
278.000
 70
    32
  0
VERTEX
  8
W50LXLIFT
 62
2
 10
1209.621
 20
-7982.295
 30
278.000
 70
    32
  0
VERTEX
  8
W50LXLIFT
 62
2
 10
1205.017
 20
-7968.613
 30
278.000
 70
    32
  0
VERTEX
  8
W50LXLIFT
 62
2
 10
1188.404
 20
-7976.939
 30
278.000
 70
    32
  0
VERTEX
  8
W50LXLIFT
 62
2
 10
1189.450
 20
-7986.142
 30
278.000
 70
    32
  0
VERTEX
  8
W50LXLIFT
 62
2
 10
1195.075
 20
-7999.722
 30
278.000
 70
    32
  0
VERTEX
  8
W50LXLIFT
 62
2
 10
1185.741
 20
-8009.423
 30
278.000
 70
    32
  0
VERTEX
  8
W50LXLIFT
 62
2
 10
1185.791
 20
-8016.407
 30
278.000
 70
    32
  0
VERTEX
  8
W50LXLIFT
 62
2
 10
1191.431
 20
-8018.675
 30
278.000
 70
    32
  0
VERTEX
  8
W50LXLIFT
 62
2
 10
1198.542
 20
-8017.324
 30
278.000
 70
    32
  0
VERTEX
  8
W50LXLIFT
 62
2
 10
1203.458
 20
-8020.680
 30
278.000
 70
    32
  0
VERTEX
  8
W50LXLIFT
 62
2
 10
1228.328
 20
-8070.818
 30
278.000
 70
    32
  0
VERTEX
  8
W50LXLIFT
 62
2
 10
1231.409
 20
-8075.982
 30
278.000
 70
    32
  0
VERTEX
  8
W50LXLIFT
 62
2
 10
1236.400
 20
-8077.967
 30
278.000
 70
    32
  0
VERTEX
  8
W50LXLIFT
 62
2
 10
1242.434
 20
-8084.000
 30
278.000
 70
    32
  0
VERTEX
  8
W50LXLIFT
 62
2
 10
1244.640
 20
-8087.402
 30
278.000
 70
    32
  0
SEQEND
  8
W50LXLIFT
  0
POLYLINE
  8
W50LXLIFT
 62
3
 66
     1
 70
     9
  0
VERTEX
  8
W50LXLIFT
 62
3
 10
1101.433
 20
-7988.015
 30
282.000
 70
    32
  0
VERTEX
  8
W50LXLIFT
 62
3
 10
1098.781
 20
-7992.845
 30
282.000
 70
    32
  0
VERTEX
  8
W50LXLIFT
 62
3
 10
1102.167
 20
-8026.086
 30
282.000
 70
    32
  0
VERTEX
  8
W50LXLIFT
 62
3
 10
1108.468
 20
-8043.221
 30
282.000
 70
    32
  0
VERTEX
  8
W50LXLIFT
 62
3
 10
1112.297
 20
-8063.515
 30
282.000
 70
    32
  0
VERTEX
  8
W50LXLIFT
 62
3
 10
1112.233
 20
-8073.437
 30
282.000
 70
    32
  0
VERTEX
  8
W50LXLIFT
 62
3
 10
1114.699
 20
-8084.544
 30
282.000
 70
    32
  0
VERTEX
  8
W50LXLIFT
 62
3
 10
1117.456
 20
-8092.363
 30
282.000
 70
    32
  0
VERTEX
  8
W50LXLIFT
 62
3
 10
1127.605
 20
-8092.586
 30
282.000
 70
    32
  0
VERTEX
  8
W50LXLIFT
 62
3
 10
1136.964
 20
-8080.563
 30
282.000
 70
    32
  0
VERTEX
  8
W50LXLIFT
 62
3
 10
1139.173
 20
-8071.017
 30
282.000
 70
    32
  0
VERTEX
  8
W50LXLIFT
 62
3
 10
1138.634
 20
-8056.608
 30
282.000
 70
    32
  0
VERTEX
  8
W50LXLIFT
 62
3
 10
1135.214
 20
-8046.870
 30
282.000
 70
    32
  0
VERTEX
  8
W50LXLIFT
 62
3
 10
1125.251
 20
-8037.183
 30
282.000
 70
    32
  0
VERTEX
  8
W50LXLIFT
 62
3
 10
1121.417
 20
-8030.716
 30
282.000
 70
    32
  0
VERTEX
  8
W50LXLIFT
 62
3
 10
1116.962
 20
-8013.850
 30
282.000
 70
    32
  0
VERTEX
  8
W50LXLIFT
 62
3
 10
1113.140
 20
-7997.391
 30
282.000
 70
    32
  0
VERTEX
  8
W50LXLIFT
 62
3
 10
1111.498
 20
-7987.095
 30
282.000
 70
    32
  0
SEQEND
  8
W50LXLIFT
  0
POLYLINE
  8
W50LXLIFT
 62
6
 66
     1
 70
     9
  0
VERTEX
  8
W50LXLIFT
 62
6
 10
1082.804
 20
-8012.326
 30
282.000
 70
    32
  0
VERTEX
  8
W50LXLIFT
 62
6
 10
1088.641
 20
-8007.206
 30
282.000
 70
    32
  0
VERTEX
  8
W50LXLIFT
 62
6
 10
1088.304
 20
-8002.191
 30
282.000
 70
    32
  0
VERTEX
  8
W50LXLIFT
 62
6
 10
1082.816
 20
-8001.894
 30
282.000
 70
    32
  0
VERTEX
  8
W50LXLIFT
 62
6
 10
1080.412
 20
-7999.846
 30
282.000
 70
    32
  0
VERTEX
  8
W50LXLIFT
 62
6
 10
1076.236
 20
-7990.124
 30
282.000
 70
    32
  0
VERTEX
  8
W50LXLIFT
 62
6
 10
1059.615
 20
-7964.884
 30
282.000
 70
    32
  0
VERTEX
  8
W50LXLIFT
 62
6
 10
1047.770
 20
-7948.701
 30
282.000
 70
    32
  0
VERTEX
  8
W50LXLIFT
 62
6
 10
1028.860
 20
-7930.104
 30
282.000
 70
    32
  0
VERTEX
  8
W50LXLIFT
 62
6
 10
1022.476
 20
-7923.453
 30
282.000
 70
    32
  0
VERTEX
  8
W50LXLIFT
 62
6
 10
1008.538
 20
-7894.897
 30
282.000
 70
    32
  0
VERTEX
  8
W50LXLIFT
 62
6
 10
997.280
 20
-7876.410
 30
282.000
 70
    32
  0
VERTEX
  8
W50LXLIFT
 62
6
 10
993.531
 20
-7877.121
 30
282.000
 70
    32
  0
VERTEX
  8
W50LXLIFT
 62
6
 10
994.972
 20
-7883.616
 30
282.000
 70
    32
  0
VERTEX
  8
W50LXLIFT
 62
6
 10
987.010
 20
-7905.460
 30
282.000
 70
    32
  0
VERTEX
  8
W50LXLIFT
 62
6
 10
985.447
 20
-7916.608
 30
282.000
 70
    32
  0
VERTEX
  8
W50LXLIFT
 62
6
 10
997.182
 20
-7928.376
 30
282.000
 70
    32
  0
VERTEX
  8
W50LXLIFT
 62
6
 10
1018.243
 20
-7945.149
 30
282.000
 70
    32
  0
VERTEX
  8
W50LXLIFT
 62
6
 10
1031.833
 20
-7954.108
 30
282.000
 70
    32
  0
VERTEX
  8
W50LXLIFT
 62
6
 10
1048.825
 20
-7978.961
 30
282.000
 70
    32
  0
VERTEX
  8
W50LXLIFT
 62
6
 10
1049.329
 20
-7993.177
 30
282.000
 70
    32
  0
VERTEX
  8
W50LXLIFT
 62
6
 10
1057.578
 20
-8012.042
 30
282.000
 70
    32
  0
VERTEX
  8
W50LXLIFT
 62
6
 10
1063.521
 20
-8019.131
 30
282.000
 70
    32
  0
SEQEND
  8
W50LXLIFT
  0
POLYLINE
  8
W50LXLIFT
 62
8
 66
     1
 70
     9
  0
VERTEX
  8
W50LXLIFT
 62
8
 10
929.121
 20
-7776.591
 30
278.000
 70
    32
  0
VERTEX
  8
W50LXLIFT
 62
8
 10
938.980
 20
-7792.170
 30
278.000
 70
    32
  0
VERTEX
  8
W50LXLIFT
 62
8
 10
950.694
 20
-7817.009
 30
278.000
 70
    32
  0
VERTEX
  8
W50LXLIFT
 62
8
 10
960.467
 20
-7843.952
 30
278.000
 70
    32
  0
VERTEX
  8
W50LXLIFT
 62
8
 10
966.591
 20
-7855.405
 30
278.000
 70
    32
  0
VERTEX
  8
W50LXLIFT
 62
8
 10
972.839
 20
-7860.401
 30
278.000
 70
    32
  0
VERTEX
  8
W50LXLIFT
 62
8
 10
977.665
 20
-7858.340
 30
278.000
 70
    32
  0
VERTEX
  8
W50LXLIFT
 62
8
 10
977.683
 20
-7834.081
 30
278.000
 70
    32
  0
VERTEX
  8
W50LXLIFT
 62
8
 10
974.148
 20
-7827.720
 30
278.000
 70
    32
  0
VERTEX
  8
W50LXLIFT
 62
8
 10
966.877
 20
-7799.130
 30
278.000
 70
    32
  0
VERTEX
  8
W50LXLIFT
 62
8
 10
949.983
 20
-7771.022
 30
278.000
 70
    32
  0
VERTEX
  8
W50LXLIFT
 62
8
 10
940.632
 20
-7768.339
 30
278.000
 70
    32
  0
SEQEND
  8
W50LXLIFT
  0
POLYLINE
  8
W50LXLIFT
 62
7
 66
     1
 70
     9
  0
VERTEX
  8
W50LXLIFT
 62
7
 10
1334.403
 20
-8220.485
 30
290.000
 70
    32
  0
VERTEX
  8
W50LXLIFT
 62
7
 10
1322.765
 20
-8200.628
 30
290.000
 70
    32
  0
VERTEX
  8
W50LXLIFT
 62
7
 10
1326.495
 20
-8170.179
 30
290.000
 70
    32
  0
VERTEX
  8
W50LXLIFT
 62
7
 10
1321.145
 20
-8155.509
 30
290.000
 70
    32
  0
VERTEX
  8
W50LXLIFT
 62
7
 10
1320.454
 20
-8142.083
 30
290.000
 70
    32
  0
VERTEX
  8
W50LXLIFT
 62
7
 10
1315.914
 20
-8142.618
 30
290.000
 70
    32
  0
VERTEX
  8
W50LXLIFT
 62
7
 10
1303.990
 20
-8147.675
 30
290.000
 70
    32
  0
VERTEX
  8
W50LXLIFT
 62
7
 10
1301.304
 20
-8152.754
 30
290.000
 70
    32
  0
VERTEX
  8
W50LXLIFT
 62
7
 10
1293.385
 20
-8160.531
 30
290.000
 70
    32
  0
VERTEX
  8
W50LXLIFT
 62
7
 10
1295.440
 20
-8169.755
 30
290.000
 70
    32
  0
VERTEX
  8
W50LXLIFT
 62
7
 10
1295.777
 20
-8176.530
 30
290.000
 70
    32
  0
VERTEX
  8
W50LXLIFT
 62
7
 10
1301.855
 20
-8180.556
 30
290.000
 70
    32
  0
VERTEX
  8
W50LXLIFT
 62
7
 10
1300.078
 20
-8188.470
 30
290.000
 70
    32
  0
VERTEX
  8
W50LXLIFT
 62
7
 10
1304.839
 20
-8191.613
 30
290.000
 70
    32
  0
VERTEX
  8
W50LXLIFT
 62
7
 10
1310.266
 20
-8203.590
 30
290.000
 70
    32
  0
VERTEX
  8
W50LXLIFT
 62
7
 10
1316.476
 20
-8227.059
 30
290.000
 70
    32
  0
VERTEX
  8
W50LXLIFT
 62
7
 10
1328.973
 20
-8224.977
 30
290.000
 70
    32
  0
SEQEND
  8
W50LXLIFT
  0
POLYLINE
  8
W50LXLIFT
 62
2
 66
     1
 70
     9
  0
VERTEX
  8
W50LXLIFT
 62
2
 10
1189.379
 20
-7969.856
 30
289.000
 70
    32
  0
VERTEX
  8
W50LXLIFT
 62
2
 10
1195.181
 20
-7994.397
 30
289.000
 70
    32
  0
VERTEX
  8
W50LXLIFT
 62
2
 10
1193.820
 20
-8004.634
 30
289.000
 70
    32
  0
VERTEX
  8
W50LXLIFT
 62
2
 10
1183.315
 20
-8012.475
 30
289.000
 70
    32
  0
VERTEX
  8
W50LXLIFT
 62
2
 10
1189.355
 20
-8018.067
 30
289.000
 70
    32
  0
VERTEX
  8
W50LXLIFT
 62
2
 10
1198.536
 20
-8019.777
 30
289.000
 70
    32
  0
VERTEX
  8
W50LXLIFT
 62
2
 10
1208.174
 20
-8036.955
 30
289.000
 70
    32
  0
VERTEX
  8
W50LXLIFT
 62
2
 10
1218.229
 20
-8064.251
 30
289.000
 70
    32
  0
VERTEX
  8
W50LXLIFT
 62
2
 10
1223.356
 20
-8076.562
 30
289.000
 70
    32
  0
VERTEX
  8
W50LXLIFT
 62
2
 10
1243.970
 20
-8087.413
 30
289.000
 70
    32
  0
VERTEX
  8
W50LXLIFT
 62
2
 10
1248.114
 20
-8083.552
 30
289.000
 70
    32
  0
VERTEX
  8
W50LXLIFT
 62
2
 10
1231.576
 20
-8059.778
 30
289.000
 70
    32
  0
VERTEX
  8
W50LXLIFT
 62
2
 10
1226.583
 20
-8042.646
 30
289.000
 70
    32
  0
VERTEX
  8
W50LXLIFT
 62
2
 10
1219.261
 20
-8028.570
 30
289.000
 70
    32
  0
VERTEX
  8
W50LXLIFT
 62
2
 10
1215.005
 20
-8020.220
 30
289.000
 70
    32
  0
VERTEX
  8
W50LXLIFT
 62
2
 10
1210.386
 20
-7993.588
 30
289.000
 70
    32
  0
VERTEX
  8
W50LXLIFT
 62
2
 10
1198.853
 20
-7966.517
 30
289.000
 70
    32
  0
SEQEND
  8
W50LXLIFT
  0
POLYLINE
  8
W50LXLIFT
 62
13
 66
     1
 70
     9
  0
VERTEX
  8
W50LXLIFT
 62
13
 10
1119.503
 20
-8101.273
 30
291.000
 70
    32
  0
VERTEX
  8
W50LXLIFT
 62
13
 10
1126.343
 20
-8118.673
 30
291.000
 70
    32
  0
VERTEX
  8
W50LXLIFT
 62
13
 10
1129.239
 20
-8129.466
 30
291.000
 70
    32
  0
VERTEX
  8
W50LXLIFT
 62
13
 10
1145.291
 20
-8157.884
 30
291.000
 70
    32
  0
VERTEX
  8
W50LXLIFT
 62
13
 10
1147.426
 20
-8170.452
 30
291.000
 70
    32
  0
VERTEX
  8
W50LXLIFT
 62
13
 10
1156.206
 20
-8170.596
 30
291.000
 70
    32
  0
VERTEX
  8
W50LXLIFT
 62
13
 10
1176.400
 20
-8203.387
 30
291.000
 70
    32
  0
VERTEX
  8
W50LXLIFT
 62
13
 10
1192.426
 20
-8228.093
 30
291.000
 70
    32
  0
VERTEX
  8
W50LXLIFT
 62
13
 10
1195.186
 20
-8228.997
 30
291.000
 70
    32
  0
VERTEX
  8
W50LXLIFT
 62
13
 10
1198.413
 20
-8233.614
 30
291.000
 70
    32
  0
VERTEX
  8
W50LXLIFT
 62
13
 10
1202.717
 20
-8229.084
 30
291.000
 70
    32
  0
VERTEX
  8
W50LXLIFT
 62
13
 10
1202.943
 20
-8222.328
 30
291.000
 70
    32
  0
VERTEX
  8
W50LXLIFT
 62
13
 10
1191.864
 20
-8212.045
 30
291.000
 70
    32
  0
VERTEX
  8
W50LXLIFT
 62
13
 10
1185.933
 20
-8205.274
 30
291.000
 70
    32
  0
VERTEX
  8
W50LXLIFT
 62
13
 10
1183.311
 20
-8197.790
 30
291.000
 70
    32
  0
VERTEX
  8
W50LXLIFT
 62
13
 10
1178.936
 20
-8187.223
 30
291.000
 70
    32
  0
VERTEX
  8
W50LXLIFT
 62
13
 10
1171.339
 20
-8177.634
 30
291.000
 70
    32
  0
VERTEX
  8
W50LXLIFT
 62
13
 10
1169.084
 20
-8171.523
 30
291.000
 70
    32
  0
VERTEX
  8
W50LXLIFT
 62
13
 10
1168.559
 20
-8162.583
 30
291.000
 70
    32
  0
VERTEX
  8
W50LXLIFT
 62
13
 10
1154.461
 20
-8148.844
 30
291.000
 70
    32
  0
VERTEX
  8
W50LXLIFT
 62
13
 10
1152.101
 20
-8134.797
 30
291.000
 70
    32
  0
VERTEX
  8
W50LXLIFT
 62
13
 10
1140.814
 20
-8122.912
 30
291.000
 70
    32
  0
VERTEX
  8
W50LXLIFT
 62
13
 10
1126.715
 20
-8094.903
 30
291.000
 70
    32
  0
SEQEND
  8
W50LXLIFT
  0
POLYLINE
  8
W50LXLIFT
 62
3
 66
     1
 70
     9
  0
VERTEX
  8
W50LXLIFT
 62
3
 10
1118.221
 20
-8092.789
 30
293.000
 70
    32
  0
VERTEX
  8
W50LXLIFT
 62
3
 10
1115.101
 20
-8087.433
 30
293.000
 70
    32
  0
VERTEX
  8
W50LXLIFT
 62
3
 10
1110.718
 20
-8088.179
 30
293.000
 70
    32
  0
VERTEX
  8
W50LXLIFT
 62
3
 10
1105.155
 20
-8066.753
 30
293.000
 70
    32
  0
VERTEX
  8
W50LXLIFT
 62
3
 10
1104.845
 20
-8055.896
 30
293.000
 70
    32
  0
VERTEX
  8
W50LXLIFT
 62
3
 10
1109.487
 20
-8042.112
 30
293.000
 70
    32
  0
VERTEX
  8
W50LXLIFT
 62
3
 10
1103.216
 20
-8022.531
 30
293.000
 70
    32
  0
VERTEX
  8
W50LXLIFT
 62
3
 10
1098.677
 20
-8006.597
 30
293.000
 70
    32
  0
VERTEX
  8
W50LXLIFT
 62
3
 10
1101.350
 20
-7999.882
 30
293.000
 70
    32
  0
VERTEX
  8
W50LXLIFT
 62
3
 10
1108.819
 20
-7996.063
 30
293.000
 70
    32
  0
VERTEX
  8
W50LXLIFT
 62
3
 10
1113.957
 20
-7996.181
 30
293.000
 70
    32
  0
VERTEX
  8
W50LXLIFT
 62
3
 10
1116.601
 20
-8001.782
 30
293.000
 70
    32
  0
VERTEX
  8
W50LXLIFT
 62
3
 10
1120.707
 20
-8029.346
 30
293.000
 70
    32
  0
VERTEX
  8
W50LXLIFT
 62
3
 10
1130.696
 20
-8047.140
 30
293.000
 70
    32
  0
VERTEX
  8
W50LXLIFT
 62
3
 10
1137.104
 20
-8061.020
 30
293.000
 70
    32
  0
VERTEX
  8
W50LXLIFT
 62
3
 10
1137.249
 20
-8074.305
 30
293.000
 70
    32
  0
VERTEX
  8
W50LXLIFT
 62
3
 10
1134.011
 20
-8081.881
 30
293.000
 70
    32
  0
SEQEND
  8
W50LXLIFT
  0
POLYLINE
  8
W50LXLIFT
 62
6
 66
     1
 70
     9
  0
VERTEX
  8
W50LXLIFT
 62
6
 10
1087.393
 20
-8031.926
 30
294.000
 70
    32
  0
VERTEX
  8
W50LXLIFT
 62
6
 10
1084.591
 20
-8018.758
 30
294.000
 70
    32
  0
VERTEX
  8
W50LXLIFT
 62
6
 10
1072.278
 20
-7994.026
 30
294.000
 70
    32
  0
VERTEX
  8
W50LXLIFT
 62
6
 10
1051.829
 20
-7964.717
 30
294.000
 70
    32
  0
VERTEX
  8
W50LXLIFT
 62
6
 10
1027.705
 20
-7934.750
 30
294.000
 70
    32
  0
VERTEX
  8
W50LXLIFT
 62
6
 10
1016.567
 20
-7919.240
 30
294.000
 70
    32
  0
VERTEX
  8
W50LXLIFT
 62
6
 10
1000.668
 20
-7893.233
 30
294.000
 70
    32
  0
VERTEX
  8
W50LXLIFT
 62
6
 10
994.445
 20
-7883.277
 30
294.000
 70
    32
  0
VERTEX
  8
W50LXLIFT
 62
6
 10
990.225
 20
-7882.035
 30
294.000
 70
    32
  0
VERTEX
  8
W50LXLIFT
 62
6
 10
985.734
 20
-7883.961
 30
294.000
 70
    32
  0
VERTEX
  8
W50LXLIFT
 62
6
 10
983.343
 20
-7890.465
 30
294.000
 70
    32
  0
VERTEX
  8
W50LXLIFT
 62
6
 10
984.576
 20
-7905.354
 30
294.000
 70
    32
  0
VERTEX
  8
W50LXLIFT
 62
6
 10
982.007
 20
-7920.445
 30
294.000
 70
    32
  0
VERTEX
  8
W50LXLIFT
 62
6
 10
996.119
 20
-7935.821
 30
294.000
 70
    32
  0
VERTEX
  8
W50LXLIFT
 62
6
 10
1004.854
 20
-7947.524
 30
294.000
 70
    32
  0
VERTEX
  8
W50LXLIFT
 62
6
 10
1013.724
 20
-7954.407
 30
294.000
 70
    32
  0
VERTEX
  8
W50LXLIFT
 62
6
 10
1020.017
 20
-7956.955
 30
294.000
 70
    32
  0
VERTEX
  8
W50LXLIFT
 62
6
 10
1032.691
 20
-7970.110
 30
294.000
 70
    32
  0
VERTEX
  8
W50LXLIFT
 62
6
 10
1041.813
 20
-7989.539
 30
294.000
 70
    32
  0
VERTEX
  8
W50LXLIFT
 62
6
 10
1048.148
 20
-8004.791
 30
294.000
 70
    32
  0
VERTEX
  8
W50LXLIFT
 62
6
 10
1058.659
 20
-8024.610
 30
294.000
 70
    32
  0
VERTEX
  8
W50LXLIFT
 62
6
 10
1071.505
 20
-8039.174
 30
294.000
 70
    32
  0
VERTEX
  8
W50LXLIFT
 62
6
 10
1075.445
 20
-8039.746
 30
294.000
 70
    32
  0
SEQEND
  8
W50LXLIFT
  0
POLYLINE
  8
W50LXLIFT
 62
8
 66
     1
 70
     9
  0
VERTEX
  8
W50LXLIFT
 62
8
 10
961.177
 20
-7835.323
 30
289.000
 70
    32
  0
VERTEX
  8
W50LXLIFT
 62
8
 10
963.091
 20
-7829.503
 30
289.000
 70
    32
  0
VERTEX
  8
W50LXLIFT
 62
8
 10
959.540
 20
-7797.243
 30
289.000
 70
    32
  0
VERTEX
  8
W50LXLIFT
 62
8
 10
950.784
 20
-7786.982
 30
289.000
 70
    32
  0
VERTEX
  8
W50LXLIFT
 62
8
 10
949.317
 20
-7782.369
 30
289.000
 70
    32
  0
VERTEX
  8
W50LXLIFT
 62
8
 10
949.227
 20
-7775.629
 30
289.000
 70
    32
  0
VERTEX
  8
W50LXLIFT
 62
8
 10
938.215
 20
-7766.613
 30
289.000
 70
    32
  0
VERTEX
  8
W50LXLIFT
 62
8
 10
929.511
 20
-7756.423
 30
289.000
 70
    32
  0
VERTEX
  8
W50LXLIFT
 62
8
 10
918.218
 20
-7762.766
 30
289.000
 70
    32
  0
VERTEX
  8
W50LXLIFT
 62
8
 10
912.237
 20
-7777.550
 30
289.000
 70
    32
  0
VERTEX
  8
W50LXLIFT
 62
8
 10
914.577
 20
-7785.245
 30
289.000
 70
    32
  0
VERTEX
  8
W50LXLIFT
 62
8
 10
933.306
 20
-7804.748
 30
289.000
 70
    32
  0
VERTEX
  8
W50LXLIFT
 62
8
 10
938.371
 20
-7813.593
 30
289.000
 70
    32
  0
VERTEX
  8
W50LXLIFT
 62
8
 10
942.756
 20
-7834.911
 30
289.000
 70
    32
  0
VERTEX
  8
W50LXLIFT
 62
8
 10
947.715
 20
-7843.615
 30
289.000
 70
    32
  0
SEQEND
  8
W50LXLIFT
  0
POLYLINE
  8
W50LXLIFT
 62
7
 66
     1
 70
     9
  0
VERTEX
  8
W50LXLIFT
 62
7
 10
1295.414
 20
-8145.418
 30
299.000
 70
    32
  0
VERTEX
  8
W50LXLIFT
 62
7
 10
1289.473
 20
-8151.345
 30
299.000
 70
    32
  0
VERTEX
  8
W50LXLIFT
 62
7
 10
1298.941
 20
-8170.609
 30
299.000
 70
    32
  0
VERTEX
  8
W50LXLIFT
 62
7
 10
1300.737
 20
-8179.863
 30
299.000
 70
    32
  0
VERTEX
  8
W50LXLIFT
 62
7
 10
1297.758
 20
-8185.825
 30
299.000
 70
    32
  0
VERTEX
  8
W50LXLIFT
 62
7
 10
1301.294
 20
-8189.361
 30
299.000
 70
    32
  0
VERTEX
  8
W50LXLIFT
 62
7
 10
1308.602
 20
-8202.027
 30
299.000
 70
    32
  0
VERTEX
  8
W50LXLIFT
 62
7
 10
1314.690
 20
-8226.998
 30
299.000
 70
    32
  0
VERTEX
  8
W50LXLIFT
 62
7
 10
1322.463
 20
-8224.207
 30
299.000
 70
    32
  0
VERTEX
  8
W50LXLIFT
 62
7
 10
1329.495
 20
-8217.382
 30
299.000
 70
    32
  0
VERTEX
  8
W50LXLIFT
 62
7
 10
1320.030
 20
-8194.961
 30
299.000
 70
    32
  0
VERTEX
  8
W50LXLIFT
 62
7
 10
1314.967
 20
-8171.859
 30
299.000
 70
    32
  0
VERTEX
  8
W50LXLIFT
 62
7
 10
1309.975
 20
-8155.777
 30
299.000
 70
    32
  0
VERTEX
  8
W50LXLIFT
 62
7
 10
1304.610
 20
-8145.949
 30
299.000
 70
    32
  0
SEQEND
  8
W50LXLIFT
  0
POLYLINE
  8
W50LXLIFT
 62
2
 66
     1
 70
     9
  0
VERTEX
  8
W50LXLIFT
 62
2
 10
1182.127
 20
-7973.083
 30
298.000
 70
    32
  0
VERTEX
  8
W50LXLIFT
 62
2
 10
1189.495
 20
-7985.380
 30
298.000
 70
    32
  0
VERTEX
  8
W50LXLIFT
 62
2
 10
1194.310
 20
-7997.456
 30
298.000
 70
    32
  0
VERTEX
  8
W50LXLIFT
 62
2
 10
1193.547
 20
-8003.774
 30
298.000
 70
    32
  0
VERTEX
  8
W50LXLIFT
 62
2
 10
1182.854
 20
-8012.157
 30
298.000
 70
    32
  0
VERTEX
  8
W50LXLIFT
 62
2
 10
1189.291
 20
-8021.211
 30
298.000
 70
    32
  0
VERTEX
  8
W50LXLIFT
 62
2
 10
1202.938
 20
-8036.474
 30
298.000
 70
    32
  0
VERTEX
  8
W50LXLIFT
 62
2
 10
1205.947
 20
-8042.893
 30
298.000
 70
    32
  0
VERTEX
  8
W50LXLIFT
 62
2
 10
1208.033
 20
-8052.699
 30
298.000
 70
    32
  0
VERTEX
  8
W50LXLIFT
 62
2
 10
1211.346
 20
-8063.903
 30
298.000
 70
    32
  0
VERTEX
  8
W50LXLIFT
 62
2
 10
1221.720
 20
-8083.817
 30
298.000
 70
    32
  0
VERTEX
  8
W50LXLIFT
 62
2
 10
1228.681
 20
-8100.216
 30
298.000
 70
    32
  0
VERTEX
  8
W50LXLIFT
 62
2
 10
1243.777
 20
-8084.080
 30
298.000
 70
    32
  0
VERTEX
  8
W50LXLIFT
 62
2
 10
1235.373
 20
-8073.511
 30
298.000
 70
    32
  0
VERTEX
  8
W50LXLIFT
 62
2
 10
1232.260
 20
-8064.991
 30
298.000
 70
    32
  0
VERTEX
  8
W50LXLIFT
 62
2
 10
1225.705
 20
-8058.634
 30
298.000
 70
    32
  0
VERTEX
  8
W50LXLIFT
 62
2
 10
1227.816
 20
-8040.789
 30
298.000
 70
    32
  0
VERTEX
  8
W50LXLIFT
 62
2
 10
1220.757
 20
-8034.035
 30
298.000
 70
    32
  0
VERTEX
  8
W50LXLIFT
 62
2
 10
1209.879
 20
-8020.795
 30
298.000
 70
    32
  0
VERTEX
  8
W50LXLIFT
 62
2
 10
1201.164
 20
-7991.739
 30
298.000
 70
    32
  0
VERTEX
  8
W50LXLIFT
 62
2
 10
1198.432
 20
-7983.597
 30
298.000
 70
    32
  0
VERTEX
  8
W50LXLIFT
 62
2
 10
1187.691
 20
-7967.538
 30
298.000
 70
    32
  0
SEQEND
  8
W50LXLIFT
  0
POLYLINE
  8
W50LXLIFT
 62
2
 66
     1
 70
     9
  0
VERTEX
  8
W50LXLIFT
 62
2
 10
1182.127
 20
-7973.083
 30
308.000
 70
    32
  0
VERTEX
  8
W50LXLIFT
 62
2
 10
1189.495
 20
-7985.380
 30
308.000
 70
    32
  0
VERTEX
  8
W50LXLIFT
 62
2
 10
1194.310
 20
-7997.456
 30
308.000
 70
    32
  0
VERTEX
  8
W50LXLIFT
 62
2
 10
1193.547
 20
-8003.774
 30
308.000
 70
    32
  0
VERTEX
  8
W50LXLIFT
 62
2
 10
1182.854
 20
-8012.157
 30
308.000
 70
    32
  0
VERTEX
  8
W50LXLIFT
 62
2
 10
1189.291
 20
-8021.211
 30
308.000
 70
    32
  0
VERTEX
  8
W50LXLIFT
 62
2
 10
1202.938
 20
-8036.474
 30
308.000
 70
    32
  0
VERTEX
  8
W50LXLIFT
 62
2
 10
1205.947
 20
-8042.893
 30
308.000
 70
    32
  0
VERTEX
  8
W50LXLIFT
 62
2
 10
1208.033
 20
-8052.699
 30
308.000
 70
    32
  0
VERTEX
  8
W50LXLIFT
 62
2
 10
1211.346
 20
-8063.903
 30
308.000
 70
    32
  0
VERTEX
  8
W50LXLIFT
 62
2
 10
1221.720
 20
-8083.817
 30
308.000
 70
    32
  0
VERTEX
  8
W50LXLIFT
 62
2
 10
1228.681
 20
-8100.216
 30
308.000
 70
    32
  0
VERTEX
  8
W50LXLIFT
 62
2
 10
1243.777
 20
-8084.080
 30
308.000
 70
    32
  0
VERTEX
  8
W50LXLIFT
 62
2
 10
1235.373
 20
-8073.511
 30
308.000
 70
    32
  0
VERTEX
  8
W50LXLIFT
 62
2
 10
1232.260
 20
-8064.991
 30
308.000
 70
    32
  0
VERTEX
  8
W50LXLIFT
 62
2
 10
1225.705
 20
-8058.634
 30
308.000
 70
    32
  0
VERTEX
  8
W50LXLIFT
 62
2
 10
1227.816
 20
-8040.789
 30
308.000
 70
    32
  0
VERTEX
  8
W50LXLIFT
 62
2
 10
1220.757
 20
-8034.035
 30
308.000
 70
    32
  0
VERTEX
  8
W50LXLIFT
 62
2
 10
1209.879
 20
-8020.795
 30
308.000
 70
    32
  0
VERTEX
  8
W50LXLIFT
 62
2
 10
1201.164
 20
-7991.739
 30
308.000
 70
    32
  0
VERTEX
  8
W50LXLIFT
 62
2
 10
1198.432
 20
-7983.597
 30
308.000
 70
    32
  0
VERTEX
  8
W50LXLIFT
 62
2
 10
1187.691
 20
-7967.538
 30
308.000
 70
    32
  0
SEQEND
  8
W50LXLIFT
  0
POLYLINE
  8
W50LXLIFT
 62
3
 66
     1
 70
     9
  0
VERTEX
  8
W50LXLIFT
 62
3
 10
1103.606
 20
-7980.792
 30
304.000
 70
    32
  0
VERTEX
  8
W50LXLIFT
 62
3
 10
1114.437
 20
-7987.647
 30
304.000
 70
    32
  0
VERTEX
  8
W50LXLIFT
 62
3
 10
1112.236
 20
-8000.553
 30
304.000
 70
    32
  0
VERTEX
  8
W50LXLIFT
 62
3
 10
1113.679
 20
-8010.824
 30
304.000
 70
    32
  0
VERTEX
  8
W50LXLIFT
 62
3
 10
1116.831
 20
-8026.168
 30
304.000
 70
    32
  0
VERTEX
  8
W50LXLIFT
 62
3
 10
1119.478
 20
-8037.201
 30
304.000
 70
    32
  0
VERTEX
  8
W50LXLIFT
 62
3
 10
1133.621
 20
-8067.445
 30
304.000
 70
    32
  0
VERTEX
  8
W50LXLIFT
 62
3
 10
1124.879
 20
-8085.297
 30
304.000
 70
    32
  0
VERTEX
  8
W50LXLIFT
 62
3
 10
1118.582
 20
-8093.440
 30
304.000
 70
    32
  0
VERTEX
  8
W50LXLIFT
 62
3
 10
1109.912
 20
-8090.026
 30
304.000
 70
    32
  0
VERTEX
  8
W50LXLIFT
 62
3
 10
1105.523
 20
-8078.840
 30
304.000
 70
    32
  0
VERTEX
  8
W50LXLIFT
 62
3
 10
1103.571
 20
-8058.384
 30
304.000
 70
    32
  0
VERTEX
  8
W50LXLIFT
 62
3
 10
1099.943
 20
-8045.994
 30
304.000
 70
    32
  0
VERTEX
  8
W50LXLIFT
 62
3
 10
1094.313
 20
-8031.135
 30
304.000
 70
    32
  0
VERTEX
  8
W50LXLIFT
 62
3
 10
1085.896
 20
-8016.334
 30
304.000
 70
    32
  0
VERTEX
  8
W50LXLIFT
 62
3
 10
1088.422
 20
-8002.975
 30
304.000
 70
    32
  0
VERTEX
  8
W50LXLIFT
 62
3
 10
1088.224
 20
-7990.063
 30
304.000
 70
    32
  0
SEQEND
  8
W50LXLIFT
  0
POLYLINE
  8
W50LXLIFT
 62
6
 66
     1
 70
     9
  0
VERTEX
  8
W50LXLIFT
 62
6
 10
1068.049
 20
-7996.165
 30
304.000
 70
    32
  0
VERTEX
  8
W50LXLIFT
 62
6
 10
1047.570
 20
-7967.238
 30
304.000
 70
    32
  0
VERTEX
  8
W50LXLIFT
 62
6
 10
1029.873
 20
-7944.567
 30
304.000
 70
    32
  0
VERTEX
  8
W50LXLIFT
 62
6
 10
1007.888
 20
-7906.938
 30
304.000
 70
    32
  0
VERTEX
  8
W50LXLIFT
 62
6
 10
993.906
 20
-7888.653
 30
304.000
 70
    32
  0
VERTEX
  8
W50LXLIFT
 62
6
 10
986.822
 20
-7886.378
 30
304.000
 70
    32
  0
VERTEX
  8
W50LXLIFT
 62
6
 10
980.073
 20
-7896.153
 30
304.000
 70
    32
  0
VERTEX
  8
W50LXLIFT
 62
6
 10
980.857
 20
-7907.770
 30
304.000
 70
    32
  0
VERTEX
  8
W50LXLIFT
 62
6
 10
978.445
 20
-7910.602
 30
304.000
 70
    32
  0
VERTEX
  8
W50LXLIFT
 62
6
 10
982.789
 20
-7919.319
 30
304.000
 70
    32
  0
VERTEX
  8
W50LXLIFT
 62
6
 10
986.464
 20
-7931.023
 30
304.000
 70
    32
  0
VERTEX
  8
W50LXLIFT
 62
6
 10
994.617
 20
-7940.794
 30
304.000
 70
    32
  0
VERTEX
  8
W50LXLIFT
 62
6
 10
1009.535
 20
-7950.895
 30
304.000
 70
    32
  0
VERTEX
  8
W50LXLIFT
 62
6
 10
1024.367
 20
-7961.929
 30
304.000
 70
    32
  0
VERTEX
  8
W50LXLIFT
 62
6
 10
1030.561
 20
-7969.744
 30
304.000
 70
    32
  0
VERTEX
  8
W50LXLIFT
 62
6
 10
1038.291
 20
-7989.613
 30
304.000
 70
    32
  0
VERTEX
  8
W50LXLIFT
 62
6
 10
1047.816
 20
-8011.664
 30
304.000
 70
    32
  0
VERTEX
  8
W50LXLIFT
 62
6
 10
1052.979
 20
-8007.822
 30
304.000
 70
    32
  0
VERTEX
  8
W50LXLIFT
 62
6
 10
1059.585
 20
-8005.222
 30
304.000
 70
    32
  0
SEQEND
  8
W50LXLIFT
  0
POLYLINE
  8
W50LXLIFT
 62
8
 66
     1
 70
     9
  0
VERTEX
  8
W50LXLIFT
 62
8
 10
957.265
 20
-7818.866
 30
299.000
 70
    32
  0
VERTEX
  8
W50LXLIFT
 62
8
 10
952.669
 20
-7798.364
 30
299.000
 70
    32
  0
VERTEX
  8
W50LXLIFT
 62
8
 10
945.887
 20
-7775.744
 30
299.000
 70
    32
  0
VERTEX
  8
W50LXLIFT
 62
8
 10
938.539
 20
-7770.395
 30
299.000
 70
    32
  0
VERTEX
  8
W50LXLIFT
 62
8
 10
935.448
 20
-7767.625
 30
299.000
 70
    32
  0
VERTEX
  8
W50LXLIFT
 62
8
 10
934.608
 20
-7764.207
 30
299.000
 70
    32
  0
VERTEX
  8
W50LXLIFT
 62
8
 10
929.494
 20
-7755.177
 30
299.000
 70
    32
  0
VERTEX
  8
W50LXLIFT
 62
8
 10
911.184
 20
-7752.423
 30
299.000
 70
    32
  0
VERTEX
  8
W50LXLIFT
 62
8
 10
908.103
 20
-7760.199
 30
299.000
 70
    32
  0
VERTEX
  8
W50LXLIFT
 62
8
 10
903.309
 20
-7764.100
 30
299.000
 70
    32
  0
VERTEX
  8
W50LXLIFT
 62
8
 10
906.031
 20
-7775.840
 30
299.000
 70
    32
  0
VERTEX
  8
W50LXLIFT
 62
8
 10
913.856
 20
-7782.149
 30
299.000
 70
    32
  0
VERTEX
  8
W50LXLIFT
 62
8
 10
944.051
 20
-7825.265
 30
299.000
 70
    32
  0
SEQEND
  8
W50LXLIFT
  0
POLYLINE
  8
W50LXLIFT
 62
13
 66
     1
 70
     9
  0
VERTEX
  8
W50LXLIFT
 62
13
 10
1110.956
 20
-8072.998
 30
311.000
 70
    32
  0
VERTEX
  8
W50LXLIFT
 62
13
 10
1115.598
 20
-8101.182
 30
311.000
 70
    32
  0
VERTEX
  8
W50LXLIFT
 62
13
 10
1121.756
 20
-8106.257
 30
311.000
 70
    32
  0
VERTEX
  8
W50LXLIFT
 62
13
 10
1124.104
 20
-8110.320
 30
311.000
 70
    32
  0
VERTEX
  8
W50LXLIFT
 62
13
 10
1128.549
 20
-8126.397
 30
311.000
 70
    32
  0
VERTEX
  8
W50LXLIFT
 62
13
 10
1130.004
 20
-8139.762
 30
311.000
 70
    32
  0
VERTEX
  8
W50LXLIFT
 62
13
 10
1147.566
 20
-8169.883
 30
311.000
 70
    32
  0
VERTEX
  8
W50LXLIFT
 62
13
 10
1156.249
 20
-8171.122
 30
311.000
 70
    32
  0
VERTEX
  8
W50LXLIFT
 62
13
 10
1160.023
 20
-8169.864
 30
311.000
 70
    32
  0
VERTEX
  8
W50LXLIFT
 62
13
 10
1165.440
 20
-8172.752
 30
311.000
 70
    32
  0
VERTEX
  8
W50LXLIFT
 62
13
 10
1167.464
 20
-8177.710
 30
311.000
 70
    32
  0
VERTEX
  8
W50LXLIFT
 62
13
 10
1160.439
 20
-8183.450
 30
311.000
 70
    32
  0
VERTEX
  8
W50LXLIFT
 62
13
 10
1160.664
 20
-8191.598
 30
311.000
 70
    32
  0
VERTEX
  8
W50LXLIFT
 62
13
 10
1155.524
 20
-8199.445
 30
311.000
 70
    32
  0
VERTEX
  8
W50LXLIFT
 62
13
 10
1156.398
 20
-8205.362
 30
311.000
 70
    32
  0
VERTEX
  8
W50LXLIFT
 62
13
 10
1165.361
 20
-8209.348
 30
311.000
 70
    32
  0
VERTEX
  8
W50LXLIFT
 62
13
 10
1166.792
 20
-8226.232
 30
311.000
 70
    32
  0
VERTEX
  8
W50LXLIFT
 62
13
 10
1172.784
 20
-8229.898
 30
311.000
 70
    32
  0
VERTEX
  8
W50LXLIFT
 62
13
 10
1173.046
 20
-8242.832
 30
311.000
 70
    32
  0
VERTEX
  8
W50LXLIFT
 62
13
 10
1180.293
 20
-8243.164
 30
311.000
 70
    32
  0
VERTEX
  8
W50LXLIFT
 62
13
 10
1181.089
 20
-8229.885
 30
311.000
 70
    32
  0
VERTEX
  8
W50LXLIFT
 62
13
 10
1186.518
 20
-8225.982
 30
311.000
 70
    32
  0
VERTEX
  8
W50LXLIFT
 62
13
 10
1189.544
 20
-8210.836
 30
311.000
 70
    32
  0
VERTEX
  8
W50LXLIFT
 62
13
 10
1186.889
 20
-8200.437
 30
311.000
 70
    32
  0
VERTEX
  8
W50LXLIFT
 62
13
 10
1189.543
 20
-8195.740
 30
311.000
 70
    32
  0
VERTEX
  8
W50LXLIFT
 62
13
 10
1189.014
 20
-8185.848
 30
311.000
 70
    32
  0
VERTEX
  8
W50LXLIFT
 62
13
 10
1176.220
 20
-8168.393
 30
311.000
 70
    32
  0
VERTEX
  8
W50LXLIFT
 62
13
 10
1176.297
 20
-8162.429
 30
311.000
 70
    32
  0
VERTEX
  8
W50LXLIFT
 62
13
 10
1179.696
 20
-8156.963
 30
311.000
 70
    32
  0
VERTEX
  8
W50LXLIFT
 62
13
 10
1177.185
 20
-8151.051
 30
311.000
 70
    32
  0
VERTEX
  8
W50LXLIFT
 62
13
 10
1170.852
 20
-8153.435
 30
311.000
 70
    32
  0
VERTEX
  8
W50LXLIFT
 62
13
 10
1161.108
 20
-8150.464
 30
311.000
 70
    32
  0
VERTEX
  8
W50LXLIFT
 62
13
 10
1149.561
 20
-8141.059
 30
311.000
 70
    32
  0
VERTEX
  8
W50LXLIFT
 62
13
 10
1140.160
 20
-8129.082
 30
311.000
 70
    32
  0
VERTEX
  8
W50LXLIFT
 62
13
 10
1132.190
 20
-8108.828
 30
311.000
 70
    32
  0
VERTEX
  8
W50LXLIFT
 62
13
 10
1131.171
 20
-8100.938
 30
311.000
 70
    32
  0
VERTEX
  8
W50LXLIFT
 62
13
 10
1118.584
 20
-8071.626
 30
311.000
 70
    32
  0
SEQEND
  8
W50LXLIFT
  0
POLYLINE
  8
W50LXLIFT
 62
3
 66
     1
 70
     9
  0
VERTEX
  8
W50LXLIFT
 62
3
 10
1067.327
 20
-7978.457
 30
314.000
 70
    32
  0
VERTEX
  8
W50LXLIFT
 62
3
 10
1076.936
 20
-7995.749
 30
314.000
 70
    32
  0
VERTEX
  8
W50LXLIFT
 62
3
 10
1087.368
 20
-8018.888
 30
314.000
 70
    32
  0
VERTEX
  8
W50LXLIFT
 62
3
 10
1092.429
 20
-8045.122
 30
314.000
 70
    32
  0
VERTEX
  8
W50LXLIFT
 62
3
 10
1093.267
 20
-8076.447
 30
314.000
 70
    32
  0
VERTEX
  8
W50LXLIFT
 62
3
 10
1094.617
 20
-8087.154
 30
314.000
 70
    32
  0
VERTEX
  8
W50LXLIFT
 62
3
 10
1099.410
 20
-8096.301
 30
314.000
 70
    32
  0
VERTEX
  8
W50LXLIFT
 62
3
 10
1111.080
 20
-8098.177
 30
314.000
 70
    32
  0
VERTEX
  8
W50LXLIFT
 62
3
 10
1125.296
 20
-8090.622
 30
314.000
 70
    32
  0
VERTEX
  8
W50LXLIFT
 62
3
 10
1126.476
 20
-8065.135
 30
314.000
 70
    32
  0
VERTEX
  8
W50LXLIFT
 62
3
 10
1118.835
 20
-8045.622
 30
314.000
 70
    32
  0
VERTEX
  8
W50LXLIFT
 62
3
 10
1110.787
 20
-8006.172
 30
314.000
 70
    32
  0
VERTEX
  8
W50LXLIFT
 62
3
 10
1104.305
 20
-7994.444
 30
314.000
 70
    32
  0
VERTEX
  8
W50LXLIFT
 62
3
 10
1100.349
 20
-7983.912
 30
314.000
 70
    32
  0
VERTEX
  8
W50LXLIFT
 62
3
 10
1092.035
 20
-7975.180
 30
314.000
 70
    32
  0
VERTEX
  8
W50LXLIFT
 62
3
 10
1083.730
 20
-7972.677
 30
314.000
 70
    32
  0
SEQEND
  8
W50LXLIFT
  0
POLYLINE
  8
W50LXLIFT
 62
6
 66
     1
 70
     9
  0
VERTEX
  8
W50LXLIFT
 62
6
 10
1069.068
 20
-7998.721
 30
313.000
 70
    32
  0
VERTEX
  8
W50LXLIFT
 62
6
 10
1055.177
 20
-7979.780
 30
313.000
 70
    32
  0
VERTEX
  8
W50LXLIFT
 62
6
 10
1048.665
 20
-7967.418
 30
313.000
 70
    32
  0
VERTEX
  8
W50LXLIFT
 62
6
 10
1051.101
 20
-7963.758
 30
313.000
 70
    32
  0
VERTEX
  8
W50LXLIFT
 62
6
 10
1050.159
 20
-7959.969
 30
313.000
 70
    32
  0
VERTEX
  8
W50LXLIFT
 62
6
 10
1032.325
 20
-7946.349
 30
313.000
 70
    32
  0
VERTEX
  8
W50LXLIFT
 62
6
 10
1025.958
 20
-7938.475
 30
313.000
 70
    32
  0
VERTEX
  8
W50LXLIFT
 62
6
 10
1021.940
 20
-7931.709
 30
313.000
 70
    32
  0
VERTEX
  8
W50LXLIFT
 62
6
 10
1017.701
 20
-7923.902
 30
313.000
 70
    32
  0
VERTEX
  8
W50LXLIFT
 62
6
 10
1010.639
 20
-7919.824
 30
313.000
 70
    32
  0
VERTEX
  8
W50LXLIFT
 62
6
 10
1004.607
 20
-7911.812
 30
313.000
 70
    32
  0
VERTEX
  8
W50LXLIFT
 62
6
 10
999.851
 20
-7899.902
 30
313.000
 70
    32
  0
VERTEX
  8
W50LXLIFT
 62
6
 10
996.864
 20
-7896.750
 30
313.000
 70
    32
  0
VERTEX
  8
W50LXLIFT
 62
6
 10
993.087
 20
-7895.932
 30
313.000
 70
    32
  0
VERTEX
  8
W50LXLIFT
 62
6
 10
990.085
 20
-7889.946
 30
313.000
 70
    32
  0
VERTEX
  8
W50LXLIFT
 62
6
 10
987.701
 20
-7888.645
 30
313.000
 70
    32
  0
VERTEX
  8
W50LXLIFT
 62
6
 10
978.412
 20
-7896.058
 30
313.000
 70
    32
  0
VERTEX
  8
W50LXLIFT
 62
6
 10
978.443
 20
-7901.724
 30
313.000
 70
    32
  0
VERTEX
  8
W50LXLIFT
 62
6
 10
985.718
 20
-7920.742
 30
313.000
 70
    32
  0
VERTEX
  8
W50LXLIFT
 62
6
 10
1001.892
 20
-7945.434
 30
313.000
 70
    32
  0
VERTEX
  8
W50LXLIFT
 62
6
 10
1018.533
 20
-7956.107
 30
313.000
 70
    32
  0
VERTEX
  8
W50LXLIFT
 62
6
 10
1027.851
 20
-7967.379
 30
313.000
 70
    32
  0
VERTEX
  8
W50LXLIFT
 62
6
 10
1036.685
 20
-7977.259
 30
313.000
 70
    32
  0
VERTEX
  8
W50LXLIFT
 62
6
 10
1042.413
 20
-7991.075
 30
313.000
 70
    32
  0
VERTEX
  8
W50LXLIFT
 62
6
 10
1045.821
 20
-8001.902
 30
313.000
 70
    32
  0
VERTEX
  8
W50LXLIFT
 62
6
 10
1053.188
 20
-8010.240
 30
313.000
 70
    32
  0
SEQEND
  8
W50LXLIFT
  0
POLYLINE
  8
W50LXLIFT
 62
8
 66
     1
 70
     9
  0
VERTEX
  8
W50LXLIFT
 62
8
 10
955.823
 20
-7824.801
 30
308.000
 70
    32
  0
VERTEX
  8
W50LXLIFT
 62
8
 10
955.460
 20
-7813.801
 30
308.000
 70
    32
  0
VERTEX
  8
W50LXLIFT
 62
8
 10
948.892
 20
-7796.777
 30
308.000
 70
    32
  0
VERTEX
  8
W50LXLIFT
 62
8
 10
935.025
 20
-7779.350
 30
308.000
 70
    32
  0
VERTEX
  8
W50LXLIFT
 62
8
 10
918.476
 20
-7765.546
 30
308.000
 70
    32
  0
VERTEX
  8
W50LXLIFT
 62
8
 10
905.945
 20
-7763.541
 30
308.000
 70
    32
  0
VERTEX
  8
W50LXLIFT
 62
8
 10
903.919
 20
-7769.087
 30
308.000
 70
    32
  0
VERTEX
  8
W50LXLIFT
 62
8
 10
893.040
 20
-7782.489
 30
308.000
 70
    32
  0
VERTEX
  8
W50LXLIFT
 62
8
 10
895.218
 20
-7790.615
 30
308.000
 70
    32
  0
VERTEX
  8
W50LXLIFT
 62
8
 10
905.338
 20
-7795.278
 30
308.000
 70
    32
  0
VERTEX
  8
W50LXLIFT
 62
8
 10
914.944
 20
-7797.913
 30
308.000
 70
    32
  0
VERTEX
  8
W50LXLIFT
 62
8
 10
927.924
 20
-7811.182
 30
308.000
 70
    32
  0
VERTEX
  8
W50LXLIFT
 62
8
 10
934.885
 20
-7819.711
 30
308.000
 70
    32
  0
VERTEX
  8
W50LXLIFT
 62
8
 10
936.295
 20
-7827.093
 30
308.000
 70
    32
  0
VERTEX
  8
W50LXLIFT
 62
8
 10
941.567
 20
-7833.042
 30
308.000
 70
    32
  0
VERTEX
  8
W50LXLIFT
 62
8
 10
947.811
 20
-7830.833
 30
308.000
 70
    32
  0
SEQEND
  8
W50LXLIFT
  0
POLYLINE
  8
W50LXLIFT
 62
7
 66
     1
 70
     9
  0
VERTEX
  8
W50LXLIFT
 62
7
 10
1327.531
 20
-8221.501
 30
316.000
 70
    32
  0
VERTEX
  8
W50LXLIFT
 62
7
 10
1323.103
 20
-8208.349
 30
316.000
 70
    32
  0
VERTEX
  8
W50LXLIFT
 62
7
 10
1311.771
 20
-8186.522
 30
316.000
 70
    32
  0
VERTEX
  8
W50LXLIFT
 62
7
 10
1303.337
 20
-8154.308
 30
316.000
 70
    32
  0
VERTEX
  8
W50LXLIFT
 62
7
 10
1293.101
 20
-8142.193
 30
316.000
 70
    32
  0
VERTEX
  8
W50LXLIFT
 62
7
 10
1288.112
 20
-8128.582
 30
316.000
 70
    32
  0
VERTEX
  8
W50LXLIFT
 62
7
 10
1280.789
 20
-8130.530
 30
316.000
 70
    32
  0
VERTEX
  8
W50LXLIFT
 62
7
 10
1274.556
 20
-8138.356
 30
316.000
 70
    32
  0
VERTEX
  8
W50LXLIFT
 62
7
 10
1282.378
 20
-8151.941
 30
316.000
 70
    32
  0
VERTEX
  8
W50LXLIFT
 62
7
 10
1280.268
 20
-8157.352
 30
316.000
 70
    32
  0
VERTEX
  8
W50LXLIFT
 62
7
 10
1284.370
 20
-8168.006
 30
316.000
 70
    32
  0
VERTEX
  8
W50LXLIFT
 62
7
 10
1284.287
 20
-8172.016
 30
316.000
 70
    32
  0
VERTEX
  8
W50LXLIFT
 62
7
 10
1287.421
 20
-8176.809
 30
316.000
 70
    32
  0
VERTEX
  8
W50LXLIFT
 62
7
 10
1287.950
 20
-8182.229
 30
316.000
 70
    32
  0
VERTEX
  8
W50LXLIFT
 62
7
 10
1293.002
 20
-8186.799
 30
316.000
 70
    32
  0
VERTEX
  8
W50LXLIFT
 62
7
 10
1301.125
 20
-8187.985
 30
316.000
 70
    32
  0
VERTEX
  8
W50LXLIFT
 62
7
 10
1304.771
 20
-8197.881
 30
316.000
 70
    32
  0
VERTEX
  8
W50LXLIFT
 62
7
 10
1309.024
 20
-8204.912
 30
316.000
 70
    32
  0
VERTEX
  8
W50LXLIFT
 62
7
 10
1315.188
 20
-8225.985
 30
316.000
 70
    32
  0
SEQEND
  8
W50LXLIFT
  0
POLYLINE
  8
W50LXLIFT
 62
2
 66
     1
 70
     9
  0
VERTEX
  8
W50LXLIFT
 62
2
 10
1185.247
 20
-8006.608
 30
318.000
 70
    32
  0
VERTEX
  8
W50LXLIFT
 62
2
 10
1184.239
 20
-8026.006
 30
318.000
 70
    32
  0
VERTEX
  8
W50LXLIFT
 62
2
 10
1193.868
 20
-8058.645
 30
318.000
 70
    32
  0
VERTEX
  8
W50LXLIFT
 62
2
 10
1203.712
 20
-8072.148
 30
318.000
 70
    32
  0
VERTEX
  8
W50LXLIFT
 62
2
 10
1207.815
 20
-8088.395
 30
318.000
 70
    32
  0
VERTEX
  8
W50LXLIFT
 62
2
 10
1216.571
 20
-8101.174
 30
318.000
 70
    32
  0
VERTEX
  8
W50LXLIFT
 62
2
 10
1219.805
 20
-8113.461
 30
318.000
 70
    32
  0
VERTEX
  8
W50LXLIFT
 62
2
 10
1227.488
 20
-8114.645
 30
318.000
 70
    32
  0
VERTEX
  8
W50LXLIFT
 62
2
 10
1234.747
 20
-8110.551
 30
318.000
 70
    32
  0
VERTEX
  8
W50LXLIFT
 62
2
 10
1232.219
 20
-8103.332
 30
318.000
 70
    32
  0
VERTEX
  8
W50LXLIFT
 62
2
 10
1232.410
 20
-8098.143
 30
318.000
 70
    32
  0
VERTEX
  8
W50LXLIFT
 62
2
 10
1207.330
 20
-8050.806
 30
318.000
 70
    32
  0
VERTEX
  8
W50LXLIFT
 62
2
 10
1199.917
 20
-8024.083
 30
318.000
 70
    32
  0
VERTEX
  8
W50LXLIFT
 62
2
 10
1205.027
 20
-8015.339
 30
318.000
 70
    32
  0
VERTEX
  8
W50LXLIFT
 62
2
 10
1203.426
 20
-8009.512
 30
318.000
 70
    32
  0
SEQEND
  8
W50LXLIFT
  0
POLYLINE
  8
W50LXLIFT
 62
13
 66
     1
 70
     9
  0
VERTEX
  8
W50LXLIFT
 62
13
 10
1178.269
 20
-8244.780
 30
318.000
 70
    32
  0
VERTEX
  8
W50LXLIFT
 62
13
 10
1179.236
 20
-8233.420
 30
318.000
 70
    32
  0
VERTEX
  8
W50LXLIFT
 62
13
 10
1181.591
 20
-8228.045
 30
318.000
 70
    32
  0
VERTEX
  8
W50LXLIFT
 62
13
 10
1186.010
 20
-8226.616
 30
318.000
 70
    32
  0
VERTEX
  8
W50LXLIFT
 62
13
 10
1181.471
 20
-8180.202
 30
318.000
 70
    32
  0
VERTEX
  8
W50LXLIFT
 62
13
 10
1179.464
 20
-8175.007
 30
318.000
 70
    32
  0
VERTEX
  8
W50LXLIFT
 62
13
 10
1173.024
 20
-8170.045
 30
318.000
 70
    32
  0
VERTEX
  8
W50LXLIFT
 62
13
 10
1156.800
 20
-8154.606
 30
318.000
 70
    32
  0
VERTEX
  8
W50LXLIFT
 62
13
 10
1152.189
 20
-8144.003
 30
318.000
 70
    32
  0
VERTEX
  8
W50LXLIFT
 62
13
 10
1134.638
 20
-8119.572
 30
318.000
 70
    32
  0
VERTEX
  8
W50LXLIFT
 62
13
 10
1132.931
 20
-8108.011
 30
318.000
 70
    32
  0
VERTEX
  8
W50LXLIFT
 62
13
 10
1117.766
 20
-8079.717
 30
318.000
 70
    32
  0
VERTEX
  8
W50LXLIFT
 62
13
 10
1109.231
 20
-8075.329
 30
318.000
 70
    32
  0
VERTEX
  8
W50LXLIFT
 62
13
 10
1105.340
 20
-8088.210
 30
318.000
 70
    32
  0
VERTEX
  8
W50LXLIFT
 62
13
 10
1107.867
 20
-8090.276
 30
318.000
 70
    32
  0
VERTEX
  8
W50LXLIFT
 62
13
 10
1113.838
 20
-8110.943
 30
318.000
 70
    32
  0
VERTEX
  8
W50LXLIFT
 62
13
 10
1124.764
 20
-8138.996
 30
318.000
 70
    32
  0
VERTEX
  8
W50LXLIFT
 62
13
 10
1142.200
 20
-8172.398
 30
318.000
 70
    32
  0
VERTEX
  8
W50LXLIFT
 62
13
 10
1150.430
 20
-8173.284
 30
318.000
 70
    32
  0
VERTEX
  8
W50LXLIFT
 62
13
 10
1155.891
 20
-8170.310
 30
318.000
 70
    32
  0
VERTEX
  8
W50LXLIFT
 62
13
 10
1161.653
 20
-8178.630
 30
318.000
 70
    32
  0
VERTEX
  8
W50LXLIFT
 62
13
 10
1161.391
 20
-8201.530
 30
318.000
 70
    32
  0
VERTEX
  8
W50LXLIFT
 62
13
 10
1157.508
 20
-8211.773
 30
318.000
 70
    32
  0
VERTEX
  8
W50LXLIFT
 62
13
 10
1167.566
 20
-8218.646
 30
318.000
 70
    32
  0
VERTEX
  8
W50LXLIFT
 62
13
 10
1173.807
 20
-8237.027
 30
318.000
 70
    32
  0
VERTEX
  8
W50LXLIFT
 62
13
 10
1172.109
 20
-8246.081
 30
318.000
 70
    32
  0
SEQEND
  8
W50LXLIFT
  0
POLYLINE
  8
W50LXLIFT
 62
3
 66
     1
 70
     9
  0
VERTEX
  8
W50LXLIFT
 62
3
 10
1118.409
 20
-8070.572
 30
324.000
 70
    32
  0
VERTEX
  8
W50LXLIFT
 62
3
 10
1121.519
 20
-8060.028
 30
324.000
 70
    32
  0
VERTEX
  8
W50LXLIFT
 62
3
 10
1104.548
 20
-8000.613
 30
324.000
 70
    32
  0
VERTEX
  8
W50LXLIFT
 62
3
 10
1098.321
 20
-7983.428
 30
324.000
 70
    32
  0
VERTEX
  8
W50LXLIFT
 62
3
 10
1089.922
 20
-7974.661
 30
324.000
 70
    32
  0
VERTEX
  8
W50LXLIFT
 62
3
 10
1075.263
 20
-7976.921
 30
324.000
 70
    32
  0
VERTEX
  8
W50LXLIFT
 62
3
 10
1082.612
 20
-8007.530
 30
324.000
 70
    32
  0
VERTEX
  8
W50LXLIFT
 62
3
 10
1084.345
 20
-8015.891
 30
324.000
 70
    32
  0
VERTEX
  8
W50LXLIFT
 62
3
 10
1072.800
 20
-8023.947
 30
324.000
 70
    32
  0
VERTEX
  8
W50LXLIFT
 62
3
 10
1052.959
 20
-8018.223
 30
324.000
 70
    32
  0
VERTEX
  8
W50LXLIFT
 62
3
 10
1050.260
 20
-8020.783
 30
324.000
 70
    32
  0
VERTEX
  8
W50LXLIFT
 62
3
 10
1049.712
 20
-8027.554
 30
324.000
 70
    32
  0
VERTEX
  8
W50LXLIFT
 62
3
 10
1043.995
 20
-8033.569
 30
324.000
 70
    32
  0
VERTEX
  8
W50LXLIFT
 62
3
 10
1056.247
 20
-8059.427
 30
324.000
 70
    32
  0
VERTEX
  8
W50LXLIFT
 62
3
 10
1070.927
 20
-8056.165
 30
324.000
 70
    32
  0
VERTEX
  8
W50LXLIFT
 62
3
 10
1079.194
 20
-8055.926
 30
324.000
 70
    32
  0
VERTEX
  8
W50LXLIFT
 62
3
 10
1086.750
 20
-8064.444
 30
324.000
 70
    32
  0
VERTEX
  8
W50LXLIFT
 62
3
 10
1103.510
 20
-8071.038
 30
324.000
 70
    32
  0
VERTEX
  8
W50LXLIFT
 62
3
 10
1108.720
 20
-8075.820
 30
324.000
 70
    32
  0
SEQEND
  8
W50LXLIFT
  0
POLYLINE
  8
W50LXLIFT
 62
6
 66
     1
 70
     9
  0
VERTEX
  8
W50LXLIFT
 62
6
 10
1055.266
 20
-7988.206
 30
321.000
 70
    32
  0
VERTEX
  8
W50LXLIFT
 62
6
 10
1064.103
 20
-7997.414
 30
321.000
 70
    32
  0
VERTEX
  8
W50LXLIFT
 62
6
 10
1070.921
 20
-7987.725
 30
321.000
 70
    32
  0
VERTEX
  8
W50LXLIFT
 62
6
 10
1075.092
 20
-7975.513
 30
321.000
 70
    32
  0
VERTEX
  8
W50LXLIFT
 62
6
 10
1072.970
 20
-7973.255
 30
321.000
 70
    32
  0
VERTEX
  8
W50LXLIFT
 62
6
 10
1057.010
 20
-7969.795
 30
321.000
 70
    32
  0
VERTEX
  8
W50LXLIFT
 62
6
 10
1044.456
 20
-7962.370
 30
321.000
 70
    32
  0
VERTEX
  8
W50LXLIFT
 62
6
 10
1032.115
 20
-7948.314
 30
321.000
 70
    32
  0
VERTEX
  8
W50LXLIFT
 62
6
 10
1016.948
 20
-7926.493
 30
321.000
 70
    32
  0
VERTEX
  8
W50LXLIFT
 62
6
 10
1002.703
 20
-7908.263
 30
321.000
 70
    32
  0
VERTEX
  8
W50LXLIFT
 62
6
 10
991.438
 20
-7893.296
 30
321.000
 70
    32
  0
VERTEX
  8
W50LXLIFT
 62
6
 10
980.572
 20
-7891.961
 30
321.000
 70
    32
  0
VERTEX
  8
W50LXLIFT
 62
6
 10
978.466
 20
-7902.086
 30
321.000
 70
    32
  0
VERTEX
  8
W50LXLIFT
 62
6
 10
980.618
 20
-7911.890
 30
321.000
 70
    32
  0
VERTEX
  8
W50LXLIFT
 62
6
 10
983.846
 20
-7920.343
 30
321.000
 70
    32
  0
VERTEX
  8
W50LXLIFT
 62
6
 10
989.426
 20
-7919.146
 30
321.000
 70
    32
  0
VERTEX
  8
W50LXLIFT
 62
6
 10
993.176
 20
-7929.623
 30
321.000
 70
    32
  0
VERTEX
  8
W50LXLIFT
 62
6
 10
1010.447
 20
-7953.385
 30
321.000
 70
    32
  0
VERTEX
  8
W50LXLIFT
 62
6
 10
1032.223
 20
-7976.862
 30
321.000
 70
    32
  0
VERTEX
  8
W50LXLIFT
 62
6
 10
1044.362
 20
-7993.590
 30
321.000
 70
    32
  0
SEQEND
  8
W50LXLIFT
  0
POLYLINE
  8
W50LXLIFT
 62
7
 66
     1
 70
     9
  0
VERTEX
  8
W50LXLIFT
 62
7
 10
1284.442
 20
-8126.616
 30
326.000
 70
    32
  0
VERTEX
  8
W50LXLIFT
 62
7
 10
1289.236
 20
-8136.938
 30
326.000
 70
    32
  0
VERTEX
  8
W50LXLIFT
 62
7
 10
1295.342
 20
-8145.326
 30
326.000
 70
    32
  0
VERTEX
  8
W50LXLIFT
 62
7
 10
1303.277
 20
-8152.492
 30
326.000
 70
    32
  0
VERTEX
  8
W50LXLIFT
 62
7
 10
1305.918
 20
-8160.902
 30
326.000
 70
    32
  0
VERTEX
  8
W50LXLIFT
 62
7
 10
1323.003
 20
-8191.097
 30
326.000
 70
    32
  0
VERTEX
  8
W50LXLIFT
 62
7
 10
1324.738
 20
-8197.665
 30
326.000
 70
    32
  0
VERTEX
  8
W50LXLIFT
 62
7
 10
1320.818
 20
-8222.161
 30
326.000
 70
    32
  0
VERTEX
  8
W50LXLIFT
 62
7
 10
1321.266
 20
-8227.707
 30
326.000
 70
    32
  0
VERTEX
  8
W50LXLIFT
 62
7
 10
1315.417
 20
-8229.681
 30
326.000
 70
    32
  0
VERTEX
  8
W50LXLIFT
 62
7
 10
1306.110
 20
-8218.837
 30
326.000
 70
    32
  0
VERTEX
  8
W50LXLIFT
 62
7
 10
1304.937
 20
-8213.492
 30
326.000
 70
    32
  0
VERTEX
  8
W50LXLIFT
 62
7
 10
1306.887
 20
-8207.505
 30
326.000
 70
    32
  0
VERTEX
  8
W50LXLIFT
 62
7
 10
1306.213
 20
-8202.993
 30
326.000
 70
    32
  0
VERTEX
  8
W50LXLIFT
 62
7
 10
1298.320
 20
-8187.966
 30
326.000
 70
    32
  0
VERTEX
  8
W50LXLIFT
 62
7
 10
1289.592
 20
-8185.836
 30
326.000
 70
    32
  0
VERTEX
  8
W50LXLIFT
 62
7
 10
1282.153
 20
-8174.720
 30
326.000
 70
    32
  0
VERTEX
  8
W50LXLIFT
 62
7
 10
1278.339
 20
-8158.573
 30
326.000
 70
    32
  0
VERTEX
  8
W50LXLIFT
 62
7
 10
1276.305
 20
-8148.308
 30
326.000
 70
    32
  0
VERTEX
  8
W50LXLIFT
 62
7
 10
1272.589
 20
-8135.135
 30
326.000
 70
    32
  0
VERTEX
  8
W50LXLIFT
 62
7
 10
1273.886
 20
-8129.296
 30
326.000
 70
    32
  0
SEQEND
  8
W50LXLIFT
  0
POLYLINE
  8
W50LXLIFT
 62
2
 66
     1
 70
     9
  0
VERTEX
  8
W50LXLIFT
 62
2
 10
1177.367
 20
-7980.411
 30
329.000
 70
    32
  0
VERTEX
  8
W50LXLIFT
 62
2
 10
1185.311
 20
-7993.117
 30
329.000
 70
    32
  0
VERTEX
  8
W50LXLIFT
 62
2
 10
1185.361
 20
-8005.587
 30
329.000
 70
    32
  0
VERTEX
  8
W50LXLIFT
 62
2
 10
1185.997
 20
-8027.528
 30
329.000
 70
    32
  0
VERTEX
  8
W50LXLIFT
 62
2
 10
1191.176
 20
-8044.205
 30
329.000
 70
    32
  0
VERTEX
  8
W50LXLIFT
 62
2
 10
1193.754
 20
-8058.206
 30
329.000
 70
    32
  0
VERTEX
  8
W50LXLIFT
 62
2
 10
1204.258
 20
-8071.441
 30
329.000
 70
    32
  0
VERTEX
  8
W50LXLIFT
 62
2
 10
1208.531
 20
-8087.471
 30
329.000
 70
    32
  0
VERTEX
  8
W50LXLIFT
 62
2
 10
1217.316
 20
-8100.436
 30
329.000
 70
    32
  0
VERTEX
  8
W50LXLIFT
 62
2
 10
1220.062
 20
-8113.771
 30
329.000
 70
    32
  0
VERTEX
  8
W50LXLIFT
 62
2
 10
1227.872
 20
-8114.938
 30
329.000
 70
    32
  0
VERTEX
  8
W50LXLIFT
 62
2
 10
1235.433
 20
-8110.086
 30
329.000
 70
    32
  0
VERTEX
  8
W50LXLIFT
 62
2
 10
1232.470
 20
-8103.326
 30
329.000
 70
    32
  0
VERTEX
  8
W50LXLIFT
 62
2
 10
1232.707
 20
-8099.020
 30
329.000
 70
    32
  0
VERTEX
  8
W50LXLIFT
 62
2
 10
1207.961
 20
-8051.128
 30
329.000
 70
    32
  0
VERTEX
  8
W50LXLIFT
 62
2
 10
1200.063
 20
-8025.337
 30
329.000
 70
    32
  0
VERTEX
  8
W50LXLIFT
 62
2
 10
1204.733
 20
-8016.065
 30
329.000
 70
    32
  0
VERTEX
  8
W50LXLIFT
 62
2
 10
1201.462
 20
-8000.067
 30
329.000
 70
    32
  0
VERTEX
  8
W50LXLIFT
 62
2
 10
1201.389
 20
-7994.139
 30
329.000
 70
    32
  0
VERTEX
  8
W50LXLIFT
 62
2
 10
1186.104
 20
-7973.290
 30
329.000
 70
    32
  0
SEQEND
  8
W50LXLIFT
  0
POLYLINE
  8
W50LXLIFT
 62
13
 66
     1
 70
     9
  0
VERTEX
  8
W50LXLIFT
 62
13
 10
1183.426
 20
-8236.904
 30
331.000
 70
    32
  0
VERTEX
  8
W50LXLIFT
 62
13
 10
1187.108
 20
-8231.505
 30
331.000
 70
    32
  0
VERTEX
  8
W50LXLIFT
 62
13
 10
1182.980
 20
-8222.546
 30
331.000
 70
    32
  0
VERTEX
  8
W50LXLIFT
 62
13
 10
1168.383
 20
-8175.749
 30
331.000
 70
    32
  0
VERTEX
  8
W50LXLIFT
 62
13
 10
1150.747
 20
-8158.243
 30
331.000
 70
    32
  0
VERTEX
  8
W50LXLIFT
 62
13
 10
1145.942
 20
-8152.388
 30
331.000
 70
    32
  0
VERTEX
  8
W50LXLIFT
 62
13
 10
1140.068
 20
-8143.722
 30
331.000
 70
    32
  0
VERTEX
  8
W50LXLIFT
 62
13
 10
1126.869
 20
-8129.621
 30
331.000
 70
    32
  0
VERTEX
  8
W50LXLIFT
 62
13
 10
1105.229
 20
-8075.987
 30
331.000
 70
    32
  0
VERTEX
  8
W50LXLIFT
 62
13
 10
1101.261
 20
-8079.202
 30
331.000
 70
    32
  0
VERTEX
  8
W50LXLIFT
 62
13
 10
1102.790
 20
-8087.876
 30
331.000
 70
    32
  0
VERTEX
  8
W50LXLIFT
 62
13
 10
1099.786
 20
-8091.369
 30
331.000
 70
    32
  0
VERTEX
  8
W50LXLIFT
 62
13
 10
1110.598
 20
-8115.037
 30
331.000
 70
    32
  0
VERTEX
  8
W50LXLIFT
 62
13
 10
1122.922
 20
-8153.484
 30
331.000
 70
    32
  0
VERTEX
  8
W50LXLIFT
 62
13
 10
1137.431
 20
-8175.658
 30
331.000
 70
    32
  0
VERTEX
  8
W50LXLIFT
 62
13
 10
1142.721
 20
-8179.638
 30
331.000
 70
    32
  0
VERTEX
  8
W50LXLIFT
 62
13
 10
1145.317
 20
-8188.733
 30
331.000
 70
    32
  0
VERTEX
  8
W50LXLIFT
 62
13
 10
1150.847
 20
-8195.583
 30
331.000
 70
    32
  0
VERTEX
  8
W50LXLIFT
 62
13
 10
1170.962
 20
-8237.711
 30
331.000
 70
    32
  0
SEQEND
  8
W50LXLIFT
  0
POLYLINE
  8
W50LXLIFT
 62
3
 66
     1
 70
     9
  0
VERTEX
  8
W50LXLIFT
 62
3
 10
1122.376
 20
-8067.421
 30
334.000
 70
    32
  0
VERTEX
  8
W50LXLIFT
 62
3
 10
1115.977
 20
-8053.699
 30
334.000
 70
    32
  0
VERTEX
  8
W50LXLIFT
 62
3
 10
1111.983
 20
-8039.097
 30
334.000
 70
    32
  0
VERTEX
  8
W50LXLIFT
 62
3
 10
1110.811
 20
-8020.157
 30
334.000
 70
    32
  0
VERTEX
  8
W50LXLIFT
 62
3
 10
1109.007
 20
-8003.634
 30
334.000
 70
    32
  0
VERTEX
  8
W50LXLIFT
 62
3
 10
1103.474
 20
-7988.412
 30
334.000
 70
    32
  0
VERTEX
  8
W50LXLIFT
 62
3
 10
1096.497
 20
-7969.564
 30
334.000
 70
    32
  0
VERTEX
  8
W50LXLIFT
 62
3
 10
1078.224
 20
-7974.491
 30
334.000
 70
    32
  0
VERTEX
  8
W50LXLIFT
 62
3
 10
1080.387
 20
-7984.336
 30
334.000
 70
    32
  0
VERTEX
  8
W50LXLIFT
 62
3
 10
1084.857
 20
-8007.510
 30
334.000
 70
    32
  0
VERTEX
  8
W50LXLIFT
 62
3
 10
1076.709
 20
-8016.486
 30
334.000
 70
    32
  0
VERTEX
  8
W50LXLIFT
 62
3
 10
1071.299
 20
-8019.662
 30
334.000
 70
    32
  0
VERTEX
  8
W50LXLIFT
 62
3
 10
1061.298
 20
-8016.828
 30
334.000
 70
    32
  0
VERTEX
  8
W50LXLIFT
 62
3
 10
1056.570
 20
-8011.678
 30
334.000
 70
    32
  0
VERTEX
  8
W50LXLIFT
 62
3
 10
1052.773
 20
-8006.611
 30
334.000
 70
    32
  0
VERTEX
  8
W50LXLIFT
 62
3
 10
1045.618
 20
-8008.883
 30
334.000
 70
    32
  0
VERTEX
  8
W50LXLIFT
 62
3
 10
1036.378
 20
-8020.394
 30
334.000
 70
    32
  0
VERTEX
  8
W50LXLIFT
 62
3
 10
1032.124
 20
-8036.214
 30
334.000
 70
    32
  0
VERTEX
  8
W50LXLIFT
 62
3
 10
1036.834
 20
-8043.880
 30
334.000
 70
    32
  0
VERTEX
  8
W50LXLIFT
 62
3
 10
1050.031
 20
-8050.804
 30
334.000
 70
    32
  0
VERTEX
  8
W50LXLIFT
 62
3
 10
1062.755
 20
-8055.137
 30
334.000
 70
    32
  0
VERTEX
  8
W50LXLIFT
 62
3
 10
1081.662
 20
-8050.184
 30
334.000
 70
    32
  0
VERTEX
  8
W50LXLIFT
 62
3
 10
1087.695
 20
-8053.840
 30
334.000
 70
    32
  0
VERTEX
  8
W50LXLIFT
 62
3
 10
1102.894
 20
-8073.228
 30
334.000
 70
    32
  0
VERTEX
  8
W50LXLIFT
 62
3
 10
1111.782
 20
-8071.543
 30
334.000
 70
    32
  0
VERTEX
  8
W50LXLIFT
 62
3
 10
1118.651
 20
-8078.290
 30
334.000
 70
    32
  0
SEQEND
  8
W50LXLIFT
  0
POLYLINE
  8
W50LXLIFT
 62
6
 66
     1
 70
     9
  0
VERTEX
  8
W50LXLIFT
 62
6
 10
974.122
 20
-7904.535
 30
330.000
 70
    32
  0
VERTEX
  8
W50LXLIFT
 62
6
 10
983.774
 20
-7921.979
 30
330.000
 70
    32
  0
VERTEX
  8
W50LXLIFT
 62
6
 10
996.114
 20
-7934.748
 30
330.000
 70
    32
  0
VERTEX
  8
W50LXLIFT
 62
6
 10
1003.858
 20
-7947.926
 30
330.000
 70
    32
  0
VERTEX
  8
W50LXLIFT
 62
6
 10
1022.635
 20
-7959.380
 30
330.000
 70
    32
  0
VERTEX
  8
W50LXLIFT
 62
6
 10
1035.220
 20
-7970.992
 30
330.000
 70
    32
  0
VERTEX
  8
W50LXLIFT
 62
6
 10
1040.649
 20
-7966.497
 30
330.000
 70
    32
  0
VERTEX
  8
W50LXLIFT
 62
6
 10
1032.379
 20
-7963.055
 30
330.000
 70
    32
  0
VERTEX
  8
W50LXLIFT
 62
6
 10
1029.665
 20
-7949.913
 30
330.000
 70
    32
  0
VERTEX
  8
W50LXLIFT
 62
6
 10
1018.212
 20
-7940.305
 30
330.000
 70
    32
  0
VERTEX
  8
W50LXLIFT
 62
6
 10
997.729
 20
-7915.302
 30
330.000
 70
    32
  0
VERTEX
  8
W50LXLIFT
 62
6
 10
987.364
 20
-7894.788
 30
330.000
 70
    32
  0
SEQEND
  8
W50LXLIFT
  0
POLYLINE
  8
W50LXLIFT
 62
8
 66
     1
 70
     9
  0
VERTEX
  8
W50LXLIFT
 62
8
 10
965.880
 20
-7872.144
 30
333.000
 70
    32
  0
VERTEX
  8
W50LXLIFT
 62
8
 10
966.428
 20
-7869.461
 30
333.000
 70
    32
  0
VERTEX
  8
W50LXLIFT
 62
8
 10
952.410
 20
-7846.169
 30
333.000
 70
    32
  0
VERTEX
  8
W50LXLIFT
 62
8
 10
940.283
 20
-7833.245
 30
333.000
 70
    32
  0
VERTEX
  8
W50LXLIFT
 62
8
 10
920.335
 20
-7820.033
 30
333.000
 70
    32
  0
VERTEX
  8
W50LXLIFT
 62
8
 10
909.373
 20
-7809.306
 30
333.000
 70
    32
  0
VERTEX
  8
W50LXLIFT
 62
8
 10
904.052
 20
-7807.524
 30
333.000
 70
    32
  0
VERTEX
  8
W50LXLIFT
 62
8
 10
899.141
 20
-7812.730
 30
333.000
 70
    32
  0
VERTEX
  8
W50LXLIFT
 62
8
 10
899.549
 20
-7814.934
 30
333.000
 70
    32
  0
VERTEX
  8
W50LXLIFT
 62
8
 10
897.650
 20
-7818.600
 30
333.000
 70
    32
  0
VERTEX
  8
W50LXLIFT
 62
8
 10
905.899
 20
-7834.564
 30
333.000
 70
    32
  0
VERTEX
  8
W50LXLIFT
 62
8
 10
923.792
 20
-7847.641
 30
333.000
 70
    32
  0
VERTEX
  8
W50LXLIFT
 62
8
 10
923.186
 20
-7853.085
 30
333.000
 70
    32
  0
VERTEX
  8
W50LXLIFT
 62
8
 10
932.012
 20
-7858.188
 30
333.000
 70
    32
  0
VERTEX
  8
W50LXLIFT
 62
8
 10
944.741
 20
-7858.493
 30
333.000
 70
    32
  0
VERTEX
  8
W50LXLIFT
 62
8
 10
947.257
 20
-7860.904
 30
333.000
 70
    32
  0
VERTEX
  8
W50LXLIFT
 62
8
 10
949.536
 20
-7870.011
 30
333.000
 70
    32
  0
VERTEX
  8
W50LXLIFT
 62
8
 10
956.430
 20
-7874.999
 30
333.000
 70
    32
  0
VERTEX
  8
W50LXLIFT
 62
8
 10
960.361
 20
-7878.010
 30
333.000
 70
    32
  0
SEQEND
  8
W50LXLIFT
  0
POLYLINE
  8
W50LXLIFT
 62
7
 66
     1
 70
     9
  0
VERTEX
  8
W50LXLIFT
 62
7
 10
1271.454
 20
-8125.977
 30
340.000
 70
    32
  0
VERTEX
  8
W50LXLIFT
 62
7
 10
1270.269
 20
-8133.976
 30
340.000
 70
    32
  0
VERTEX
  8
W50LXLIFT
 62
7
 10
1273.566
 20
-8146.097
 30
340.000
 70
    32
  0
VERTEX
  8
W50LXLIFT
 62
7
 10
1278.377
 20
-8158.190
 30
340.000
 70
    32
  0
VERTEX
  8
W50LXLIFT
 62
7
 10
1292.827
 20
-8184.161
 30
340.000
 70
    32
  0
VERTEX
  8
W50LXLIFT
 62
7
 10
1295.486
 20
-8190.403
 30
340.000
 70
    32
  0
VERTEX
  8
W50LXLIFT
 62
7
 10
1302.320
 20
-8202.419
 30
340.000
 70
    32
  0
VERTEX
  8
W50LXLIFT
 62
7
 10
1305.609
 20
-8212.903
 30
340.000
 70
    32
  0
VERTEX
  8
W50LXLIFT
 62
7
 10
1309.376
 20
-8219.309
 30
340.000
 70
    32
  0
VERTEX
  8
W50LXLIFT
 62
7
 10
1314.810
 20
-8219.548
 30
340.000
 70
    32
  0
VERTEX
  8
W50LXLIFT
 62
7
 10
1317.039
 20
-8213.842
 30
340.000
 70
    32
  0
VERTEX
  8
W50LXLIFT
 62
7
 10
1321.047
 20
-8207.582
 30
340.000
 70
    32
  0
VERTEX
  8
W50LXLIFT
 62
7
 10
1320.860
 20
-8199.506
 30
340.000
 70
    32
  0
VERTEX
  8
W50LXLIFT
 62
7
 10
1318.839
 20
-8188.958
 30
340.000
 70
    32
  0
VERTEX
  8
W50LXLIFT
 62
7
 10
1313.466
 20
-8176.844
 30
340.000
 70
    32
  0
VERTEX
  8
W50LXLIFT
 62
7
 10
1310.029
 20
-8160.993
 30
340.000
 70
    32
  0
VERTEX
  8
W50LXLIFT
 62
7
 10
1303.149
 20
-8154.378
 30
340.000
 70
    32
  0
VERTEX
  8
W50LXLIFT
 62
7
 10
1297.999
 20
-8146.698
 30
340.000
 70
    32
  0
VERTEX
  8
W50LXLIFT
 62
7
 10
1295.458
 20
-8137.959
 30
340.000
 70
    32
  0
VERTEX
  8
W50LXLIFT
 62
7
 10
1286.484
 20
-8134.869
 30
340.000
 70
    32
  0
VERTEX
  8
W50LXLIFT
 62
7
 10
1282.376
 20
-8129.922
 30
340.000
 70
    32
  0
VERTEX
  8
W50LXLIFT
 62
7
 10
1278.796
 20
-8121.406
 30
340.000
 70
    32
  0
SEQEND
  8
W50LXLIFT
  0
POLYLINE
  8
W50LXLIFT
 62
13
 66
     1
 70
     9
  0
VERTEX
  8
W50LXLIFT
 62
13
 10
1176.015
 20
-8231.180
 30
339.000
 70
    32
  0
VERTEX
  8
W50LXLIFT
 62
13
 10
1172.756
 20
-8221.769
 30
339.000
 70
    32
  0
VERTEX
  8
W50LXLIFT
 62
13
 10
1171.835
 20
-8212.704
 30
339.000
 70
    32
  0
VERTEX
  8
W50LXLIFT
 62
13
 10
1169.096
 20
-8198.088
 30
339.000
 70
    32
  0
VERTEX
  8
W50LXLIFT
 62
13
 10
1161.836
 20
-8180.036
 30
339.000
 70
    32
  0
VERTEX
  8
W50LXLIFT
 62
13
 10
1150.433
 20
-8163.633
 30
339.000
 70
    32
  0
VERTEX
  8
W50LXLIFT
 62
13
 10
1139.184
 20
-8151.278
 30
339.000
 70
    32
  0
VERTEX
  8
W50LXLIFT
 62
13
 10
1130.737
 20
-8141.663
 30
339.000
 70
    32
  0
VERTEX
  8
W50LXLIFT
 62
13
 10
1118.739
 20
-8114.421
 30
339.000
 70
    32
  0
VERTEX
  8
W50LXLIFT
 62
13
 10
1115.337
 20
-8108.950
 30
339.000
 70
    32
  0
VERTEX
  8
W50LXLIFT
 62
13
 10
1113.340
 20
-8100.354
 30
339.000
 70
    32
  0
VERTEX
  8
W50LXLIFT
 62
13
 10
1112.390
 20
-8093.611
 30
339.000
 70
    32
  0
VERTEX
  8
W50LXLIFT
 62
13
 10
1104.865
 20
-8082.436
 30
339.000
 70
    32
  0
VERTEX
  8
W50LXLIFT
 62
13
 10
1099.927
 20
-8084.786
 30
339.000
 70
    32
  0
VERTEX
  8
W50LXLIFT
 62
13
 10
1098.255
 20
-8088.436
 30
339.000
 70
    32
  0
VERTEX
  8
W50LXLIFT
 62
13
 10
1108.487
 20
-8116.989
 30
339.000
 70
    32
  0
VERTEX
  8
W50LXLIFT
 62
13
 10
1118.359
 20
-8147.124
 30
339.000
 70
    32
  0
VERTEX
  8
W50LXLIFT
 62
13
 10
1129.637
 20
-8177.529
 30
339.000
 70
    32
  0
VERTEX
  8
W50LXLIFT
 62
13
 10
1133.497
 20
-8186.275
 30
339.000
 70
    32
  0
VERTEX
  8
W50LXLIFT
 62
13
 10
1143.325
 20
-8197.603
 30
339.000
 70
    32
  0
VERTEX
  8
W50LXLIFT
 62
13
 10
1153.316
 20
-8218.449
 30
339.000
 70
    32
  0
VERTEX
  8
W50LXLIFT
 62
13
 10
1162.390
 20
-8236.141
 30
339.000
 70
    32
  0
SEQEND
  8
W50LXLIFT
  0
POLYLINE
  8
W50LXLIFT
 62
3
 66
     1
 70
     9
  0
VERTEX
  8
W50LXLIFT
 62
3
 10
1100.625
 20
-8072.439
 30
344.000
 70
    32
  0
VERTEX
  8
W50LXLIFT
 62
3
 10
1110.574
 20
-8067.248
 30
344.000
 70
    32
  0
VERTEX
  8
W50LXLIFT
 62
3
 10
1119.206
 20
-8058.215
 30
344.000
 70
    32
  0
VERTEX
  8
W50LXLIFT
 62
3
 10
1118.549
 20
-8052.459
 30
344.000
 70
    32
  0
VERTEX
  8
W50LXLIFT
 62
3
 10
1130.962
 20
-8040.402
 30
344.000
 70
    32
  0
VERTEX
  8
W50LXLIFT
 62
3
 10
1125.627
 20
-8034.392
 30
344.000
 70
    32
  0
VERTEX
  8
W50LXLIFT
 62
3
 10
1114.393
 20
-8036.375
 30
344.000
 70
    32
  0
VERTEX
  8
W50LXLIFT
 62
3
 10
1105.886
 20
-8011.033
 30
344.000
 70
    32
  0
VERTEX
  8
W50LXLIFT
 62
3
 10
1108.969
 20
-7993.192
 30
344.000
 70
    32
  0
VERTEX
  8
W50LXLIFT
 62
3
 10
1088.924
 20
-7963.814
 30
344.000
 70
    32
  0
VERTEX
  8
W50LXLIFT
 62
3
 10
1074.976
 20
-7973.506
 30
344.000
 70
    32
  0
VERTEX
  8
W50LXLIFT
 62
3
 10
1069.491
 20
-7982.943
 30
344.000
 70
    32
  0
VERTEX
  8
W50LXLIFT
 62
3
 10
1080.514
 20
-7998.094
 30
344.000
 70
    32
  0
VERTEX
  8
W50LXLIFT
 62
3
 10
1077.000
 20
-8017.569
 30
344.000
 70
    32
  0
VERTEX
  8
W50LXLIFT
 62
3
 10
1067.466
 20
-8020.809
 30
344.000
 70
    32
  0
VERTEX
  8
W50LXLIFT
 62
3
 10
1064.455
 20
-8017.785
 30
344.000
 70
    32
  0
VERTEX
  8
W50LXLIFT
 62
3
 10
1043.910
 20
-7990.094
 30
344.000
 70
    32
  0
VERTEX
  8
W50LXLIFT
 62
3
 10
1037.215
 20
-7995.390
 30
344.000
 70
    32
  0
VERTEX
  8
W50LXLIFT
 62
3
 10
1038.042
 20
-8002.114
 30
344.000
 70
    32
  0
VERTEX
  8
W50LXLIFT
 62
3
 10
1043.564
 20
-8019.595
 30
344.000
 70
    32
  0
VERTEX
  8
W50LXLIFT
 62
3
 10
1042.823
 20
-8030.111
 30
344.000
 70
    32
  0
VERTEX
  8
W50LXLIFT
 62
3
 10
1045.116
 20
-8046.045
 30
344.000
 70
    32
  0
VERTEX
  8
W50LXLIFT
 62
3
 10
1049.138
 20
-8050.727
 30
344.000
 70
    32
  0
VERTEX
  8
W50LXLIFT
 62
3
 10
1060.878
 20
-8052.970
 30
344.000
 70
    32
  0
VERTEX
  8
W50LXLIFT
 62
3
 10
1085.701
 20
-8053.063
 30
344.000
 70
    32
  0
SEQEND
  8
W50LXLIFT
  0
POLYLINE
  8
W50LXLIFT
 62
8
 66
     1
 70
     9
  0
VERTEX
  8
W50LXLIFT
 62
8
 10
970.799
 20
-7873.692
 30
342.000
 70
    32
  0
VERTEX
  8
W50LXLIFT
 62
8
 10
951.973
 20
-7846.696
 30
342.000
 70
    32
  0
VERTEX
  8
W50LXLIFT
 62
8
 10
940.156
 20
-7835.639
 30
342.000
 70
    32
  0
VERTEX
  8
W50LXLIFT
 62
8
 10
932.863
 20
-7827.139
 30
342.000
 70
    32
  0
VERTEX
  8
W50LXLIFT
 62
8
 10
919.726
 20
-7819.472
 30
342.000
 70
    32
  0
VERTEX
  8
W50LXLIFT
 62
8
 10
909.715
 20
-7816.165
 30
342.000
 70
    32
  0
VERTEX
  8
W50LXLIFT
 62
8
 10
903.957
 20
-7820.657
 30
342.000
 70
    32
  0
VERTEX
  8
W50LXLIFT
 62
8
 10
907.312
 20
-7831.968
 30
342.000
 70
    32
  0
VERTEX
  8
W50LXLIFT
 62
8
 10
919.275
 20
-7845.436
 30
342.000
 70
    32
  0
VERTEX
  8
W50LXLIFT
 62
8
 10
938.686
 20
-7854.473
 30
342.000
 70
    32
  0
VERTEX
  8
W50LXLIFT
 62
8
 10
946.286
 20
-7857.926
 30
342.000
 70
    32
  0
VERTEX
  8
W50LXLIFT
 62
8
 10
958.475
 20
-7875.388
 30
342.000
 70
    32
  0
SEQEND
  8
W50LXLIFT
  0
POLYLINE
  8
W50LXLIFT
 62
7
 66
     1
 70
     9
  0
VERTEX
  8
W50LXLIFT
 62
7
 10
1320.594
 20
-8212.501
 30
355.000
 70
    32
  0
VERTEX
  8
W50LXLIFT
 62
7
 10
1319.598
 20
-8208.204
 30
355.000
 70
    32
  0
VERTEX
  8
W50LXLIFT
 62
7
 10
1320.845
 20
-8189.659
 30
355.000
 70
    32
  0
VERTEX
  8
W50LXLIFT
 62
7
 10
1320.067
 20
-8171.630
 30
355.000
 70
    32
  0
VERTEX
  8
W50LXLIFT
 62
7
 10
1317.301
 20
-8163.174
 30
355.000
 70
    32
  0
VERTEX
  8
W50LXLIFT
 62
7
 10
1314.314
 20
-8159.588
 30
355.000
 70
    32
  0
VERTEX
  8
W50LXLIFT
 62
7
 10
1307.585
 20
-8155.382
 30
355.000
 70
    32
  0
VERTEX
  8
W50LXLIFT
 62
7
 10
1294.709
 20
-8149.823
 30
355.000
 70
    32
  0
VERTEX
  8
W50LXLIFT
 62
7
 10
1290.440
 20
-8139.635
 30
355.000
 70
    32
  0
VERTEX
  8
W50LXLIFT
 62
7
 10
1280.143
 20
-8131.946
 30
355.000
 70
    32
  0
VERTEX
  8
W50LXLIFT
 62
7
 10
1275.604
 20
-8126.117
 30
355.000
 70
    32
  0
VERTEX
  8
W50LXLIFT
 62
7
 10
1273.277
 20
-8130.360
 30
355.000
 70
    32
  0
VERTEX
  8
W50LXLIFT
 62
7
 10
1277.336
 20
-8140.265
 30
355.000
 70
    32
  0
VERTEX
  8
W50LXLIFT
 62
7
 10
1277.900
 20
-8146.195
 30
355.000
 70
    32
  0
VERTEX
  8
W50LXLIFT
 62
7
 10
1289.923
 20
-8165.957
 30
355.000
 70
    32
  0
VERTEX
  8
W50LXLIFT
 62
7
 10
1294.576
 20
-8182.865
 30
355.000
 70
    32
  0
VERTEX
  8
W50LXLIFT
 62
7
 10
1295.277
 20
-8189.569
 30
355.000
 70
    32
  0
VERTEX
  8
W50LXLIFT
 62
7
 10
1299.940
 20
-8189.067
 30
355.000
 70
    32
  0
VERTEX
  8
W50LXLIFT
 62
7
 10
1310.697
 20
-8218.195
 30
355.000
 70
    32
  0
SEQEND
  8
W50LXLIFT
  0
POLYLINE
  8
W50LXLIFT
 62
13
 66
     1
 70
     9
  0
VERTEX
  8
W50LXLIFT
 62
13
 10
1157.445
 20
-8236.908
 30
346.000
 70
    32
  0
VERTEX
  8
W50LXLIFT
 62
13
 10
1166.718
 20
-8235.834
 30
346.000
 70
    32
  0
VERTEX
  8
W50LXLIFT
 62
13
 10
1172.707
 20
-8234.021
 30
346.000
 70
    32
  0
VERTEX
  8
W50LXLIFT
 62
13
 10
1168.485
 20
-8221.829
 30
346.000
 70
    32
  0
VERTEX
  8
W50LXLIFT
 62
13
 10
1164.486
 20
-8197.979
 30
346.000
 70
    32
  0
VERTEX
  8
W50LXLIFT
 62
13
 10
1164.316
 20
-8190.663
 30
346.000
 70
    32
  0
VERTEX
  8
W50LXLIFT
 62
13
 10
1155.468
 20
-8178.726
 30
346.000
 70
    32
  0
VERTEX
  8
W50LXLIFT
 62
13
 10
1140.619
 20
-8158.103
 30
346.000
 70
    32
  0
VERTEX
  8
W50LXLIFT
 62
13
 10
1129.139
 20
-8141.878
 30
346.000
 70
    32
  0
VERTEX
  8
W50LXLIFT
 62
13
 10
1120.313
 20
-8119.637
 30
346.000
 70
    32
  0
VERTEX
  8
W50LXLIFT
 62
13
 10
1112.785
 20
-8097.965
 30
346.000
 70
    32
  0
VERTEX
  8
W50LXLIFT
 62
13
 10
1108.012
 20
-8096.250
 30
346.000
 70
    32
  0
VERTEX
  8
W50LXLIFT
 62
13
 10
1100.520
 20
-8102.679
 30
346.000
 70
    32
  0
VERTEX
  8
W50LXLIFT
 62
13
 10
1108.649
 20
-8130.034
 30
346.000
 70
    32
  0
VERTEX
  8
W50LXLIFT
 62
13
 10
1117.628
 20
-8156.321
 30
346.000
 70
    32
  0
VERTEX
  8
W50LXLIFT
 62
13
 10
1128.207
 20
-8179.452
 30
346.000
 70
    32
  0
VERTEX
  8
W50LXLIFT
 62
13
 10
1134.059
 20
-8183.213
 30
346.000
 70
    32
  0
VERTEX
  8
W50LXLIFT
 62
13
 10
1139.783
 20
-8200.531
 30
346.000
 70
    32
  0
VERTEX
  8
W50LXLIFT
 62
13
 10
1150.464
 20
-8221.288
 30
346.000
 70
    32
  0
SEQEND
  8
W50LXLIFT
  0
POLYLINE
  8
W50LXLIFT
 62
3
 66
     1
 70
     9
  0
VERTEX
  8
W50LXLIFT
 62
3
 10
1112.546
 20
-8056.006
 30
354.000
 70
    32
  0
VERTEX
  8
W50LXLIFT
 62
3
 10
1111.551
 20
-8054.664
 30
354.000
 70
    32
  0
VERTEX
  8
W50LXLIFT
 62
3
 10
1101.694
 20
-8062.628
 30
354.000
 70
    32
  0
VERTEX
  8
W50LXLIFT
 62
3
 10
1097.134
 20
-8066.664
 30
354.000
 70
    32
  0
VERTEX
  8
W50LXLIFT
 62
3
 10
1099.401
 20
-8076.366
 30
354.000
 70
    32
  0
VERTEX
  8
W50LXLIFT
 62
3
 10
1097.787
 20
-8085.114
 30
354.000
 70
    32
  0
VERTEX
  8
W50LXLIFT
 62
3
 10
1102.524
 20
-8087.075
 30
354.000
 70
    32
  0
VERTEX
  8
W50LXLIFT
 62
3
 10
1106.176
 20
-8078.567
 30
354.000
 70
    32
  0
VERTEX
  8
W50LXLIFT
 62
3
 10
1107.202
 20
-8071.240
 30
354.000
 70
    32
  0
VERTEX
  8
W50LXLIFT
 62
3
 10
1113.399
 20
-8063.801
 30
354.000
 70
    32
  0
SEQEND
  8
W50LXLIFT
  0
POLYLINE
  8
W50LXLIFT
 62
3
 66
     1
 70
     9
  0
VERTEX
  8
W50LXLIFT
 62
3
 10
570.035
 20
-7228.218
 30
244.000
 70
    32
  0
VERTEX
  8
W50LXLIFT
 62
3
 10
562.623
 20
-7218.172
 30
244.000
 70
    32
  0
VERTEX
  8
W50LXLIFT
 62
3
 10
558.927
 20
-7211.293
 30
244.000
 70
    32
  0
VERTEX
  8
W50LXLIFT
 62
3
 10
554.848
 20
-7211.215
 30
244.000
 70
    32
  0
VERTEX
  8
W50LXLIFT
 62
3
 10
549.639
 20
-7205.545
 30
244.000
 70
    32
  0
VERTEX
  8
W50LXLIFT
 62
3
 10
537.073
 20
-7208.593
 30
244.000
 70
    32
  0
VERTEX
  8
W50LXLIFT
 62
3
 10
530.788
 20
-7217.292
 30
244.000
 70
    32
  0
VERTEX
  8
W50LXLIFT
 62
3
 10
543.086
 20
-7232.265
 30
244.000
 70
    32
  0
VERTEX
  8
W50LXLIFT
 62
3
 10
548.396
 20
-7246.448
 30
244.000
 70
    32
  0
VERTEX
  8
W50LXLIFT
 62
3
 10
548.762
 20
-7258.465
 30
244.000
 70
    32
  0
VERTEX
  8
W50LXLIFT
 62
3
 10
556.880
 20
-7263.651
 30
244.000
 70
    32
  0
VERTEX
  8
W50LXLIFT
 62
3
 10
572.069
 20
-7267.500
 30
244.000
 70
    32
  0
VERTEX
  8
W50LXLIFT
 62
3
 10
581.820
 20
-7285.847
 30
244.000
 70
    32
  0
VERTEX
  8
W50LXLIFT
 62
3
 10
594.917
 20
-7280.239
 30
244.000
 70
    32
  0
VERTEX
  8
W50LXLIFT
 62
3
 10
592.888
 20
-7274.757
 30
244.000
 70
    32
  0
VERTEX
  8
W50LXLIFT
 62
3
 10
593.487
 20
-7257.039
 30
244.000
 70
    32
  0
VERTEX
  8
W50LXLIFT
 62
3
 10
590.876
 20
-7251.654
 30
244.000
 70
    32
  0
VERTEX
  8
W50LXLIFT
 62
3
 10
590.153
 20
-7248.267
 30
244.000
 70
    32
  0
VERTEX
  8
W50LXLIFT
 62
3
 10
590.018
 20
-7244.343
 30
244.000
 70
    32
  0
VERTEX
  8
W50LXLIFT
 62
3
 10
579.542
 20
-7236.959
 30
244.000
 70
    32
  0
VERTEX
  8
W50LXLIFT
 62
3
 10
582.019
 20
-7230.050
 30
244.000
 70
    32
  0
SEQEND
  8
W50LXLIFT
  0
POLYLINE
  8
W50LXLIFT
 62
2
 66
     1
 70
     9
  0
VERTEX
  8
W50LXLIFT
 62
2
 10
408.792
 20
-6476.957
 30
251.000
 70
    32
  0
VERTEX
  8
W50LXLIFT
 62
2
 10
399.111
 20
-6464.537
 30
251.000
 70
    32
  0
VERTEX
  8
W50LXLIFT
 62
2
 10
384.996
 20
-6453.494
 30
251.000
 70
    32
  0
VERTEX
  8
W50LXLIFT
 62
2
 10
381.404
 20
-6445.562
 30
251.000
 70
    32
  0
VERTEX
  8
W50LXLIFT
 62
2
 10
379.461
 20
-6435.562
 30
251.000
 70
    32
  0
VERTEX
  8
W50LXLIFT
 62
2
 10
383.230
 20
-6432.822
 30
251.000
 70
    32
  0
VERTEX
  8
W50LXLIFT
 62
2
 10
390.101
 20
-6431.957
 30
251.000
 70
    32
  0
VERTEX
  8
W50LXLIFT
 62
2
 10
394.843
 20
-6445.358
 30
251.000
 70
    32
  0
VERTEX
  8
W50LXLIFT
 62
2
 10
407.788
 20
-6457.034
 30
251.000
 70
    32
  0
VERTEX
  8
W50LXLIFT
 62
2
 10
416.358
 20
-6460.152
 30
251.000
 70
    32
  0
VERTEX
  8
W50LXLIFT
 62
2
 10
430.804
 20
-6465.520
 30
251.000
 70
    32
  0
VERTEX
  8
W50LXLIFT
 62
2
 10
433.848
 20
-6470.155
 30
251.000
 70
    32
  0
VERTEX
  8
W50LXLIFT
 62
2
 10
442.069
 20
-6475.483
 30
251.000
 70
    32
  0
VERTEX
  8
W50LXLIFT
 62
2
 10
466.461
 20
-6489.599
 30
251.000
 70
    32
  0
VERTEX
  8
W50LXLIFT
 62
2
 10
463.356
 20
-6498.486
 30
251.000
 70
    32
  0
VERTEX
  8
W50LXLIFT
 62
2
 10
453.971
 20
-6494.548
 30
251.000
 70
    32
  0
VERTEX
  8
W50LXLIFT
 62
2
 10
446.497
 20
-6505.199
 30
251.000
 70
    32
  0
VERTEX
  8
W50LXLIFT
 62
2
 10
443.721
 20
-6516.782
 30
251.000
 70
    32
  0
VERTEX
  8
W50LXLIFT
 62
2
 10
432.778
 20
-6514.737
 30
251.000
 70
    32
  0
VERTEX
  8
W50LXLIFT
 62
2
 10
435.379
 20
-6501.868
 30
251.000
 70
    32
  0
VERTEX
  8
W50LXLIFT
 62
2
 10
426.817
 20
-6489.940
 30
251.000
 70
    32
  0
VERTEX
  8
W50LXLIFT
 62
2
 10
415.325
 20
-6485.794
 30
251.000
 70
    32
  0
SEQEND
  8
W50LXLIFT
  0
POLYLINE
  8
W50LXLIFT
 62
2
 66
     1
 70
     9
  0
VERTEX
  8
W50LXLIFT
 62
2
 10
405.136
 20
-6493.310
 30
282.000
 70
    32
  0
VERTEX
  8
W50LXLIFT
 62
2
 10
414.585
 20
-6503.615
 30
282.000
 70
    32
  0
VERTEX
  8
W50LXLIFT
 62
2
 10
414.764
 20
-6510.441
 30
282.000
 70
    32
  0
VERTEX
  8
W50LXLIFT
 62
2
 10
427.989
 20
-6510.392
 30
282.000
 70
    32
  0
VERTEX
  8
W50LXLIFT
 62
2
 10
436.224
 20
-6512.449
 30
282.000
 70
    32
  0
VERTEX
  8
W50LXLIFT
 62
2
 10
440.411
 20
-6518.210
 30
282.000
 70
    32
  0
VERTEX
  8
W50LXLIFT
 62
2
 10
427.144
 20
-6535.246
 30
282.000
 70
    32
  0
VERTEX
  8
W50LXLIFT
 62
2
 10
434.809
 20
-6541.304
 30
282.000
 70
    32
  0
VERTEX
  8
W50LXLIFT
 62
2
 10
452.543
 20
-6523.086
 30
282.000
 70
    32
  0
VERTEX
  8
W50LXLIFT
 62
2
 10
458.982
 20
-6518.188
 30
282.000
 70
    32
  0
VERTEX
  8
W50LXLIFT
 62
2
 10
450.478
 20
-6508.283
 30
282.000
 70
    32
  0
VERTEX
  8
W50LXLIFT
 62
2
 10
445.748
 20
-6498.786
 30
282.000
 70
    32
  0
VERTEX
  8
W50LXLIFT
 62
2
 10
436.653
 20
-6471.920
 30
282.000
 70
    32
  0
VERTEX
  8
W50LXLIFT
 62
2
 10
424.218
 20
-6461.395
 30
282.000
 70
    32
  0
VERTEX
  8
W50LXLIFT
 62
2
 10
412.789
 20
-6466.007
 30
282.000
 70
    32
  0
VERTEX
  8
W50LXLIFT
 62
2
 10
399.183
 20
-6464.486
 30
282.000
 70
    32
  0
VERTEX
  8
W50LXLIFT
 62
2
 10
393.137
 20
-6474.859
 30
282.000
 70
    32
  0
VERTEX
  8
W50LXLIFT
 62
2
 10
398.629
 20
-6483.910
 30
282.000
 70
    32
  0
SEQEND
  8
W50LXLIFT
  0
POLYLINE
  8
W50LXLIFT
 62
1
 66
     1
 70
     9
  0
VERTEX
  8
W50LXLIFT
 62
1
 10
1034.152
 20
-7254.682
 30
338.000
 70
    32
  0
VERTEX
  8
W50LXLIFT
 62
1
 10
1027.058
 20
-7242.231
 30
338.000
 70
    32
  0
VERTEX
  8
W50LXLIFT
 62
1
 10
1029.949
 20
-7233.499
 30
338.000
 70
    32
  0
VERTEX
  8
W50LXLIFT
 62
1
 10
1014.724
 20
-7213.154
 30
338.000
 70
    32
  0
VERTEX
  8
W50LXLIFT
 62
1
 10
1003.247
 20
-7199.758
 30
338.000
 70
    32
  0
VERTEX
  8
W50LXLIFT
 62
1
 10
1000.184
 20
-7194.050
 30
338.000
 70
    32
  0
VERTEX
  8
W50LXLIFT
 62
1
 10
993.190
 20
-7193.699
 30
338.000
 70
    32
  0
VERTEX
  8
W50LXLIFT
 62
1
 10
974.816
 20
-7209.991
 30
338.000
 70
    32
  0
VERTEX
  8
W50LXLIFT
 62
1
 10
986.396
 20
-7227.116
 30
338.000
 70
    32
  0
VERTEX
  8
W50LXLIFT
 62
1
 10
994.868
 20
-7235.631
 30
338.000
 70
    32
  0
VERTEX
  8
W50LXLIFT
 62
1
 10
1007.089
 20
-7248.704
 30
338.000
 70
    32
  0
VERTEX
  8
W50LXLIFT
 62
1
 10
1012.396
 20
-7250.172
 30
338.000
 70
    32
  0
VERTEX
  8
W50LXLIFT
 62
1
 10
1015.970
 20
-7251.052
 30
338.000
 70
    32
  0
VERTEX
  8
W50LXLIFT
 62
1
 10
1029.368
 20
-7260.660
 30
338.000
 70
    32
  0
SEQEND
  8
W50LXLIFT
  0
POLYLINE
  8
W50LXLIFT
 62
7
 66
     1
 70
     9
  0
VERTEX
  8
W50LXLIFT
 62
7
 10
939.274
 20
-7070.938
 30
345.000
 70
    32
  0
VERTEX
  8
W50LXLIFT
 62
7
 10
938.678
 20
-7075.501
 30
345.000
 70
    32
  0
VERTEX
  8
W50LXLIFT
 62
7
 10
931.746
 20
-7086.301
 30
345.000
 70
    32
  0
VERTEX
  8
W50LXLIFT
 62
7
 10
926.309
 20
-7091.232
 30
345.000
 70
    32
  0
VERTEX
  8
W50LXLIFT
 62
7
 10
935.098
 20
-7103.321
 30
345.000
 70
    32
  0
VERTEX
  8
W50LXLIFT
 62
7
 10
962.897
 20
-7146.047
 30
345.000
 70
    32
  0
VERTEX
  8
W50LXLIFT
 62
7
 10
992.349
 20
-7135.724
 30
345.000
 70
    32
  0
VERTEX
  8
W50LXLIFT
 62
7
 10
976.396
 20
-7105.256
 30
345.000
 70
    32
  0
VERTEX
  8
W50LXLIFT
 62
7
 10
962.496
 20
-7085.687
 30
345.000
 70
    32
  0
VERTEX
  8
W50LXLIFT
 62
7
 10
952.833
 20
-7079.124
 30
345.000
 70
    32
  0
VERTEX
  8
W50LXLIFT
 62
7
 10
949.384
 20
-7069.892
 30
345.000
 70
    32
  0
SEQEND
  8
W50LXLIFT
  0
POLYLINE
  8
W50LXLIFT
 62
6
 66
     1
 70
     9
  0
VERTEX
  8
W50LXLIFT
 62
6
 10
232.385
 20
-6109.016
 30
269.000
 70
    32
  0
VERTEX
  8
W50LXLIFT
 62
6
 10
236.865
 20
-6116.738
 30
269.000
 70
    32
  0
VERTEX
  8
W50LXLIFT
 62
6
 10
233.286
 20
-6139.156
 30
269.000
 70
    32
  0
VERTEX
  8
W50LXLIFT
 62
6
 10
237.127
 20
-6140.726
 30
269.000
 70
    32
  0
VERTEX
  8
W50LXLIFT
 62
6
 10
239.796
 20
-6145.633
 30
269.000
 70
    32
  0
VERTEX
  8
W50LXLIFT
 62
6
 10
245.964
 20
-6148.777
 30
269.000
 70
    32
  0
VERTEX
  8
W50LXLIFT
 62
6
 10
251.932
 20
-6150.440
 30
269.000
 70
    32
  0
VERTEX
  8
W50LXLIFT
 62
6
 10
253.029
 20
-6158.431
 30
269.000
 70
    32
  0
VERTEX
  8
W50LXLIFT
 62
6
 10
255.474
 20
-6161.223
 30
269.000
 70
    32
  0
VERTEX
  8
W50LXLIFT
 62
6
 10
257.079
 20
-6171.125
 30
269.000
 70
    32
  0
VERTEX
  8
W50LXLIFT
 62
6
 10
262.160
 20
-6175.920
 30
269.000
 70
    32
  0
VERTEX
  8
W50LXLIFT
 62
6
 10
269.124
 20
-6176.106
 30
269.000
 70
    32
  0
VERTEX
  8
W50LXLIFT
 62
6
 10
273.187
 20
-6174.371
 30
269.000
 70
    32
  0
VERTEX
  8
W50LXLIFT
 62
6
 10
269.826
 20
-6132.994
 30
269.000
 70
    32
  0
VERTEX
  8
W50LXLIFT
 62
6
 10
278.940
 20
-6123.825
 30
269.000
 70
    32
  0
VERTEX
  8
W50LXLIFT
 62
6
 10
271.297
 20
-6117.732
 30
269.000
 70
    32
  0
VERTEX
  8
W50LXLIFT
 62
6
 10
258.006
 20
-6100.639
 30
269.000
 70
    32
  0
VERTEX
  8
W50LXLIFT
 62
6
 10
257.062
 20
-6094.814
 30
269.000
 70
    32
  0
VERTEX
  8
W50LXLIFT
 62
6
 10
257.435
 20
-6083.596
 30
269.000
 70
    32
  0
VERTEX
  8
W50LXLIFT
 62
6
 10
255.055
 20
-6079.240
 30
269.000
 70
    32
  0
VERTEX
  8
W50LXLIFT
 62
6
 10
259.349
 20
-6061.727
 30
269.000
 70
    32
  0
VERTEX
  8
W50LXLIFT
 62
6
 10
254.825
 20
-6058.156
 30
269.000
 70
    32
  0
VERTEX
  8
W50LXLIFT
 62
6
 10
249.829
 20
-6059.046
 30
269.000
 70
    32
  0
VERTEX
  8
W50LXLIFT
 62
6
 10
244.826
 20
-6065.795
 30
269.000
 70
    32
  0
VERTEX
  8
W50LXLIFT
 62
6
 10
242.230
 20
-6073.628
 30
269.000
 70
    32
  0
VERTEX
  8
W50LXLIFT
 62
6
 10
245.287
 20
-6078.472
 30
269.000
 70
    32
  0
VERTEX
  8
W50LXLIFT
 62
6
 10
241.099
 20
-6089.512
 30
269.000
 70
    32
  0
VERTEX
  8
W50LXLIFT
 62
6
 10
225.681
 20
-6099.862
 30
269.000
 70
    32
  0
SEQEND
  8
W50LXLIFT
  0
POLYLINE
  8
W50LXLIFT
 62
1
 66
     1
 70
     9
  0
VERTEX
  8
W50LXLIFT
 62
1
 10
233.385
 20
-6108.016
 30
280.000
 70
    32
  0
VERTEX
  8
W50LXLIFT
 62
1
 10
237.865
 20
-6115.738
 30
280.000
 70
    32
  0
VERTEX
  8
W50LXLIFT
 62
1
 10
234.286
 20
-6138.156
 30
280.000
 70
    32
  0
VERTEX
  8
W50LXLIFT
 62
1
 10
238.127
 20
-6139.726
 30
280.000
 70
    32
  0
VERTEX
  8
W50LXLIFT
 62
1
 10
240.796
 20
-6144.633
 30
280.000
 70
    32
  0
VERTEX
  8
W50LXLIFT
 62
1
 10
246.964
 20
-6147.777
 30
280.000
 70
    32
  0
VERTEX
  8
W50LXLIFT
 62
1
 10
252.932
 20
-6149.440
 30
280.000
 70
    32
  0
VERTEX
  8
W50LXLIFT
 62
1
 10
254.029
 20
-6157.431
 30
280.000
 70
    32
  0
VERTEX
  8
W50LXLIFT
 62
1
 10
256.474
 20
-6160.223
 30
280.000
 70
    32
  0
VERTEX
  8
W50LXLIFT
 62
1
 10
258.079
 20
-6170.125
 30
280.000
 70
    32
  0
VERTEX
  8
W50LXLIFT
 62
1
 10
263.160
 20
-6174.920
 30
280.000
 70
    32
  0
VERTEX
  8
W50LXLIFT
 62
1
 10
270.124
 20
-6175.106
 30
280.000
 70
    32
  0
VERTEX
  8
W50LXLIFT
 62
1
 10
274.187
 20
-6173.371
 30
280.000
 70
    32
  0
VERTEX
  8
W50LXLIFT
 62
1
 10
270.826
 20
-6131.994
 30
280.000
 70
    32
  0
VERTEX
  8
W50LXLIFT
 62
1
 10
279.940
 20
-6122.825
 30
280.000
 70
    32
  0
VERTEX
  8
W50LXLIFT
 62
1
 10
272.297
 20
-6116.732
 30
280.000
 70
    32
  0
VERTEX
  8
W50LXLIFT
 62
1
 10
259.006
 20
-6099.639
 30
280.000
 70
    32
  0
VERTEX
  8
W50LXLIFT
 62
1
 10
258.062
 20
-6093.814
 30
280.000
 70
    32
  0
VERTEX
  8
W50LXLIFT
 62
1
 10
258.435
 20
-6082.596
 30
280.000
 70
    32
  0
VERTEX
  8
W50LXLIFT
 62
1
 10
256.055
 20
-6078.240
 30
280.000
 70
    32
  0
VERTEX
  8
W50LXLIFT
 62
1
 10
260.349
 20
-6060.727
 30
280.000
 70
    32
  0
VERTEX
  8
W50LXLIFT
 62
1
 10
255.825
 20
-6057.156
 30
280.000
 70
    32
  0
VERTEX
  8
W50LXLIFT
 62
1
 10
250.829
 20
-6058.046
 30
280.000
 70
    32
  0
VERTEX
  8
W50LXLIFT
 62
1
 10
245.826
 20
-6064.795
 30
280.000
 70
    32
  0
VERTEX
  8
W50LXLIFT
 62
1
 10
243.230
 20
-6072.628
 30
280.000
 70
    32
  0
VERTEX
  8
W50LXLIFT
 62
1
 10
246.287
 20
-6077.472
 30
280.000
 70
    32
  0
VERTEX
  8
W50LXLIFT
 62
1
 10
242.099
 20
-6088.512
 30
280.000
 70
    32
  0
VERTEX
  8
W50LXLIFT
 62
1
 10
226.681
 20
-6098.862
 30
280.000
 70
    32
  0
SEQEND
  8
W50LXLIFT
  0
POLYLINE
  8
W50LXLIFT
 62
1
 66
     1
 70
     9
  0
VERTEX
  8
W50LXLIFT
 62
1
 10
1059.984
 20
-7154.682
 30
316.000
 70
    32
  0
VERTEX
  8
W50LXLIFT
 62
1
 10
1063.829
 20
-7168.400
 30
316.000
 70
    32
  0
VERTEX
  8
W50LXLIFT
 62
1
 10
1071.717
 20
-7182.373
 30
316.000
 70
    32
  0
VERTEX
  8
W50LXLIFT
 62
1
 10
1078.450
 20
-7191.163
 30
316.000
 70
    32
  0
VERTEX
  8
W50LXLIFT
 62
1
 10
1083.910
 20
-7196.072
 30
316.000
 70
    32
  0
VERTEX
  8
W50LXLIFT
 62
1
 10
1086.994
 20
-7207.613
 30
316.000
 70
    32
  0
VERTEX
  8
W50LXLIFT
 62
1
 10
1100.175
 20
-7222.769
 30
316.000
 70
    32
  0
VERTEX
  8
W50LXLIFT
 62
1
 10
1100.912
 20
-7230.026
 30
316.000
 70
    32
  0
VERTEX
  8
W50LXLIFT
 62
1
 10
1090.149
 20
-7234.725
 30
316.000
 70
    32
  0
VERTEX
  8
W50LXLIFT
 62
1
 10
1079.446
 20
-7235.417
 30
316.000
 70
    32
  0
VERTEX
  8
W50LXLIFT
 62
1
 10
1075.298
 20
-7227.429
 30
316.000
 70
    32
  0
VERTEX
  8
W50LXLIFT
 62
1
 10
1062.249
 20
-7208.213
 30
316.000
 70
    32
  0
VERTEX
  8
W50LXLIFT
 62
1
 10
1051.716
 20
-7190.292
 30
316.000
 70
    32
  0
VERTEX
  8
W50LXLIFT
 62
1
 10
1034.898
 20
-7176.005
 30
316.000
 70
    32
  0
VERTEX
  8
W50LXLIFT
 62
1
 10
1031.715
 20
-7167.400
 30
316.000
 70
    32
  0
VERTEX
  8
W50LXLIFT
 62
1
 10
1028.315
 20
-7155.878
 30
316.000
 70
    32
  0
VERTEX
  8
W50LXLIFT
 62
1
 10
1019.966
 20
-7140.272
 30
316.000
 70
    32
  0
VERTEX
  8
W50LXLIFT
 62
1
 10
1014.182
 20
-7131.866
 30
316.000
 70
    32
  0
VERTEX
  8
W50LXLIFT
 62
1
 10
1002.916
 20
-7124.070
 30
316.000
 70
    32
  0
VERTEX
  8
W50LXLIFT
 62
1
 10
995.484
 20
-7117.127
 30
316.000
 70
    32
  0
VERTEX
  8
W50LXLIFT
 62
1
 10
1002.911
 20
-7106.248
 30
316.000
 70
    32
  0
VERTEX
  8
W50LXLIFT
 62
1
 10
1011.160
 20
-7100.693
 30
316.000
 70
    32
  0
VERTEX
  8
W50LXLIFT
 62
1
 10
1020.523
 20
-7106.402
 30
316.000
 70
    32
  0
VERTEX
  8
W50LXLIFT
 62
1
 10
1024.584
 20
-7106.973
 30
316.000
 70
    32
  0
VERTEX
  8
W50LXLIFT
 62
1
 10
1037.428
 20
-7105.327
 30
316.000
 70
    32
  0
VERTEX
  8
W50LXLIFT
 62
1
 10
1041.594
 20
-7105.159
 30
316.000
 70
    32
  0
VERTEX
  8
W50LXLIFT
 62
1
 10
1044.811
 20
-7121.111
 30
316.000
 70
    32
  0
VERTEX
  8
W50LXLIFT
 62
1
 10
1051.043
 20
-7133.470
 30
316.000
 70
    32
  0
VERTEX
  8
W50LXLIFT
 62
1
 10
1061.621
 20
-7140.354
 30
316.000
 70
    32
  0
SEQEND
  8
W50LXLIFT
  0
POLYLINE
  8
W50LXLIFT
 62
6
 66
     1
 70
     9
  0
VERTEX
  8
W50LXLIFT
 62
6
 10
1058.984
 20
-7155.682
 30
306.000
 70
    32
  0
VERTEX
  8
W50LXLIFT
 62
6
 10
1062.829
 20
-7169.400
 30
306.000
 70
    32
  0
VERTEX
  8
W50LXLIFT
 62
6
 10
1070.717
 20
-7183.373
 30
306.000
 70
    32
  0
VERTEX
  8
W50LXLIFT
 62
6
 10
1077.450
 20
-7192.163
 30
306.000
 70
    32
  0
VERTEX
  8
W50LXLIFT
 62
6
 10
1082.910
 20
-7197.072
 30
306.000
 70
    32
  0
VERTEX
  8
W50LXLIFT
 62
6
 10
1085.994
 20
-7208.613
 30
306.000
 70
    32
  0
VERTEX
  8
W50LXLIFT
 62
6
 10
1099.175
 20
-7223.769
 30
306.000
 70
    32
  0
VERTEX
  8
W50LXLIFT
 62
6
 10
1099.912
 20
-7231.026
 30
306.000
 70
    32
  0
VERTEX
  8
W50LXLIFT
 62
6
 10
1089.149
 20
-7235.725
 30
306.000
 70
    32
  0
VERTEX
  8
W50LXLIFT
 62
6
 10
1078.446
 20
-7236.417
 30
306.000
 70
    32
  0
VERTEX
  8
W50LXLIFT
 62
6
 10
1074.298
 20
-7228.429
 30
306.000
 70
    32
  0
VERTEX
  8
W50LXLIFT
 62
6
 10
1061.249
 20
-7209.213
 30
306.000
 70
    32
  0
VERTEX
  8
W50LXLIFT
 62
6
 10
1050.716
 20
-7191.292
 30
306.000
 70
    32
  0
VERTEX
  8
W50LXLIFT
 62
6
 10
1033.898
 20
-7177.005
 30
306.000
 70
    32
  0
VERTEX
  8
W50LXLIFT
 62
6
 10
1030.715
 20
-7168.400
 30
306.000
 70
    32
  0
VERTEX
  8
W50LXLIFT
 62
6
 10
1027.315
 20
-7156.878
 30
306.000
 70
    32
  0
VERTEX
  8
W50LXLIFT
 62
6
 10
1018.966
 20
-7141.272
 30
306.000
 70
    32
  0
VERTEX
  8
W50LXLIFT
 62
6
 10
1013.182
 20
-7132.866
 30
306.000
 70
    32
  0
VERTEX
  8
W50LXLIFT
 62
6
 10
1001.916
 20
-7125.070
 30
306.000
 70
    32
  0
VERTEX
  8
W50LXLIFT
 62
6
 10
994.484
 20
-7118.127
 30
306.000
 70
    32
  0
VERTEX
  8
W50LXLIFT
 62
6
 10
1001.911
 20
-7107.248
 30
306.000
 70
    32
  0
VERTEX
  8
W50LXLIFT
 62
6
 10
1010.160
 20
-7101.693
 30
306.000
 70
    32
  0
VERTEX
  8
W50LXLIFT
 62
6
 10
1019.523
 20
-7107.402
 30
306.000
 70
    32
  0
VERTEX
  8
W50LXLIFT
 62
6
 10
1023.584
 20
-7107.973
 30
306.000
 70
    32
  0
VERTEX
  8
W50LXLIFT
 62
6
 10
1036.428
 20
-7106.327
 30
306.000
 70
    32
  0
VERTEX
  8
W50LXLIFT
 62
6
 10
1040.594
 20
-7106.159
 30
306.000
 70
    32
  0
VERTEX
  8
W50LXLIFT
 62
6
 10
1043.811
 20
-7122.111
 30
306.000
 70
    32
  0
VERTEX
  8
W50LXLIFT
 62
6
 10
1050.043
 20
-7134.470
 30
306.000
 70
    32
  0
VERTEX
  8
W50LXLIFT
 62
6
 10
1060.621
 20
-7141.354
 30
306.000
 70
    32
  0
SEQEND
  8
W50LXLIFT
  0
POLYLINE
  8
W50LXLIFT
 62
1
 66
     1
 70
     9
  0
VERTEX
  8
W50LXLIFT
 62
1
 10
571.035
 20
-7227.218
 30
256.000
 70
    32
  0
VERTEX
  8
W50LXLIFT
 62
1
 10
563.623
 20
-7217.172
 30
256.000
 70
    32
  0
VERTEX
  8
W50LXLIFT
 62
1
 10
559.927
 20
-7210.293
 30
256.000
 70
    32
  0
VERTEX
  8
W50LXLIFT
 62
1
 10
555.848
 20
-7210.215
 30
256.000
 70
    32
  0
VERTEX
  8
W50LXLIFT
 62
1
 10
550.639
 20
-7204.545
 30
256.000
 70
    32
  0
VERTEX
  8
W50LXLIFT
 62
1
 10
538.073
 20
-7207.593
 30
256.000
 70
    32
  0
VERTEX
  8
W50LXLIFT
 62
1
 10
531.788
 20
-7216.292
 30
256.000
 70
    32
  0
VERTEX
  8
W50LXLIFT
 62
1
 10
544.086
 20
-7231.265
 30
256.000
 70
    32
  0
VERTEX
  8
W50LXLIFT
 62
1
 10
549.396
 20
-7245.448
 30
256.000
 70
    32
  0
VERTEX
  8
W50LXLIFT
 62
1
 10
549.762
 20
-7257.465
 30
256.000
 70
    32
  0
VERTEX
  8
W50LXLIFT
 62
1
 10
557.880
 20
-7262.651
 30
256.000
 70
    32
  0
VERTEX
  8
W50LXLIFT
 62
1
 10
573.069
 20
-7266.500
 30
256.000
 70
    32
  0
VERTEX
  8
W50LXLIFT
 62
1
 10
582.820
 20
-7284.847
 30
256.000
 70
    32
  0
VERTEX
  8
W50LXLIFT
 62
1
 10
595.917
 20
-7279.239
 30
256.000
 70
    32
  0
VERTEX
  8
W50LXLIFT
 62
1
 10
593.888
 20
-7273.757
 30
256.000
 70
    32
  0
VERTEX
  8
W50LXLIFT
 62
1
 10
594.487
 20
-7256.039
 30
256.000
 70
    32
  0
VERTEX
  8
W50LXLIFT
 62
1
 10
591.876
 20
-7250.654
 30
256.000
 70
    32
  0
VERTEX
  8
W50LXLIFT
 62
1
 10
591.153
 20
-7247.267
 30
256.000
 70
    32
  0
VERTEX
  8
W50LXLIFT
 62
1
 10
591.018
 20
-7243.343
 30
256.000
 70
    32
  0
VERTEX
  8
W50LXLIFT
 62
1
 10
580.542
 20
-7235.959
 30
256.000
 70
    32
  0
VERTEX
  8
W50LXLIFT
 62
1
 10
583.019
 20
-7229.050
 30
256.000
 70
    32
  0
SEQEND
  8
W50LXLIFT
  0
POLYLINE
  8
W50LXLIFT
 62
11
 66
     1
 70
     9
  0
VERTEX
  8
W50LXLIFT
 62
11
 10
823.054
 20
-6917.952
 30
373.000
 70
    32
  0
VERTEX
  8
W50LXLIFT
 62
11
 10
825.671
 20
-6924.768
 30
373.000
 70
    32
  0
VERTEX
  8
W50LXLIFT
 62
11
 10
826.650
 20
-6925.056
 30
373.000
 70
    32
  0
VERTEX
  8
W50LXLIFT
 62
11
 10
833.335
 20
-6927.256
 30
373.000
 70
    32
  0
VERTEX
  8
W50LXLIFT
 62
11
 10
852.013
 20
-6944.508
 30
373.000
 70
    32
  0
VERTEX
  8
W50LXLIFT
 62
11
 10
853.377
 20
-6945.691
 30
373.000
 70
    32
  0
VERTEX
  8
W50LXLIFT
 62
11
 10
859.466
 20
-6951.368
 30
373.000
 70
    32
  0
VERTEX
  8
W50LXLIFT
 62
11
 10
856.214
 20
-6957.213
 30
373.000
 70
    32
  0
VERTEX
  8
W50LXLIFT
 62
11
 10
855.743
 20
-6957.875
 30
373.000
 70
    32
  0
VERTEX
  8
W50LXLIFT
 62
11
 10
861.438
 20
-6964.821
 30
373.000
 70
    32
  0
VERTEX
  8
W50LXLIFT
 62
11
 10
859.982
 20
-6968.897
 30
373.000
 70
    32
  0
VERTEX
  8
W50LXLIFT
 62
11
 10
858.597
 20
-6968.762
 30
373.000
 70
    32
  0
VERTEX
  8
W50LXLIFT
 62
11
 10
848.240
 20
-6969.902
 30
373.000
 70
    32
  0
VERTEX
  8
W50LXLIFT
 62
11
 10
840.793
 20
-6972.325
 30
373.000
 70
    32
  0
VERTEX
  8
W50LXLIFT
 62
11
 10
834.084
 20
-6959.848
 30
373.000
 70
    32
  0
VERTEX
  8
W50LXLIFT
 62
11
 10
827.166
 20
-6951.945
 30
373.000
 70
    32
  0
VERTEX
  8
W50LXLIFT
 62
11
 10
825.764
 20
-6950.493
 30
373.000
 70
    32
  0
VERTEX
  8
W50LXLIFT
 62
11
 10
812.385
 20
-6930.508
 30
373.000
 70
    32
  0
VERTEX
  8
W50LXLIFT
 62
11
 10
810.788
 20
-6924.348
 30
373.000
 70
    32
  0
VERTEX
  8
W50LXLIFT
 62
11
 10
805.032
 20
-6918.301
 30
373.000
 70
    32
  0
SEQEND
  8
W50LXLIFT
  0
POLYLINE
  8
W50LXLIFT
 62
2
 66
     1
 70
     9
  0
VERTEX
  8
W50LXLIFT
 62
2
 10
458.373
 20
-6548.621
 30
293.000
 70
    32
  0
VERTEX
  8
W50LXLIFT
 62
2
 10
448.066
 20
-6537.890
 30
293.000
 70
    32
  0
VERTEX
  8
W50LXLIFT
 62
2
 10
440.114
 20
-6540.253
 30
293.000
 70
    32
  0
VERTEX
  8
W50LXLIFT
 62
2
 10
425.514
 20
-6532.416
 30
293.000
 70
    32
  0
VERTEX
  8
W50LXLIFT
 62
2
 10
414.182
 20
-6528.049
 30
293.000
 70
    32
  0
VERTEX
  8
W50LXLIFT
 62
2
 10
402.392
 20
-6512.697
 30
293.000
 70
    32
  0
VERTEX
  8
W50LXLIFT
 62
2
 10
413.687
 20
-6498.682
 30
293.000
 70
    32
  0
VERTEX
  8
W50LXLIFT
 62
2
 10
429.121
 20
-6503.416
 30
293.000
 70
    32
  0
VERTEX
  8
W50LXLIFT
 62
2
 10
439.963
 20
-6514.462
 30
293.000
 70
    32
  0
VERTEX
  8
W50LXLIFT
 62
2
 10
454.546
 20
-6527.358
 30
293.000
 70
    32
  0
VERTEX
  8
W50LXLIFT
 62
2
 10
467.497
 20
-6541.739
 30
293.000
 70
    32
  0
VERTEX
  8
W50LXLIFT
 62
2
 10
472.864
 20
-6549.435
 30
293.000
 70
    32
  0
SEQEND
  8
W50LXLIFT
  0
POLYLINE
  8
W50LXLIFT
 62
1
 66
     1
 70
     9
  0
VERTEX
  8
W50LXLIFT
 62
1
 10
898.862
 20
-7307.248
 30
337.350
 70
    32
  0
VERTEX
  8
W50LXLIFT
 62
1
 10
896.306
 20
-7314.458
 30
337.350
 70
    32
  0
VERTEX
  8
W50LXLIFT
 62
1
 10
891.641
 20
-7321.230
 30
337.350
 70
    32
  0
VERTEX
  8
W50LXLIFT
 62
1
 10
873.203
 20
-7331.772
 30
336.975
 70
    32
  0
VERTEX
  8
W50LXLIFT
 62
1
 10
858.441
 20
-7332.438
 30
336.868
 70
    32
  0
VERTEX
  8
W50LXLIFT
 62
1
 10
856.955
 20
-7323.241
 30
334.504
 70
    32
  0
VERTEX
  8
W50LXLIFT
 62
1
 10
855.952
 20
-7317.033
 30
335.496
 70
    32
  0
VERTEX
  8
W50LXLIFT
 62
1
 10
847.217
 20
-7324.548
 30
333.873
 70
    32
  0
VERTEX
  8
W50LXLIFT
 62
1
 10
838.016
 20
-7320.019
 30
334.354
 70
    32
  0
VERTEX
  8
W50LXLIFT
 62
1
 10
837.887
 20
-7291.159
 30
337.350
 70
    32
  0
VERTEX
  8
W50LXLIFT
 62
1
 10
867.760
 20
-7279.518
 30
337.350
 70
    32
  0
VERTEX
  8
W50LXLIFT
 62
1
 10
872.617
 20
-7285.833
 30
337.350
 70
    32
  0
VERTEX
  8
W50LXLIFT
 62
1
 10
877.864
 20
-7285.834
 30
337.350
 70
    32
  0
SEQEND
  8
W50LXLIFT
  0
POLYLINE
  8
W50LXLIFT
 62
1
 66
     1
 70
     9
  0
VERTEX
  8
W50LXLIFT
 62
1
 10
891.127
 20
-7482.801
 30
321.655
 70
    32
  0
VERTEX
  8
W50LXLIFT
 62
1
 10
891.444
 20
-7479.916
 30
321.688
 70
    32
  0
VERTEX
  8
W50LXLIFT
 62
1
 10
880.845
 20
-7444.844
 30
321.778
 70
    32
  0
VERTEX
  8
W50LXLIFT
 62
1
 10
889.986
 20
-7444.157
 30
321.918
 70
    32
  0
VERTEX
  8
W50LXLIFT
 62
1
 10
895.864
 20
-7440.906
 30
322.033
 70
    32
  0
VERTEX
  8
W50LXLIFT
 62
1
 10
902.128
 20
-7448.088
 30
322.060
 70
    32
  0
VERTEX
  8
W50LXLIFT
 62
1
 10
910.192
 20
-7462.541
 30
322.070
 70
    32
  0
VERTEX
  8
W50LXLIFT
 62
1
 10
914.802
 20
-7465.079
 30
322.216
 70
    32
  0
VERTEX
  8
W50LXLIFT
 62
1
 10
920.276
 20
-7463.985
 30
322.401
 70
    32
  0
VERTEX
  8
W50LXLIFT
 62
1
 10
927.278
 20
-7474.020
 30
322.624
 70
    32
  0
VERTEX
  8
W50LXLIFT
 62
1
 10
929.959
 20
-7478.794
 30
322.668
 70
    32
  0
VERTEX
  8
W50LXLIFT
 62
1
 10
943.438
 20
-7485.511
 30
322.893
 70
    32
  0
VERTEX
  8
W50LXLIFT
 62
1
 10
948.726
 20
-7490.010
 30
322.930
 70
    32
  0
VERTEX
  8
W50LXLIFT
 62
1
 10
944.736
 20
-7500.757
 30
322.729
 70
    32
  0
VERTEX
  8
W50LXLIFT
 62
1
 10
910.654
 20
-7495.991
 30
322.180
 70
    32
  0
VERTEX
  8
W50LXLIFT
 62
1
 10
906.146
 20
-7497.332
 30
322.054
 70
    32
  0
VERTEX
  8
W50LXLIFT
 62
1
 10
895.247
 20
-7494.744
 30
321.709
 70
    32
  0
SEQEND
  8
W50LXLIFT
  0
POLYLINE
  8
W50LXLIFT
 62
1
 66
     1
 70
     9
  0
VERTEX
  8
W50LXLIFT
 62
1
 10
831.872
 20
-7411.800
 30
318.040
 70
    32
  0
VERTEX
  8
W50LXLIFT
 62
1
 10
838.426
 20
-7412.021
 30
318.142
 70
    32
  0
VERTEX
  8
W50LXLIFT
 62
1
 10
847.959
 20
-7408.251
 30
318.067
 70
    32
  0
VERTEX
  8
W50LXLIFT
 62
1
 10
852.850
 20
-7414.614
 30
318.237
 70
    32
  0
VERTEX
  8
W50LXLIFT
 62
1
 10
856.538
 20
-7415.150
 30
318.258
 70
    32
  0
VERTEX
  8
W50LXLIFT
 62
1
 10
868.038
 20
-7411.417
 30
318.188
 70
    32
  0
VERTEX
  8
W50LXLIFT
 62
1
 10
871.736
 20
-7413.886
 30
318.257
 70
    32
  0
VERTEX
  8
W50LXLIFT
 62
1
 10
872.364
 20
-7417.392
 30
318.346
 70
    32
  0
VERTEX
  8
W50LXLIFT
 62
1
 10
869.006
 20
-7419.640
 30
318.396
 70
    32
  0
VERTEX
  8
W50LXLIFT
 62
1
 10
864.290
 20
-7418.973
 30
318.369
 70
    32
  0
VERTEX
  8
W50LXLIFT
 62
1
 10
861.677
 20
-7428.524
 30
318.603
 70
    32
  0
VERTEX
  8
W50LXLIFT
 62
1
 10
856.905
 20
-7429.191
 30
318.610
 70
    32
  0
VERTEX
  8
W50LXLIFT
 62
1
 10
835.132
 20
-7444.336
 30
318.843
 70
    32
  0
SEQEND
  8
W50LXLIFT
  0
POLYLINE
  8
W50LXLIFT
 62
5
 66
     1
 70
     9
  0
VERTEX
  8
W50LXLIFT
 62
5
 10
1040.520
 20
-7239.740
 30
250.360
 70
    32
  0
VERTEX
  8
W50LXLIFT
 62
5
 10
1034.411
 20
-7228.388
 30
250.360
 70
    32
  0
VERTEX
  8
W50LXLIFT
 62
5
 10
1022.822
 20
-7233.088
 30
250.360
 70
    32
  0
VERTEX
  8
W50LXLIFT
 62
5
 10
1022.492
 20
-7245.988
 30
250.360
 70
    32
  0
VERTEX
  8
W50LXLIFT
 62
5
 10
1019.426
 20
-7250.320
 30
250.360
 70
    32
  0
VERTEX
  8
W50LXLIFT
 62
5
 10
1032.519
 20
-7268.476
 30
250.360
 70
    32
  0
VERTEX
  8
W50LXLIFT
 62
5
 10
1048.074
 20
-7286.414
 30
250.360
 70
    32
  0
VERTEX
  8
W50LXLIFT
 62
5
 10
1057.561
 20
-7300.200
 30
250.360
 70
    32
  0
VERTEX
  8
W50LXLIFT
 62
5
 10
1068.009
 20
-7300.220
 30
250.360
 70
    32
  0
VERTEX
  8
W50LXLIFT
 62
5
 10
1070.149
 20
-7284.369
 30
250.360
 70
    32
  0
VERTEX
  8
W50LXLIFT
 62
5
 10
1045.666
 20
-7246.246
 30
250.360
 70
    32
  0
SEQEND
  8
W50LXLIFT
  0
POLYLINE
  8
W50LXLIFT
 62
1
 66
     1
 70
     9
  0
VERTEX
  8
W50LXLIFT
 62
1
 10
459.373
 20
-6547.621
 30
303.000
 70
    32
  0
VERTEX
  8
W50LXLIFT
 62
1
 10
449.066
 20
-6536.890
 30
303.000
 70
    32
  0
VERTEX
  8
W50LXLIFT
 62
1
 10
441.114
 20
-6539.253
 30
303.000
 70
    32
  0
VERTEX
  8
W50LXLIFT
 62
1
 10
426.514
 20
-6531.416
 30
303.000
 70
    32
  0
VERTEX
  8
W50LXLIFT
 62
1
 10
415.182
 20
-6527.049
 30
303.000
 70
    32
  0
VERTEX
  8
W50LXLIFT
 62
1
 10
403.392
 20
-6511.697
 30
303.000
 70
    32
  0
VERTEX
  8
W50LXLIFT
 62
1
 10
414.687
 20
-6497.682
 30
303.000
 70
    32
  0
VERTEX
  8
W50LXLIFT
 62
1
 10
430.121
 20
-6502.416
 30
303.000
 70
    32
  0
VERTEX
  8
W50LXLIFT
 62
1
 10
440.963
 20
-6513.462
 30
303.000
 70
    32
  0
VERTEX
  8
W50LXLIFT
 62
1
 10
455.546
 20
-6526.358
 30
303.000
 70
    32
  0
VERTEX
  8
W50LXLIFT
 62
1
 10
468.497
 20
-6540.739
 30
303.000
 70
    32
  0
VERTEX
  8
W50LXLIFT
 62
1
 10
473.864
 20
-6548.435
 30
303.000
 70
    32
  0
SEQEND
  8
W50LXLIFT
  0
POLYLINE
  8
W50LXLIFT
 62
3
 66
     1
 70
     9
  0
VERTEX
  8
W50LXLIFT
 62
3
 10
581.070
 20
-7232.588
 30
234.585
 70
    32
  0
VERTEX
  8
W50LXLIFT
 62
3
 10
581.732
 20
-7240.123
 30
234.556
 70
    32
  0
VERTEX
  8
W50LXLIFT
 62
3
 10
590.307
 20
-7245.674
 30
234.507
 70
    32
  0
VERTEX
  8
W50LXLIFT
 62
3
 10
594.500
 20
-7259.642
 30
234.443
 70
    32
  0
VERTEX
  8
W50LXLIFT
 62
3
 10
593.125
 20
-7270.908
 30
234.407
 70
    32
  0
VERTEX
  8
W50LXLIFT
 62
3
 10
595.293
 20
-7282.528
 30
234.360
 70
    32
  0
VERTEX
  8
W50LXLIFT
 62
3
 10
582.532
 20
-7285.366
 30
234.390
 70
    32
  0
VERTEX
  8
W50LXLIFT
 62
3
 10
572.984
 20
-7265.571
 30
234.493
 70
    32
  0
VERTEX
  8
W50LXLIFT
 62
3
 10
552.609
 20
-7256.454
 30
234.594
 70
    32
  0
VERTEX
  8
W50LXLIFT
 62
3
 10
545.204
 20
-7241.054
 30
234.730
 70
    32
  0
VERTEX
  8
W50LXLIFT
 62
3
 10
564.130
 20
-7230.075
 30
234.677
 70
    32
  0
VERTEX
  8
W50LXLIFT
 62
3
 10
574.161
 20
-7227.605
 30
234.626
 70
    32
  0
SEQEND
  8
W50LXLIFT
  0
POLYLINE
  8
W50LXLIFT
 62
11
 66
     1
 70
     9
  0
VERTEX
  8
W50LXLIFT
 62
11
 10
852.478
 20
-6912.351
 30
345.000
 70
    32
  0
VERTEX
  8
W50LXLIFT
 62
11
 10
853.259
 20
-6918.957
 30
345.000
 70
    32
  0
VERTEX
  8
W50LXLIFT
 62
11
 10
857.841
 20
-6925.409
 30
345.000
 70
    32
  0
VERTEX
  8
W50LXLIFT
 62
11
 10
855.170
 20
-6931.155
 30
345.000
 70
    32
  0
VERTEX
  8
W50LXLIFT
 62
11
 10
855.847
 20
-6938.815
 30
345.000
 70
    32
  0
VERTEX
  8
W50LXLIFT
 62
11
 10
863.124
 20
-6944.938
 30
345.000
 70
    32
  0
VERTEX
  8
W50LXLIFT
 62
11
 10
857.893
 20
-6956.132
 30
345.000
 70
    32
  0
VERTEX
  8
W50LXLIFT
 62
11
 10
846.838
 20
-6963.951
 30
345.000
 70
    32
  0
VERTEX
  8
W50LXLIFT
 62
11
 10
841.202
 20
-6958.591
 30
345.000
 70
    32
  0
VERTEX
  8
W50LXLIFT
 62
11
 10
838.338
 20
-6959.586
 30
345.000
 70
    32
  0
VERTEX
  8
W50LXLIFT
 62
11
 10
829.040
 20
-6943.954
 30
345.000
 70
    32
  0
VERTEX
  8
W50LXLIFT
 62
11
 10
825.679
 20
-6944.115
 30
345.000
 70
    32
  0
VERTEX
  8
W50LXLIFT
 62
11
 10
817.790
 20
-6924.741
 30
345.000
 70
    32
  0
VERTEX
  8
W50LXLIFT
 62
11
 10
807.132
 20
-6920.098
 30
345.000
 70
    32
  0
VERTEX
  8
W50LXLIFT
 62
11
 10
811.052
 20
-6906.053
 30
345.000
 70
    32
  0
VERTEX
  8
W50LXLIFT
 62
11
 10
826.790
 20
-6914.394
 30
345.000
 70
    32
  0
VERTEX
  8
W50LXLIFT
 62
11
 10
834.766
 20
-6918.488
 30
345.000
 70
    32
  0
VERTEX
  8
W50LXLIFT
 62
11
 10
838.477
 20
-6912.529
 30
345.000
 70
    32
  0
VERTEX
  8
W50LXLIFT
 62
11
 10
837.405
 20
-6907.764
 30
345.000
 70
    32
  0
VERTEX
  8
W50LXLIFT
 62
11
 10
848.504
 20
-6908.827
 30
345.000
 70
    32
  0
SEQEND
  8
W50LXLIFT
  0
POLYLINE
  8
W50LXLIFT
 62
1
 66
     1
 70
     9
  0
VERTEX
  8
W50LXLIFT
 62
1
 10
824.054
 20
-6916.952
 30
383.000
 70
    32
  0
VERTEX
  8
W50LXLIFT
 62
1
 10
826.671
 20
-6923.768
 30
383.000
 70
    32
  0
VERTEX
  8
W50LXLIFT
 62
1
 10
827.650
 20
-6924.056
 30
383.000
 70
    32
  0
VERTEX
  8
W50LXLIFT
 62
1
 10
834.335
 20
-6926.256
 30
383.000
 70
    32
  0
VERTEX
  8
W50LXLIFT
 62
1
 10
853.013
 20
-6943.508
 30
383.000
 70
    32
  0
VERTEX
  8
W50LXLIFT
 62
1
 10
854.377
 20
-6944.691
 30
383.000
 70
    32
  0
VERTEX
  8
W50LXLIFT
 62
1
 10
860.466
 20
-6950.368
 30
383.000
 70
    32
  0
VERTEX
  8
W50LXLIFT
 62
1
 10
857.214
 20
-6956.213
 30
383.000
 70
    32
  0
VERTEX
  8
W50LXLIFT
 62
1
 10
856.743
 20
-6956.875
 30
383.000
 70
    32
  0
VERTEX
  8
W50LXLIFT
 62
1
 10
862.438
 20
-6963.821
 30
383.000
 70
    32
  0
VERTEX
  8
W50LXLIFT
 62
1
 10
860.982
 20
-6967.897
 30
383.000
 70
    32
  0
VERTEX
  8
W50LXLIFT
 62
1
 10
859.597
 20
-6967.762
 30
383.000
 70
    32
  0
VERTEX
  8
W50LXLIFT
 62
1
 10
849.240
 20
-6968.902
 30
383.000
 70
    32
  0
VERTEX
  8
W50LXLIFT
 62
1
 10
841.793
 20
-6971.325
 30
383.000
 70
    32
  0
VERTEX
  8
W50LXLIFT
 62
1
 10
835.084
 20
-6958.848
 30
383.000
 70
    32
  0
VERTEX
  8
W50LXLIFT
 62
1
 10
828.166
 20
-6950.945
 30
383.000
 70
    32
  0
VERTEX
  8
W50LXLIFT
 62
1
 10
826.764
 20
-6949.493
 30
383.000
 70
    32
  0
VERTEX
  8
W50LXLIFT
 62
1
 10
813.385
 20
-6929.508
 30
383.000
 70
    32
  0
VERTEX
  8
W50LXLIFT
 62
1
 10
811.788
 20
-6923.348
 30
383.000
 70
    32
  0
VERTEX
  8
W50LXLIFT
 62
1
 10
806.032
 20
-6917.301
 30
383.000
 70
    32
  0
SEQEND
  8
W50LXLIFT
  0
POLYLINE
  8
W50LXLIFT
 62
7
 66
     1
 70
     9
  0
VERTEX
  8
W50LXLIFT
 62
7
 10
1033.152
 20
-7255.682
 30
325.000
 70
    32
  0
VERTEX
  8
W50LXLIFT
 62
7
 10
1026.058
 20
-7243.231
 30
325.000
 70
    32
  0
VERTEX
  8
W50LXLIFT
 62
7
 10
1028.949
 20
-7234.499
 30
325.000
 70
    32
  0
VERTEX
  8
W50LXLIFT
 62
7
 10
1013.724
 20
-7214.154
 30
325.000
 70
    32
  0
VERTEX
  8
W50LXLIFT
 62
7
 10
1002.247
 20
-7200.758
 30
325.000
 70
    32
  0
VERTEX
  8
W50LXLIFT
 62
7
 10
999.184
 20
-7195.050
 30
325.000
 70
    32
  0
VERTEX
  8
W50LXLIFT
 62
7
 10
992.190
 20
-7194.699
 30
325.000
 70
    32
  0
VERTEX
  8
W50LXLIFT
 62
7
 10
973.816
 20
-7210.991
 30
325.000
 70
    32
  0
VERTEX
  8
W50LXLIFT
 62
7
 10
985.396
 20
-7228.116
 30
325.000
 70
    32
  0
VERTEX
  8
W50LXLIFT
 62
7
 10
993.868
 20
-7236.631
 30
325.000
 70
    32
  0
VERTEX
  8
W50LXLIFT
 62
7
 10
1006.089
 20
-7249.704
 30
325.000
 70
    32
  0
VERTEX
  8
W50LXLIFT
 62
7
 10
1011.396
 20
-7251.172
 30
325.000
 70
    32
  0
VERTEX
  8
W50LXLIFT
 62
7
 10
1014.970
 20
-7252.052
 30
325.000
 70
    32
  0
VERTEX
  8
W50LXLIFT
 62
7
 10
1028.368
 20
-7261.660
 30
325.000
 70
    32
  0
SEQEND
  8
W50LXLIFT
  0
POLYLINE
  8
W50LXLIFT
 62
7
 66
     1
 70
     9
  0
VERTEX
  8
W50LXLIFT
 62
7
 10
991.789
 20
-7194.447
 30
335.000
 70
    32
  0
VERTEX
  8
W50LXLIFT
 62
7
 10
985.064
 20
-7176.075
 30
335.000
 70
    32
  0
VERTEX
  8
W50LXLIFT
 62
7
 10
988.850
 20
-7153.323
 30
335.000
 70
    32
  0
VERTEX
  8
W50LXLIFT
 62
7
 10
987.368
 20
-7132.444
 30
335.000
 70
    32
  0
VERTEX
  8
W50LXLIFT
 62
7
 10
978.019
 20
-7111.958
 30
335.000
 70
    32
  0
VERTEX
  8
W50LXLIFT
 62
7
 10
965.942
 20
-7091.607
 30
335.000
 70
    32
  0
VERTEX
  8
W50LXLIFT
 62
7
 10
953.462
 20
-7081.766
 30
335.000
 70
    32
  0
VERTEX
  8
W50LXLIFT
 62
7
 10
950.509
 20
-7074.564
 30
335.000
 70
    32
  0
VERTEX
  8
W50LXLIFT
 62
7
 10
949.567
 20
-7069.380
 30
335.000
 70
    32
  0
VERTEX
  8
W50LXLIFT
 62
7
 10
937.569
 20
-7070.819
 30
335.000
 70
    32
  0
VERTEX
  8
W50LXLIFT
 62
7
 10
935.376
 20
-7079.913
 30
335.000
 70
    32
  0
VERTEX
  8
W50LXLIFT
 62
7
 10
927.985
 20
-7093.221
 30
335.000
 70
    32
  0
VERTEX
  8
W50LXLIFT
 62
7
 10
931.170
 20
-7101.341
 30
335.000
 70
    32
  0
VERTEX
  8
W50LXLIFT
 62
7
 10
949.148
 20
-7125.772
 30
335.000
 70
    32
  0
VERTEX
  8
W50LXLIFT
 62
7
 10
958.956
 20
-7143.750
 30
335.000
 70
    32
  0
VERTEX
  8
W50LXLIFT
 62
7
 10
961.249
 20
-7152.735
 30
335.000
 70
    32
  0
VERTEX
  8
W50LXLIFT
 62
7
 10
955.081
 20
-7160.698
 30
335.000
 70
    32
  0
VERTEX
  8
W50LXLIFT
 62
7
 10
950.291
 20
-7161.136
 30
335.000
 70
    32
  0
VERTEX
  8
W50LXLIFT
 62
7
 10
939.226
 20
-7154.289
 30
335.000
 70
    32
  0
VERTEX
  8
W50LXLIFT
 62
7
 10
932.964
 20
-7148.515
 30
335.000
 70
    32
  0
VERTEX
  8
W50LXLIFT
 62
7
 10
916.760
 20
-7141.925
 30
335.000
 70
    32
  0
VERTEX
  8
W50LXLIFT
 62
7
 10
909.485
 20
-7158.083
 30
335.000
 70
    32
  0
VERTEX
  8
W50LXLIFT
 62
7
 10
922.573
 20
-7166.069
 30
335.000
 70
    32
  0
VERTEX
  8
W50LXLIFT
 62
7
 10
936.636
 20
-7175.845
 30
335.000
 70
    32
  0
VERTEX
  8
W50LXLIFT
 62
7
 10
956.375
 20
-7188.344
 30
335.000
 70
    32
  0
VERTEX
  8
W50LXLIFT
 62
7
 10
974.023
 20
-7211.276
 30
335.000
 70
    32
  0
SEQEND
  8
W50LXLIFT
  0
POLYLINE
  8
W50LXLIFT
 62
8
 66
     1
 70
     9
  0
VERTEX
  8
W50LXLIFT
 62
8
 10
885.198
 20
-7191.102
 30
233.242
 70
    32
  0
VERTEX
  8
W50LXLIFT
 62
8
 10
890.536
 20
-7191.230
 30
233.270
 70
    32
  0
VERTEX
  8
W50LXLIFT
 62
8
 10
902.667
 20
-7182.224
 30
233.447
 70
    32
  0
VERTEX
  8
W50LXLIFT
 62
8
 10
917.874
 20
-7181.459
 30
233.539
 70
    32
  0
VERTEX
  8
W50LXLIFT
 62
8
 10
925.842
 20
-7189.496
 30
233.484
 70
    32
  0
VERTEX
  8
W50LXLIFT
 62
8
 10
934.876
 20
-7201.821
 30
233.383
 70
    32
  0
VERTEX
  8
W50LXLIFT
 62
8
 10
940.590
 20
-7218.286
 30
233.212
 70
    32
  0
VERTEX
  8
W50LXLIFT
 62
8
 10
932.078
 20
-7225.728
 30
233.074
 70
    32
  0
VERTEX
  8
W50LXLIFT
 62
8
 10
919.545
 20
-7239.833
 30
232.833
 70
    32
  0
VERTEX
  8
W50LXLIFT
 62
8
 10
909.821
 20
-7227.133
 30
232.935
 70
    32
  0
VERTEX
  8
W50LXLIFT
 62
8
 10
892.160
 20
-7228.220
 30
232.825
 70
    32
  0
VERTEX
  8
W50LXLIFT
 62
8
 10
885.300
 20
-7220.695
 30
232.880
 70
    32
  0
VERTEX
  8
W50LXLIFT
 62
8
 10
886.309
 20
-7206.496
 30
233.060
 70
    32
  0
VERTEX
  8
W50LXLIFT
 62
8
 10
881.137
 20
-7200.469
 30
233.105
 70
    32
  0
SEQEND
  8
W50LXLIFT
  0
POLYLINE
  8
W50LXLIFT
 62
3
 66
     1
 70
     9
  0
VERTEX
  8
W50LXLIFT
 62
3
 10
940.393
 20
-7244.232
 30
232.893
 70
    32
  0
VERTEX
  8
W50LXLIFT
 62
3
 10
940.148
 20
-7232.837
 30
233.031
 70
    32
  0
VERTEX
  8
W50LXLIFT
 62
3
 10
951.347
 20
-7226.945
 30
233.165
 70
    32
  0
VERTEX
  8
W50LXLIFT
 62
3
 10
962.698
 20
-7226.944
 30
233.227
 70
    32
  0
VERTEX
  8
W50LXLIFT
 62
3
 10
973.475
 20
-7237.625
 30
233.155
 70
    32
  0
VERTEX
  8
W50LXLIFT
 62
3
 10
968.266
 20
-7244.582
 30
233.041
 70
    32
  0
VERTEX
  8
W50LXLIFT
 62
3
 10
958.855
 20
-7253.188
 30
232.884
 70
    32
  0
VERTEX
  8
W50LXLIFT
 62
3
 10
958.855
 20
-7253.188
 30
232.884
 70
    32
  0
VERTEX
  8
W50LXLIFT
 62
3
 10
946.219
 20
-7251.195
 30
232.840
 70
    32
  0
SEQEND
  8
W50LXLIFT
  0
POLYLINE
  8
W50LXLIFT
 62
1
 66
     1
 70
     9
  0
VERTEX
  8
W50LXLIFT
 62
1
 10
941.393
 20
-7243.232
 30
242.893
 70
    32
  0
VERTEX
  8
W50LXLIFT
 62
1
 10
941.148
 20
-7231.837
 30
243.031
 70
    32
  0
VERTEX
  8
W50LXLIFT
 62
1
 10
952.347
 20
-7225.945
 30
243.165
 70
    32
  0
VERTEX
  8
W50LXLIFT
 62
1
 10
963.698
 20
-7225.944
 30
243.227
 70
    32
  0
VERTEX
  8
W50LXLIFT
 62
1
 10
974.475
 20
-7236.625
 30
243.155
 70
    32
  0
VERTEX
  8
W50LXLIFT
 62
1
 10
969.266
 20
-7243.582
 30
243.041
 70
    32
  0
VERTEX
  8
W50LXLIFT
 62
1
 10
959.855
 20
-7252.188
 30
242.884
 70
    32
  0
VERTEX
  8
W50LXLIFT
 62
1
 10
959.855
 20
-7252.188
 30
242.884
 70
    32
  0
VERTEX
  8
W50LXLIFT
 62
1
 10
947.219
 20
-7250.195
 30
242.840
 70
    32
  0
SEQEND
  8
W50LXLIFT
  0
POLYLINE
  8
W50LXLIFT
 62
1
 66
     1
 70
     9
  0
VERTEX
  8
W50LXLIFT
 62
1
 10
886.198
 20
-7190.102
 30
243.242
 70
    32
  0
VERTEX
  8
W50LXLIFT
 62
1
 10
891.536
 20
-7190.230
 30
243.270
 70
    32
  0
VERTEX
  8
W50LXLIFT
 62
1
 10
903.667
 20
-7181.224
 30
243.447
 70
    32
  0
VERTEX
  8
W50LXLIFT
 62
1
 10
918.874
 20
-7180.459
 30
243.539
 70
    32
  0
VERTEX
  8
W50LXLIFT
 62
1
 10
926.842
 20
-7188.496
 30
243.484
 70
    32
  0
VERTEX
  8
W50LXLIFT
 62
1
 10
935.876
 20
-7200.821
 30
243.383
 70
    32
  0
VERTEX
  8
W50LXLIFT
 62
1
 10
941.590
 20
-7217.286
 30
243.212
 70
    32
  0
VERTEX
  8
W50LXLIFT
 62
1
 10
933.078
 20
-7224.728
 30
243.074
 70
    32
  0
VERTEX
  8
W50LXLIFT
 62
1
 10
920.545
 20
-7238.833
 30
242.833
 70
    32
  0
VERTEX
  8
W50LXLIFT
 62
1
 10
910.821
 20
-7226.133
 30
242.935
 70
    32
  0
VERTEX
  8
W50LXLIFT
 62
1
 10
893.160
 20
-7227.220
 30
242.825
 70
    32
  0
VERTEX
  8
W50LXLIFT
 62
1
 10
886.300
 20
-7219.695
 30
242.880
 70
    32
  0
VERTEX
  8
W50LXLIFT
 62
1
 10
887.309
 20
-7205.496
 30
243.060
 70
    32
  0
VERTEX
  8
W50LXLIFT
 62
1
 10
882.137
 20
-7199.469
 30
243.105
 70
    32
  0
SEQEND
  8
W50LXLIFT
  0
POLYLINE
  8
W50LXLIFT
 62
1
 66
     1
 70
     9
  0
VERTEX
  8
W50LXLIFT
 62
1
 10
959.475
 20
-7874.388
 30
352.000
 70
    32
  0
VERTEX
  8
W50LXLIFT
 62
1
 10
947.286
 20
-7856.926
 30
352.000
 70
    32
  0
VERTEX
  8
W50LXLIFT
 62
1
 10
939.686
 20
-7853.473
 30
352.000
 70
    32
  0
VERTEX
  8
W50LXLIFT
 62
1
 10
920.275
 20
-7844.436
 30
352.000
 70
    32
  0
VERTEX
  8
W50LXLIFT
 62
1
 10
908.312
 20
-7830.968
 30
352.000
 70
    32
  0
VERTEX
  8
W50LXLIFT
 62
1
 10
904.957
 20
-7819.657
 30
352.000
 70
    32
  0
VERTEX
  8
W50LXLIFT
 62
1
 10
910.715
 20
-7815.165
 30
352.000
 70
    32
  0
VERTEX
  8
W50LXLIFT
 62
1
 10
920.726
 20
-7818.472
 30
352.000
 70
    32
  0
VERTEX
  8
W50LXLIFT
 62
1
 10
933.863
 20
-7826.139
 30
352.000
 70
    32
  0
VERTEX
  8
W50LXLIFT
 62
1
 10
941.156
 20
-7834.639
 30
352.000
 70
    32
  0
VERTEX
  8
W50LXLIFT
 62
1
 10
952.973
 20
-7845.696
 30
352.000
 70
    32
  0
VERTEX
  8
W50LXLIFT
 62
1
 10
971.799
 20
-7872.692
 30
352.000
 70
    32
  0
SEQEND
  8
W50LXLIFT
  0
POLYLINE
  8
W50LXLIFT
 62
1
 66
     1
 70
     9
  0
VERTEX
  8
W50LXLIFT
 62
1
 10
988.364
 20
-7893.788
 30
340.000
 70
    32
  0
VERTEX
  8
W50LXLIFT
 62
1
 10
998.729
 20
-7914.302
 30
340.000
 70
    32
  0
VERTEX
  8
W50LXLIFT
 62
1
 10
1019.212
 20
-7939.305
 30
340.000
 70
    32
  0
VERTEX
  8
W50LXLIFT
 62
1
 10
1030.665
 20
-7948.913
 30
340.000
 70
    32
  0
VERTEX
  8
W50LXLIFT
 62
1
 10
1033.379
 20
-7962.055
 30
340.000
 70
    32
  0
VERTEX
  8
W50LXLIFT
 62
1
 10
1041.649
 20
-7965.497
 30
340.000
 70
    32
  0
VERTEX
  8
W50LXLIFT
 62
1
 10
1036.220
 20
-7969.992
 30
340.000
 70
    32
  0
VERTEX
  8
W50LXLIFT
 62
1
 10
1023.635
 20
-7958.380
 30
340.000
 70
    32
  0
VERTEX
  8
W50LXLIFT
 62
1
 10
1004.858
 20
-7946.926
 30
340.000
 70
    32
  0
VERTEX
  8
W50LXLIFT
 62
1
 10
997.114
 20
-7933.748
 30
340.000
 70
    32
  0
VERTEX
  8
W50LXLIFT
 62
1
 10
984.774
 20
-7920.979
 30
340.000
 70
    32
  0
VERTEX
  8
W50LXLIFT
 62
1
 10
975.122
 20
-7903.535
 30
340.000
 70
    32
  0
SEQEND
  8
W50LXLIFT
  0
POLYLINE
  8
W50LXLIFT
 62
1
 66
     1
 70
     9
  0
VERTEX
  8
W50LXLIFT
 62
1
 10
1115.399
 20
-8061.801
 30
364.000
 70
    32
  0
VERTEX
  8
W50LXLIFT
 62
1
 10
1109.202
 20
-8069.240
 30
364.000
 70
    32
  0
VERTEX
  8
W50LXLIFT
 62
1
 10
1108.176
 20
-8076.567
 30
364.000
 70
    32
  0
VERTEX
  8
W50LXLIFT
 62
1
 10
1104.524
 20
-8085.075
 30
364.000
 70
    32
  0
VERTEX
  8
W50LXLIFT
 62
1
 10
1099.787
 20
-8083.114
 30
364.000
 70
    32
  0
VERTEX
  8
W50LXLIFT
 62
1
 10
1101.401
 20
-8074.366
 30
364.000
 70
    32
  0
VERTEX
  8
W50LXLIFT
 62
1
 10
1099.134
 20
-8064.664
 30
364.000
 70
    32
  0
VERTEX
  8
W50LXLIFT
 62
1
 10
1103.694
 20
-8060.628
 30
364.000
 70
    32
  0
VERTEX
  8
W50LXLIFT
 62
1
 10
1113.551
 20
-8052.664
 30
364.000
 70
    32
  0
VERTEX
  8
W50LXLIFT
 62
1
 10
1114.546
 20
-8054.006
 30
364.000
 70
    32
  0
SEQEND
  8
W50LXLIFT
  0
POLYLINE
  8
W50LXLIFT
 62
1
 66
     1
 70
     9
  0
VERTEX
  8
W50LXLIFT
 62
1
 10
1311.697
 20
-8217.195
 30
365.000
 70
    32
  0
VERTEX
  8
W50LXLIFT
 62
1
 10
1300.940
 20
-8188.067
 30
365.000
 70
    32
  0
VERTEX
  8
W50LXLIFT
 62
1
 10
1296.277
 20
-8188.569
 30
365.000
 70
    32
  0
VERTEX
  8
W50LXLIFT
 62
1
 10
1295.576
 20
-8181.865
 30
365.000
 70
    32
  0
VERTEX
  8
W50LXLIFT
 62
1
 10
1290.923
 20
-8164.957
 30
365.000
 70
    32
  0
VERTEX
  8
W50LXLIFT
 62
1
 10
1278.900
 20
-8145.195
 30
365.000
 70
    32
  0
VERTEX
  8
W50LXLIFT
 62
1
 10
1278.336
 20
-8139.265
 30
365.000
 70
    32
  0
VERTEX
  8
W50LXLIFT
 62
1
 10
1274.277
 20
-8129.360
 30
365.000
 70
    32
  0
VERTEX
  8
W50LXLIFT
 62
1
 10
1276.604
 20
-8125.117
 30
365.000
 70
    32
  0
VERTEX
  8
W50LXLIFT
 62
1
 10
1281.143
 20
-8130.946
 30
365.000
 70
    32
  0
VERTEX
  8
W50LXLIFT
 62
1
 10
1291.440
 20
-8138.635
 30
365.000
 70
    32
  0
VERTEX
  8
W50LXLIFT
 62
1
 10
1295.709
 20
-8148.823
 30
365.000
 70
    32
  0
VERTEX
  8
W50LXLIFT
 62
1
 10
1308.585
 20
-8154.382
 30
365.000
 70
    32
  0
VERTEX
  8
W50LXLIFT
 62
1
 10
1315.314
 20
-8158.588
 30
365.000
 70
    32
  0
VERTEX
  8
W50LXLIFT
 62
1
 10
1318.301
 20
-8162.174
 30
365.000
 70
    32
  0
VERTEX
  8
W50LXLIFT
 62
1
 10
1321.067
 20
-8170.630
 30
365.000
 70
    32
  0
VERTEX
  8
W50LXLIFT
 62
1
 10
1321.845
 20
-8188.659
 30
365.000
 70
    32
  0
VERTEX
  8
W50LXLIFT
 62
1
 10
1320.598
 20
-8207.204
 30
365.000
 70
    32
  0
VERTEX
  8
W50LXLIFT
 62
1
 10
1321.594
 20
-8211.501
 30
365.000
 70
    32
  0
SEQEND
  8
W50LXLIFT
  0
POLYLINE
  8
W50LXLIFT
 62
1
 66
     1
 70
     9
  0
VERTEX
  8
W50LXLIFT
 62
1
 10
1151.464
 20
-8220.288
 30
356.000
 70
    32
  0
VERTEX
  8
W50LXLIFT
 62
1
 10
1140.783
 20
-8199.531
 30
356.000
 70
    32
  0
VERTEX
  8
W50LXLIFT
 62
1
 10
1135.059
 20
-8182.213
 30
356.000
 70
    32
  0
VERTEX
  8
W50LXLIFT
 62
1
 10
1129.207
 20
-8178.452
 30
356.000
 70
    32
  0
VERTEX
  8
W50LXLIFT
 62
1
 10
1118.628
 20
-8155.321
 30
356.000
 70
    32
  0
VERTEX
  8
W50LXLIFT
 62
1
 10
1109.649
 20
-8129.034
 30
356.000
 70
    32
  0
VERTEX
  8
W50LXLIFT
 62
1
 10
1101.520
 20
-8101.679
 30
356.000
 70
    32
  0
VERTEX
  8
W50LXLIFT
 62
1
 10
1109.012
 20
-8095.250
 30
356.000
 70
    32
  0
VERTEX
  8
W50LXLIFT
 62
1
 10
1113.785
 20
-8096.965
 30
356.000
 70
    32
  0
VERTEX
  8
W50LXLIFT
 62
1
 10
1121.313
 20
-8118.637
 30
356.000
 70
    32
  0
VERTEX
  8
W50LXLIFT
 62
1
 10
1130.139
 20
-8140.878
 30
356.000
 70
    32
  0
VERTEX
  8
W50LXLIFT
 62
1
 10
1141.619
 20
-8157.103
 30
356.000
 70
    32
  0
VERTEX
  8
W50LXLIFT
 62
1
 10
1156.468
 20
-8177.726
 30
356.000
 70
    32
  0
VERTEX
  8
W50LXLIFT
 62
1
 10
1165.316
 20
-8189.663
 30
356.000
 70
    32
  0
VERTEX
  8
W50LXLIFT
 62
1
 10
1165.486
 20
-8196.979
 30
356.000
 70
    32
  0
VERTEX
  8
W50LXLIFT
 62
1
 10
1169.485
 20
-8220.829
 30
356.000
 70
    32
  0
VERTEX
  8
W50LXLIFT
 62
1
 10
1173.707
 20
-8233.021
 30
356.000
 70
    32
  0
VERTEX
  8
W50LXLIFT
 62
1
 10
1167.718
 20
-8234.834
 30
356.000
 70
    32
  0
VERTEX
  8
W50LXLIFT
 62
1
 10
1158.445
 20
-8235.908
 30
356.000
 70
    32
  0
SEQEND
  8
W50LXLIFT
  0
POLYLINE
  8
W50LXLIFT
 62
1
 66
     1
 70
     9
  0
VERTEX
  8
W50LXLIFT
 62
1
 10
1187.104
 20
-7972.290
 30
339.000
 70
    32
  0
VERTEX
  8
W50LXLIFT
 62
1
 10
1202.389
 20
-7993.139
 30
339.000
 70
    32
  0
VERTEX
  8
W50LXLIFT
 62
1
 10
1202.462
 20
-7999.067
 30
339.000
 70
    32
  0
VERTEX
  8
W50LXLIFT
 62
1
 10
1205.733
 20
-8015.065
 30
339.000
 70
    32
  0
VERTEX
  8
W50LXLIFT
 62
1
 10
1201.063
 20
-8024.337
 30
339.000
 70
    32
  0
VERTEX
  8
W50LXLIFT
 62
1
 10
1208.961
 20
-8050.128
 30
339.000
 70
    32
  0
VERTEX
  8
W50LXLIFT
 62
1
 10
1233.707
 20
-8098.020
 30
339.000
 70
    32
  0
VERTEX
  8
W50LXLIFT
 62
1
 10
1233.470
 20
-8102.326
 30
339.000
 70
    32
  0
VERTEX
  8
W50LXLIFT
 62
1
 10
1236.433
 20
-8109.086
 30
339.000
 70
    32
  0
VERTEX
  8
W50LXLIFT
 62
1
 10
1228.872
 20
-8113.938
 30
339.000
 70
    32
  0
VERTEX
  8
W50LXLIFT
 62
1
 10
1221.062
 20
-8112.771
 30
339.000
 70
    32
  0
VERTEX
  8
W50LXLIFT
 62
1
 10
1218.316
 20
-8099.436
 30
339.000
 70
    32
  0
VERTEX
  8
W50LXLIFT
 62
1
 10
1209.531
 20
-8086.471
 30
339.000
 70
    32
  0
VERTEX
  8
W50LXLIFT
 62
1
 10
1205.258
 20
-8070.441
 30
339.000
 70
    32
  0
VERTEX
  8
W50LXLIFT
 62
1
 10
1194.754
 20
-8057.206
 30
339.000
 70
    32
  0
VERTEX
  8
W50LXLIFT
 62
1
 10
1192.176
 20
-8043.205
 30
339.000
 70
    32
  0
VERTEX
  8
W50LXLIFT
 62
1
 10
1186.997
 20
-8026.528
 30
339.000
 70
    32
  0
VERTEX
  8
W50LXLIFT
 62
1
 10
1186.361
 20
-8004.587
 30
339.000
 70
    32
  0
VERTEX
  8
W50LXLIFT
 62
1
 10
1186.311
 20
-7992.117
 30
339.000
 70
    32
  0
VERTEX
  8
W50LXLIFT
 62
1
 10
1178.367
 20
-7979.411
 30
339.000
 70
    32
  0
SEQEND
  8
W50LXLIFT
  0
POLYLINE
  8
W50LXLIFT
 62
8
 66
     1
 70
     9
  0
VERTEX
  8
W50LXLIFT
 62
8
 10
985.906
 20
-7791.164
 30
229.716
 70
    32
  0
VERTEX
  8
W50LXLIFT
 62
8
 10
1004.851
 20
-7829.340
 30
229.686
 70
    32
  0
VERTEX
  8
W50LXLIFT
 62
8
 10
1007.534
 20
-7840.852
 30
229.730
 70
    32
  0
VERTEX
  8
W50LXLIFT
 62
8
 10
1005.316
 20
-7843.043
 30
229.781
 70
    32
  0
VERTEX
  8
W50LXLIFT
 62
8
 10
994.350
 20
-7840.527
 30
229.949
 70
    32
  0
VERTEX
  8
W50LXLIFT
 62
8
 10
973.999
 20
-7823.038
 30
230.172
 70
    32
  0
VERTEX
  8
W50LXLIFT
 62
8
 10
971.532
 20
-7822.725
 30
230.212
 70
    32
  0
VERTEX
  8
W50LXLIFT
 62
8
 10
947.634
 20
-7788.651
 30
230.360
 70
    32
  0
VERTEX
  8
W50LXLIFT
 62
8
 10
943.761
 20
-7779.576
 30
230.466
 70
    32
  0
VERTEX
  8
W50LXLIFT
 62
8
 10
937.839
 20
-7774.929
 30
230.623
 70
    32
  0
VERTEX
  8
W50LXLIFT
 62
8
 10
947.925
 20
-7755.786
 30
229.806
 70
    32
  0
VERTEX
  8
W50LXLIFT
 62
8
 10
959.166
 20
-7763.144
 30
229.691
 70
    32
  0
VERTEX
  8
W50LXLIFT
 62
8
 10
964.876
 20
-7770.401
 30
229.627
 70
    32
  0
VERTEX
  8
W50LXLIFT
 62
8
 10
977.881
 20
-7777.063
 30
229.497
 70
    32
  0
VERTEX
  8
W50LXLIFT
 62
8
 10
984.254
 20
-7783.430
 30
229.428
 70
    32
  0
SEQEND
  8
W50LXLIFT
  0
POLYLINE
  8
W50LXLIFT
 62
6
 66
     1
 70
     9
  0
VERTEX
  8
W50LXLIFT
 62
6
 10
1027.516
 20
-7884.193
 30
229.668
 70
    32
  0
VERTEX
  8
W50LXLIFT
 62
6
 10
1027.626
 20
-7900.608
 30
229.770
 70
    32
  0
VERTEX
  8
W50LXLIFT
 62
6
 10
1030.670
 20
-7923.220
 30
229.861
 70
    32
  0
VERTEX
  8
W50LXLIFT
 62
6
 10
1029.882
 20
-7926.233
 30
229.893
 70
    32
  0
VERTEX
  8
W50LXLIFT
 62
6
 10
1022.145
 20
-7930.029
 30
230.047
 70
    32
  0
VERTEX
  8
W50LXLIFT
 62
6
 10
1017.111
 20
-7934.936
 30
230.162
 70
    32
  0
VERTEX
  8
W50LXLIFT
 62
6
 10
1013.954
 20
-7934.249
 30
230.211
 70
    32
  0
VERTEX
  8
W50LXLIFT
 62
6
 10
1010.377
 20
-7929.893
 30
230.244
 70
    32
  0
VERTEX
  8
W50LXLIFT
 62
6
 10
1009.162
 20
-7923.245
 30
230.222
 70
    32
  0
VERTEX
  8
W50LXLIFT
 62
6
 10
1002.463
 20
-7913.037
 30
230.270
 70
    32
  0
VERTEX
  8
W50LXLIFT
 62
6
 10
993.599
 20
-7908.624
 30
230.391
 70
    32
  0
VERTEX
  8
W50LXLIFT
 62
6
 10
988.535
 20
-7903.058
 30
230.441
 70
    32
  0
VERTEX
  8
W50LXLIFT
 62
6
 10
987.151
 20
-7893.101
 30
230.402
 70
    32
  0
VERTEX
  8
W50LXLIFT
 62
6
 10
989.828
 20
-7886.198
 30
230.313
 70
    32
  0
VERTEX
  8
W50LXLIFT
 62
6
 10
992.816
 20
-7883.577
 30
230.246
 70
    32
  0
VERTEX
  8
W50LXLIFT
 62
6
 10
1007.389
 20
-7878.221
 30
229.968
 70
    32
  0
VERTEX
  8
W50LXLIFT
 62
6
 10
1011.945
 20
-7876.003
 30
229.878
 70
    32
  0
VERTEX
  8
W50LXLIFT
 62
6
 10
1012.681
 20
-7873.990
 30
229.853
 70
    32
  0
VERTEX
  8
W50LXLIFT
 62
6
 10
1022.394
 20
-7878.239
 30
229.717
 70
    32
  0
SEQEND
  8
W50LXLIFT
  0
POLYLINE
  8
W50LXLIFT
 62
6
 66
     1
 70
     9
  0
VERTEX
  8
W50LXLIFT
 62
6
 10
1068.417
 20
-7955.656
 30
229.432
 70
    32
  0
VERTEX
  8
W50LXLIFT
 62
6
 10
1072.393
 20
-7963.804
 30
229.417
 70
    32
  0
VERTEX
  8
W50LXLIFT
 62
6
 10
1074.338
 20
-7979.473
 30
229.483
 70
    32
  0
VERTEX
  8
W50LXLIFT
 62
6
 10
1086.134
 20
-7992.226
 30
229.365
 70
    32
  0
VERTEX
  8
W50LXLIFT
 62
6
 10
1086.819
 20
-7996.888
 30
229.383
 70
    32
  0
VERTEX
  8
W50LXLIFT
 62
6
 10
1081.398
 20
-8006.456
 30
229.534
 70
    32
  0
VERTEX
  8
W50LXLIFT
 62
6
 10
1087.571
 20
-8017.138
 30
229.498
 70
    32
  0
VERTEX
  8
W50LXLIFT
 62
6
 10
1082.604
 20
-8020.606
 30
229.603
 70
    32
  0
VERTEX
  8
W50LXLIFT
 62
6
 10
1074.890
 20
-8010.786
 30
229.671
 70
    32
  0
VERTEX
  8
W50LXLIFT
 62
6
 10
1069.255
 20
-8007.010
 30
229.742
 70
    32
  0
VERTEX
  8
W50LXLIFT
 62
6
 10
1061.083
 20
-8007.575
 30
229.882
 70
    32
  0
VERTEX
  8
W50LXLIFT
 62
6
 10
1059.682
 20
-8005.876
 30
229.895
 70
    32
  0
VERTEX
  8
W50LXLIFT
 62
6
 10
1059.478
 20
-8002.056
 30
229.874
 70
    32
  0
VERTEX
  8
W50LXLIFT
 62
6
 10
1051.692
 20
-7992.286
 30
229.944
 70
    32
  0
VERTEX
  8
W50LXLIFT
 62
6
 10
1053.482
 20
-7987.181
 30
229.881
 70
    32
  0
VERTEX
  8
W50LXLIFT
 62
6
 10
1052.563
 20
-7973.901
 30
229.813
 70
    32
  0
VERTEX
  8
W50LXLIFT
 62
6
 10
1054.026
 20
-7966.026
 30
229.739
 70
    32
  0
VERTEX
  8
W50LXLIFT
 62
6
 10
1048.560
 20
-7958.812
 30
229.785
 70
    32
  0
VERTEX
  8
W50LXLIFT
 62
6
 10
1055.875
 20
-7953.491
 30
229.629
 70
    32
  0
VERTEX
  8
W50LXLIFT
 62
6
 10
1055.201
 20
-7945.930
 30
229.593
 70
    32
  0
VERTEX
  8
W50LXLIFT
 62
6
 10
1046.504
 20
-7933.475
 30
229.660
 70
    32
  0
VERTEX
  8
W50LXLIFT
 62
6
 10
1052.129
 20
-7927.727
 30
229.529
 70
    32
  0
VERTEX
  8
W50LXLIFT
 62
6
 10
1060.628
 20
-7936.679
 30
229.443
 70
    32
  0
VERTEX
  8
W50LXLIFT
 62
6
 10
1063.412
 20
-7948.335
 30
229.470
 70
    32
  0
SEQEND
  8
W50LXLIFT
  0
POLYLINE
  8
W50LXLIFT
 62
3
 66
     1
 70
     9
  0
VERTEX
  8
W50LXLIFT
 62
3
 10
1164.576
 20
-8037.800
 30
228.535
 70
    32
  0
VERTEX
  8
W50LXLIFT
 62
3
 10
1165.251
 20
-8056.457
 30
228.627
 70
    32
  0
VERTEX
  8
W50LXLIFT
 62
3
 10
1171.927
 20
-8089.498
 30
228.718
 70
    32
  0
VERTEX
  8
W50LXLIFT
 62
3
 10
1146.787
 20
-8103.197
 30
229.122
 70
    32
  0
VERTEX
  8
W50LXLIFT
 62
3
 10
1139.572
 20
-8078.597
 30
229.084
 70
    32
  0
VERTEX
  8
W50LXLIFT
 62
3
 10
1135.129
 20
-8048.948
 30
228.983
 70
    32
  0
VERTEX
  8
W50LXLIFT
 62
3
 10
1132.450
 20
-8040.250
 30
228.971
 70
    32
  0
VERTEX
  8
W50LXLIFT
 62
3
 10
1129.156
 20
-8010.592
 30
228.854
 70
    32
  0
VERTEX
  8
W50LXLIFT
 62
3
 10
1123.566
 20
-7987.401
 30
228.802
 70
    32
  0
VERTEX
  8
W50LXLIFT
 62
3
 10
1123.425
 20
-7984.286
 30
228.787
 70
    32
  0
VERTEX
  8
W50LXLIFT
 62
3
 10
1143.259
 20
-7976.649
 30
228.667
 70
    32
  0
VERTEX
  8
W50LXLIFT
 62
3
 10
1144.687
 20
-7985.290
 30
228.524
 70
    32
  0
VERTEX
  8
W50LXLIFT
 62
3
 10
1152.739
 20
-8001.729
 30
228.477
 70
    32
  0
VERTEX
  8
W50LXLIFT
 62
3
 10
1158.735
 20
-8020.480
 30
228.445
 70
    32
  0
VERTEX
  8
W50LXLIFT
 62
3
 10
1161.674
 20
-8029.057
 30
228.430
 70
    32
  0
SEQEND
  8
W50LXLIFT
  0
POLYLINE
  8
W50LXLIFT
 62
2
 66
     1
 70
     9
  0
VERTEX
  8
W50LXLIFT
 62
2
 10
1194.987
 20
-8004.839
 30
228.706
 70
    32
  0
VERTEX
  8
W50LXLIFT
 62
2
 10
1179.522
 20
-7990.660
 30
228.706
 70
    32
  0
VERTEX
  8
W50LXLIFT
 62
2
 10
1188.467
 20
-7977.888
 30
228.855
 70
    32
  0
VERTEX
  8
W50LXLIFT
 62
2
 10
1202.814
 20
-7966.872
 30
229.026
 70
    32
  0
VERTEX
  8
W50LXLIFT
 62
2
 10
1233.664
 20
-7989.849
 30
229.063
 70
    32
  0
VERTEX
  8
W50LXLIFT
 62
2
 10
1248.685
 20
-8009.137
 30
229.023
 70
    32
  0
VERTEX
  8
W50LXLIFT
 62
2
 10
1250.382
 20
-8021.729
 30
228.945
 70
    32
  0
VERTEX
  8
W50LXLIFT
 62
2
 10
1230.407
 20
-8038.661
 30
228.695
 70
    32
  0
VERTEX
  8
W50LXLIFT
 62
2
 10
1200.462
 20
-8010.460
 30
228.701
 70
    32
  0
SEQEND
  8
W50LXLIFT
  0
POINT
  8
W50LXLIFT
 62
3
 10
561.370
 20
-7237.337
 30
256.000
  0
POINT
  8
W50LXLIFT
 62
3
 10
487.580
 20
-7236.861
 30
378.000
  0
LINE
  8
W50LXLIFT
 62
3
 10
487.580
 20
-7236.861
 30
378.000
 11
561.370
 21
-7237.337
 31
256.000
  0
POINT
  8
W50LXLIFT
 62
8
 10
979.010
 20
-7296.283
 30
242.523
  0
POINT
  8
W50LXLIFT
 62
8
 10
858.626
 20
-7254.056
 30
378.508
  0
LINE
  8
W50LXLIFT
 62
4
 10
858.626
 20
-7254.056
 30
378.508
 11
979.010
 21
-7296.283
 31
242.523
  0
POINT
  8
W50LXLIFT
 62
7
 10
1003.615
 20
-7220.360
 30
325.000
  0
POINT
  8
W50LXLIFT
 62
7
 10
960.338
 20
-7111.171
 30
335.000
  0
POINT
  8
W50LXLIFT
 62
7
 10
983.247
 20
-7159.954
 30
270.000
  0
LINE
  8
W50LXLIFT
 62
7
 10
960.338
 20
-7111.171
 30
335.000
 11
983.247
 21
-7159.954
 31
270.000
  0
LINE
  8
W50LXLIFT
 62
7
 10
1003.615
 20
-7220.360
 30
325.000
 11
983.247
 21
-7159.954
 31
270.000
  0
POINT
  8
W50LXLIFT
 62
6
 10
1043.999
 20
-7164.493
 30
306.000
  0
LINE
  8
W50LXLIFT
 62
6
 10
1043.999
 20
-7164.493
 30
306.000
 11
1108.589
 21
-7173.291
 31
217.000
  0
POINT
  8
W50LXLIFT
 62
6
 10
1108.589
 20
-7173.291
 30
217.000
  0
POINT
  8
W50LXLIFT
 62
13
 10
339.136
 20
-6093.408
 30
131.000
  0
LINE
  8
W50LXLIFT
 62
6
 10
253.012
 20
-6118.971
 30
269.000
 11
339.136
 21
-6093.408
 31
131.000
  0
POINT
  8
W50LXLIFT
 62
13
 10
253.012
 20
-6118.971
 30
269.000
  0
POINT
  8
W50LXLIFT
 62
4
 10
548.425
 20
-6721.529
 30
280.000
  0
POINT
  8
W50LXLIFT
 62
4
 10
551.999
 20
-6731.595
 30
280.000
  0
POINT
  8
W50LXLIFT
 62
4
 10
556.054
 20
-6741.428
 30
280.000
  0
POINT
  8
W50LXLIFT
 62
4
 10
559.679
 20
-6751.566
 30
280.000
  0
POINT
  8
W50LXLIFT
 62
4
 10
565.863
 20
-6755.586
 30
280.000
  0
POINT
  8
W50LXLIFT
 62
4
 10
570.346
 20
-6760.702
 30
280.000
  0
POINT
  8
W50LXLIFT
 62
4
 10
568.561
 20
-6767.457
 30
280.000
  0
POINT
  8
W50LXLIFT
 62
4
 10
565.500
 20
-6773.931
 30
280.000
  0
POINT
  8
W50LXLIFT
 62
4
 10
565.794
 20
-6784.382
 30
280.000
  0
POINT
  8
W50LXLIFT
 62
4
 10
570.031
 20
-6794.625
 30
280.000
  0
POINT
  8
W50LXLIFT
 62
4
 10
572.336
 20
-6802.898
 30
280.000
  0
POINT
  8
W50LXLIFT
 62
4
 10
569.817
 20
-6806.943
 30
280.000
  0
POINT
  8
W50LXLIFT
 62
4
 10
562.018
 20
-6810.527
 30
280.000
  0
POINT
  8
W50LXLIFT
 62
4
 10
556.448
 20
-6816.193
 30
280.000
  0
POINT
  8
W50LXLIFT
 62
4
 10
550.951
 20
-6814.056
 30
280.000
  0
POINT
  8
W50LXLIFT
 62
4
 10
545.762
 20
-6811.593
 30
280.000
  0
POINT
  8
W50LXLIFT
 62
4
 10
537.762
 20
-6804.552
 30
280.000
  0
POINT
  8
W50LXLIFT
 62
4
 10
534.263
 20
-6793.679
 30
280.000
  0
POINT
  8
W50LXLIFT
 62
4
 10
529.999
 20
-6782.486
 30
280.000
  0
POINT
  8
W50LXLIFT
 62
4
 10
529.875
 20
-6772.883
 30
280.000
  0
POINT
  8
W50LXLIFT
 62
4
 10
529.734
 20
-6762.647
 30
280.000
  0
POINT
  8
W50LXLIFT
 62
4
 10
527.403
 20
-6750.839
 30
280.000
  0
POINT
  8
W50LXLIFT
 62
4
 10
524.758
 20
-6740.869
 30
280.000
  0
POINT
  8
W50LXLIFT
 62
4
 10
525.315
 20
-6734.661
 30
280.000
  0
POINT
  8
W50LXLIFT
 62
4
 10
532.909
 20
-6726.377
 30
280.000
  0
POINT
  8
W50LXLIFT
 62
4
 10
538.242
 20
-6723.570
 30
280.000
  0
POLYLINE
  8
W50LXLIFT
 62
1
 66
     1
 70
     9
  0
VERTEX
  8
W50LXLIFT
 62
1
 10
549.425
 20
-6720.529
 30
290.000
 70
    32
  0
VERTEX
  8
W50LXLIFT
 62
1
 10
552.999
 20
-6730.595
 30
290.000
 70
    32
  0
VERTEX
  8
W50LXLIFT
 62
1
 10
557.054
 20
-6740.428
 30
290.000
 70
    32
  0
VERTEX
  8
W50LXLIFT
 62
1
 10
560.679
 20
-6750.566
 30
290.000
 70
    32
  0
VERTEX
  8
W50LXLIFT
 62
1
 10
566.863
 20
-6754.586
 30
290.000
 70
    32
  0
VERTEX
  8
W50LXLIFT
 62
1
 10
571.346
 20
-6759.702
 30
290.000
 70
    32
  0
VERTEX
  8
W50LXLIFT
 62
1
 10
569.561
 20
-6766.457
 30
290.000
 70
    32
  0
VERTEX
  8
W50LXLIFT
 62
1
 10
566.500
 20
-6772.931
 30
290.000
 70
    32
  0
VERTEX
  8
W50LXLIFT
 62
1
 10
566.794
 20
-6783.382
 30
290.000
 70
    32
  0
VERTEX
  8
W50LXLIFT
 62
1
 10
571.031
 20
-6793.625
 30
290.000
 70
    32
  0
VERTEX
  8
W50LXLIFT
 62
1
 10
573.336
 20
-6801.898
 30
290.000
 70
    32
  0
VERTEX
  8
W50LXLIFT
 62
1
 10
570.817
 20
-6805.943
 30
290.000
 70
    32
  0
VERTEX
  8
W50LXLIFT
 62
1
 10
563.018
 20
-6809.527
 30
290.000
 70
    32
  0
VERTEX
  8
W50LXLIFT
 62
1
 10
557.448
 20
-6815.193
 30
290.000
 70
    32
  0
VERTEX
  8
W50LXLIFT
 62
1
 10
551.951
 20
-6813.056
 30
290.000
 70
    32
  0
VERTEX
  8
W50LXLIFT
 62
1
 10
546.762
 20
-6810.593
 30
290.000
 70
    32
  0
VERTEX
  8
W50LXLIFT
 62
1
 10
538.762
 20
-6803.552
 30
290.000
 70
    32
  0
VERTEX
  8
W50LXLIFT
 62
1
 10
535.263
 20
-6792.679
 30
290.000
 70
    32
  0
VERTEX
  8
W50LXLIFT
 62
1
 10
530.999
 20
-6781.486
 30
290.000
 70
    32
  0
VERTEX
  8
W50LXLIFT
 62
1
 10
530.875
 20
-6771.883
 30
290.000
 70
    32
  0
VERTEX
  8
W50LXLIFT
 62
1
 10
530.734
 20
-6761.647
 30
290.000
 70
    32
  0
VERTEX
  8
W50LXLIFT
 62
1
 10
528.403
 20
-6749.839
 30
290.000
 70
    32
  0
VERTEX
  8
W50LXLIFT
 62
1
 10
525.758
 20
-6739.869
 30
290.000
 70
    32
  0
VERTEX
  8
W50LXLIFT
 62
1
 10
526.315
 20
-6733.661
 30
290.000
 70
    32
  0
VERTEX
  8
W50LXLIFT
 62
1
 10
533.909
 20
-6725.377
 30
290.000
 70
    32
  0
VERTEX
  8
W50LXLIFT
 62
1
 10
539.242
 20
-6722.570
 30
290.000
 70
    32
  0
SEQEND
  8
W50LXLIFT
  0
POLYLINE
  8
W50LXLIFT
 62
13
 66
     1
 70
     9
  0
VERTEX
  8
W50LXLIFT
 62
13
 10
897.862
 20
-7308.248
 30
327.350
 70
    32
  0
VERTEX
  8
W50LXLIFT
 62
13
 10
895.306
 20
-7315.458
 30
327.350
 70
    32
  0
VERTEX
  8
W50LXLIFT
 62
13
 10
890.641
 20
-7322.230
 30
327.350
 70
    32
  0
VERTEX
  8
W50LXLIFT
 62
13
 10
872.203
 20
-7332.772
 30
326.975
 70
    32
  0
VERTEX
  8
W50LXLIFT
 62
13
 10
857.441
 20
-7333.438
 30
326.868
 70
    32
  0
VERTEX
  8
W50LXLIFT
 62
13
 10
855.955
 20
-7324.241
 30
324.504
 70
    32
  0
VERTEX
  8
W50LXLIFT
 62
13
 10
854.952
 20
-7318.033
 30
325.496
 70
    32
  0
VERTEX
  8
W50LXLIFT
 62
13
 10
846.217
 20
-7325.548
 30
323.873
 70
    32
  0
VERTEX
  8
W50LXLIFT
 62
13
 10
837.016
 20
-7321.019
 30
324.354
 70
    32
  0
VERTEX
  8
W50LXLIFT
 62
13
 10
836.887
 20
-7292.159
 30
327.350
 70
    32
  0
VERTEX
  8
W50LXLIFT
 62
13
 10
866.760
 20
-7280.518
 30
327.350
 70
    32
  0
VERTEX
  8
W50LXLIFT
 62
13
 10
871.617
 20
-7286.833
 30
327.350
 70
    32
  0
VERTEX
  8
W50LXLIFT
 62
13
 10
876.864
 20
-7286.834
 30
327.350
 70
    32
  0
SEQEND
  8
W50LXLIFT
  0
POLYLINE
  8
W50LXLIFT
 62
11
 66
     1
 70
     9
  0
VERTEX
  8
W50LXLIFT
 62
11
 10
890.127
 20
-7483.801
 30
311.655
 70
    32
  0
VERTEX
  8
W50LXLIFT
 62
11
 10
890.444
 20
-7480.916
 30
311.688
 70
    32
  0
VERTEX
  8
W50LXLIFT
 62
11
 10
879.845
 20
-7445.844
 30
311.778
 70
    32
  0
VERTEX
  8
W50LXLIFT
 62
11
 10
888.986
 20
-7445.157
 30
311.918
 70
    32
  0
VERTEX
  8
W50LXLIFT
 62
11
 10
894.864
 20
-7441.906
 30
312.033
 70
    32
  0
VERTEX
  8
W50LXLIFT
 62
11
 10
901.128
 20
-7449.088
 30
312.060
 70
    32
  0
VERTEX
  8
W50LXLIFT
 62
11
 10
909.192
 20
-7463.541
 30
312.070
 70
    32
  0
VERTEX
  8
W50LXLIFT
 62
11
 10
913.802
 20
-7466.079
 30
312.216
 70
    32
  0
VERTEX
  8
W50LXLIFT
 62
11
 10
919.276
 20
-7464.985
 30
312.401
 70
    32
  0
VERTEX
  8
W50LXLIFT
 62
11
 10
926.278
 20
-7475.020
 30
312.624
 70
    32
  0
VERTEX
  8
W50LXLIFT
 62
11
 10
928.959
 20
-7479.794
 30
312.668
 70
    32
  0
VERTEX
  8
W50LXLIFT
 62
11
 10
942.438
 20
-7486.511
 30
312.893
 70
    32
  0
VERTEX
  8
W50LXLIFT
 62
11
 10
947.726
 20
-7491.010
 30
312.930
 70
    32
  0
VERTEX
  8
W50LXLIFT
 62
11
 10
943.736
 20
-7501.757
 30
312.729
 70
    32
  0
VERTEX
  8
W50LXLIFT
 62
11
 10
909.654
 20
-7496.991
 30
312.180
 70
    32
  0
VERTEX
  8
W50LXLIFT
 62
11
 10
905.146
 20
-7498.332
 30
312.054
 70
    32
  0
VERTEX
  8
W50LXLIFT
 62
11
 10
894.247
 20
-7495.744
 30
311.709
 70
    32
  0
SEQEND
  8
W50LXLIFT
  0
POLYLINE
  8
W50LXLIFT
 62
2
 66
     1
 70
     9
  0
VERTEX
  8
W50LXLIFT
 62
2
 10
830.872
 20
-7412.800
 30
308.040
 70
    32
  0
VERTEX
  8
W50LXLIFT
 62
2
 10
837.426
 20
-7413.021
 30
308.142
 70
    32
  0
VERTEX
  8
W50LXLIFT
 62
2
 10
846.959
 20
-7409.251
 30
308.067
 70
    32
  0
VERTEX
  8
W50LXLIFT
 62
2
 10
851.850
 20
-7415.614
 30
308.237
 70
    32
  0
VERTEX
  8
W50LXLIFT
 62
2
 10
855.538
 20
-7416.150
 30
308.258
 70
    32
  0
VERTEX
  8
W50LXLIFT
 62
2
 10
867.038
 20
-7412.417
 30
308.188
 70
    32
  0
VERTEX
  8
W50LXLIFT
 62
2
 10
870.736
 20
-7414.886
 30
308.257
 70
    32
  0
VERTEX
  8
W50LXLIFT
 62
2
 10
871.364
 20
-7418.392
 30
308.346
 70
    32
  0
VERTEX
  8
W50LXLIFT
 62
2
 10
868.006
 20
-7420.640
 30
308.396
 70
    32
  0
VERTEX
  8
W50LXLIFT
 62
2
 10
863.290
 20
-7419.973
 30
308.369
 70
    32
  0
VERTEX
  8
W50LXLIFT
 62
2
 10
860.677
 20
-7429.524
 30
308.603
 70
    32
  0
VERTEX
  8
W50LXLIFT
 62
2
 10
855.905
 20
-7430.191
 30
308.610
 70
    32
  0
VERTEX
  8
W50LXLIFT
 62
2
 10
834.132
 20
-7445.336
 30
308.843
 70
    32
  0
SEQEND
  8
W50LXLIFT
  0
POLYLINE
  8
W50LXLIFT
 62
1
 66
     1
 70
     9
  0
VERTEX
  8
W50LXLIFT
 62
1
 10
950.384
 20
-7068.892
 30
355.000
 70
    32
  0
VERTEX
  8
W50LXLIFT
 62
1
 10
953.833
 20
-7078.124
 30
355.000
 70
    32
  0
VERTEX
  8
W50LXLIFT
 62
1
 10
963.496
 20
-7084.687
 30
355.000
 70
    32
  0
VERTEX
  8
W50LXLIFT
 62
1
 10
977.396
 20
-7104.256
 30
355.000
 70
    32
  0
VERTEX
  8
W50LXLIFT
 62
1
 10
993.349
 20
-7134.724
 30
355.000
 70
    32
  0
VERTEX
  8
W50LXLIFT
 62
1
 10
963.897
 20
-7145.047
 30
355.000
 70
    32
  0
VERTEX
  8
W50LXLIFT
 62
1
 10
936.098
 20
-7102.321
 30
355.000
 70
    32
  0
VERTEX
  8
W50LXLIFT
 62
1
 10
927.309
 20
-7090.232
 30
355.000
 70
    32
  0
VERTEX
  8
W50LXLIFT
 62
1
 10
932.746
 20
-7085.301
 30
355.000
 70
    32
  0
VERTEX
  8
W50LXLIFT
 62
1
 10
939.678
 20
-7074.501
 30
355.000
 70
    32
  0
VERTEX
  8
W50LXLIFT
 62
1
 10
940.274
 20
-7069.938
 30
355.000
 70
    32
  0
SEQEND
  8
W50LXLIFT
  0
POLYLINE
  8
W50LXLIFT
 62
4
 66
     1
 70
     9
  0
VERTEX
  8
W50LXLIFT
 62
4
 10
982.982
 20
-7263.970
 30
232.884
 70
    32
  0
VERTEX
  8
W50LXLIFT
 62
4
 10
994.842
 20
-7259.331
 30
233.006
 70
    32
  0
VERTEX
  8
W50LXLIFT
 62
4
 10
1012.912
 20
-7259.136
 30
233.107
 70
    32
  0
VERTEX
  8
W50LXLIFT
 62
4
 10
1017.796
 20
-7265.364
 30
233.058
 70
    32
  0
VERTEX
  8
W50LXLIFT
 62
4
 10
1016.520
 20
-7267.219
 30
233.028
 70
    32
  0
VERTEX
  8
W50LXLIFT
 62
4
 10
1021.468
 20
-7279.827
 30
232.901
 70
    32
  0
VERTEX
  8
W50LXLIFT
 62
4
 10
1019.659
 20
-7282.911
 30
232.853
 70
    32
  0
VERTEX
  8
W50LXLIFT
 62
4
 10
1022.543
 20
-7295.783
 30
232.760
 70
    32
  0
VERTEX
  8
W50LXLIFT
 62
4
 10
1015.736
 20
-7303.213
 30
232.671
 70
    32
  0
VERTEX
  8
W50LXLIFT
 62
4
 10
1009.166
 20
-7305.766
 30
232.623
 70
    32
  0
VERTEX
  8
W50LXLIFT
 62
4
 10
996.379
 20
-7315.979
 30
232.486
 70
    32
  0
VERTEX
  8
W50LXLIFT
 62
4
 10
977.821
 20
-7327.437
 30
232.314
 70
    32
  0
VERTEX
  8
W50LXLIFT
 62
4
 10
976.077
 20
-7330.154
 30
232.285
 70
    32
  0
VERTEX
  8
W50LXLIFT
 62
4
 10
963.959
 20
-7334.118
 30
232.202
 70
    32
  0
VERTEX
  8
W50LXLIFT
 62
4
 10
960.050
 20
-7330.207
 30
232.217
 70
    32
  0
VERTEX
  8
W50LXLIFT
 62
4
 10
956.438
 20
-7331.015
 30
232.196
 70
    32
  0
VERTEX
  8
W50LXLIFT
 62
4
 10
948.976
 20
-7327.230
 30
232.195
 70
    32
  0
VERTEX
  8
W50LXLIFT
 62
4
 10
937.893
 20
-7326.080
 30
232.158
 70
    32
  0
VERTEX
  8
W50LXLIFT
 62
4
 10
931.457
 20
-7312.262
 30
232.244
 70
    32
  0
VERTEX
  8
W50LXLIFT
 62
4
 10
935.001
 20
-7290.190
 30
232.439
 70
    32
  0
VERTEX
  8
W50LXLIFT
 62
4
 10
947.364
 20
-7286.270
 30
232.523
 70
    32
  0
VERTEX
  8
W50LXLIFT
 62
4
 10
959.427
 20
-7279.775
 30
232.626
 70
    32
  0
VERTEX
  8
W50LXLIFT
 62
4
 10
971.830
 20
-7266.403
 30
232.794
 70
    32
  0
SEQEND
  8
W50LXLIFT
  0
POLYLINE
  8
W50LXLIFT
 62
1
 66
     1
 70
     9
  0
VERTEX
  8
W50LXLIFT
 62
1
 10
983.982
 20
-7262.970
 30
242.884
 70
    32
  0
VERTEX
  8
W50LXLIFT
 62
1
 10
995.842
 20
-7258.331
 30
243.006
 70
    32
  0
VERTEX
  8
W50LXLIFT
 62
1
 10
1013.912
 20
-7258.136
 30
243.107
 70
    32
  0
VERTEX
  8
W50LXLIFT
 62
1
 10
1018.796
 20
-7264.364
 30
243.058
 70
    32
  0
VERTEX
  8
W50LXLIFT
 62
1
 10
1017.520
 20
-7266.219
 30
243.028
 70
    32
  0
VERTEX
  8
W50LXLIFT
 62
1
 10
1022.468
 20
-7278.827
 30
242.901
 70
    32
  0
VERTEX
  8
W50LXLIFT
 62
1
 10
1020.659
 20
-7281.911
 30
242.853
 70
    32
  0
VERTEX
  8
W50LXLIFT
 62
1
 10
1023.543
 20
-7294.783
 30
242.760
 70
    32
  0
VERTEX
  8
W50LXLIFT
 62
1
 10
1016.736
 20
-7302.213
 30
242.671
 70
    32
  0
VERTEX
  8
W50LXLIFT
 62
1
 10
1010.166
 20
-7304.766
 30
242.623
 70
    32
  0
VERTEX
  8
W50LXLIFT
 62
1
 10
997.379
 20
-7314.979
 30
242.486
 70
    32
  0
VERTEX
  8
W50LXLIFT
 62
1
 10
978.821
 20
-7326.437
 30
242.314
 70
    32
  0
VERTEX
  8
W50LXLIFT
 62
1
 10
977.077
 20
-7329.154
 30
242.285
 70
    32
  0
VERTEX
  8
W50LXLIFT
 62
1
 10
964.959
 20
-7333.118
 30
242.202
 70
    32
  0
VERTEX
  8
W50LXLIFT
 62
1
 10
961.050
 20
-7329.207
 30
242.217
 70
    32
  0
VERTEX
  8
W50LXLIFT
 62
1
 10
957.438
 20
-7330.015
 30
242.196
 70
    32
  0
VERTEX
  8
W50LXLIFT
 62
1
 10
949.976
 20
-7326.230
 30
242.195
 70
    32
  0
VERTEX
  8
W50LXLIFT
 62
1
 10
938.893
 20
-7325.080
 30
242.158
 70
    32
  0
VERTEX
  8
W50LXLIFT
 62
1
 10
932.457
 20
-7311.262
 30
242.244
 70
    32
  0
VERTEX
  8
W50LXLIFT
 62
1
 10
936.001
 20
-7289.190
 30
242.439
 70
    32
  0
VERTEX
  8
W50LXLIFT
 62
1
 10
948.364
 20
-7285.270
 30
242.523
 70
    32
  0
VERTEX
  8
W50LXLIFT
 62
1
 10
960.427
 20
-7278.775
 30
242.626
 70
    32
  0
VERTEX
  8
W50LXLIFT
 62
1
 10
972.830
 20
-7265.403
 30
242.794
 70
    32
  0
SEQEND
  8
W50LXLIFT
  0
POLYLINE
  8
W50LXLIFT
 62
6
 66
     1
 70
     9
  0
VERTEX
  8
W50LXLIFT
 62
6
 10
257.189
 20
-6095.473
 30
249.506
 70
    32
  0
VERTEX
  8
W50LXLIFT
 62
6
 10
257.436
 20
-6100.661
 30
249.459
 70
    32
  0
VERTEX
  8
W50LXLIFT
 62
6
 10
271.278
 20
-6118.698
 30
248.996
 70
    32
  0
VERTEX
  8
W50LXLIFT
 62
6
 10
278.531
 20
-6124.402
 30
248.792
 70
    32
  0
VERTEX
  8
W50LXLIFT
 62
6
 10
269.941
 20
-6133.371
 30
248.749
 70
    32
  0
VERTEX
  8
W50LXLIFT
 62
6
 10
273.275
 20
-6174.762
 30
247.956
 70
    32
  0
VERTEX
  8
W50LXLIFT
 62
6
 10
269.245
 20
-6176.289
 30
247.984
 70
    32
  0
VERTEX
  8
W50LXLIFT
 62
6
 10
261.978
 20
-6175.864
 30
248.092
 70
    32
  0
VERTEX
  8
W50LXLIFT
 62
6
 10
256.935
 20
-6171.551
 30
248.240
 70
    32
  0
VERTEX
  8
W50LXLIFT
 62
6
 10
252.157
 20
-6150.599
 30
248.685
 70
    32
  0
VERTEX
  8
W50LXLIFT
 62
6
 10
239.540
 20
-6145.874
 30
248.945
 70
    32
  0
VERTEX
  8
W50LXLIFT
 62
6
 10
236.913
 20
-6140.987
 30
249.069
 70
    32
  0
VERTEX
  8
W50LXLIFT
 62
6
 10
233.107
 20
-6139.757
 30
249.144
 70
    32
  0
VERTEX
  8
W50LXLIFT
 62
6
 10
236.588
 20
-6117.048
 30
249.506
 70
    32
  0
VERTEX
  8
W50LXLIFT
 62
6
 10
232.317
 20
-6109.222
 30
249.625
 70
    32
  0
VERTEX
  8
W50LXLIFT
 62
6
 10
225.406
 20
-6100.216
 30
249.677
 70
    32
  0
VERTEX
  8
W50LXLIFT
 62
6
 10
240.926
 20
-6089.382
 30
249.649
 70
    32
  0
VERTEX
  8
W50LXLIFT
 62
6
 10
244.736
 20
-6079.527
 30
249.638
 70
    32
  0
VERTEX
  8
W50LXLIFT
 62
6
 10
242.153
 20
-6074.435
 30
249.639
 70
    32
  0
VERTEX
  8
W50LXLIFT
 62
6
 10
249.071
 20
-6059.835
 30
249.621
 70
    32
  0
VERTEX
  8
W50LXLIFT
 62
6
 10
253.913
 20
-6058.850
 30
249.614
 70
    32
  0
VERTEX
  8
W50LXLIFT
 62
6
 10
259.474
 20
-6062.216
 30
249.608
 70
    32
  0
VERTEX
  8
W50LXLIFT
 62
6
 10
255.186
 20
-6080.212
 30
249.624
 70
    32
  0
VERTEX
  8
W50LXLIFT
 62
6
 10
257.001
 20
-6083.949
 30
249.607
 70
    32
  0
SEQEND
  8
W50LXLIFT
  0
POLYLINE
  8
W50LXLIFT
 62
7
 66
     1
 70
     9
  0
VERTEX
  8
W50LXLIFT
 62
7
 10
992.541
 20
-7193.940
 30
260.000
 70
    32
  0
VERTEX
  8
W50LXLIFT
 62
7
 10
977.261
 20
-7177.121
 30
260.000
 70
    32
  0
VERTEX
  8
W50LXLIFT
 62
7
 10
956.665
 20
-7157.181
 30
260.000
 70
    32
  0
VERTEX
  8
W50LXLIFT
 62
7
 10
944.550
 20
-7148.721
 30
260.000
 70
    32
  0
VERTEX
  8
W50LXLIFT
 62
7
 10
934.858
 20
-7133.010
 30
260.000
 70
    32
  0
VERTEX
  8
W50LXLIFT
 62
7
 10
923.954
 20
-7117.300
 30
260.000
 70
    32
  0
VERTEX
  8
W50LXLIFT
 62
7
 10
916.080
 20
-7110.049
 30
260.000
 70
    32
  0
VERTEX
  8
W50LXLIFT
 62
7
 10
897.476
 20
-7090.010
 30
260.000
 70
    32
  0
VERTEX
  8
W50LXLIFT
 62
7
 10
919.383
 20
-7075.993
 30
260.000
 70
    32
  0
VERTEX
  8
W50LXLIFT
 62
7
 10
931.336
 20
-7080.733
 30
260.000
 70
    32
  0
VERTEX
  8
W50LXLIFT
 62
7
 10
936.901
 20
-7088.537
 30
260.000
 70
    32
  0
VERTEX
  8
W50LXLIFT
 62
7
 10
956.138
 20
-7100.441
 30
260.000
 70
    32
  0
VERTEX
  8
W50LXLIFT
 62
7
 10
962.257
 20
-7100.666
 30
260.000
 70
    32
  0
VERTEX
  8
W50LXLIFT
 62
7
 10
969.358
 20
-7100.588
 30
260.000
 70
    32
  0
VERTEX
  8
W50LXLIFT
 62
7
 10
976.756
 20
-7104.694
 30
260.000
 70
    32
  0
VERTEX
  8
W50LXLIFT
 62
7
 10
984.052
 20
-7135.203
 30
260.000
 70
    32
  0
VERTEX
  8
W50LXLIFT
 62
7
 10
987.828
 20
-7134.223
 30
260.000
 70
    32
  0
VERTEX
  8
W50LXLIFT
 62
7
 10
996.279
 20
-7142.930
 30
260.000
 70
    32
  0
VERTEX
  8
W50LXLIFT
 62
7
 10
1001.346
 20
-7154.304
 30
260.000
 70
    32
  0
VERTEX
  8
W50LXLIFT
 62
7
 10
997.404
 20
-7158.273
 30
260.000
 70
    32
  0
VERTEX
  8
W50LXLIFT
 62
7
 10
998.998
 20
-7166.653
 30
260.000
 70
    32
  0
VERTEX
  8
W50LXLIFT
 62
7
 10
1006.836
 20
-7171.196
 30
260.000
 70
    32
  0
SEQEND
  8
W50LXLIFT
  0
POLYLINE
  8
W50LXLIFT
 62
7
 66
     1
 70
     9
  0
VERTEX
  8
W50LXLIFT
 62
7
 10
1006.836
 20
-7171.196
 30
260.000
 70
    32
  0
VERTEX
  8
W50LXLIFT
 62
7
 10
1026.786
 20
-7170.335
 30
260.000
 70
    32
  0
VERTEX
  8
W50LXLIFT
 62
7
 10
1029.791
 20
-7175.335
 30
260.000
 70
    32
  0
VERTEX
  8
W50LXLIFT
 62
7
 10
1033.096
 20
-7190.353
 30
260.000
 70
    32
  0
VERTEX
  8
W50LXLIFT
 62
7
 10
1030.309
 20
-7192.789
 30
260.000
 70
    32
  0
VERTEX
  8
W50LXLIFT
 62
7
 10
1034.437
 20
-7201.898
 30
260.000
 70
    32
  0
VERTEX
  8
W50LXLIFT
 62
7
 10
1043.458
 20
-7212.819
 30
260.000
 70
    32
  0
VERTEX
  8
W50LXLIFT
 62
7
 10
1040.443
 20
-7220.493
 30
260.000
 70
    32
  0
VERTEX
  8
W50LXLIFT
 62
7
 10
1027.861
 20
-7221.627
 30
260.000
 70
    32
  0
VERTEX
  8
W50LXLIFT
 62
7
 10
1019.042
 20
-7223.222
 30
260.000
 70
    32
  0
VERTEX
  8
W50LXLIFT
 62
7
 10
1012.395
 20
-7212.772
 30
260.000
 70
    32
  0
VERTEX
  8
W50LXLIFT
 62
7
 10
1002.703
 20
-7201.896
 30
260.000
 70
    32
  0
VERTEX
  8
W50LXLIFT
 62
7
 10
994.828
 20
-7196.458
 30
260.000
 70
    32
  0
VERTEX
  8
W50LXLIFT
 62
7
 10
992.541
 20
-7193.940
 30
260.000
 70
    32
  0
SEQEND
  8
W50LXLIFT
  0
POLYLINE
  8
W50LXLIFT
 62
1
 66
     1
 70
     9
  0
VERTEX
  8
W50LXLIFT
 62
1
 10
1007.836
 20
-7170.196
 30
270.000
 70
    32
  0
VERTEX
  8
W50LXLIFT
 62
1
 10
999.998
 20
-7165.653
 30
270.000
 70
    32
  0
VERTEX
  8
W50LXLIFT
 62
1
 10
998.404
 20
-7157.273
 30
270.000
 70
    32
  0
VERTEX
  8
W50LXLIFT
 62
1
 10
1002.346
 20
-7153.304
 30
270.000
 70
    32
  0
VERTEX
  8
W50LXLIFT
 62
1
 10
997.279
 20
-7141.930
 30
270.000
 70
    32
  0
VERTEX
  8
W50LXLIFT
 62
1
 10
988.828
 20
-7133.223
 30
270.000
 70
    32
  0
VERTEX
  8
W50LXLIFT
 62
1
 10
985.052
 20
-7134.203
 30
270.000
 70
    32
  0
VERTEX
  8
W50LXLIFT
 62
1
 10
977.756
 20
-7103.694
 30
270.000
 70
    32
  0
VERTEX
  8
W50LXLIFT
 62
1
 10
970.358
 20
-7099.588
 30
270.000
 70
    32
  0
VERTEX
  8
W50LXLIFT
 62
1
 10
963.257
 20
-7099.666
 30
270.000
 70
    32
  0
VERTEX
  8
W50LXLIFT
 62
1
 10
957.138
 20
-7099.441
 30
270.000
 70
    32
  0
VERTEX
  8
W50LXLIFT
 62
1
 10
937.901
 20
-7087.537
 30
270.000
 70
    32
  0
VERTEX
  8
W50LXLIFT
 62
1
 10
932.336
 20
-7079.733
 30
270.000
 70
    32
  0
VERTEX
  8
W50LXLIFT
 62
1
 10
920.383
 20
-7074.993
 30
270.000
 70
    32
  0
VERTEX
  8
W50LXLIFT
 62
1
 10
898.476
 20
-7089.010
 30
270.000
 70
    32
  0
VERTEX
  8
W50LXLIFT
 62
1
 10
917.080
 20
-7109.049
 30
270.000
 70
    32
  0
VERTEX
  8
W50LXLIFT
 62
1
 10
924.954
 20
-7116.300
 30
270.000
 70
    32
  0
VERTEX
  8
W50LXLIFT
 62
1
 10
935.858
 20
-7132.010
 30
270.000
 70
    32
  0
VERTEX
  8
W50LXLIFT
 62
1
 10
945.550
 20
-7147.721
 30
270.000
 70
    32
  0
VERTEX
  8
W50LXLIFT
 62
1
 10
957.665
 20
-7156.181
 30
270.000
 70
    32
  0
VERTEX
  8
W50LXLIFT
 62
1
 10
978.261
 20
-7176.121
 30
270.000
 70
    32
  0
VERTEX
  8
W50LXLIFT
 62
1
 10
993.541
 20
-7192.940
 30
270.000
 70
    32
  0
SEQEND
  8
W50LXLIFT
  0
POLYLINE
  8
W50LXLIFT
 62
1
 66
     1
 70
     9
  0
VERTEX
  8
W50LXLIFT
 62
1
 10
1007.836
 20
-7170.196
 30
270.000
 70
    32
  0
VERTEX
  8
W50LXLIFT
 62
1
 10
1027.786
 20
-7169.335
 30
270.000
 70
    32
  0
VERTEX
  8
W50LXLIFT
 62
1
 10
1030.791
 20
-7174.335
 30
270.000
 70
    32
  0
VERTEX
  8
W50LXLIFT
 62
1
 10
1034.096
 20
-7189.353
 30
270.000
 70
    32
  0
VERTEX
  8
W50LXLIFT
 62
1
 10
1031.309
 20
-7191.789
 30
270.000
 70
    32
  0
VERTEX
  8
W50LXLIFT
 62
1
 10
1035.437
 20
-7200.898
 30
270.000
 70
    32
  0
VERTEX
  8
W50LXLIFT
 62
1
 10
1044.458
 20
-7211.819
 30
270.000
 70
    32
  0
VERTEX
  8
W50LXLIFT
 62
1
 10
1041.443
 20
-7219.493
 30
270.000
 70
    32
  0
VERTEX
  8
W50LXLIFT
 62
1
 10
1028.861
 20
-7220.627
 30
270.000
 70
    32
  0
VERTEX
  8
W50LXLIFT
 62
1
 10
1020.042
 20
-7222.222
 30
270.000
 70
    32
  0
VERTEX
  8
W50LXLIFT
 62
1
 10
1013.395
 20
-7211.772
 30
270.000
 70
    32
  0
VERTEX
  8
W50LXLIFT
 62
1
 10
1003.703
 20
-7200.896
 30
270.000
 70
    32
  0
VERTEX
  8
W50LXLIFT
 62
1
 10
995.828
 20
-7195.458
 30
270.000
 70
    32
  0
VERTEX
  8
W50LXLIFT
 62
1
 10
993.541
 20
-7192.940
 30
270.000
 70
    32
  0
SEQEND
  8
W50LXLIFT
  0
POLYLINE
  8
W50LXLIFT
 62
13
 66
     1
 70
     9
  0
VERTEX
  8
W50LXLIFT
 62
13
 10
1044.748
 20
-8020.643
 30
320.000
 70
    32
  0
VERTEX
  8
W50LXLIFT
 62
13
 10
1051.456
 20
-8029.989
 30
320.000
 70
    32
  0
VERTEX
  8
W50LXLIFT
 62
13
 10
1073.901
 20
-8061.264
 30
320.000
 70
    32
  0
VERTEX
  8
W50LXLIFT
 62
13
 10
1089.586
 20
-8050.008
 30
320.000
 70
    32
  0
VERTEX
  8
W50LXLIFT
 62
13
 10
1094.174
 20
-8046.715
 30
320.000
 70
    32
  0
VERTEX
  8
W50LXLIFT
 62
13
 10
1071.675
 20
-8015.365
 30
320.000
 70
    32
  0
VERTEX
  8
W50LXLIFT
 62
13
 10
1065.021
 20
-8006.094
 30
320.000
 70
    32
  0
VERTEX
  8
W50LXLIFT
 62
13
 10
1060.433
 20
-8009.386
 30
320.000
 70
    32
  0
SEQEND
  8
W50LXLIFT
  0
POLYLINE
  8
W50LXLIFT
 62
13
 66
     1
 70
     9
  0
VERTEX
  8
W50LXLIFT
 62
13
 10
1044.870
 20
-8020.556
 30
310.000
 70
    32
  0
VERTEX
  8
W50LXLIFT
 62
13
 10
1060.546
 20
-8042.399
 30
310.000
 70
    32
  0
VERTEX
  8
W50LXLIFT
 62
13
 10
1074.023
 20
-8061.177
 30
310.000
 70
    32
  0
VERTEX
  8
W50LXLIFT
 62
13
 10
1083.440
 20
-8054.419
 30
310.000
 70
    32
  0
VERTEX
  8
W50LXLIFT
 62
13
 10
1094.230
 20
-8046.675
 30
310.000
 70
    32
  0
VERTEX
  8
W50LXLIFT
 62
13
 10
1080.724
 20
-8027.857
 30
310.000
 70
    32
  0
VERTEX
  8
W50LXLIFT
 62
13
 10
1065.077
 20
-8006.054
 30
310.000
 70
    32
  0
VERTEX
  8
W50LXLIFT
 62
13
 10
1054.287
 20
-8013.797
 30
310.000
 70
    32
  0
SEQEND
  8
W50LXLIFT
  0
POLYLINE
  8
W50LXLIFT
 62
13
 66
     1
 70
     9
  0
VERTEX
  8
W50LXLIFT
 62
13
 10
1044.991
 20
-8020.469
 30
300.000
 70
    32
  0
VERTEX
  8
W50LXLIFT
 62
13
 10
1069.636
 20
-8054.809
 30
300.000
 70
    32
  0
VERTEX
  8
W50LXLIFT
 62
13
 10
1074.144
 20
-8061.090
 30
300.000
 70
    32
  0
VERTEX
  8
W50LXLIFT
 62
13
 10
1077.294
 20
-8058.830
 30
300.000
 70
    32
  0
VERTEX
  8
W50LXLIFT
 62
13
 10
1094.285
 20
-8046.636
 30
300.000
 70
    32
  0
VERTEX
  8
W50LXLIFT
 62
13
 10
1089.773
 20
-8040.348
 30
300.000
 70
    32
  0
VERTEX
  8
W50LXLIFT
 62
13
 10
1065.132
 20
-8006.014
 30
300.000
 70
    32
  0
VERTEX
  8
W50LXLIFT
 62
13
 10
1048.141
 20
-8018.208
 30
300.000
 70
    32
  0
SEQEND
  8
W50LXLIFT
  0
POLYLINE
  8
W50LXLIFT
 62
13
 66
     1
 70
     9
  0
VERTEX
  8
W50LXLIFT
 62
13
 10
1028.595
 20
-7970.692
 30
300.000
 70
    32
  0
VERTEX
  8
W50LXLIFT
 62
13
 10
1046.398
 20
-7995.497
 30
300.000
 70
    32
  0
VERTEX
  8
W50LXLIFT
 62
13
 10
1057.748
 20
-8011.313
 30
300.000
 70
    32
  0
VERTEX
  8
W50LXLIFT
 62
13
 10
1053.399
 20
-8014.434
 30
300.000
 70
    32
  0
VERTEX
  8
W50LXLIFT
 62
13
 10
1046.472
 20
-8019.406
 30
300.000
 70
    32
  0
VERTEX
  8
W50LXLIFT
 62
13
 10
1035.171
 20
-8003.658
 30
300.000
 70
    32
  0
VERTEX
  8
W50LXLIFT
 62
13
 10
1017.319
 20
-7978.784
 30
300.000
 70
    32
  0
VERTEX
  8
W50LXLIFT
 62
13
 10
1024.246
 20
-7973.813
 30
300.000
 70
    32
  0
SEQEND
  8
W50LXLIFT
  0
ENDSEC
  0
EOF
