999
********************************
999
*   DXF File - Entities Only   *
999
*        3D Data Format        *
999
*     Output from ENVISAGE     *
999
*     31-Dec-2007 15:47:40     *
999
********************************
  0
SECTION 
  2
HEADER
  9
$ACADVER
  1
AC1009
  9
$EXTMIN
 10
-290000.000
 20
-250000.000
 30
-4000.000
  9
$EXTMAX
 10
320000.000
 20
160000.000
 30
6000.000
  0
ENDSEC
  0
SECTION
  2
ENTITIES
  0
POLYLINE
  8
W51LXLIFT
 62
6
 66
     1
 70
     9
  0
VERTEX
  8
W51LXLIFT
 62
6
 10
1116.331
 20
-7933.293
 30
100.000
 70
    32
  0
VERTEX
  8
W51LXLIFT
 62
6
 10
1107.825
 20
-7916.971
 30
100.000
 70
    32
  0
VERTEX
  8
W51LXLIFT
 62
6
 10
1092.900
 20
-7906.624
 30
100.000
 70
    32
  0
VERTEX
  8
W51LXLIFT
 62
6
 10
1083.255
 20
-7885.149
 30
100.000
 70
    32
  0
VERTEX
  8
W51LXLIFT
 62
6
 10
1080.289
 20
-7867.622
 30
100.000
 70
    32
  0
VERTEX
  8
W51LXLIFT
 62
6
 10
1078.714
 20
-7853.651
 30
100.000
 70
    32
  0
VERTEX
  8
W51LXLIFT
 62
6
 10
1074.871
 20
-7840.896
 30
100.000
 70
    32
  0
VERTEX
  8
W51LXLIFT
 62
6
 10
1068.375
 20
-7846.167
 30
100.000
 70
    32
  0
VERTEX
  8
W51LXLIFT
 62
6
 10
1056.834
 20
-7823.134
 30
100.000
 70
    32
  0
VERTEX
  8
W51LXLIFT
 62
6
 10
1040.904
 20
-7797.207
 30
100.000
 70
    32
  0
VERTEX
  8
W51LXLIFT
 62
6
 10
1033.775
 20
-7782.927
 30
100.000
 70
    32
  0
VERTEX
  8
W51LXLIFT
 62
6
 10
1023.796
 20
-7769.960
 30
100.000
 70
    32
  0
VERTEX
  8
W51LXLIFT
 62
6
 10
1011.354
 20
-7758.242
 30
100.000
 70
    32
  0
VERTEX
  8
W51LXLIFT
 62
6
 10
995.353
 20
-7762.707
 30
100.000
 70
    32
  0
VERTEX
  8
W51LXLIFT
 62
6
 10
1003.019
 20
-7781.163
 30
100.000
 70
    32
  0
VERTEX
  8
W51LXLIFT
 62
6
 10
1015.263
 20
-7800.530
 30
100.000
 70
    32
  0
VERTEX
  8
W51LXLIFT
 62
6
 10
1006.784
 20
-7811.594
 30
100.000
 70
    32
  0
VERTEX
  8
W51LXLIFT
 62
6
 10
1019.837
 20
-7835.810
 30
100.000
 70
    32
  0
VERTEX
  8
W51LXLIFT
 62
6
 10
1024.178
 20
-7845.810
 30
100.000
 70
    32
  0
VERTEX
  8
W51LXLIFT
 62
6
 10
1035.410
 20
-7854.820
 30
100.000
 70
    32
  0
VERTEX
  8
W51LXLIFT
 62
6
 10
1048.766
 20
-7873.921
 30
100.000
 70
    32
  0
VERTEX
  8
W51LXLIFT
 62
6
 10
1064.345
 20
-7887.707
 30
100.000
 70
    32
  0
VERTEX
  8
W51LXLIFT
 62
6
 10
1075.621
 20
-7892.443
 30
100.000
 70
    32
  0
VERTEX
  8
W51LXLIFT
 62
6
 10
1087.637
 20
-7927.637
 30
100.000
 70
    32
  0
VERTEX
  8
W51LXLIFT
 62
6
 10
1092.106
 20
-7936.021
 30
100.000
 70
    32
  0
VERTEX
  8
W51LXLIFT
 62
6
 10
1097.862
 20
-7940.642
 30
100.000
 70
    32
  0
SEQEND
  8
W51LXLIFT
  0
POLYLINE
  8
W51LXLIFT
 62
2
 66
     1
 70
     9
  0
VERTEX
  8
W51LXLIFT
 62
2
 10
1264.001
 20
-7996.038
 30
98.000
 70
    32
  0
VERTEX
  8
W51LXLIFT
 62
2
 10
1261.232
 20
-7990.440
 30
98.000
 70
    32
  0
VERTEX
  8
W51LXLIFT
 62
2
 10
1255.515
 20
-7983.181
 30
98.000
 70
    32
  0
VERTEX
  8
W51LXLIFT
 62
2
 10
1238.981
 20
-7974.658
 30
98.000
 70
    32
  0
VERTEX
  8
W51LXLIFT
 62
2
 10
1234.732
 20
-7969.267
 30
98.000
 70
    32
  0
VERTEX
  8
W51LXLIFT
 62
2
 10
1230.361
 20
-7967.445
 30
98.000
 70
    32
  0
VERTEX
  8
W51LXLIFT
 62
2
 10
1225.493
 20
-7967.181
 30
98.000
 70
    32
  0
VERTEX
  8
W51LXLIFT
 62
2
 10
1220.585
 20
-7964.771
 30
98.000
 70
    32
  0
VERTEX
  8
W51LXLIFT
 62
2
 10
1211.191
 20
-7963.667
 30
98.000
 70
    32
  0
VERTEX
  8
W51LXLIFT
 62
2
 10
1206.659
 20
-7963.268
 30
98.000
 70
    32
  0
VERTEX
  8
W51LXLIFT
 62
2
 10
1199.684
 20
-7969.974
 30
98.000
 70
    32
  0
VERTEX
  8
W51LXLIFT
 62
2
 10
1212.160
 20
-7986.671
 30
98.000
 70
    32
  0
VERTEX
  8
W51LXLIFT
 62
2
 10
1219.558
 20
-7990.858
 30
98.000
 70
    32
  0
VERTEX
  8
W51LXLIFT
 62
2
 10
1223.728
 20
-7993.152
 30
98.000
 70
    32
  0
VERTEX
  8
W51LXLIFT
 62
2
 10
1231.521
 20
-8000.424
 30
98.000
 70
    32
  0
VERTEX
  8
W51LXLIFT
 62
2
 10
1237.760
 20
-7999.581
 30
98.000
 70
    32
  0
VERTEX
  8
W51LXLIFT
 62
2
 10
1246.022
 20
-7998.681
 30
98.000
 70
    32
  0
VERTEX
  8
W51LXLIFT
 62
2
 10
1252.922
 20
-8005.622
 30
98.000
 70
    32
  0
VERTEX
  8
W51LXLIFT
 62
2
 10
1258.146
 20
-8006.824
 30
98.000
 70
    32
  0
VERTEX
  8
W51LXLIFT
 62
2
 10
1261.637
 20
-8002.653
 30
98.000
 70
    32
  0
SEQEND
  8
W51LXLIFT
  0
POLYLINE
  8
W51LXLIFT
 62
13
 66
     1
 70
     9
  0
VERTEX
  8
W51LXLIFT
 62
13
 10
1174.480
 20
-8131.871
 30
99.000
 70
    32
  0
VERTEX
  8
W51LXLIFT
 62
13
 10
1176.040
 20
-8138.349
 30
99.000
 70
    32
  0
VERTEX
  8
W51LXLIFT
 62
13
 10
1185.701
 20
-8145.348
 30
99.000
 70
    32
  0
VERTEX
  8
W51LXLIFT
 62
13
 10
1170.007
 20
-8156.660
 30
99.000
 70
    32
  0
VERTEX
  8
W51LXLIFT
 62
13
 10
1171.013
 20
-8147.880
 30
99.000
 70
    32
  0
VERTEX
  8
W51LXLIFT
 62
13
 10
1167.641
 20
-8134.129
 30
99.000
 70
    32
  0
VERTEX
  8
W51LXLIFT
 62
13
 10
1165.532
 20
-8129.138
 30
99.000
 70
    32
  0
VERTEX
  8
W51LXLIFT
 62
13
 10
1170.833
 20
-8127.456
 30
99.000
 70
    32
  0
SEQEND
  8
W51LXLIFT
  0
POLYLINE
  8
W51LXLIFT
 62
13
 66
     1
 70
     9
  0
VERTEX
  8
W51LXLIFT
 62
13
 10
1158.942
 20
-8148.747
 30
111.000
 70
    32
  0
VERTEX
  8
W51LXLIFT
 62
13
 10
1160.044
 20
-8155.023
 30
111.000
 70
    32
  0
VERTEX
  8
W51LXLIFT
 62
13
 10
1168.425
 20
-8152.927
 30
111.000
 70
    32
  0
VERTEX
  8
W51LXLIFT
 62
13
 10
1169.403
 20
-8159.184
 30
111.000
 70
    32
  0
VERTEX
  8
W51LXLIFT
 62
13
 10
1164.347
 20
-8169.851
 30
111.000
 70
    32
  0
VERTEX
  8
W51LXLIFT
 62
13
 10
1162.675
 20
-8171.291
 30
111.000
 70
    32
  0
VERTEX
  8
W51LXLIFT
 62
13
 10
1166.458
 20
-8176.913
 30
111.000
 70
    32
  0
VERTEX
  8
W51LXLIFT
 62
13
 10
1174.013
 20
-8180.542
 30
111.000
 70
    32
  0
VERTEX
  8
W51LXLIFT
 62
13
 10
1185.048
 20
-8179.992
 30
111.000
 70
    32
  0
VERTEX
  8
W51LXLIFT
 62
13
 10
1196.814
 20
-8181.632
 30
111.000
 70
    32
  0
VERTEX
  8
W51LXLIFT
 62
13
 10
1197.826
 20
-8175.118
 30
111.000
 70
    32
  0
VERTEX
  8
W51LXLIFT
 62
13
 10
1184.482
 20
-8173.107
 30
111.000
 70
    32
  0
VERTEX
  8
W51LXLIFT
 62
13
 10
1181.505
 20
-8169.183
 30
111.000
 70
    32
  0
VERTEX
  8
W51LXLIFT
 62
13
 10
1183.929
 20
-8160.875
 30
111.000
 70
    32
  0
VERTEX
  8
W51LXLIFT
 62
13
 10
1184.033
 20
-8155.353
 30
111.000
 70
    32
  0
VERTEX
  8
W51LXLIFT
 62
13
 10
1177.929
 20
-8152.516
 30
111.000
 70
    32
  0
VERTEX
  8
W51LXLIFT
 62
13
 10
1172.045
 20
-8138.952
 30
111.000
 70
    32
  0
SEQEND
  8
W51LXLIFT
  0
POLYLINE
  8
W51LXLIFT
 62
2
 66
     1
 70
     9
  0
VERTEX
  8
W51LXLIFT
 62
2
 10
1259.317
 20
-7999.781
 30
108.000
 70
    32
  0
VERTEX
  8
W51LXLIFT
 62
2
 10
1258.775
 20
-7992.333
 30
108.000
 70
    32
  0
VERTEX
  8
W51LXLIFT
 62
2
 10
1255.688
 20
-7985.875
 30
108.000
 70
    32
  0
VERTEX
  8
W51LXLIFT
 62
2
 10
1248.306
 20
-7978.308
 30
108.000
 70
    32
  0
VERTEX
  8
W51LXLIFT
 62
2
 10
1236.294
 20
-7970.966
 30
108.000
 70
    32
  0
VERTEX
  8
W51LXLIFT
 62
2
 10
1220.823
 20
-7966.044
 30
108.000
 70
    32
  0
VERTEX
  8
W51LXLIFT
 62
2
 10
1207.738
 20
-7964.387
 30
108.000
 70
    32
  0
VERTEX
  8
W51LXLIFT
 62
2
 10
1200.259
 20
-7970.399
 30
108.000
 70
    32
  0
VERTEX
  8
W51LXLIFT
 62
2
 10
1200.145
 20
-7973.968
 30
108.000
 70
    32
  0
VERTEX
  8
W51LXLIFT
 62
2
 10
1211.462
 20
-7980.511
 30
108.000
 70
    32
  0
VERTEX
  8
W51LXLIFT
 62
2
 10
1221.792
 20
-7990.172
 30
108.000
 70
    32
  0
VERTEX
  8
W51LXLIFT
 62
2
 10
1227.918
 20
-7994.082
 30
108.000
 70
    32
  0
VERTEX
  8
W51LXLIFT
 62
2
 10
1239.156
 20
-7994.255
 30
108.000
 70
    32
  0
VERTEX
  8
W51LXLIFT
 62
2
 10
1247.183
 20
-8000.915
 30
108.000
 70
    32
  0
VERTEX
  8
W51LXLIFT
 62
2
 10
1252.820
 20
-8003.113
 30
108.000
 70
    32
  0
SEQEND
  8
W51LXLIFT
  0
POLYLINE
  8
W51LXLIFT
 62
6
 66
     1
 70
     9
  0
VERTEX
  8
W51LXLIFT
 62
6
 10
990.283
 20
-7776.274
 30
111.000
 70
    32
  0
VERTEX
  8
W51LXLIFT
 62
6
 10
1017.140
 20
-7802.287
 30
111.000
 70
    32
  0
VERTEX
  8
W51LXLIFT
 62
6
 10
1008.355
 20
-7808.599
 30
111.000
 70
    32
  0
VERTEX
  8
W51LXLIFT
 62
6
 10
1024.612
 20
-7833.971
 30
111.000
 70
    32
  0
VERTEX
  8
W51LXLIFT
 62
6
 10
1031.854
 20
-7850.137
 30
111.000
 70
    32
  0
VERTEX
  8
W51LXLIFT
 62
6
 10
1037.669
 20
-7856.453
 30
111.000
 70
    32
  0
VERTEX
  8
W51LXLIFT
 62
6
 10
1042.449
 20
-7865.378
 30
111.000
 70
    32
  0
VERTEX
  8
W51LXLIFT
 62
6
 10
1053.688
 20
-7876.879
 30
111.000
 70
    32
  0
VERTEX
  8
W51LXLIFT
 62
6
 10
1066.862
 20
-7894.157
 30
111.000
 70
    32
  0
VERTEX
  8
W51LXLIFT
 62
6
 10
1079.761
 20
-7905.098
 30
111.000
 70
    32
  0
VERTEX
  8
W51LXLIFT
 62
6
 10
1085.388
 20
-7911.007
 30
111.000
 70
    32
  0
VERTEX
  8
W51LXLIFT
 62
6
 10
1086.301
 20
-7925.372
 30
111.000
 70
    32
  0
VERTEX
  8
W51LXLIFT
 62
6
 10
1090.896
 20
-7935.086
 30
111.000
 70
    32
  0
VERTEX
  8
W51LXLIFT
 62
6
 10
1091.396
 20
-7938.751
 30
111.000
 70
    32
  0
VERTEX
  8
W51LXLIFT
 62
6
 10
1095.157
 20
-7940.468
 30
111.000
 70
    32
  0
VERTEX
  8
W51LXLIFT
 62
6
 10
1111.264
 20
-7935.231
 30
111.000
 70
    32
  0
VERTEX
  8
W51LXLIFT
 62
6
 10
1107.511
 20
-7928.606
 30
111.000
 70
    32
  0
VERTEX
  8
W51LXLIFT
 62
6
 10
1097.215
 20
-7906.175
 30
111.000
 70
    32
  0
VERTEX
  8
W51LXLIFT
 62
6
 10
1092.714
 20
-7900.315
 30
111.000
 70
    32
  0
VERTEX
  8
W51LXLIFT
 62
6
 10
1087.694
 20
-7896.577
 30
111.000
 70
    32
  0
VERTEX
  8
W51LXLIFT
 62
6
 10
1083.318
 20
-7891.932
 30
111.000
 70
    32
  0
VERTEX
  8
W51LXLIFT
 62
6
 10
1071.573
 20
-7871.541
 30
111.000
 70
    32
  0
VERTEX
  8
W51LXLIFT
 62
6
 10
1063.122
 20
-7860.724
 30
111.000
 70
    32
  0
VERTEX
  8
W51LXLIFT
 62
6
 10
1059.155
 20
-7848.591
 30
111.000
 70
    32
  0
VERTEX
  8
W51LXLIFT
 62
6
 10
1052.391
 20
-7829.352
 30
111.000
 70
    32
  0
VERTEX
  8
W51LXLIFT
 62
6
 10
1042.746
 20
-7811.239
 30
111.000
 70
    32
  0
VERTEX
  8
W51LXLIFT
 62
6
 10
1034.307
 20
-7802.375
 30
111.000
 70
    32
  0
VERTEX
  8
W51LXLIFT
 62
6
 10
1025.380
 20
-7787.331
 30
111.000
 70
    32
  0
VERTEX
  8
W51LXLIFT
 62
6
 10
996.599
 20
-7770.459
 30
111.000
 70
    32
  0
SEQEND
  8
W51LXLIFT
  0
POLYLINE
  8
W51LXLIFT
 62
13
 66
     1
 70
     9
  0
VERTEX
  8
W51LXLIFT
 62
13
 10
1158.152
 20
-8143.940
 30
123.000
 70
    32
  0
VERTEX
  8
W51LXLIFT
 62
13
 10
1160.696
 20
-8152.293
 30
123.000
 70
    32
  0
VERTEX
  8
W51LXLIFT
 62
13
 10
1165.138
 20
-8150.939
 30
123.000
 70
    32
  0
VERTEX
  8
W51LXLIFT
 62
13
 10
1169.005
 20
-8167.006
 30
123.000
 70
    32
  0
VERTEX
  8
W51LXLIFT
 62
13
 10
1164.773
 20
-8172.868
 30
123.000
 70
    32
  0
VERTEX
  8
W51LXLIFT
 62
13
 10
1170.773
 20
-8181.660
 30
123.000
 70
    32
  0
VERTEX
  8
W51LXLIFT
 62
13
 10
1171.914
 20
-8189.721
 30
123.000
 70
    32
  0
VERTEX
  8
W51LXLIFT
 62
13
 10
1175.484
 20
-8199.503
 30
123.000
 70
    32
  0
VERTEX
  8
W51LXLIFT
 62
13
 10
1173.964
 20
-8203.413
 30
123.000
 70
    32
  0
VERTEX
  8
W51LXLIFT
 62
13
 10
1180.114
 20
-8208.197
 30
123.000
 70
    32
  0
VERTEX
  8
W51LXLIFT
 62
13
 10
1188.653
 20
-8206.062
 30
123.000
 70
    32
  0
VERTEX
  8
W51LXLIFT
 62
13
 10
1200.705
 20
-8205.949
 30
123.000
 70
    32
  0
VERTEX
  8
W51LXLIFT
 62
13
 10
1211.616
 20
-8188.891
 30
123.000
 70
    32
  0
VERTEX
  8
W51LXLIFT
 62
13
 10
1203.350
 20
-8178.155
 30
123.000
 70
    32
  0
VERTEX
  8
W51LXLIFT
 62
13
 10
1184.199
 20
-8170.809
 30
123.000
 70
    32
  0
VERTEX
  8
W51LXLIFT
 62
13
 10
1181.861
 20
-8156.566
 30
123.000
 70
    32
  0
VERTEX
  8
W51LXLIFT
 62
13
 10
1174.820
 20
-8145.274
 30
123.000
 70
    32
  0
VERTEX
  8
W51LXLIFT
 62
13
 10
1171.816
 20
-8139.743
 30
123.000
 70
    32
  0
SEQEND
  8
W51LXLIFT
  0
POLYLINE
  8
W51LXLIFT
 62
2
 66
     1
 70
     9
  0
VERTEX
  8
W51LXLIFT
 62
2
 10
1198.344
 20
-7959.029
 30
117.000
 70
    32
  0
VERTEX
  8
W51LXLIFT
 62
2
 10
1194.643
 20
-7962.017
 30
117.000
 70
    32
  0
VERTEX
  8
W51LXLIFT
 62
2
 10
1203.994
 20
-7973.056
 30
117.000
 70
    32
  0
VERTEX
  8
W51LXLIFT
 62
2
 10
1213.853
 20
-7980.587
 30
117.000
 70
    32
  0
VERTEX
  8
W51LXLIFT
 62
2
 10
1216.446
 20
-7985.547
 30
117.000
 70
    32
  0
VERTEX
  8
W51LXLIFT
 62
2
 10
1219.965
 20
-7989.082
 30
117.000
 70
    32
  0
VERTEX
  8
W51LXLIFT
 62
2
 10
1226.582
 20
-7996.021
 30
117.000
 70
    32
  0
VERTEX
  8
W51LXLIFT
 62
2
 10
1231.195
 20
-8002.885
 30
117.000
 70
    32
  0
VERTEX
  8
W51LXLIFT
 62
2
 10
1243.563
 20
-8005.471
 30
117.000
 70
    32
  0
VERTEX
  8
W51LXLIFT
 62
2
 10
1249.829
 20
-8005.296
 30
117.000
 70
    32
  0
VERTEX
  8
W51LXLIFT
 62
2
 10
1249.781
 20
-7997.098
 30
117.000
 70
    32
  0
VERTEX
  8
W51LXLIFT
 62
2
 10
1248.659
 20
-7988.913
 30
117.000
 70
    32
  0
VERTEX
  8
W51LXLIFT
 62
2
 10
1243.626
 20
-7981.917
 30
117.000
 70
    32
  0
VERTEX
  8
W51LXLIFT
 62
2
 10
1241.476
 20
-7975.014
 30
117.000
 70
    32
  0
VERTEX
  8
W51LXLIFT
 62
2
 10
1237.895
 20
-7971.091
 30
117.000
 70
    32
  0
VERTEX
  8
W51LXLIFT
 62
2
 10
1229.669
 20
-7968.992
 30
117.000
 70
    32
  0
VERTEX
  8
W51LXLIFT
 62
2
 10
1221.709
 20
-7966.811
 30
117.000
 70
    32
  0
VERTEX
  8
W51LXLIFT
 62
2
 10
1210.662
 20
-7965.008
 30
117.000
 70
    32
  0
VERTEX
  8
W51LXLIFT
 62
2
 10
1204.837
 20
-7962.483
 30
117.000
 70
    32
  0
SEQEND
  8
W51LXLIFT
  0
POLYLINE
  8
W51LXLIFT
 62
6
 66
     1
 70
     9
  0
VERTEX
  8
W51LXLIFT
 62
6
 10
1002.281
 20
-7765.556
 30
119.000
 70
    32
  0
VERTEX
  8
W51LXLIFT
 62
6
 10
1008.550
 20
-7772.313
 30
119.000
 70
    32
  0
VERTEX
  8
W51LXLIFT
 62
6
 10
1013.690
 20
-7774.789
 30
119.000
 70
    32
  0
VERTEX
  8
W51LXLIFT
 62
6
 10
1022.719
 20
-7784.327
 30
119.000
 70
    32
  0
VERTEX
  8
W51LXLIFT
 62
6
 10
1023.582
 20
-7788.689
 30
119.000
 70
    32
  0
VERTEX
  8
W51LXLIFT
 62
6
 10
1019.863
 20
-7795.265
 30
119.000
 70
    32
  0
VERTEX
  8
W51LXLIFT
 62
6
 10
1014.978
 20
-7810.912
 30
119.000
 70
    32
  0
VERTEX
  8
W51LXLIFT
 62
6
 10
1015.011
 20
-7823.455
 30
119.000
 70
    32
  0
VERTEX
  8
W51LXLIFT
 62
6
 10
1022.288
 20
-7844.111
 30
119.000
 70
    32
  0
VERTEX
  8
W51LXLIFT
 62
6
 10
1031.572
 20
-7862.889
 30
119.000
 70
    32
  0
VERTEX
  8
W51LXLIFT
 62
6
 10
1043.102
 20
-7877.560
 30
119.000
 70
    32
  0
VERTEX
  8
W51LXLIFT
 62
6
 10
1050.876
 20
-7897.100
 30
119.000
 70
    32
  0
VERTEX
  8
W51LXLIFT
 62
6
 10
1057.829
 20
-7891.556
 30
119.000
 70
    32
  0
VERTEX
  8
W51LXLIFT
 62
6
 10
1066.219
 20
-7899.604
 30
119.000
 70
    32
  0
VERTEX
  8
W51LXLIFT
 62
6
 10
1066.164
 20
-7916.543
 30
119.000
 70
    32
  0
VERTEX
  8
W51LXLIFT
 62
6
 10
1076.771
 20
-7924.511
 30
119.000
 70
    32
  0
VERTEX
  8
W51LXLIFT
 62
6
 10
1079.510
 20
-7936.299
 30
119.000
 70
    32
  0
VERTEX
  8
W51LXLIFT
 62
6
 10
1083.802
 20
-7941.661
 30
119.000
 70
    32
  0
VERTEX
  8
W51LXLIFT
 62
6
 10
1092.014
 20
-7942.686
 30
119.000
 70
    32
  0
VERTEX
  8
W51LXLIFT
 62
6
 10
1104.611
 20
-7934.598
 30
119.000
 70
    32
  0
VERTEX
  8
W51LXLIFT
 62
6
 10
1104.166
 20
-7926.902
 30
119.000
 70
    32
  0
VERTEX
  8
W51LXLIFT
 62
6
 10
1096.958
 20
-7911.613
 30
119.000
 70
    32
  0
VERTEX
  8
W51LXLIFT
 62
6
 10
1093.305
 20
-7910.450
 30
119.000
 70
    32
  0
VERTEX
  8
W51LXLIFT
 62
6
 10
1077.117
 20
-7887.647
 30
119.000
 70
    32
  0
VERTEX
  8
W51LXLIFT
 62
6
 10
1068.877
 20
-7869.417
 30
119.000
 70
    32
  0
VERTEX
  8
W51LXLIFT
 62
6
 10
1060.743
 20
-7849.378
 30
119.000
 70
    32
  0
VERTEX
  8
W51LXLIFT
 62
6
 10
1054.624
 20
-7829.730
 30
119.000
 70
    32
  0
VERTEX
  8
W51LXLIFT
 62
6
 10
1049.531
 20
-7816.928
 30
119.000
 70
    32
  0
VERTEX
  8
W51LXLIFT
 62
6
 10
1045.245
 20
-7798.021
 30
119.000
 70
    32
  0
VERTEX
  8
W51LXLIFT
 62
6
 10
1012.498
 20
-7757.773
 30
119.000
 70
    32
  0
SEQEND
  8
W51LXLIFT
  0
POLYLINE
  8
W51LXLIFT
 62
13
 66
     1
 70
     9
  0
VERTEX
  8
W51LXLIFT
 62
13
 10
1169.170
 20
-8142.916
 30
131.000
 70
    32
  0
VERTEX
  8
W51LXLIFT
 62
13
 10
1159.799
 20
-8154.210
 30
131.000
 70
    32
  0
VERTEX
  8
W51LXLIFT
 62
13
 10
1161.566
 20
-8172.146
 30
131.000
 70
    32
  0
VERTEX
  8
W51LXLIFT
 62
13
 10
1163.993
 20
-8176.913
 30
131.000
 70
    32
  0
VERTEX
  8
W51LXLIFT
 62
13
 10
1164.787
 20
-8183.761
 30
131.000
 70
    32
  0
VERTEX
  8
W51LXLIFT
 62
13
 10
1169.686
 20
-8189.655
 30
131.000
 70
    32
  0
VERTEX
  8
W51LXLIFT
 62
13
 10
1167.885
 20
-8195.358
 30
131.000
 70
    32
  0
VERTEX
  8
W51LXLIFT
 62
13
 10
1177.393
 20
-8208.233
 30
131.000
 70
    32
  0
VERTEX
  8
W51LXLIFT
 62
13
 10
1181.504
 20
-8208.914
 30
131.000
 70
    32
  0
VERTEX
  8
W51LXLIFT
 62
13
 10
1199.819
 20
-8205.884
 30
131.000
 70
    32
  0
VERTEX
  8
W51LXLIFT
 62
13
 10
1214.260
 20
-8196.422
 30
131.000
 70
    32
  0
VERTEX
  8
W51LXLIFT
 62
13
 10
1213.921
 20
-8189.894
 30
131.000
 70
    32
  0
VERTEX
  8
W51LXLIFT
 62
13
 10
1200.680
 20
-8177.589
 30
131.000
 70
    32
  0
VERTEX
  8
W51LXLIFT
 62
13
 10
1185.071
 20
-8171.405
 30
131.000
 70
    32
  0
VERTEX
  8
W51LXLIFT
 62
13
 10
1180.127
 20
-8162.047
 30
131.000
 70
    32
  0
VERTEX
  8
W51LXLIFT
 62
13
 10
1177.511
 20
-8154.358
 30
131.000
 70
    32
  0
VERTEX
  8
W51LXLIFT
 62
13
 10
1172.519
 20
-8149.080
 30
131.000
 70
    32
  0
SEQEND
  8
W51LXLIFT
  0
POLYLINE
  8
W51LXLIFT
 62
2
 66
     1
 70
     9
  0
VERTEX
  8
W51LXLIFT
 62
2
 10
1183.537
 20
-7953.341
 30
127.000
 70
    32
  0
VERTEX
  8
W51LXLIFT
 62
2
 10
1186.845
 20
-7955.599
 30
127.000
 70
    32
  0
VERTEX
  8
W51LXLIFT
 62
2
 10
1191.952
 20
-7964.291
 30
127.000
 70
    32
  0
VERTEX
  8
W51LXLIFT
 62
2
 10
1201.968
 20
-7975.041
 30
127.000
 70
    32
  0
VERTEX
  8
W51LXLIFT
 62
2
 10
1210.806
 20
-7981.087
 30
127.000
 70
    32
  0
VERTEX
  8
W51LXLIFT
 62
2
 10
1217.475
 20
-7983.159
 30
127.000
 70
    32
  0
VERTEX
  8
W51LXLIFT
 62
2
 10
1221.035
 20
-7991.681
 30
127.000
 70
    32
  0
VERTEX
  8
W51LXLIFT
 62
2
 10
1228.060
 20
-8002.674
 30
127.000
 70
    32
  0
VERTEX
  8
W51LXLIFT
 62
2
 10
1234.544
 20
-8010.567
 30
127.000
 70
    32
  0
VERTEX
  8
W51LXLIFT
 62
2
 10
1238.343
 20
-8015.414
 30
127.000
 70
    32
  0
VERTEX
  8
W51LXLIFT
 62
2
 10
1245.204
 20
-8012.862
 30
127.000
 70
    32
  0
VERTEX
  8
W51LXLIFT
 62
2
 10
1248.592
 20
-8013.749
 30
127.000
 70
    32
  0
VERTEX
  8
W51LXLIFT
 62
2
 10
1249.830
 20
-8010.539
 30
127.000
 70
    32
  0
VERTEX
  8
W51LXLIFT
 62
2
 10
1248.327
 20
-7999.623
 30
127.000
 70
    32
  0
VERTEX
  8
W51LXLIFT
 62
2
 10
1239.215
 20
-7973.664
 30
127.000
 70
    32
  0
VERTEX
  8
W51LXLIFT
 62
2
 10
1222.430
 20
-7964.850
 30
127.000
 70
    32
  0
VERTEX
  8
W51LXLIFT
 62
2
 10
1213.998
 20
-7958.614
 30
127.000
 70
    32
  0
VERTEX
  8
W51LXLIFT
 62
2
 10
1208.804
 20
-7952.173
 30
127.000
 70
    32
  0
VERTEX
  8
W51LXLIFT
 62
2
 10
1197.510
 20
-7952.424
 30
127.000
 70
    32
  0
VERTEX
  8
W51LXLIFT
 62
2
 10
1191.457
 20
-7947.929
 30
127.000
 70
    32
  0
SEQEND
  8
W51LXLIFT
  0
POLYLINE
  8
W51LXLIFT
 62
6
 66
     1
 70
     9
  0
VERTEX
  8
W51LXLIFT
 62
6
 10
991.072
 20
-7766.296
 30
127.000
 70
    32
  0
VERTEX
  8
W51LXLIFT
 62
6
 10
998.619
 20
-7777.996
 30
127.000
 70
    32
  0
VERTEX
  8
W51LXLIFT
 62
6
 10
1003.133
 20
-7790.624
 30
127.000
 70
    32
  0
VERTEX
  8
W51LXLIFT
 62
6
 10
1008.515
 20
-7812.122
 30
127.000
 70
    32
  0
VERTEX
  8
W51LXLIFT
 62
6
 10
1011.552
 20
-7822.452
 30
127.000
 70
    32
  0
VERTEX
  8
W51LXLIFT
 62
6
 10
1022.406
 20
-7853.138
 30
127.000
 70
    32
  0
VERTEX
  8
W51LXLIFT
 62
6
 10
1023.841
 20
-7861.151
 30
127.000
 70
    32
  0
VERTEX
  8
W51LXLIFT
 62
6
 10
1032.053
 20
-7870.939
 30
127.000
 70
    32
  0
VERTEX
  8
W51LXLIFT
 62
6
 10
1042.077
 20
-7887.916
 30
127.000
 70
    32
  0
VERTEX
  8
W51LXLIFT
 62
6
 10
1060.273
 20
-7905.746
 30
127.000
 70
    32
  0
VERTEX
  8
W51LXLIFT
 62
6
 10
1065.781
 20
-7924.308
 30
127.000
 70
    32
  0
VERTEX
  8
W51LXLIFT
 62
6
 10
1080.733
 20
-7936.116
 30
127.000
 70
    32
  0
VERTEX
  8
W51LXLIFT
 62
6
 10
1093.763
 20
-7953.168
 30
127.000
 70
    32
  0
VERTEX
  8
W51LXLIFT
 62
6
 10
1097.550
 20
-7950.153
 30
127.000
 70
    32
  0
VERTEX
  8
W51LXLIFT
 62
6
 10
1105.706
 20
-7938.992
 30
127.000
 70
    32
  0
VERTEX
  8
W51LXLIFT
 62
6
 10
1104.235
 20
-7926.194
 30
127.000
 70
    32
  0
VERTEX
  8
W51LXLIFT
 62
6
 10
1096.378
 20
-7920.735
 30
127.000
 70
    32
  0
VERTEX
  8
W51LXLIFT
 62
6
 10
1080.339
 20
-7891.911
 30
127.000
 70
    32
  0
VERTEX
  8
W51LXLIFT
 62
6
 10
1066.553
 20
-7858.143
 30
127.000
 70
    32
  0
VERTEX
  8
W51LXLIFT
 62
6
 10
1056.196
 20
-7843.380
 30
127.000
 70
    32
  0
VERTEX
  8
W51LXLIFT
 62
6
 10
1052.812
 20
-7832.432
 30
127.000
 70
    32
  0
VERTEX
  8
W51LXLIFT
 62
6
 10
1051.861
 20
-7820.780
 30
127.000
 70
    32
  0
VERTEX
  8
W51LXLIFT
 62
6
 10
1038.704
 20
-7804.149
 30
127.000
 70
    32
  0
VERTEX
  8
W51LXLIFT
 62
6
 10
1033.817
 20
-7784.800
 30
127.000
 70
    32
  0
VERTEX
  8
W51LXLIFT
 62
6
 10
1001.292
 20
-7758.967
 30
127.000
 70
    32
  0
SEQEND
  8
W51LXLIFT
  0
POLYLINE
  8
W51LXLIFT
 62
13
 66
     1
 70
     9
  0
VERTEX
  8
W51LXLIFT
 62
13
 10
1158.096
 20
-8157.793
 30
137.000
 70
    32
  0
VERTEX
  8
W51LXLIFT
 62
13
 10
1160.488
 20
-8174.899
 30
137.000
 70
    32
  0
VERTEX
  8
W51LXLIFT
 62
13
 10
1166.167
 20
-8190.687
 30
137.000
 70
    32
  0
VERTEX
  8
W51LXLIFT
 62
13
 10
1169.298
 20
-8204.634
 30
137.000
 70
    32
  0
VERTEX
  8
W51LXLIFT
 62
13
 10
1177.261
 20
-8219.076
 30
137.000
 70
    32
  0
VERTEX
  8
W51LXLIFT
 62
13
 10
1199.334
 20
-8217.514
 30
137.000
 70
    32
  0
VERTEX
  8
W51LXLIFT
 62
13
 10
1208.473
 20
-8208.858
 30
137.000
 70
    32
  0
VERTEX
  8
W51LXLIFT
 62
13
 10
1212.170
 20
-8199.174
 30
137.000
 70
    32
  0
VERTEX
  8
W51LXLIFT
 62
13
 10
1200.149
 20
-8179.638
 30
137.000
 70
    32
  0
VERTEX
  8
W51LXLIFT
 62
13
 10
1193.156
 20
-8182.144
 30
137.000
 70
    32
  0
VERTEX
  8
W51LXLIFT
 62
13
 10
1176.953
 20
-8168.506
 30
137.000
 70
    32
  0
VERTEX
  8
W51LXLIFT
 62
13
 10
1169.836
 20
-8146.142
 30
137.000
 70
    32
  0
SEQEND
  8
W51LXLIFT
  0
POLYLINE
  8
W51LXLIFT
 62
2
 66
     1
 70
     9
  0
VERTEX
  8
W51LXLIFT
 62
2
 10
1250.178
 20
-7990.496
 30
137.000
 70
    32
  0
VERTEX
  8
W51LXLIFT
 62
2
 10
1239.174
 20
-7979.044
 30
137.000
 70
    32
  0
VERTEX
  8
W51LXLIFT
 62
2
 10
1227.778
 20
-7957.089
 30
137.000
 70
    32
  0
VERTEX
  8
W51LXLIFT
 62
2
 10
1218.028
 20
-7951.368
 30
137.000
 70
    32
  0
VERTEX
  8
W51LXLIFT
 62
2
 10
1206.764
 20
-7948.937
 30
137.000
 70
    32
  0
VERTEX
  8
W51LXLIFT
 62
2
 10
1199.129
 20
-7949.079
 30
137.000
 70
    32
  0
VERTEX
  8
W51LXLIFT
 62
2
 10
1192.154
 20
-7953.098
 30
137.000
 70
    32
  0
VERTEX
  8
W51LXLIFT
 62
2
 10
1189.549
 20
-7962.637
 30
137.000
 70
    32
  0
VERTEX
  8
W51LXLIFT
 62
2
 10
1190.921
 20
-7968.826
 30
137.000
 70
    32
  0
VERTEX
  8
W51LXLIFT
 62
2
 10
1184.329
 20
-7973.219
 30
137.000
 70
    32
  0
VERTEX
  8
W51LXLIFT
 62
2
 10
1173.040
 20
-7972.986
 30
137.000
 70
    32
  0
VERTEX
  8
W51LXLIFT
 62
2
 10
1167.663
 20
-7975.616
 30
137.000
 70
    32
  0
VERTEX
  8
W51LXLIFT
 62
2
 10
1168.180
 20
-7981.233
 30
137.000
 70
    32
  0
VERTEX
  8
W51LXLIFT
 62
2
 10
1172.972
 20
-7985.244
 30
137.000
 70
    32
  0
VERTEX
  8
W51LXLIFT
 62
2
 10
1179.951
 20
-7982.421
 30
137.000
 70
    32
  0
VERTEX
  8
W51LXLIFT
 62
2
 10
1190.156
 20
-7985.192
 30
137.000
 70
    32
  0
VERTEX
  8
W51LXLIFT
 62
2
 10
1199.923
 20
-7984.687
 30
137.000
 70
    32
  0
VERTEX
  8
W51LXLIFT
 62
2
 10
1205.889
 20
-7985.985
 30
137.000
 70
    32
  0
VERTEX
  8
W51LXLIFT
 62
2
 10
1214.002
 20
-7983.966
 30
137.000
 70
    32
  0
VERTEX
  8
W51LXLIFT
 62
2
 10
1220.762
 20
-7992.749
 30
137.000
 70
    32
  0
VERTEX
  8
W51LXLIFT
 62
2
 10
1229.241
 20
-8005.068
 30
137.000
 70
    32
  0
VERTEX
  8
W51LXLIFT
 62
2
 10
1234.543
 20
-8018.407
 30
137.000
 70
    32
  0
VERTEX
  8
W51LXLIFT
 62
2
 10
1235.788
 20
-8025.017
 30
137.000
 70
    32
  0
VERTEX
  8
W51LXLIFT
 62
2
 10
1238.416
 20
-8024.291
 30
137.000
 70
    32
  0
VERTEX
  8
W51LXLIFT
 62
2
 10
1241.640
 20
-8025.417
 30
137.000
 70
    32
  0
VERTEX
  8
W51LXLIFT
 62
2
 10
1244.205
 20
-8019.396
 30
137.000
 70
    32
  0
VERTEX
  8
W51LXLIFT
 62
2
 10
1248.712
 20
-8008.138
 30
137.000
 70
    32
  0
VERTEX
  8
W51LXLIFT
 62
2
 10
1249.808
 20
-8001.449
 30
137.000
 70
    32
  0
VERTEX
  8
W51LXLIFT
 62
2
 10
1251.402
 20
-7991.125
 30
137.000
 70
    32
  0
SEQEND
  8
W51LXLIFT
  0
POLYLINE
  8
W51LXLIFT
 62
6
 66
     1
 70
     9
  0
VERTEX
  8
W51LXLIFT
 62
6
 10
995.514
 20
-7771.108
 30
136.000
 70
    32
  0
VERTEX
  8
W51LXLIFT
 62
6
 10
1000.747
 20
-7781.228
 30
136.000
 70
    32
  0
VERTEX
  8
W51LXLIFT
 62
6
 10
1002.644
 20
-7795.425
 30
136.000
 70
    32
  0
VERTEX
  8
W51LXLIFT
 62
6
 10
1007.179
 20
-7811.288
 30
136.000
 70
    32
  0
VERTEX
  8
W51LXLIFT
 62
6
 10
1021.493
 20
-7847.348
 30
136.000
 70
    32
  0
VERTEX
  8
W51LXLIFT
 62
6
 10
1028.673
 20
-7867.268
 30
136.000
 70
    32
  0
VERTEX
  8
W51LXLIFT
 62
6
 10
1044.078
 20
-7895.443
 30
136.000
 70
    32
  0
VERTEX
  8
W51LXLIFT
 62
6
 10
1059.403
 20
-7907.435
 30
136.000
 70
    32
  0
VERTEX
  8
W51LXLIFT
 62
6
 10
1063.211
 20
-7912.931
 30
136.000
 70
    32
  0
VERTEX
  8
W51LXLIFT
 62
6
 10
1069.170
 20
-7933.418
 30
136.000
 70
    32
  0
VERTEX
  8
W51LXLIFT
 62
6
 10
1075.851
 20
-7949.235
 30
136.000
 70
    32
  0
VERTEX
  8
W51LXLIFT
 62
6
 10
1095.758
 20
-7994.714
 30
136.000
 70
    32
  0
VERTEX
  8
W51LXLIFT
 62
6
 10
1102.305
 20
-7994.278
 30
136.000
 70
    32
  0
VERTEX
  8
W51LXLIFT
 62
6
 10
1104.239
 20
-7985.013
 30
136.000
 70
    32
  0
VERTEX
  8
W51LXLIFT
 62
6
 10
1103.120
 20
-7965.777
 30
136.000
 70
    32
  0
VERTEX
  8
W51LXLIFT
 62
6
 10
1100.836
 20
-7948.374
 30
136.000
 70
    32
  0
VERTEX
  8
W51LXLIFT
 62
6
 10
1100.435
 20
-7929.374
 30
136.000
 70
    32
  0
VERTEX
  8
W51LXLIFT
 62
6
 10
1092.857
 20
-7919.773
 30
136.000
 70
    32
  0
VERTEX
  8
W51LXLIFT
 62
6
 10
1088.450
 20
-7912.864
 30
136.000
 70
    32
  0
VERTEX
  8
W51LXLIFT
 62
6
 10
1084.376
 20
-7902.986
 30
136.000
 70
    32
  0
VERTEX
  8
W51LXLIFT
 62
6
 10
1077.466
 20
-7891.915
 30
136.000
 70
    32
  0
VERTEX
  8
W51LXLIFT
 62
6
 10
1069.760
 20
-7873.361
 30
136.000
 70
    32
  0
VERTEX
  8
W51LXLIFT
 62
6
 10
1062.022
 20
-7854.612
 30
136.000
 70
    32
  0
VERTEX
  8
W51LXLIFT
 62
6
 10
1052.633
 20
-7838.817
 30
136.000
 70
    32
  0
VERTEX
  8
W51LXLIFT
 62
6
 10
1036.084
 20
-7807.446
 30
136.000
 70
    32
  0
VERTEX
  8
W51LXLIFT
 62
6
 10
1024.755
 20
-7785.878
 30
136.000
 70
    32
  0
VERTEX
  8
W51LXLIFT
 62
6
 10
1015.054
 20
-7777.397
 30
136.000
 70
    32
  0
VERTEX
  8
W51LXLIFT
 62
6
 10
1001.066
 20
-7766.932
 30
136.000
 70
    32
  0
SEQEND
  8
W51LXLIFT
  0
POLYLINE
  8
W51LXLIFT
 62
13
 66
     1
 70
     9
  0
VERTEX
  8
W51LXLIFT
 62
13
 10
1195.382
 20
-8223.800
 30
144.000
 70
    32
  0
VERTEX
  8
W51LXLIFT
 62
13
 10
1202.298
 20
-8227.466
 30
144.000
 70
    32
  0
VERTEX
  8
W51LXLIFT
 62
13
 10
1206.868
 20
-8234.038
 30
144.000
 70
    32
  0
VERTEX
  8
W51LXLIFT
 62
13
 10
1209.767
 20
-8236.822
 30
144.000
 70
    32
  0
VERTEX
  8
W51LXLIFT
 62
13
 10
1214.320
 20
-8230.676
 30
144.000
 70
    32
  0
VERTEX
  8
W51LXLIFT
 62
13
 10
1213.231
 20
-8226.791
 30
144.000
 70
    32
  0
VERTEX
  8
W51LXLIFT
 62
13
 10
1212.587
 20
-8222.472
 30
144.000
 70
    32
  0
VERTEX
  8
W51LXLIFT
 62
13
 10
1205.671
 20
-8217.609
 30
144.000
 70
    32
  0
VERTEX
  8
W51LXLIFT
 62
13
 10
1198.370
 20
-8202.363
 30
144.000
 70
    32
  0
VERTEX
  8
W51LXLIFT
 62
13
 10
1182.150
 20
-8183.387
 30
144.000
 70
    32
  0
VERTEX
  8
W51LXLIFT
 62
13
 10
1171.944
 20
-8158.179
 30
144.000
 70
    32
  0
VERTEX
  8
W51LXLIFT
 62
13
 10
1167.535
 20
-8158.997
 30
144.000
 70
    32
  0
VERTEX
  8
W51LXLIFT
 62
13
 10
1162.805
 20
-8155.044
 30
144.000
 70
    32
  0
VERTEX
  8
W51LXLIFT
 62
13
 10
1157.899
 20
-8157.422
 30
144.000
 70
    32
  0
VERTEX
  8
W51LXLIFT
 62
13
 10
1156.487
 20
-8161.606
 30
144.000
 70
    32
  0
VERTEX
  8
W51LXLIFT
 62
13
 10
1158.345
 20
-8164.605
 30
144.000
 70
    32
  0
VERTEX
  8
W51LXLIFT
 62
13
 10
1160.624
 20
-8175.349
 30
144.000
 70
    32
  0
VERTEX
  8
W51LXLIFT
 62
13
 10
1158.840
 20
-8175.887
 30
144.000
 70
    32
  0
VERTEX
  8
W51LXLIFT
 62
13
 10
1160.340
 20
-8183.173
 30
144.000
 70
    32
  0
VERTEX
  8
W51LXLIFT
 62
13
 10
1165.306
 20
-8182.820
 30
144.000
 70
    32
  0
VERTEX
  8
W51LXLIFT
 62
13
 10
1168.904
 20
-8193.582
 30
144.000
 70
    32
  0
VERTEX
  8
W51LXLIFT
 62
13
 10
1174.067
 20
-8212.018
 30
144.000
 70
    32
  0
VERTEX
  8
W51LXLIFT
 62
13
 10
1180.854
 20
-8224.918
 30
144.000
 70
    32
  0
VERTEX
  8
W51LXLIFT
 62
13
 10
1185.396
 20
-8234.885
 30
144.000
 70
    32
  0
VERTEX
  8
W51LXLIFT
 62
13
 10
1186.674
 20
-8240.373
 30
144.000
 70
    32
  0
VERTEX
  8
W51LXLIFT
 62
13
 10
1191.091
 20
-8240.311
 30
144.000
 70
    32
  0
VERTEX
  8
W51LXLIFT
 62
13
 10
1192.640
 20
-8230.042
 30
144.000
 70
    32
  0
SEQEND
  8
W51LXLIFT
  0
POLYLINE
  8
W51LXLIFT
 62
2
 66
     1
 70
     9
  0
VERTEX
  8
W51LXLIFT
 62
2
 10
1211.220
 20
-7954.915
 30
147.000
 70
    32
  0
VERTEX
  8
W51LXLIFT
 62
2
 10
1204.421
 20
-7958.128
 30
147.000
 70
    32
  0
VERTEX
  8
W51LXLIFT
 62
2
 10
1197.292
 20
-7954.617
 30
147.000
 70
    32
  0
VERTEX
  8
W51LXLIFT
 62
2
 10
1191.942
 20
-7958.624
 30
147.000
 70
    32
  0
VERTEX
  8
W51LXLIFT
 62
2
 10
1190.456
 20
-7966.889
 30
147.000
 70
    32
  0
VERTEX
  8
W51LXLIFT
 62
2
 10
1193.522
 20
-7975.428
 30
147.000
 70
    32
  0
VERTEX
  8
W51LXLIFT
 62
2
 10
1197.331
 20
-7983.642
 30
147.000
 70
    32
  0
VERTEX
  8
W51LXLIFT
 62
2
 10
1206.072
 20
-7990.114
 30
147.000
 70
    32
  0
VERTEX
  8
W51LXLIFT
 62
2
 10
1217.469
 20
-7995.302
 30
147.000
 70
    32
  0
VERTEX
  8
W51LXLIFT
 62
2
 10
1230.226
 20
-8016.693
 30
147.000
 70
    32
  0
VERTEX
  8
W51LXLIFT
 62
2
 10
1234.318
 20
-8023.504
 30
147.000
 70
    32
  0
VERTEX
  8
W51LXLIFT
 62
2
 10
1241.050
 20
-8023.932
 30
147.000
 70
    32
  0
VERTEX
  8
W51LXLIFT
 62
2
 10
1243.619
 20
-8018.795
 30
147.000
 70
    32
  0
VERTEX
  8
W51LXLIFT
 62
2
 10
1241.843
 20
-8007.249
 30
147.000
 70
    32
  0
VERTEX
  8
W51LXLIFT
 62
2
 10
1240.285
 20
-7992.715
 30
147.000
 70
    32
  0
VERTEX
  8
W51LXLIFT
 62
2
 10
1238.707
 20
-7984.725
 30
147.000
 70
    32
  0
VERTEX
  8
W51LXLIFT
 62
2
 10
1229.962
 20
-7973.469
 30
147.000
 70
    32
  0
VERTEX
  8
W51LXLIFT
 62
2
 10
1218.216
 20
-7961.679
 30
147.000
 70
    32
  0
SEQEND
  8
W51LXLIFT
  0
POLYLINE
  8
W51LXLIFT
 62
6
 66
     1
 70
     9
  0
VERTEX
  8
W51LXLIFT
 62
6
 10
989.946
 20
-7772.940
 30
145.000
 70
    32
  0
VERTEX
  8
W51LXLIFT
 62
6
 10
998.611
 20
-7787.519
 30
145.000
 70
    32
  0
VERTEX
  8
W51LXLIFT
 62
6
 10
998.754
 20
-7803.846
 30
145.000
 70
    32
  0
VERTEX
  8
W51LXLIFT
 62
6
 10
1008.234
 20
-7819.246
 30
145.000
 70
    32
  0
VERTEX
  8
W51LXLIFT
 62
6
 10
1007.829
 20
-7837.059
 30
145.000
 70
    32
  0
VERTEX
  8
W51LXLIFT
 62
6
 10
1016.467
 20
-7851.005
 30
145.000
 70
    32
  0
VERTEX
  8
W51LXLIFT
 62
6
 10
1020.488
 20
-7857.868
 30
145.000
 70
    32
  0
VERTEX
  8
W51LXLIFT
 62
6
 10
1020.673
 20
-7862.304
 30
145.000
 70
    32
  0
VERTEX
  8
W51LXLIFT
 62
6
 10
1027.578
 20
-7875.663
 30
145.000
 70
    32
  0
VERTEX
  8
W51LXLIFT
 62
6
 10
1032.813
 20
-7887.626
 30
145.000
 70
    32
  0
VERTEX
  8
W51LXLIFT
 62
6
 10
1052.143
 20
-7891.605
 30
145.000
 70
    32
  0
VERTEX
  8
W51LXLIFT
 62
6
 10
1058.999
 20
-7902.061
 30
145.000
 70
    32
  0
VERTEX
  8
W51LXLIFT
 62
6
 10
1067.656
 20
-7915.884
 30
145.000
 70
    32
  0
VERTEX
  8
W51LXLIFT
 62
6
 10
1066.537
 20
-7929.431
 30
145.000
 70
    32
  0
VERTEX
  8
W51LXLIFT
 62
6
 10
1069.703
 20
-7942.140
 30
145.000
 70
    32
  0
VERTEX
  8
W51LXLIFT
 62
6
 10
1077.316
 20
-7952.589
 30
145.000
 70
    32
  0
VERTEX
  8
W51LXLIFT
 62
6
 10
1085.678
 20
-7954.657
 30
145.000
 70
    32
  0
VERTEX
  8
W51LXLIFT
 62
6
 10
1088.977
 20
-7970.534
 30
145.000
 70
    32
  0
VERTEX
  8
W51LXLIFT
 62
6
 10
1094.235
 20
-7979.543
 30
145.000
 70
    32
  0
VERTEX
  8
W51LXLIFT
 62
6
 10
1099.657
 20
-7983.101
 30
145.000
 70
    32
  0
VERTEX
  8
W51LXLIFT
 62
6
 10
1104.752
 20
-7991.140
 30
145.000
 70
    32
  0
VERTEX
  8
W51LXLIFT
 62
6
 10
1110.258
 20
-7987.346
 30
145.000
 70
    32
  0
VERTEX
  8
W51LXLIFT
 62
6
 10
1105.536
 20
-7977.729
 30
145.000
 70
    32
  0
VERTEX
  8
W51LXLIFT
 62
6
 10
1104.351
 20
-7968.038
 30
145.000
 70
    32
  0
VERTEX
  8
W51LXLIFT
 62
6
 10
1099.572
 20
-7959.986
 30
145.000
 70
    32
  0
VERTEX
  8
W51LXLIFT
 62
6
 10
1100.876
 20
-7950.874
 30
145.000
 70
    32
  0
VERTEX
  8
W51LXLIFT
 62
6
 10
1101.579
 20
-7940.787
 30
145.000
 70
    32
  0
VERTEX
  8
W51LXLIFT
 62
6
 10
1092.646
 20
-7922.703
 30
145.000
 70
    32
  0
VERTEX
  8
W51LXLIFT
 62
6
 10
1087.281
 20
-7909.963
 30
145.000
 70
    32
  0
VERTEX
  8
W51LXLIFT
 62
6
 10
1077.966
 20
-7897.926
 30
145.000
 70
    32
  0
VERTEX
  8
W51LXLIFT
 62
6
 10
1064.768
 20
-7881.753
 30
145.000
 70
    32
  0
VERTEX
  8
W51LXLIFT
 62
6
 10
1058.897
 20
-7873.844
 30
145.000
 70
    32
  0
VERTEX
  8
W51LXLIFT
 62
6
 10
1056.194
 20
-7851.766
 30
145.000
 70
    32
  0
VERTEX
  8
W51LXLIFT
 62
6
 10
1042.353
 20
-7840.087
 30
145.000
 70
    32
  0
VERTEX
  8
W51LXLIFT
 62
6
 10
1035.866
 20
-7830.886
 30
145.000
 70
    32
  0
VERTEX
  8
W51LXLIFT
 62
6
 10
1035.595
 20
-7823.793
 30
145.000
 70
    32
  0
VERTEX
  8
W51LXLIFT
 62
6
 10
1038.016
 20
-7819.200
 30
145.000
 70
    32
  0
VERTEX
  8
W51LXLIFT
 62
6
 10
1026.347
 20
-7799.302
 30
145.000
 70
    32
  0
VERTEX
  8
W51LXLIFT
 62
6
 10
1011.300
 20
-7776.859
 30
145.000
 70
    32
  0
VERTEX
  8
W51LXLIFT
 62
6
 10
996.202
 20
-7769.579
 30
145.000
 70
    32
  0
SEQEND
  8
W51LXLIFT
  0
POLYLINE
  8
W51LXLIFT
 62
13
 66
     1
 70
     9
  0
VERTEX
  8
W51LXLIFT
 62
13
 10
1219.434
 20
-8236.685
 30
160.000
 70
    32
  0
VERTEX
  8
W51LXLIFT
 62
13
 10
1205.152
 20
-8217.825
 30
160.000
 70
    32
  0
VERTEX
  8
W51LXLIFT
 62
13
 10
1189.332
 20
-8196.500
 30
160.000
 70
    32
  0
VERTEX
  8
W51LXLIFT
 62
13
 10
1186.149
 20
-8188.084
 30
160.000
 70
    32
  0
VERTEX
  8
W51LXLIFT
 62
13
 10
1176.796
 20
-8178.124
 30
160.000
 70
    32
  0
VERTEX
  8
W51LXLIFT
 62
13
 10
1172.854
 20
-8171.219
 30
160.000
 70
    32
  0
VERTEX
  8
W51LXLIFT
 62
13
 10
1165.915
 20
-8171.625
 30
160.000
 70
    32
  0
VERTEX
  8
W51LXLIFT
 62
13
 10
1162.321
 20
-8175.369
 30
160.000
 70
    32
  0
VERTEX
  8
W51LXLIFT
 62
13
 10
1155.573
 20
-8177.257
 30
160.000
 70
    32
  0
VERTEX
  8
W51LXLIFT
 62
13
 10
1161.635
 20
-8187.293
 30
160.000
 70
    32
  0
VERTEX
  8
W51LXLIFT
 62
13
 10
1169.895
 20
-8202.238
 30
160.000
 70
    32
  0
VERTEX
  8
W51LXLIFT
 62
13
 10
1179.819
 20
-8212.546
 30
160.000
 70
    32
  0
VERTEX
  8
W51LXLIFT
 62
13
 10
1184.278
 20
-8227.607
 30
160.000
 70
    32
  0
VERTEX
  8
W51LXLIFT
 62
13
 10
1185.823
 20
-8243.122
 30
160.000
 70
    32
  0
VERTEX
  8
W51LXLIFT
 62
13
 10
1189.616
 20
-8241.934
 30
160.000
 70
    32
  0
VERTEX
  8
W51LXLIFT
 62
13
 10
1193.632
 20
-8219.981
 30
160.000
 70
    32
  0
VERTEX
  8
W51LXLIFT
 62
13
 10
1200.557
 20
-8227.136
 30
160.000
 70
    32
  0
VERTEX
  8
W51LXLIFT
 62
13
 10
1204.550
 20
-8228.503
 30
160.000
 70
    32
  0
VERTEX
  8
W51LXLIFT
 62
13
 10
1213.088
 20
-8242.171
 30
160.000
 70
    32
  0
SEQEND
  8
W51LXLIFT
  0
POLYLINE
  8
W51LXLIFT
 62
2
 66
     1
 70
     9
  0
VERTEX
  8
W51LXLIFT
 62
2
 10
1191.531
 20
-7984.125
 30
158.000
 70
    32
  0
VERTEX
  8
W51LXLIFT
 62
2
 10
1193.195
 20
-7990.709
 30
158.000
 70
    32
  0
VERTEX
  8
W51LXLIFT
 62
2
 10
1198.166
 20
-7993.753
 30
158.000
 70
    32
  0
VERTEX
  8
W51LXLIFT
 62
2
 10
1210.275
 20
-7994.092
 30
158.000
 70
    32
  0
VERTEX
  8
W51LXLIFT
 62
2
 10
1214.794
 20
-8003.931
 30
158.000
 70
    32
  0
VERTEX
  8
W51LXLIFT
 62
2
 10
1215.868
 20
-8008.777
 30
158.000
 70
    32
  0
VERTEX
  8
W51LXLIFT
 62
2
 10
1237.634
 20
-8020.262
 30
158.000
 70
    32
  0
VERTEX
  8
W51LXLIFT
 62
2
 10
1244.346
 20
-8009.984
 30
158.000
 70
    32
  0
VERTEX
  8
W51LXLIFT
 62
2
 10
1240.901
 20
-7993.770
 30
158.000
 70
    32
  0
VERTEX
  8
W51LXLIFT
 62
2
 10
1226.522
 20
-7972.499
 30
158.000
 70
    32
  0
VERTEX
  8
W51LXLIFT
 62
2
 10
1221.180
 20
-7965.295
 30
158.000
 70
    32
  0
VERTEX
  8
W51LXLIFT
 62
2
 10
1211.958
 20
-7962.038
 30
158.000
 70
    32
  0
VERTEX
  8
W51LXLIFT
 62
2
 10
1202.176
 20
-7957.994
 30
158.000
 70
    32
  0
VERTEX
  8
W51LXLIFT
 62
2
 10
1192.709
 20
-7960.307
 30
158.000
 70
    32
  0
VERTEX
  8
W51LXLIFT
 62
2
 10
1191.161
 20
-7963.134
 30
158.000
 70
    32
  0
VERTEX
  8
W51LXLIFT
 62
2
 10
1191.916
 20
-7969.502
 30
158.000
 70
    32
  0
VERTEX
  8
W51LXLIFT
 62
2
 10
1188.726
 20
-7976.087
 30
158.000
 70
    32
  0
SEQEND
  8
W51LXLIFT
  0
POLYLINE
  8
W51LXLIFT
 62
6
 66
     1
 70
     9
  0
VERTEX
  8
W51LXLIFT
 62
6
 10
1115.923
 20
-7989.156
 30
152.000
 70
    32
  0
VERTEX
  8
W51LXLIFT
 62
6
 10
1099.670
 20
-7952.819
 30
152.000
 70
    32
  0
VERTEX
  8
W51LXLIFT
 62
6
 10
1098.914
 20
-7941.597
 30
152.000
 70
    32
  0
VERTEX
  8
W51LXLIFT
 62
6
 10
1080.749
 20
-7905.757
 30
152.000
 70
    32
  0
VERTEX
  8
W51LXLIFT
 62
6
 10
1063.780
 20
-7881.149
 30
152.000
 70
    32
  0
VERTEX
  8
W51LXLIFT
 62
6
 10
1049.557
 20
-7857.824
 30
152.000
 70
    32
  0
VERTEX
  8
W51LXLIFT
 62
6
 10
1036.047
 20
-7830.647
 30
152.000
 70
    32
  0
VERTEX
  8
W51LXLIFT
 62
6
 10
1026.265
 20
-7804.162
 30
152.000
 70
    32
  0
VERTEX
  8
W51LXLIFT
 62
6
 10
1021.658
 20
-7797.839
 30
152.000
 70
    32
  0
VERTEX
  8
W51LXLIFT
 62
6
 10
1012.502
 20
-7791.946
 30
152.000
 70
    32
  0
VERTEX
  8
W51LXLIFT
 62
6
 10
1003.689
 20
-7778.042
 30
152.000
 70
    32
  0
VERTEX
  8
W51LXLIFT
 62
6
 10
998.971
 20
-7770.502
 30
152.000
 70
    32
  0
VERTEX
  8
W51LXLIFT
 62
6
 10
994.388
 20
-7767.398
 30
152.000
 70
    32
  0
VERTEX
  8
W51LXLIFT
 62
6
 10
981.647
 20
-7777.542
 30
152.000
 70
    32
  0
VERTEX
  8
W51LXLIFT
 62
6
 10
984.859
 20
-7781.298
 30
152.000
 70
    32
  0
VERTEX
  8
W51LXLIFT
 62
6
 10
991.244
 20
-7777.079
 30
152.000
 70
    32
  0
VERTEX
  8
W51LXLIFT
 62
6
 10
994.709
 20
-7787.560
 30
152.000
 70
    32
  0
VERTEX
  8
W51LXLIFT
 62
6
 10
996.009
 20
-7797.424
 30
152.000
 70
    32
  0
VERTEX
  8
W51LXLIFT
 62
6
 10
1000.716
 20
-7811.013
 30
152.000
 70
    32
  0
VERTEX
  8
W51LXLIFT
 62
6
 10
1013.357
 20
-7838.484
 30
152.000
 70
    32
  0
VERTEX
  8
W51LXLIFT
 62
6
 10
1023.356
 20
-7857.694
 30
152.000
 70
    32
  0
VERTEX
  8
W51LXLIFT
 62
6
 10
1035.498
 20
-7890.376
 30
152.000
 70
    32
  0
VERTEX
  8
W51LXLIFT
 62
6
 10
1047.907
 20
-7894.169
 30
152.000
 70
    32
  0
VERTEX
  8
W51LXLIFT
 62
6
 10
1061.295
 20
-7904.495
 30
152.000
 70
    32
  0
VERTEX
  8
W51LXLIFT
 62
6
 10
1070.314
 20
-7923.539
 30
152.000
 70
    32
  0
VERTEX
  8
W51LXLIFT
 62
6
 10
1062.162
 20
-7938.617
 30
152.000
 70
    32
  0
VERTEX
  8
W51LXLIFT
 62
6
 10
1070.443
 20
-7959.050
 30
152.000
 70
    32
  0
VERTEX
  8
W51LXLIFT
 62
6
 10
1084.361
 20
-7975.579
 30
152.000
 70
    32
  0
VERTEX
  8
W51LXLIFT
 62
6
 10
1111.504
 20
-7997.047
 30
152.000
 70
    32
  0
SEQEND
  8
W51LXLIFT
  0
POLYLINE
  8
W51LXLIFT
 62
13
 66
     1
 70
     9
  0
VERTEX
  8
W51LXLIFT
 62
13
 10
1214.651
 20
-8233.149
 30
170.000
 70
    32
  0
VERTEX
  8
W51LXLIFT
 62
13
 10
1201.679
 20
-8212.979
 30
170.000
 70
    32
  0
VERTEX
  8
W51LXLIFT
 62
13
 10
1184.638
 20
-8191.841
 30
170.000
 70
    32
  0
VERTEX
  8
W51LXLIFT
 62
13
 10
1174.305
 20
-8181.171
 30
170.000
 70
    32
  0
VERTEX
  8
W51LXLIFT
 62
13
 10
1173.042
 20
-8172.521
 30
170.000
 70
    32
  0
VERTEX
  8
W51LXLIFT
 62
13
 10
1165.349
 20
-8174.504
 30
170.000
 70
    32
  0
VERTEX
  8
W51LXLIFT
 62
13
 10
1160.212
 20
-8173.114
 30
170.000
 70
    32
  0
VERTEX
  8
W51LXLIFT
 62
13
 10
1151.134
 20
-8177.839
 30
170.000
 70
    32
  0
VERTEX
  8
W51LXLIFT
 62
13
 10
1154.539
 20
-8183.743
 30
170.000
 70
    32
  0
VERTEX
  8
W51LXLIFT
 62
13
 10
1163.677
 20
-8193.213
 30
170.000
 70
    32
  0
VERTEX
  8
W51LXLIFT
 62
13
 10
1169.815
 20
-8200.941
 30
170.000
 70
    32
  0
VERTEX
  8
W51LXLIFT
 62
13
 10
1178.111
 20
-8205.044
 30
170.000
 70
    32
  0
VERTEX
  8
W51LXLIFT
 62
13
 10
1194.301
 20
-8224.406
 30
170.000
 70
    32
  0
VERTEX
  8
W51LXLIFT
 62
13
 10
1203.724
 20
-8239.973
 30
170.000
 70
    32
  0
SEQEND
  8
W51LXLIFT
  0
POLYLINE
  8
W51LXLIFT
 62
2
 66
     1
 70
     9
  0
VERTEX
  8
W51LXLIFT
 62
2
 10
1195.146
 20
-7982.516
 30
171.000
 70
    32
  0
VERTEX
  8
W51LXLIFT
 62
2
 10
1209.421
 20
-7990.224
 30
171.000
 70
    32
  0
VERTEX
  8
W51LXLIFT
 62
2
 10
1213.902
 20
-7998.065
 30
171.000
 70
    32
  0
VERTEX
  8
W51LXLIFT
 62
2
 10
1216.635
 20
-8009.346
 30
171.000
 70
    32
  0
VERTEX
  8
W51LXLIFT
 62
2
 10
1236.108
 20
-8028.289
 30
171.000
 70
    32
  0
VERTEX
  8
W51LXLIFT
 62
2
 10
1245.165
 20
-8018.580
 30
171.000
 70
    32
  0
VERTEX
  8
W51LXLIFT
 62
2
 10
1249.762
 20
-8006.014
 30
171.000
 70
    32
  0
VERTEX
  8
W51LXLIFT
 62
2
 10
1247.074
 20
-7992.092
 30
171.000
 70
    32
  0
VERTEX
  8
W51LXLIFT
 62
2
 10
1238.976
 20
-7980.456
 30
171.000
 70
    32
  0
VERTEX
  8
W51LXLIFT
 62
2
 10
1229.731
 20
-7966.935
 30
171.000
 70
    32
  0
VERTEX
  8
W51LXLIFT
 62
2
 10
1222.898
 20
-7962.751
 30
171.000
 70
    32
  0
VERTEX
  8
W51LXLIFT
 62
2
 10
1207.502
 20
-7958.899
 30
171.000
 70
    32
  0
VERTEX
  8
W51LXLIFT
 62
2
 10
1195.230
 20
-7965.066
 30
171.000
 70
    32
  0
VERTEX
  8
W51LXLIFT
 62
2
 10
1195.128
 20
-7970.031
 30
171.000
 70
    32
  0
SEQEND
  8
W51LXLIFT
  0
POLYLINE
  8
W51LXLIFT
 62
6
 66
     1
 70
     9
  0
VERTEX
  8
W51LXLIFT
 62
6
 10
983.270
 20
-7776.920
 30
169.000
 70
    32
  0
VERTEX
  8
W51LXLIFT
 62
6
 10
989.455
 20
-7787.115
 30
169.000
 70
    32
  0
VERTEX
  8
W51LXLIFT
 62
6
 10
995.651
 20
-7803.931
 30
169.000
 70
    32
  0
VERTEX
  8
W51LXLIFT
 62
6
 10
999.700
 20
-7825.888
 30
169.000
 70
    32
  0
VERTEX
  8
W51LXLIFT
 62
6
 10
1002.679
 20
-7837.209
 30
169.000
 70
    32
  0
VERTEX
  8
W51LXLIFT
 62
6
 10
1021.591
 20
-7878.946
 30
169.000
 70
    32
  0
VERTEX
  8
W51LXLIFT
 62
6
 10
1033.996
 20
-7892.028
 30
169.000
 70
    32
  0
VERTEX
  8
W51LXLIFT
 62
6
 10
1053.984
 20
-7906.577
 30
169.000
 70
    32
  0
VERTEX
  8
W51LXLIFT
 62
6
 10
1059.170
 20
-7920.646
 30
169.000
 70
    32
  0
VERTEX
  8
W51LXLIFT
 62
6
 10
1061.507
 20
-7935.584
 30
169.000
 70
    32
  0
VERTEX
  8
W51LXLIFT
 62
6
 10
1071.182
 20
-7950.750
 30
169.000
 70
    32
  0
VERTEX
  8
W51LXLIFT
 62
6
 10
1082.991
 20
-7973.068
 30
169.000
 70
    32
  0
VERTEX
  8
W51LXLIFT
 62
6
 10
1105.106
 20
-7988.902
 30
169.000
 70
    32
  0
VERTEX
  8
W51LXLIFT
 62
6
 10
1133.789
 20
-7993.243
 30
169.000
 70
    32
  0
VERTEX
  8
W51LXLIFT
 62
6
 10
1143.010
 20
-7985.263
 30
169.000
 70
    32
  0
VERTEX
  8
W51LXLIFT
 62
6
 10
1136.570
 20
-7970.362
 30
169.000
 70
    32
  0
VERTEX
  8
W51LXLIFT
 62
6
 10
1128.362
 20
-7962.176
 30
169.000
 70
    32
  0
VERTEX
  8
W51LXLIFT
 62
6
 10
1115.086
 20
-7965.157
 30
169.000
 70
    32
  0
VERTEX
  8
W51LXLIFT
 62
6
 10
1108.134
 20
-7959.757
 30
169.000
 70
    32
  0
VERTEX
  8
W51LXLIFT
 62
6
 10
1103.043
 20
-7949.422
 30
169.000
 70
    32
  0
VERTEX
  8
W51LXLIFT
 62
6
 10
1087.390
 20
-7932.604
 30
169.000
 70
    32
  0
VERTEX
  8
W51LXLIFT
 62
6
 10
1083.736
 20
-7916.447
 30
169.000
 70
    32
  0
VERTEX
  8
W51LXLIFT
 62
6
 10
1059.962
 20
-7884.208
 30
169.000
 70
    32
  0
VERTEX
  8
W51LXLIFT
 62
6
 10
1040.085
 20
-7848.494
 30
169.000
 70
    32
  0
VERTEX
  8
W51LXLIFT
 62
6
 10
1029.973
 20
-7819.514
 30
169.000
 70
    32
  0
VERTEX
  8
W51LXLIFT
 62
6
 10
1022.810
 20
-7806.767
 30
169.000
 70
    32
  0
VERTEX
  8
W51LXLIFT
 62
6
 10
1009.271
 20
-7797.223
 30
169.000
 70
    32
  0
VERTEX
  8
W51LXLIFT
 62
6
 10
991.028
 20
-7772.173
 30
169.000
 70
    32
  0
SEQEND
  8
W51LXLIFT
  0
POLYLINE
  8
W51LXLIFT
 62
13
 66
     1
 70
     9
  0
VERTEX
  8
W51LXLIFT
 62
13
 10
1214.571
 20
-8234.085
 30
178.000
 70
    32
  0
VERTEX
  8
W51LXLIFT
 62
13
 10
1203.344
 20
-8218.099
 30
178.000
 70
    32
  0
VERTEX
  8
W51LXLIFT
 62
13
 10
1195.309
 20
-8209.267
 30
178.000
 70
    32
  0
VERTEX
  8
W51LXLIFT
 62
13
 10
1188.401
 20
-8198.403
 30
178.000
 70
    32
  0
VERTEX
  8
W51LXLIFT
 62
13
 10
1174.651
 20
-8183.293
 30
178.000
 70
    32
  0
VERTEX
  8
W51LXLIFT
 62
13
 10
1162.669
 20
-8173.107
 30
178.000
 70
    32
  0
VERTEX
  8
W51LXLIFT
 62
13
 10
1156.060
 20
-8176.445
 30
178.000
 70
    32
  0
VERTEX
  8
W51LXLIFT
 62
13
 10
1147.616
 20
-8182.336
 30
178.000
 70
    32
  0
VERTEX
  8
W51LXLIFT
 62
13
 10
1164.774
 20
-8194.063
 30
178.000
 70
    32
  0
VERTEX
  8
W51LXLIFT
 62
13
 10
1178.462
 20
-8208.346
 30
178.000
 70
    32
  0
VERTEX
  8
W51LXLIFT
 62
13
 10
1189.048
 20
-8221.089
 30
178.000
 70
    32
  0
VERTEX
  8
W51LXLIFT
 62
13
 10
1197.979
 20
-8238.110
 30
178.000
 70
    32
  0
VERTEX
  8
W51LXLIFT
 62
13
 10
1204.617
 20
-8241.634
 30
178.000
 70
    32
  0
SEQEND
  8
W51LXLIFT
  0
POLYLINE
  8
W51LXLIFT
 62
2
 66
     1
 70
     9
  0
VERTEX
  8
W51LXLIFT
 62
2
 10
1252.477
 20
-8019.125
 30
181.000
 70
    32
  0
VERTEX
  8
W51LXLIFT
 62
2
 10
1249.949
 20
-8006.347
 30
181.000
 70
    32
  0
VERTEX
  8
W51LXLIFT
 62
2
 10
1249.143
 20
-7995.906
 30
181.000
 70
    32
  0
VERTEX
  8
W51LXLIFT
 62
2
 10
1247.099
 20
-7986.158
 30
181.000
 70
    32
  0
VERTEX
  8
W51LXLIFT
 62
2
 10
1242.322
 20
-7977.003
 30
181.000
 70
    32
  0
VERTEX
  8
W51LXLIFT
 62
2
 10
1229.964
 20
-7967.640
 30
181.000
 70
    32
  0
VERTEX
  8
W51LXLIFT
 62
2
 10
1217.856
 20
-7959.951
 30
181.000
 70
    32
  0
VERTEX
  8
W51LXLIFT
 62
2
 10
1213.927
 20
-7960.551
 30
181.000
 70
    32
  0
VERTEX
  8
W51LXLIFT
 62
2
 10
1204.755
 20
-7969.163
 30
181.000
 70
    32
  0
VERTEX
  8
W51LXLIFT
 62
2
 10
1199.818
 20
-7976.404
 30
181.000
 70
    32
  0
VERTEX
  8
W51LXLIFT
 62
2
 10
1200.622
 20
-7983.132
 30
181.000
 70
    32
  0
VERTEX
  8
W51LXLIFT
 62
2
 10
1214.331
 20
-8003.081
 30
181.000
 70
    32
  0
VERTEX
  8
W51LXLIFT
 62
2
 10
1215.480
 20
-8012.504
 30
181.000
 70
    32
  0
VERTEX
  8
W51LXLIFT
 62
2
 10
1219.287
 20
-8021.827
 30
181.000
 70
    32
  0
VERTEX
  8
W51LXLIFT
 62
2
 10
1231.840
 20
-8027.004
 30
181.000
 70
    32
  0
VERTEX
  8
W51LXLIFT
 62
2
 10
1242.710
 20
-8025.445
 30
181.000
 70
    32
  0
SEQEND
  8
W51LXLIFT
  0
POLYLINE
  8
W51LXLIFT
 62
6
 66
     1
 70
     9
  0
VERTEX
  8
W51LXLIFT
 62
6
 10
978.295
 20
-7779.014
 30
177.000
 70
    32
  0
VERTEX
  8
W51LXLIFT
 62
6
 10
989.857
 20
-7794.862
 30
177.000
 70
    32
  0
VERTEX
  8
W51LXLIFT
 62
6
 10
999.179
 20
-7813.453
 30
177.000
 70
    32
  0
VERTEX
  8
W51LXLIFT
 62
6
 10
1002.192
 20
-7825.109
 30
177.000
 70
    32
  0
VERTEX
  8
W51LXLIFT
 62
6
 10
1002.946
 20
-7837.555
 30
177.000
 70
    32
  0
VERTEX
  8
W51LXLIFT
 62
6
 10
1015.014
 20
-7855.871
 30
177.000
 70
    32
  0
VERTEX
  8
W51LXLIFT
 62
6
 10
1022.908
 20
-7862.731
 30
177.000
 70
    32
  0
VERTEX
  8
W51LXLIFT
 62
6
 10
1026.146
 20
-7866.683
 30
177.000
 70
    32
  0
VERTEX
  8
W51LXLIFT
 62
6
 10
1031.099
 20
-7883.793
 30
177.000
 70
    32
  0
VERTEX
  8
W51LXLIFT
 62
6
 10
1043.203
 20
-7898.151
 30
177.000
 70
    32
  0
VERTEX
  8
W51LXLIFT
 62
6
 10
1053.691
 20
-7916.101
 30
177.000
 70
    32
  0
VERTEX
  8
W51LXLIFT
 62
6
 10
1059.805
 20
-7927.221
 30
177.000
 70
    32
  0
VERTEX
  8
W51LXLIFT
 62
6
 10
1065.628
 20
-7941.506
 30
177.000
 70
    32
  0
VERTEX
  8
W51LXLIFT
 62
6
 10
1070.670
 20
-7946.424
 30
177.000
 70
    32
  0
VERTEX
  8
W51LXLIFT
 62
6
 10
1087.441
 20
-7942.048
 30
177.000
 70
    32
  0
VERTEX
  8
W51LXLIFT
 62
6
 10
1087.182
 20
-7931.313
 30
177.000
 70
    32
  0
VERTEX
  8
W51LXLIFT
 62
6
 10
1069.939
 20
-7901.075
 30
177.000
 70
    32
  0
VERTEX
  8
W51LXLIFT
 62
6
 10
1057.859
 20
-7879.927
 30
177.000
 70
    32
  0
VERTEX
  8
W51LXLIFT
 62
6
 10
1051.454
 20
-7871.971
 30
177.000
 70
    32
  0
VERTEX
  8
W51LXLIFT
 62
6
 10
1038.057
 20
-7842.506
 30
177.000
 70
    32
  0
VERTEX
  8
W51LXLIFT
 62
6
 10
1031.541
 20
-7829.060
 30
177.000
 70
    32
  0
VERTEX
  8
W51LXLIFT
 62
6
 10
1022.904
 20
-7812.586
 30
177.000
 70
    32
  0
VERTEX
  8
W51LXLIFT
 62
6
 10
1006.799
 20
-7791.015
 30
177.000
 70
    32
  0
VERTEX
  8
W51LXLIFT
 62
6
 10
999.201
 20
-7782.627
 30
177.000
 70
    32
  0
VERTEX
  8
W51LXLIFT
 62
6
 10
990.201
 20
-7775.599
 30
177.000
 70
    32
  0
VERTEX
  8
W51LXLIFT
 62
6
 10
984.513
 20
-7774.106
 30
177.000
 70
    32
  0
SEQEND
  8
W51LXLIFT
  0
POLYLINE
  8
W51LXLIFT
 62
13
 66
     1
 70
     9
  0
VERTEX
  8
W51LXLIFT
 62
13
 10
1215.064
 20
-8234.312
 30
184.000
 70
    32
  0
VERTEX
  8
W51LXLIFT
 62
13
 10
1205.110
 20
-8224.472
 30
184.000
 70
    32
  0
VERTEX
  8
W51LXLIFT
 62
13
 10
1193.160
 20
-8206.629
 30
184.000
 70
    32
  0
VERTEX
  8
W51LXLIFT
 62
13
 10
1192.863
 20
-8199.024
 30
184.000
 70
    32
  0
VERTEX
  8
W51LXLIFT
 62
13
 10
1186.442
 20
-8191.511
 30
184.000
 70
    32
  0
VERTEX
  8
W51LXLIFT
 62
13
 10
1182.200
 20
-8184.158
 30
184.000
 70
    32
  0
VERTEX
  8
W51LXLIFT
 62
13
 10
1164.250
 20
-8169.577
 30
184.000
 70
    32
  0
VERTEX
  8
W51LXLIFT
 62
13
 10
1157.530
 20
-8173.794
 30
184.000
 70
    32
  0
VERTEX
  8
W51LXLIFT
 62
13
 10
1151.765
 20
-8175.581
 30
184.000
 70
    32
  0
VERTEX
  8
W51LXLIFT
 62
13
 10
1145.013
 20
-8179.604
 30
184.000
 70
    32
  0
VERTEX
  8
W51LXLIFT
 62
13
 10
1149.339
 20
-8187.223
 30
184.000
 70
    32
  0
VERTEX
  8
W51LXLIFT
 62
13
 10
1152.451
 20
-8186.271
 30
184.000
 70
    32
  0
VERTEX
  8
W51LXLIFT
 62
13
 10
1164.668
 20
-8210.329
 30
184.000
 70
    32
  0
VERTEX
  8
W51LXLIFT
 62
13
 10
1182.329
 20
-8224.360
 30
184.000
 70
    32
  0
VERTEX
  8
W51LXLIFT
 62
13
 10
1189.642
 20
-8224.709
 30
184.000
 70
    32
  0
VERTEX
  8
W51LXLIFT
 62
13
 10
1195.878
 20
-8230.618
 30
184.000
 70
    32
  0
VERTEX
  8
W51LXLIFT
 62
13
 10
1201.859
 20
-8238.123
 30
184.000
 70
    32
  0
VERTEX
  8
W51LXLIFT
 62
13
 10
1205.552
 20
-8241.421
 30
184.000
 70
    32
  0
SEQEND
  8
W51LXLIFT
  0
POLYLINE
  8
W51LXLIFT
 62
2
 66
     1
 70
     9
  0
VERTEX
  8
W51LXLIFT
 62
2
 10
1249.917
 20
-8016.488
 30
190.000
 70
    32
  0
VERTEX
  8
W51LXLIFT
 62
2
 10
1245.886
 20
-8007.027
 30
190.000
 70
    32
  0
VERTEX
  8
W51LXLIFT
 62
2
 10
1248.849
 20
-7999.123
 30
190.000
 70
    32
  0
VERTEX
  8
W51LXLIFT
 62
2
 10
1226.312
 20
-7967.120
 30
190.000
 70
    32
  0
VERTEX
  8
W51LXLIFT
 62
2
 10
1216.971
 20
-7961.723
 30
190.000
 70
    32
  0
VERTEX
  8
W51LXLIFT
 62
2
 10
1207.691
 20
-7954.762
 30
190.000
 70
    32
  0
VERTEX
  8
W51LXLIFT
 62
2
 10
1198.883
 20
-7948.002
 30
190.000
 70
    32
  0
VERTEX
  8
W51LXLIFT
 62
2
 10
1188.362
 20
-7948.022
 30
190.000
 70
    32
  0
VERTEX
  8
W51LXLIFT
 62
2
 10
1180.829
 20
-7951.416
 30
190.000
 70
    32
  0
VERTEX
  8
W51LXLIFT
 62
2
 10
1180.675
 20
-7969.341
 30
190.000
 70
    32
  0
VERTEX
  8
W51LXLIFT
 62
2
 10
1191.328
 20
-7985.843
 30
190.000
 70
    32
  0
VERTEX
  8
W51LXLIFT
 62
2
 10
1204.912
 20
-7994.247
 30
190.000
 70
    32
  0
VERTEX
  8
W51LXLIFT
 62
2
 10
1214.744
 20
-8007.217
 30
190.000
 70
    32
  0
VERTEX
  8
W51LXLIFT
 62
2
 10
1224.120
 20
-8025.404
 30
190.000
 70
    32
  0
VERTEX
  8
W51LXLIFT
 62
2
 10
1230.246
 20
-8034.759
 30
190.000
 70
    32
  0
SEQEND
  8
W51LXLIFT
  0
POLYLINE
  8
W51LXLIFT
 62
6
 66
     1
 70
     9
  0
VERTEX
  8
W51LXLIFT
 62
6
 10
1081.643
 20
-7913.909
 30
186.000
 70
    32
  0
VERTEX
  8
W51LXLIFT
 62
6
 10
1063.934
 20
-7894.265
 30
186.000
 70
    32
  0
VERTEX
  8
W51LXLIFT
 62
6
 10
1053.341
 20
-7880.544
 30
186.000
 70
    32
  0
VERTEX
  8
W51LXLIFT
 62
6
 10
1049.083
 20
-7870.920
 30
186.000
 70
    32
  0
VERTEX
  8
W51LXLIFT
 62
6
 10
1033.751
 20
-7845.862
 30
186.000
 70
    32
  0
VERTEX
  8
W51LXLIFT
 62
6
 10
1020.373
 20
-7819.604
 30
186.000
 70
    32
  0
VERTEX
  8
W51LXLIFT
 62
6
 10
1004.147
 20
-7795.410
 30
186.000
 70
    32
  0
VERTEX
  8
W51LXLIFT
 62
6
 10
990.216
 20
-7778.133
 30
186.000
 70
    32
  0
VERTEX
  8
W51LXLIFT
 62
6
 10
980.300
 20
-7779.887
 30
186.000
 70
    32
  0
VERTEX
  8
W51LXLIFT
 62
6
 10
972.775
 20
-7785.991
 30
186.000
 70
    32
  0
VERTEX
  8
W51LXLIFT
 62
6
 10
984.398
 20
-7806.678
 30
186.000
 70
    32
  0
VERTEX
  8
W51LXLIFT
 62
6
 10
989.768
 20
-7826.682
 30
186.000
 70
    32
  0
VERTEX
  8
W51LXLIFT
 62
6
 10
998.229
 20
-7850.202
 30
186.000
 70
    32
  0
VERTEX
  8
W51LXLIFT
 62
6
 10
1016.687
 20
-7885.270
 30
186.000
 70
    32
  0
VERTEX
  8
W51LXLIFT
 62
6
 10
1034.136
 20
-7898.260
 30
186.000
 70
    32
  0
VERTEX
  8
W51LXLIFT
 62
6
 10
1055.371
 20
-7902.533
 30
186.000
 70
    32
  0
VERTEX
  8
W51LXLIFT
 62
6
 10
1065.346
 20
-7918.549
 30
186.000
 70
    32
  0
VERTEX
  8
W51LXLIFT
 62
6
 10
1067.230
 20
-7928.045
 30
186.000
 70
    32
  0
SEQEND
  8
W51LXLIFT
  0
POLYLINE
  8
W51LXLIFT
 62
13
 66
     1
 70
     9
  0
VERTEX
  8
W51LXLIFT
 62
13
 10
1198.034
 20
-8237.317
 30
193.000
 70
    32
  0
VERTEX
  8
W51LXLIFT
 62
13
 10
1179.730
 20
-8219.449
 30
193.000
 70
    32
  0
VERTEX
  8
W51LXLIFT
 62
13
 10
1168.284
 20
-8215.491
 30
193.000
 70
    32
  0
VERTEX
  8
W51LXLIFT
 62
13
 10
1156.342
 20
-8205.517
 30
193.000
 70
    32
  0
VERTEX
  8
W51LXLIFT
 62
13
 10
1145.605
 20
-8188.426
 30
193.000
 70
    32
  0
VERTEX
  8
W51LXLIFT
 62
13
 10
1138.975
 20
-8181.371
 30
193.000
 70
    32
  0
VERTEX
  8
W51LXLIFT
 62
13
 10
1135.025
 20
-8174.139
 30
193.000
 70
    32
  0
VERTEX
  8
W51LXLIFT
 62
13
 10
1135.116
 20
-8163.174
 30
193.000
 70
    32
  0
VERTEX
  8
W51LXLIFT
 62
13
 10
1146.244
 20
-8159.694
 30
193.000
 70
    32
  0
VERTEX
  8
W51LXLIFT
 62
13
 10
1162.312
 20
-8172.135
 30
193.000
 70
    32
  0
VERTEX
  8
W51LXLIFT
 62
13
 10
1180.313
 20
-8192.160
 30
193.000
 70
    32
  0
VERTEX
  8
W51LXLIFT
 62
13
 10
1187.471
 20
-8204.668
 30
193.000
 70
    32
  0
VERTEX
  8
W51LXLIFT
 62
13
 10
1192.441
 20
-8209.233
 30
193.000
 70
    32
  0
VERTEX
  8
W51LXLIFT
 62
13
 10
1194.490
 20
-8215.765
 30
193.000
 70
    32
  0
VERTEX
  8
W51LXLIFT
 62
13
 10
1205.331
 20
-8228.140
 30
193.000
 70
    32
  0
SEQEND
  8
W51LXLIFT
  0
POLYLINE
  8
W51LXLIFT
 62
2
 66
     1
 70
     9
  0
VERTEX
  8
W51LXLIFT
 62
2
 10
1174.700
 20
-7954.808
 30
201.000
 70
    32
  0
VERTEX
  8
W51LXLIFT
 62
2
 10
1184.560
 20
-7962.915
 30
201.000
 70
    32
  0
VERTEX
  8
W51LXLIFT
 62
2
 10
1190.778
 20
-7970.911
 30
201.000
 70
    32
  0
VERTEX
  8
W51LXLIFT
 62
2
 10
1191.409
 20
-7983.954
 30
201.000
 70
    32
  0
VERTEX
  8
W51LXLIFT
 62
2
 10
1204.674
 20
-7992.449
 30
201.000
 70
    32
  0
VERTEX
  8
W51LXLIFT
 62
2
 10
1221.084
 20
-8030.442
 30
201.000
 70
    32
  0
VERTEX
  8
W51LXLIFT
 62
2
 10
1226.332
 20
-8037.831
 30
201.000
 70
    32
  0
VERTEX
  8
W51LXLIFT
 62
2
 10
1227.245
 20
-8044.738
 30
201.000
 70
    32
  0
VERTEX
  8
W51LXLIFT
 62
2
 10
1235.197
 20
-8046.969
 30
201.000
 70
    32
  0
VERTEX
  8
W51LXLIFT
 62
2
 10
1245.802
 20
-8036.522
 30
201.000
 70
    32
  0
VERTEX
  8
W51LXLIFT
 62
2
 10
1247.993
 20
-8012.408
 30
201.000
 70
    32
  0
VERTEX
  8
W51LXLIFT
 62
2
 10
1246.518
 20
-8001.367
 30
201.000
 70
    32
  0
VERTEX
  8
W51LXLIFT
 62
2
 10
1238.530
 20
-7985.562
 30
201.000
 70
    32
  0
VERTEX
  8
W51LXLIFT
 62
2
 10
1226.680
 20
-7972.069
 30
201.000
 70
    32
  0
VERTEX
  8
W51LXLIFT
 62
2
 10
1218.940
 20
-7962.996
 30
201.000
 70
    32
  0
VERTEX
  8
W51LXLIFT
 62
2
 10
1200.459
 20
-7953.997
 30
201.000
 70
    32
  0
VERTEX
  8
W51LXLIFT
 62
2
 10
1187.373
 20
-7947.426
 30
201.000
 70
    32
  0
SEQEND
  8
W51LXLIFT
  0
POLYLINE
  8
W51LXLIFT
 62
3
 66
     1
 70
     9
  0
VERTEX
  8
W51LXLIFT
 62
3
 10
1153.227
 20
-8009.672
 30
195.000
 70
    32
  0
VERTEX
  8
W51LXLIFT
 62
3
 10
1154.997
 20
-8017.481
 30
195.000
 70
    32
  0
VERTEX
  8
W51LXLIFT
 62
3
 10
1171.273
 20
-8040.243
 30
195.000
 70
    32
  0
VERTEX
  8
W51LXLIFT
 62
3
 10
1165.415
 20
-8042.785
 30
195.000
 70
    32
  0
VERTEX
  8
W51LXLIFT
 62
3
 10
1163.781
 20
-8088.198
 30
195.000
 70
    32
  0
VERTEX
  8
W51LXLIFT
 62
3
 10
1149.327
 20
-8088.211
 30
195.000
 70
    32
  0
VERTEX
  8
W51LXLIFT
 62
3
 10
1137.876
 20
-8078.320
 30
195.000
 70
    32
  0
VERTEX
  8
W51LXLIFT
 62
3
 10
1133.482
 20
-8053.595
 30
195.000
 70
    32
  0
VERTEX
  8
W51LXLIFT
 62
3
 10
1137.813
 20
-8036.595
 30
195.000
 70
    32
  0
VERTEX
  8
W51LXLIFT
 62
3
 10
1134.979
 20
-8013.460
 30
195.000
 70
    32
  0
VERTEX
  8
W51LXLIFT
 62
3
 10
1143.597
 20
-8007.662
 30
195.000
 70
    32
  0
SEQEND
  8
W51LXLIFT
  0
POLYLINE
  8
W51LXLIFT
 62
6
 66
     1
 70
     9
  0
VERTEX
  8
W51LXLIFT
 62
6
 10
1020.980
 20
-7829.566
 30
193.000
 70
    32
  0
VERTEX
  8
W51LXLIFT
 62
6
 10
1014.101
 20
-7815.780
 30
193.000
 70
    32
  0
VERTEX
  8
W51LXLIFT
 62
6
 10
1002.134
 20
-7799.995
 30
193.000
 70
    32
  0
VERTEX
  8
W51LXLIFT
 62
6
 10
985.418
 20
-7781.324
 30
193.000
 70
    32
  0
VERTEX
  8
W51LXLIFT
 62
6
 10
966.720
 20
-7757.584
 30
193.000
 70
    32
  0
VERTEX
  8
W51LXLIFT
 62
6
 10
957.100
 20
-7763.338
 30
193.000
 70
    32
  0
VERTEX
  8
W51LXLIFT
 62
6
 10
977.502
 20
-7796.013
 30
193.000
 70
    32
  0
VERTEX
  8
W51LXLIFT
 62
6
 10
989.092
 20
-7822.966
 30
193.000
 70
    32
  0
VERTEX
  8
W51LXLIFT
 62
6
 10
995.331
 20
-7839.043
 30
193.000
 70
    32
  0
VERTEX
  8
W51LXLIFT
 62
6
 10
999.826
 20
-7844.916
 30
193.000
 70
    32
  0
SEQEND
  8
W51LXLIFT
  0
POLYLINE
  8
W51LXLIFT
 62
13
 66
     1
 70
     9
  0
VERTEX
  8
W51LXLIFT
 62
13
 10
1201.107
 20
-8228.849
 30
200.000
 70
    32
  0
VERTEX
  8
W51LXLIFT
 62
13
 10
1179.808
 20
-8199.288
 30
200.000
 70
    32
  0
VERTEX
  8
W51LXLIFT
 62
13
 10
1154.137
 20
-8170.308
 30
200.000
 70
    32
  0
VERTEX
  8
W51LXLIFT
 62
13
 10
1146.366
 20
-8160.727
 30
200.000
 70
    32
  0
VERTEX
  8
W51LXLIFT
 62
13
 10
1134.730
 20
-8166.732
 30
200.000
 70
    32
  0
VERTEX
  8
W51LXLIFT
 62
13
 10
1132.155
 20
-8171.560
 30
200.000
 70
    32
  0
VERTEX
  8
W51LXLIFT
 62
13
 10
1136.663
 20
-8184.727
 30
200.000
 70
    32
  0
VERTEX
  8
W51LXLIFT
 62
13
 10
1140.847
 20
-8191.043
 30
200.000
 70
    32
  0
VERTEX
  8
W51LXLIFT
 62
13
 10
1164.029
 20
-8216.174
 30
200.000
 70
    32
  0
VERTEX
  8
W51LXLIFT
 62
13
 10
1176.979
 20
-8224.038
 30
200.000
 70
    32
  0
VERTEX
  8
W51LXLIFT
 62
13
 10
1193.959
 20
-8236.368
 30
200.000
 70
    32
  0
SEQEND
  8
W51LXLIFT
  0
POLYLINE
  8
W51LXLIFT
 62
2
 66
     1
 70
     9
  0
VERTEX
  8
W51LXLIFT
 62
2
 10
1176.707
 20
-7957.308
 30
212.000
 70
    32
  0
VERTEX
  8
W51LXLIFT
 62
2
 10
1187.068
 20
-7969.683
 30
212.000
 70
    32
  0
VERTEX
  8
W51LXLIFT
 62
2
 10
1198.386
 20
-7993.352
 30
212.000
 70
    32
  0
VERTEX
  8
W51LXLIFT
 62
2
 10
1207.051
 20
-8007.730
 30
212.000
 70
    32
  0
VERTEX
  8
W51LXLIFT
 62
2
 10
1211.569
 20
-8015.547
 30
212.000
 70
    32
  0
VERTEX
  8
W51LXLIFT
 62
2
 10
1226.533
 20
-8033.169
 30
212.000
 70
    32
  0
VERTEX
  8
W51LXLIFT
 62
2
 10
1231.642
 20
-8041.644
 30
212.000
 70
    32
  0
VERTEX
  8
W51LXLIFT
 62
2
 10
1237.887
 20
-8037.511
 30
212.000
 70
    32
  0
VERTEX
  8
W51LXLIFT
 62
2
 10
1236.922
 20
-8004.742
 30
212.000
 70
    32
  0
VERTEX
  8
W51LXLIFT
 62
2
 10
1235.834
 20
-7992.671
 30
212.000
 70
    32
  0
VERTEX
  8
W51LXLIFT
 62
2
 10
1221.536
 20
-7972.382
 30
212.000
 70
    32
  0
VERTEX
  8
W51LXLIFT
 62
2
 10
1201.100
 20
-7962.035
 30
212.000
 70
    32
  0
VERTEX
  8
W51LXLIFT
 62
2
 10
1185.168
 20
-7947.411
 30
212.000
 70
    32
  0
SEQEND
  8
W51LXLIFT
  0
POLYLINE
  8
W51LXLIFT
 62
3
 66
     1
 70
     9
  0
VERTEX
  8
W51LXLIFT
 62
3
 10
1133.798
 20
-8015.958
 30
202.000
 70
    32
  0
VERTEX
  8
W51LXLIFT
 62
3
 10
1135.822
 20
-8024.836
 30
202.000
 70
    32
  0
VERTEX
  8
W51LXLIFT
 62
3
 10
1136.714
 20
-8043.047
 30
202.000
 70
    32
  0
VERTEX
  8
W51LXLIFT
 62
3
 10
1135.246
 20
-8052.517
 30
202.000
 70
    32
  0
VERTEX
  8
W51LXLIFT
 62
3
 10
1139.486
 20
-8071.877
 30
202.000
 70
    32
  0
VERTEX
  8
W51LXLIFT
 62
3
 10
1149.300
 20
-8082.908
 30
202.000
 70
    32
  0
VERTEX
  8
W51LXLIFT
 62
3
 10
1167.301
 20
-8083.369
 30
202.000
 70
    32
  0
VERTEX
  8
W51LXLIFT
 62
3
 10
1166.926
 20
-8048.424
 30
202.000
 70
    32
  0
VERTEX
  8
W51LXLIFT
 62
3
 10
1165.180
 20
-8032.473
 30
202.000
 70
    32
  0
VERTEX
  8
W51LXLIFT
 62
3
 10
1145.966
 20
-8008.147
 30
202.000
 70
    32
  0
SEQEND
  8
W51LXLIFT
  0
POLYLINE
  8
W51LXLIFT
 62
6
 66
     1
 70
     9
  0
VERTEX
  8
W51LXLIFT
 62
6
 10
1017.297
 20
-7833.601
 30
202.000
 70
    32
  0
VERTEX
  8
W51LXLIFT
 62
6
 10
1007.214
 20
-7809.683
 30
202.000
 70
    32
  0
VERTEX
  8
W51LXLIFT
 62
6
 10
993.557
 20
-7796.230
 30
202.000
 70
    32
  0
VERTEX
  8
W51LXLIFT
 62
6
 10
959.978
 20
-7752.863
 30
202.000
 70
    32
  0
VERTEX
  8
W51LXLIFT
 62
6
 10
951.351
 20
-7758.956
 30
202.000
 70
    32
  0
VERTEX
  8
W51LXLIFT
 62
6
 10
951.490
 20
-7764.960
 30
202.000
 70
    32
  0
VERTEX
  8
W51LXLIFT
 62
6
 10
974.043
 20
-7794.149
 30
202.000
 70
    32
  0
VERTEX
  8
W51LXLIFT
 62
6
 10
980.806
 20
-7804.140
 30
202.000
 70
    32
  0
VERTEX
  8
W51LXLIFT
 62
6
 10
982.337
 20
-7810.108
 30
202.000
 70
    32
  0
VERTEX
  8
W51LXLIFT
 62
6
 10
979.502
 20
-7823.522
 30
202.000
 70
    32
  0
VERTEX
  8
W51LXLIFT
 62
6
 10
985.111
 20
-7837.301
 30
202.000
 70
    32
  0
VERTEX
  8
W51LXLIFT
 62
6
 10
991.975
 20
-7850.708
 30
202.000
 70
    32
  0
SEQEND
  8
W51LXLIFT
  0
POLYLINE
  8
W51LXLIFT
 62
13
 66
     1
 70
     9
  0
VERTEX
  8
W51LXLIFT
 62
13
 10
1204.230
 20
-8237.310
 30
213.000
 70
    32
  0
VERTEX
  8
W51LXLIFT
 62
13
 10
1192.708
 20
-8215.055
 30
213.000
 70
    32
  0
VERTEX
  8
W51LXLIFT
 62
13
 10
1177.789
 20
-8193.490
 30
213.000
 70
    32
  0
VERTEX
  8
W51LXLIFT
 62
13
 10
1170.102
 20
-8184.058
 30
213.000
 70
    32
  0
VERTEX
  8
W51LXLIFT
 62
13
 10
1159.831
 20
-8178.733
 30
213.000
 70
    32
  0
VERTEX
  8
W51LXLIFT
 62
13
 10
1154.331
 20
-8170.551
 30
213.000
 70
    32
  0
VERTEX
  8
W51LXLIFT
 62
13
 10
1149.231
 20
-8174.614
 30
213.000
 70
    32
  0
VERTEX
  8
W51LXLIFT
 62
13
 10
1152.058
 20
-8178.434
 30
213.000
 70
    32
  0
VERTEX
  8
W51LXLIFT
 62
13
 10
1142.165
 20
-8179.860
 30
213.000
 70
    32
  0
VERTEX
  8
W51LXLIFT
 62
13
 10
1136.329
 20
-8183.799
 30
213.000
 70
    32
  0
VERTEX
  8
W51LXLIFT
 62
13
 10
1134.800
 20
-8192.879
 30
213.000
 70
    32
  0
VERTEX
  8
W51LXLIFT
 62
13
 10
1139.157
 20
-8199.606
 30
213.000
 70
    32
  0
VERTEX
  8
W51LXLIFT
 62
13
 10
1149.168
 20
-8207.600
 30
213.000
 70
    32
  0
VERTEX
  8
W51LXLIFT
 62
13
 10
1157.546
 20
-8206.928
 30
213.000
 70
    32
  0
VERTEX
  8
W51LXLIFT
 62
13
 10
1164.843
 20
-8216.422
 30
213.000
 70
    32
  0
VERTEX
  8
W51LXLIFT
 62
13
 10
1176.579
 20
-8220.164
 30
213.000
 70
    32
  0
VERTEX
  8
W51LXLIFT
 62
13
 10
1190.424
 20
-8241.737
 30
213.000
 70
    32
  0
VERTEX
  8
W51LXLIFT
 62
13
 10
1192.452
 20
-8246.558
 30
213.000
 70
    32
  0
SEQEND
  8
W51LXLIFT
  0
POLYLINE
  8
W51LXLIFT
 62
3
 66
     1
 70
     9
  0
VERTEX
  8
W51LXLIFT
 62
3
 10
1165.333
 20
-8093.130
 30
216.000
 70
    32
  0
VERTEX
  8
W51LXLIFT
 62
3
 10
1162.150
 20
-8075.307
 30
216.000
 70
    32
  0
VERTEX
  8
W51LXLIFT
 62
3
 10
1159.602
 20
-8051.093
 30
216.000
 70
    32
  0
VERTEX
  8
W51LXLIFT
 62
3
 10
1155.721
 20
-8034.414
 30
216.000
 70
    32
  0
VERTEX
  8
W51LXLIFT
 62
3
 10
1138.505
 20
-8010.381
 30
216.000
 70
    32
  0
VERTEX
  8
W51LXLIFT
 62
3
 10
1134.202
 20
-8002.211
 30
216.000
 70
    32
  0
VERTEX
  8
W51LXLIFT
 62
3
 10
1125.467
 20
-8002.381
 30
216.000
 70
    32
  0
VERTEX
  8
W51LXLIFT
 62
3
 10
1128.450
 20
-8023.262
 30
216.000
 70
    32
  0
VERTEX
  8
W51LXLIFT
 62
3
 10
1130.279
 20
-8031.141
 30
216.000
 70
    32
  0
VERTEX
  8
W51LXLIFT
 62
3
 10
1131.972
 20
-8033.823
 30
216.000
 70
    32
  0
VERTEX
  8
W51LXLIFT
 62
3
 10
1131.729
 20
-8051.385
 30
216.000
 70
    32
  0
VERTEX
  8
W51LXLIFT
 62
3
 10
1133.007
 20
-8077.152
 30
216.000
 70
    32
  0
VERTEX
  8
W51LXLIFT
 62
3
 10
1136.363
 20
-8095.067
 30
216.000
 70
    32
  0
SEQEND
  8
W51LXLIFT
  0
POLYLINE
  8
W51LXLIFT
 62
2
 66
     1
 70
     9
  0
VERTEX
  8
W51LXLIFT
 62
2
 10
1195.458
 20
-7958.390
 30
221.000
 70
    32
  0
VERTEX
  8
W51LXLIFT
 62
2
 10
1186.638
 20
-7973.309
 30
221.000
 70
    32
  0
VERTEX
  8
W51LXLIFT
 62
2
 10
1188.317
 20
-7978.702
 30
221.000
 70
    32
  0
VERTEX
  8
W51LXLIFT
 62
2
 10
1201.706
 20
-7997.360
 30
221.000
 70
    32
  0
VERTEX
  8
W51LXLIFT
 62
2
 10
1213.344
 20
-8017.804
 30
221.000
 70
    32
  0
VERTEX
  8
W51LXLIFT
 62
2
 10
1223.467
 20
-8031.875
 30
221.000
 70
    32
  0
VERTEX
  8
W51LXLIFT
 62
2
 10
1227.226
 20
-8035.031
 30
221.000
 70
    32
  0
VERTEX
  8
W51LXLIFT
 62
2
 10
1233.648
 20
-8029.487
 30
221.000
 70
    32
  0
VERTEX
  8
W51LXLIFT
 62
2
 10
1234.907
 20
-8010.015
 30
221.000
 70
    32
  0
VERTEX
  8
W51LXLIFT
 62
2
 10
1222.770
 20
-7994.786
 30
221.000
 70
    32
  0
VERTEX
  8
W51LXLIFT
 62
2
 10
1210.374
 20
-7982.226
 30
221.000
 70
    32
  0
VERTEX
  8
W51LXLIFT
 62
2
 10
1204.509
 20
-7958.967
 30
221.000
 70
    32
  0
SEQEND
  8
W51LXLIFT
  0
POLYLINE
  8
W51LXLIFT
 62
1
 66
     1
 70
     9
  0
VERTEX
  8
W51LXLIFT
 62
1
 10
1205.509
 20
-7957.967
 30
236.000
 70
    32
  0
VERTEX
  8
W51LXLIFT
 62
1
 10
1211.374
 20
-7981.226
 30
236.000
 70
    32
  0
VERTEX
  8
W51LXLIFT
 62
1
 10
1223.770
 20
-7993.786
 30
236.000
 70
    32
  0
VERTEX
  8
W51LXLIFT
 62
1
 10
1235.907
 20
-8009.015
 30
236.000
 70
    32
  0
VERTEX
  8
W51LXLIFT
 62
1
 10
1234.648
 20
-8028.487
 30
236.000
 70
    32
  0
VERTEX
  8
W51LXLIFT
 62
1
 10
1228.226
 20
-8034.031
 30
236.000
 70
    32
  0
VERTEX
  8
W51LXLIFT
 62
1
 10
1224.467
 20
-8030.875
 30
236.000
 70
    32
  0
VERTEX
  8
W51LXLIFT
 62
1
 10
1214.344
 20
-8016.804
 30
236.000
 70
    32
  0
VERTEX
  8
W51LXLIFT
 62
1
 10
1202.706
 20
-7996.360
 30
236.000
 70
    32
  0
VERTEX
  8
W51LXLIFT
 62
1
 10
1189.317
 20
-7977.702
 30
236.000
 70
    32
  0
VERTEX
  8
W51LXLIFT
 62
1
 10
1187.638
 20
-7972.309
 30
236.000
 70
    32
  0
VERTEX
  8
W51LXLIFT
 62
1
 10
1196.458
 20
-7957.390
 30
236.000
 70
    32
  0
SEQEND
  8
W51LXLIFT
  0
POLYLINE
  8
W51LXLIFT
 62
6
 66
     1
 70
     9
  0
VERTEX
  8
W51LXLIFT
 62
6
 10
962.799
 20
-7778.722
 30
214.000
 70
    32
  0
VERTEX
  8
W51LXLIFT
 62
6
 10
966.864
 20
-7782.309
 30
214.000
 70
    32
  0
VERTEX
  8
W51LXLIFT
 62
6
 10
967.186
 20
-7798.388
 30
214.000
 70
    32
  0
VERTEX
  8
W51LXLIFT
 62
6
 10
978.252
 20
-7805.740
 30
214.000
 70
    32
  0
VERTEX
  8
W51LXLIFT
 62
6
 10
988.435
 20
-7820.955
 30
214.000
 70
    32
  0
VERTEX
  8
W51LXLIFT
 62
6
 10
997.491
 20
-7824.877
 30
214.000
 70
    32
  0
VERTEX
  8
W51LXLIFT
 62
6
 10
1003.481
 20
-7833.141
 30
214.000
 70
    32
  0
VERTEX
  8
W51LXLIFT
 62
6
 10
1009.669
 20
-7827.117
 30
214.000
 70
    32
  0
VERTEX
  8
W51LXLIFT
 62
6
 10
1007.287
 20
-7813.908
 30
214.000
 70
    32
  0
VERTEX
  8
W51LXLIFT
 62
6
 10
1003.349
 20
-7807.315
 30
214.000
 70
    32
  0
VERTEX
  8
W51LXLIFT
 62
6
 10
984.643
 20
-7787.257
 30
214.000
 70
    32
  0
VERTEX
  8
W51LXLIFT
 62
6
 10
979.609
 20
-7769.564
 30
214.000
 70
    32
  0
VERTEX
  8
W51LXLIFT
 62
6
 10
967.828
 20
-7768.338
 30
214.000
 70
    32
  0
SEQEND
  8
W51LXLIFT
  0
POLYLINE
  8
W51LXLIFT
 62
3
 66
     1
 70
     9
  0
VERTEX
  8
W51LXLIFT
 62
3
 10
1158.435
 20
-8083.602
 30
226.000
 70
    32
  0
VERTEX
  8
W51LXLIFT
 62
3
 10
1161.936
 20
-8068.494
 30
226.000
 70
    32
  0
VERTEX
  8
W51LXLIFT
 62
3
 10
1151.070
 20
-8021.637
 30
226.000
 70
    32
  0
VERTEX
  8
W51LXLIFT
 62
3
 10
1146.673
 20
-8001.033
 30
226.000
 70
    32
  0
VERTEX
  8
W51LXLIFT
 62
3
 10
1137.253
 20
-7991.117
 30
226.000
 70
    32
  0
VERTEX
  8
W51LXLIFT
 62
3
 10
1137.021
 20
-7980.926
 30
226.000
 70
    32
  0
VERTEX
  8
W51LXLIFT
 62
3
 10
1130.166
 20
-7975.227
 30
226.000
 70
    32
  0
VERTEX
  8
W51LXLIFT
 62
3
 10
1127.828
 20
-7995.765
 30
226.000
 70
    32
  0
VERTEX
  8
W51LXLIFT
 62
3
 10
1124.607
 20
-8009.596
 30
226.000
 70
    32
  0
VERTEX
  8
W51LXLIFT
 62
3
 10
1131.423
 20
-8040.131
 30
226.000
 70
    32
  0
VERTEX
  8
W51LXLIFT
 62
3
 10
1134.722
 20
-8071.332
 30
226.000
 70
    32
  0
VERTEX
  8
W51LXLIFT
 62
3
 10
1138.987
 20
-8091.599
 30
226.000
 70
    32
  0
SEQEND
  8
W51LXLIFT
  0
POLYLINE
  8
W51LXLIFT
 62
1
 66
     1
 70
     9
  0
VERTEX
  8
W51LXLIFT
 62
1
 10
1139.987
 20
-8090.599
 30
236.000
 70
    32
  0
VERTEX
  8
W51LXLIFT
 62
1
 10
1135.722
 20
-8070.332
 30
236.000
 70
    32
  0
VERTEX
  8
W51LXLIFT
 62
1
 10
1132.423
 20
-8039.131
 30
236.000
 70
    32
  0
VERTEX
  8
W51LXLIFT
 62
1
 10
1125.607
 20
-8008.596
 30
236.000
 70
    32
  0
VERTEX
  8
W51LXLIFT
 62
1
 10
1128.828
 20
-7994.765
 30
236.000
 70
    32
  0
VERTEX
  8
W51LXLIFT
 62
1
 10
1131.166
 20
-7974.227
 30
236.000
 70
    32
  0
VERTEX
  8
W51LXLIFT
 62
1
 10
1138.021
 20
-7979.926
 30
236.000
 70
    32
  0
VERTEX
  8
W51LXLIFT
 62
1
 10
1138.253
 20
-7990.117
 30
236.000
 70
    32
  0
VERTEX
  8
W51LXLIFT
 62
1
 10
1147.673
 20
-8000.033
 30
236.000
 70
    32
  0
VERTEX
  8
W51LXLIFT
 62
1
 10
1152.070
 20
-8020.637
 30
236.000
 70
    32
  0
VERTEX
  8
W51LXLIFT
 62
1
 10
1162.936
 20
-8067.494
 30
236.000
 70
    32
  0
VERTEX
  8
W51LXLIFT
 62
1
 10
1159.435
 20
-8082.602
 30
236.000
 70
    32
  0
SEQEND
  8
W51LXLIFT
  0
POLYLINE
  8
W51LXLIFT
 62
6
 66
     1
 70
     9
  0
VERTEX
  8
W51LXLIFT
 62
6
 10
1013.069
 20
-7837.330
 30
222.000
 70
    32
  0
VERTEX
  8
W51LXLIFT
 62
6
 10
1004.929
 20
-7817.984
 30
222.000
 70
    32
  0
VERTEX
  8
W51LXLIFT
 62
6
 10
983.957
 20
-7796.215
 30
222.000
 70
    32
  0
VERTEX
  8
W51LXLIFT
 62
6
 10
968.843
 20
-7777.833
 30
222.000
 70
    32
  0
VERTEX
  8
W51LXLIFT
 62
6
 10
951.932
 20
-7758.895
 30
222.000
 70
    32
  0
VERTEX
  8
W51LXLIFT
 62
6
 10
948.128
 20
-7759.765
 30
222.000
 70
    32
  0
VERTEX
  8
W51LXLIFT
 62
6
 10
945.793
 20
-7774.692
 30
222.000
 70
    32
  0
VERTEX
  8
W51LXLIFT
 62
6
 10
960.358
 20
-7795.945
 30
222.000
 70
    32
  0
VERTEX
  8
W51LXLIFT
 62
6
 10
973.058
 20
-7802.127
 30
222.000
 70
    32
  0
VERTEX
  8
W51LXLIFT
 62
6
 10
987.796
 20
-7819.374
 30
222.000
 70
    32
  0
VERTEX
  8
W51LXLIFT
 62
6
 10
991.411
 20
-7846.467
 30
222.000
 70
    32
  0
VERTEX
  8
W51LXLIFT
 62
6
 10
998.225
 20
-7847.556
 30
222.000
 70
    32
  0
SEQEND
  8
W51LXLIFT
  0
POLYLINE
  8
W51LXLIFT
 62
1
 66
     1
 70
     9
  0
VERTEX
  8
W51LXLIFT
 62
1
 10
999.225
 20
-7846.556
 30
236.000
 70
    32
  0
VERTEX
  8
W51LXLIFT
 62
1
 10
992.411
 20
-7845.467
 30
236.000
 70
    32
  0
VERTEX
  8
W51LXLIFT
 62
1
 10
988.796
 20
-7818.374
 30
236.000
 70
    32
  0
VERTEX
  8
W51LXLIFT
 62
1
 10
974.058
 20
-7801.127
 30
236.000
 70
    32
  0
VERTEX
  8
W51LXLIFT
 62
1
 10
961.358
 20
-7794.945
 30
236.000
 70
    32
  0
VERTEX
  8
W51LXLIFT
 62
1
 10
946.793
 20
-7773.692
 30
236.000
 70
    32
  0
VERTEX
  8
W51LXLIFT
 62
1
 10
949.128
 20
-7758.765
 30
236.000
 70
    32
  0
VERTEX
  8
W51LXLIFT
 62
1
 10
952.932
 20
-7757.895
 30
236.000
 70
    32
  0
VERTEX
  8
W51LXLIFT
 62
1
 10
969.843
 20
-7776.833
 30
236.000
 70
    32
  0
VERTEX
  8
W51LXLIFT
 62
1
 10
984.957
 20
-7795.215
 30
236.000
 70
    32
  0
VERTEX
  8
W51LXLIFT
 62
1
 10
1005.929
 20
-7816.984
 30
236.000
 70
    32
  0
VERTEX
  8
W51LXLIFT
 62
1
 10
1014.069
 20
-7836.330
 30
236.000
 70
    32
  0
SEQEND
  8
W51LXLIFT
  0
POLYLINE
  8
W51LXLIFT
 62
3
 66
     1
 70
     9
  0
VERTEX
  8
W51LXLIFT
 62
3
 10
649.617
 20
-6553.946
 30
94.000
 70
    32
  0
VERTEX
  8
W51LXLIFT
 62
3
 10
645.831
 20
-6560.492
 30
94.000
 70
    32
  0
VERTEX
  8
W51LXLIFT
 62
3
 10
652.293
 20
-6563.134
 30
94.000
 70
    32
  0
VERTEX
  8
W51LXLIFT
 62
3
 10
653.970
 20
-6571.422
 30
94.000
 70
    32
  0
VERTEX
  8
W51LXLIFT
 62
3
 10
671.784
 20
-6575.915
 30
94.000
 70
    32
  0
VERTEX
  8
W51LXLIFT
 62
3
 10
681.929
 20
-6576.143
 30
94.000
 70
    32
  0
VERTEX
  8
W51LXLIFT
 62
3
 10
695.971
 20
-6573.361
 30
94.000
 70
    32
  0
VERTEX
  8
W51LXLIFT
 62
3
 10
692.611
 20
-6583.864
 30
94.000
 70
    32
  0
VERTEX
  8
W51LXLIFT
 62
3
 10
687.634
 20
-6583.953
 30
94.000
 70
    32
  0
VERTEX
  8
W51LXLIFT
 62
3
 10
681.170
 20
-6587.341
 30
94.000
 70
    32
  0
VERTEX
  8
W51LXLIFT
 62
3
 10
667.003
 20
-6606.001
 30
94.000
 70
    32
  0
VERTEX
  8
W51LXLIFT
 62
3
 10
657.785
 20
-6596.861
 30
94.000
 70
    32
  0
VERTEX
  8
W51LXLIFT
 62
3
 10
647.557
 20
-6585.185
 30
94.000
 70
    32
  0
VERTEX
  8
W51LXLIFT
 62
3
 10
625.452
 20
-6575.666
 30
94.000
 70
    32
  0
VERTEX
  8
W51LXLIFT
 62
3
 10
617.605
 20
-6567.041
 30
94.000
 70
    32
  0
VERTEX
  8
W51LXLIFT
 62
3
 10
642.998
 20
-6545.940
 30
94.000
 70
    32
  0
SEQEND
  8
W51LXLIFT
  0
POLYLINE
  8
W51LXLIFT
 62
2
 66
     1
 70
     9
  0
VERTEX
  8
W51LXLIFT
 62
2
 10
498.686
 20
-6440.308
 30
92.000
 70
    32
  0
VERTEX
  8
W51LXLIFT
 62
2
 10
495.135
 20
-6429.798
 30
92.000
 70
    32
  0
VERTEX
  8
W51LXLIFT
 62
2
 10
497.045
 20
-6421.470
 30
92.000
 70
    32
  0
VERTEX
  8
W51LXLIFT
 62
2
 10
491.078
 20
-6408.156
 30
92.000
 70
    32
  0
VERTEX
  8
W51LXLIFT
 62
2
 10
491.504
 20
-6401.810
 30
92.000
 70
    32
  0
VERTEX
  8
W51LXLIFT
 62
2
 10
483.276
 20
-6381.191
 30
92.000
 70
    32
  0
VERTEX
  8
W51LXLIFT
 62
2
 10
476.416
 20
-6376.982
 30
92.000
 70
    32
  0
VERTEX
  8
W51LXLIFT
 62
2
 10
475.446
 20
-6362.578
 30
92.000
 70
    32
  0
VERTEX
  8
W51LXLIFT
 62
2
 10
469.527
 20
-6355.366
 30
92.000
 70
    32
  0
VERTEX
  8
W51LXLIFT
 62
2
 10
466.866
 20
-6346.934
 30
92.000
 70
    32
  0
VERTEX
  8
W51LXLIFT
 62
2
 10
457.501
 20
-6334.944
 30
92.000
 70
    32
  0
VERTEX
  8
W51LXLIFT
 62
2
 10
437.180
 20
-6312.807
 30
92.000
 70
    32
  0
VERTEX
  8
W51LXLIFT
 62
2
 10
444.082
 20
-6299.994
 30
92.000
 70
    32
  0
VERTEX
  8
W51LXLIFT
 62
2
 10
440.975
 20
-6278.303
 30
92.000
 70
    32
  0
VERTEX
  8
W51LXLIFT
 62
2
 10
441.045
 20
-6263.234
 30
92.000
 70
    32
  0
VERTEX
  8
W51LXLIFT
 62
2
 10
434.850
 20
-6239.457
 30
92.000
 70
    32
  0
VERTEX
  8
W51LXLIFT
 62
2
 10
434.148
 20
-6218.495
 30
92.000
 70
    32
  0
VERTEX
  8
W51LXLIFT
 62
2
 10
450.910
 20
-6217.305
 30
92.000
 70
    32
  0
VERTEX
  8
W51LXLIFT
 62
2
 10
451.311
 20
-6233.448
 30
92.000
 70
    32
  0
VERTEX
  8
W51LXLIFT
 62
2
 10
456.026
 20
-6248.023
 30
92.000
 70
    32
  0
VERTEX
  8
W51LXLIFT
 62
2
 10
463.695
 20
-6252.288
 30
92.000
 70
    32
  0
VERTEX
  8
W51LXLIFT
 62
2
 10
467.209
 20
-6268.195
 30
92.000
 70
    32
  0
VERTEX
  8
W51LXLIFT
 62
2
 10
475.151
 20
-6280.039
 30
92.000
 70
    32
  0
VERTEX
  8
W51LXLIFT
 62
2
 10
476.049
 20
-6305.240
 30
92.000
 70
    32
  0
VERTEX
  8
W51LXLIFT
 62
2
 10
478.826
 20
-6325.752
 30
92.000
 70
    32
  0
VERTEX
  8
W51LXLIFT
 62
2
 10
485.883
 20
-6344.503
 30
92.000
 70
    32
  0
VERTEX
  8
W51LXLIFT
 62
2
 10
492.299
 20
-6355.181
 30
92.000
 70
    32
  0
VERTEX
  8
W51LXLIFT
 62
2
 10
494.840
 20
-6367.867
 30
92.000
 70
    32
  0
VERTEX
  8
W51LXLIFT
 62
2
 10
497.481
 20
-6382.014
 30
92.000
 70
    32
  0
VERTEX
  8
W51LXLIFT
 62
2
 10
506.566
 20
-6404.078
 30
92.000
 70
    32
  0
VERTEX
  8
W51LXLIFT
 62
2
 10
504.313
 20
-6409.591
 30
92.000
 70
    32
  0
VERTEX
  8
W51LXLIFT
 62
2
 10
507.410
 20
-6414.191
 30
92.000
 70
    32
  0
VERTEX
  8
W51LXLIFT
 62
2
 10
510.558
 20
-6439.470
 30
92.000
 70
    32
  0
SEQEND
  8
W51LXLIFT
  0
POLYLINE
  8
W51LXLIFT
 62
11
 66
     1
 70
     9
  0
VERTEX
  8
W51LXLIFT
 62
11
 10
1088.509
 20
-7578.237
 30
97.000
 70
    32
  0
VERTEX
  8
W51LXLIFT
 62
11
 10
1093.554
 20
-7583.688
 30
97.000
 70
    32
  0
VERTEX
  8
W51LXLIFT
 62
11
 10
1099.465
 20
-7587.946
 30
97.000
 70
    32
  0
VERTEX
  8
W51LXLIFT
 62
11
 10
1101.211
 20
-7586.317
 30
97.000
 70
    32
  0
VERTEX
  8
W51LXLIFT
 62
11
 10
1104.128
 20
-7586.995
 30
97.000
 70
    32
  0
VERTEX
  8
W51LXLIFT
 62
11
 10
1112.309
 20
-7565.449
 30
97.000
 70
    32
  0
VERTEX
  8
W51LXLIFT
 62
11
 10
1107.225
 20
-7550.819
 30
97.000
 70
    32
  0
VERTEX
  8
W51LXLIFT
 62
11
 10
1103.541
 20
-7543.368
 30
97.000
 70
    32
  0
VERTEX
  8
W51LXLIFT
 62
11
 10
1100.737
 20
-7535.481
 30
97.000
 70
    32
  0
VERTEX
  8
W51LXLIFT
 62
11
 10
1096.436
 20
-7528.380
 30
97.000
 70
    32
  0
VERTEX
  8
W51LXLIFT
 62
11
 10
1092.824
 20
-7504.981
 30
97.000
 70
    32
  0
VERTEX
  8
W51LXLIFT
 62
11
 10
1086.632
 20
-7495.781
 30
97.000
 70
    32
  0
VERTEX
  8
W51LXLIFT
 62
11
 10
1081.192
 20
-7492.597
 30
97.000
 70
    32
  0
VERTEX
  8
W51LXLIFT
 62
11
 10
1074.208
 20
-7493.523
 30
97.000
 70
    32
  0
VERTEX
  8
W51LXLIFT
 62
11
 10
1064.434
 20
-7502.773
 30
97.000
 70
    32
  0
VERTEX
  8
W51LXLIFT
 62
11
 10
1073.052
 20
-7512.579
 30
97.000
 70
    32
  0
VERTEX
  8
W51LXLIFT
 62
11
 10
1080.280
 20
-7522.433
 30
97.000
 70
    32
  0
VERTEX
  8
W51LXLIFT
 62
11
 10
1078.362
 20
-7532.959
 30
97.000
 70
    32
  0
VERTEX
  8
W51LXLIFT
 62
11
 10
1068.676
 20
-7537.322
 30
97.000
 70
    32
  0
VERTEX
  8
W51LXLIFT
 62
11
 10
1070.880
 20
-7550.588
 30
97.000
 70
    32
  0
VERTEX
  8
W51LXLIFT
 62
11
 10
1073.827
 20
-7557.930
 30
97.000
 70
    32
  0
VERTEX
  8
W51LXLIFT
 62
11
 10
1083.415
 20
-7561.533
 30
97.000
 70
    32
  0
SEQEND
  8
W51LXLIFT
  0
POLYLINE
  8
W51LXLIFT
 62
1
 66
     1
 70
     9
  0
VERTEX
  8
W51LXLIFT
 62
1
 10
1089.509
 20
-7577.237
 30
112.000
 70
    32
  0
VERTEX
  8
W51LXLIFT
 62
1
 10
1094.554
 20
-7582.688
 30
112.000
 70
    32
  0
VERTEX
  8
W51LXLIFT
 62
1
 10
1100.465
 20
-7586.946
 30
112.000
 70
    32
  0
VERTEX
  8
W51LXLIFT
 62
1
 10
1102.211
 20
-7585.317
 30
112.000
 70
    32
  0
VERTEX
  8
W51LXLIFT
 62
1
 10
1105.128
 20
-7585.995
 30
112.000
 70
    32
  0
VERTEX
  8
W51LXLIFT
 62
1
 10
1113.309
 20
-7564.449
 30
112.000
 70
    32
  0
VERTEX
  8
W51LXLIFT
 62
1
 10
1108.225
 20
-7549.819
 30
112.000
 70
    32
  0
VERTEX
  8
W51LXLIFT
 62
1
 10
1104.541
 20
-7542.368
 30
112.000
 70
    32
  0
VERTEX
  8
W51LXLIFT
 62
1
 10
1101.737
 20
-7534.481
 30
112.000
 70
    32
  0
VERTEX
  8
W51LXLIFT
 62
1
 10
1097.436
 20
-7527.380
 30
112.000
 70
    32
  0
VERTEX
  8
W51LXLIFT
 62
1
 10
1093.824
 20
-7503.981
 30
112.000
 70
    32
  0
VERTEX
  8
W51LXLIFT
 62
1
 10
1087.632
 20
-7494.781
 30
112.000
 70
    32
  0
VERTEX
  8
W51LXLIFT
 62
1
 10
1082.192
 20
-7491.597
 30
112.000
 70
    32
  0
VERTEX
  8
W51LXLIFT
 62
1
 10
1075.208
 20
-7492.523
 30
112.000
 70
    32
  0
VERTEX
  8
W51LXLIFT
 62
1
 10
1065.434
 20
-7501.773
 30
112.000
 70
    32
  0
VERTEX
  8
W51LXLIFT
 62
1
 10
1074.052
 20
-7511.579
 30
112.000
 70
    32
  0
VERTEX
  8
W51LXLIFT
 62
1
 10
1081.280
 20
-7521.433
 30
112.000
 70
    32
  0
VERTEX
  8
W51LXLIFT
 62
1
 10
1079.362
 20
-7531.959
 30
112.000
 70
    32
  0
VERTEX
  8
W51LXLIFT
 62
1
 10
1069.676
 20
-7536.322
 30
112.000
 70
    32
  0
VERTEX
  8
W51LXLIFT
 62
1
 10
1071.880
 20
-7549.588
 30
112.000
 70
    32
  0
VERTEX
  8
W51LXLIFT
 62
1
 10
1074.827
 20
-7556.930
 30
112.000
 70
    32
  0
VERTEX
  8
W51LXLIFT
 62
1
 10
1084.415
 20
-7560.533
 30
112.000
 70
    32
  0
SEQEND
  8
W51LXLIFT
  0
POLYLINE
  8
W51LXLIFT
 62
3
 66
     1
 70
     9
  0
VERTEX
  8
W51LXLIFT
 62
3
 10
628.058
 20
-6579.755
 30
108.000
 70
    32
  0
VERTEX
  8
W51LXLIFT
 62
3
 10
642.778
 20
-6589.072
 30
108.000
 70
    32
  0
VERTEX
  8
W51LXLIFT
 62
3
 10
645.216
 20
-6596.026
 30
108.000
 70
    32
  0
VERTEX
  8
W51LXLIFT
 62
3
 10
652.299
 20
-6602.152
 30
108.000
 70
    32
  0
VERTEX
  8
W51LXLIFT
 62
3
 10
661.945
 20
-6604.067
 30
108.000
 70
    32
  0
VERTEX
  8
W51LXLIFT
 62
3
 10
677.202
 20
-6595.557
 30
108.000
 70
    32
  0
VERTEX
  8
W51LXLIFT
 62
3
 10
684.887
 20
-6585.121
 30
108.000
 70
    32
  0
VERTEX
  8
W51LXLIFT
 62
3
 10
683.870
 20
-6579.192
 30
108.000
 70
    32
  0
VERTEX
  8
W51LXLIFT
 62
3
 10
672.043
 20
-6567.282
 30
108.000
 70
    32
  0
VERTEX
  8
W51LXLIFT
 62
3
 10
667.367
 20
-6561.885
 30
108.000
 70
    32
  0
VERTEX
  8
W51LXLIFT
 62
3
 10
653.198
 20
-6555.664
 30
108.000
 70
    32
  0
VERTEX
  8
W51LXLIFT
 62
3
 10
653.422
 20
-6546.838
 30
108.000
 70
    32
  0
VERTEX
  8
W51LXLIFT
 62
3
 10
650.743
 20
-6543.681
 30
108.000
 70
    32
  0
VERTEX
  8
W51LXLIFT
 62
3
 10
645.978
 20
-6543.612
 30
108.000
 70
    32
  0
VERTEX
  8
W51LXLIFT
 62
3
 10
634.875
 20
-6555.935
 30
108.000
 70
    32
  0
VERTEX
  8
W51LXLIFT
 62
3
 10
629.553
 20
-6559.240
 30
108.000
 70
    32
  0
VERTEX
  8
W51LXLIFT
 62
3
 10
619.537
 20
-6567.575
 30
108.000
 70
    32
  0
SEQEND
  8
W51LXLIFT
  0
POLYLINE
  8
W51LXLIFT
 62
3
 66
     1
 70
     9
  0
VERTEX
  8
W51LXLIFT
 62
3
 10
1055.611
 20
-7481.501
 30
162.000
 70
    32
  0
VERTEX
  8
W51LXLIFT
 62
3
 10
1063.162
 20
-7468.973
 30
162.000
 70
    32
  0
VERTEX
  8
W51LXLIFT
 62
3
 10
1062.905
 20
-7462.149
 30
162.000
 70
    32
  0
VERTEX
  8
W51LXLIFT
 62
3
 10
1060.594
 20
-7444.030
 30
162.000
 70
    32
  0
VERTEX
  8
W51LXLIFT
 62
3
 10
1060.632
 20
-7438.192
 30
162.000
 70
    32
  0
VERTEX
  8
W51LXLIFT
 62
3
 10
1056.089
 20
-7434.889
 30
162.000
 70
    32
  0
VERTEX
  8
W51LXLIFT
 62
3
 10
1048.942
 20
-7432.209
 30
162.000
 70
    32
  0
VERTEX
  8
W51LXLIFT
 62
3
 10
1048.291
 20
-7427.213
 30
162.000
 70
    32
  0
VERTEX
  8
W51LXLIFT
 62
3
 10
1051.348
 20
-7412.770
 30
162.000
 70
    32
  0
VERTEX
  8
W51LXLIFT
 62
3
 10
1054.377
 20
-7406.239
 30
162.000
 70
    32
  0
VERTEX
  8
W51LXLIFT
 62
3
 10
1059.313
 20
-7402.563
 30
162.000
 70
    32
  0
VERTEX
  8
W51LXLIFT
 62
3
 10
1065.523
 20
-7401.776
 30
162.000
 70
    32
  0
VERTEX
  8
W51LXLIFT
 62
3
 10
1067.206
 20
-7408.305
 30
162.000
 70
    32
  0
VERTEX
  8
W51LXLIFT
 62
3
 10
1070.724
 20
-7407.878
 30
162.000
 70
    32
  0
VERTEX
  8
W51LXLIFT
 62
3
 10
1078.141
 20
-7413.865
 30
162.000
 70
    32
  0
VERTEX
  8
W51LXLIFT
 62
3
 10
1078.349
 20
-7424.890
 30
162.000
 70
    32
  0
VERTEX
  8
W51LXLIFT
 62
3
 10
1079.644
 20
-7457.249
 30
162.000
 70
    32
  0
VERTEX
  8
W51LXLIFT
 62
3
 10
1081.267
 20
-7460.753
 30
162.000
 70
    32
  0
VERTEX
  8
W51LXLIFT
 62
3
 10
1082.757
 20
-7477.182
 30
162.000
 70
    32
  0
VERTEX
  8
W51LXLIFT
 62
3
 10
1079.963
 20
-7486.825
 30
162.000
 70
    32
  0
VERTEX
  8
W51LXLIFT
 62
3
 10
1081.375
 20
-7495.640
 30
162.000
 70
    32
  0
VERTEX
  8
W51LXLIFT
 62
3
 10
1084.717
 20
-7505.428
 30
162.000
 70
    32
  0
VERTEX
  8
W51LXLIFT
 62
3
 10
1085.036
 20
-7509.684
 30
162.000
 70
    32
  0
VERTEX
  8
W51LXLIFT
 62
3
 10
1073.626
 20
-7514.234
 30
162.000
 70
    32
  0
VERTEX
  8
W51LXLIFT
 62
3
 10
1068.332
 20
-7509.626
 30
162.000
 70
    32
  0
VERTEX
  8
W51LXLIFT
 62
3
 10
1062.844
 20
-7499.901
 30
162.000
 70
    32
  0
VERTEX
  8
W51LXLIFT
 62
3
 10
1054.300
 20
-7494.315
 30
162.000
 70
    32
  0
SEQEND
  8
W51LXLIFT
  0
POLYLINE
  8
W51LXLIFT
 62
11
 66
     1
 70
     9
  0
VERTEX
  8
W51LXLIFT
 62
11
 10
1067.940
 20
-7541.487
 30
176.000
 70
    32
  0
VERTEX
  8
W51LXLIFT
 62
11
 10
1074.220
 20
-7550.951
 30
176.000
 70
    32
  0
VERTEX
  8
W51LXLIFT
 62
11
 10
1079.452
 20
-7563.277
 30
176.000
 70
    32
  0
VERTEX
  8
W51LXLIFT
 62
11
 10
1081.019
 20
-7583.047
 30
176.000
 70
    32
  0
VERTEX
  8
W51LXLIFT
 62
11
 10
1090.868
 20
-7587.442
 30
176.000
 70
    32
  0
VERTEX
  8
W51LXLIFT
 62
11
 10
1095.864
 20
-7586.791
 30
176.000
 70
    32
  0
VERTEX
  8
W51LXLIFT
 62
11
 10
1104.861
 20
-7578.558
 30
176.000
 70
    32
  0
VERTEX
  8
W51LXLIFT
 62
11
 10
1101.856
 20
-7567.751
 30
176.000
 70
    32
  0
VERTEX
  8
W51LXLIFT
 62
11
 10
1099.306
 20
-7557.702
 30
176.000
 70
    32
  0
VERTEX
  8
W51LXLIFT
 62
11
 10
1103.528
 20
-7546.885
 30
176.000
 70
    32
  0
VERTEX
  8
W51LXLIFT
 62
11
 10
1093.996
 20
-7537.322
 30
176.000
 70
    32
  0
VERTEX
  8
W51LXLIFT
 62
11
 10
1090.277
 20
-7524.525
 30
176.000
 70
    32
  0
VERTEX
  8
W51LXLIFT
 62
11
 10
1083.921
 20
-7516.872
 30
176.000
 70
    32
  0
VERTEX
  8
W51LXLIFT
 62
11
 10
1065.560
 20
-7522.980
 30
176.000
 70
    32
  0
SEQEND
  8
W51LXLIFT
  0
POLYLINE
  8
W51LXLIFT
 62
1
 66
     1
 70
     9
  0
VERTEX
  8
W51LXLIFT
 62
1
 10
998.971
 20
-7430.030
 30
213.000
 70
    32
  0
VERTEX
  8
W51LXLIFT
 62
1
 10
1007.190
 20
-7437.830
 30
213.000
 70
    32
  0
VERTEX
  8
W51LXLIFT
 62
1
 10
1016.629
 20
-7454.040
 30
213.000
 70
    32
  0
VERTEX
  8
W51LXLIFT
 62
1
 10
1020.800
 20
-7463.321
 30
213.000
 70
    32
  0
VERTEX
  8
W51LXLIFT
 62
1
 10
1021.712
 20
-7469.109
 30
213.000
 70
    32
  0
VERTEX
  8
W51LXLIFT
 62
1
 10
1034.116
 20
-7492.099
 30
213.000
 70
    32
  0
VERTEX
  8
W51LXLIFT
 62
1
 10
1041.149
 20
-7502.427
 30
213.000
 70
    32
  0
VERTEX
  8
W51LXLIFT
 62
1
 10
1048.522
 20
-7521.162
 30
213.000
 70
    32
  0
VERTEX
  8
W51LXLIFT
 62
1
 10
1052.310
 20
-7524.041
 30
213.000
 70
    32
  0
VERTEX
  8
W51LXLIFT
 62
1
 10
1058.490
 20
-7516.589
 30
213.000
 70
    32
  0
VERTEX
  8
W51LXLIFT
 62
1
 10
1067.799
 20
-7509.658
 30
213.000
 70
    32
  0
VERTEX
  8
W51LXLIFT
 62
1
 10
1060.748
 20
-7494.301
 30
213.000
 70
    32
  0
VERTEX
  8
W51LXLIFT
 62
1
 10
1060.463
 20
-7485.086
 30
213.000
 70
    32
  0
VERTEX
  8
W51LXLIFT
 62
1
 10
1041.643
 20
-7441.115
 30
213.000
 70
    32
  0
VERTEX
  8
W51LXLIFT
 62
1
 10
1037.786
 20
-7432.696
 30
213.000
 70
    32
  0
VERTEX
  8
W51LXLIFT
 62
1
 10
1033.470
 20
-7429.991
 30
213.000
 70
    32
  0
VERTEX
  8
W51LXLIFT
 62
1
 10
1010.883
 20
-7427.627
 30
213.000
 70
    32
  0
VERTEX
  8
W51LXLIFT
 62
1
 10
1007.006
 20
-7424.923
 30
213.000
 70
    32
  0
SEQEND
  8
W51LXLIFT
  0
POLYLINE
  8
W51LXLIFT
 62
6
 66
     1
 70
     9
  0
VERTEX
  8
W51LXLIFT
 62
6
 10
330.407
 20
-6086.086
 30
120.000
 70
    32
  0
VERTEX
  8
W51LXLIFT
 62
6
 10
331.686
 20
-6080.449
 30
120.000
 70
    32
  0
VERTEX
  8
W51LXLIFT
 62
6
 10
320.321
 20
-6053.764
 30
120.000
 70
    32
  0
VERTEX
  8
W51LXLIFT
 62
6
 10
320.018
 20
-6048.172
 30
120.000
 70
    32
  0
VERTEX
  8
W51LXLIFT
 62
6
 10
325.966
 20
-6043.209
 30
120.000
 70
    32
  0
VERTEX
  8
W51LXLIFT
 62
6
 10
332.669
 20
-6050.398
 30
120.000
 70
    32
  0
VERTEX
  8
W51LXLIFT
 62
6
 10
337.860
 20
-6065.325
 30
120.000
 70
    32
  0
VERTEX
  8
W51LXLIFT
 62
6
 10
343.782
 20
-6083.714
 30
120.000
 70
    32
  0
VERTEX
  8
W51LXLIFT
 62
6
 10
348.249
 20
-6093.669
 30
120.000
 70
    32
  0
VERTEX
  8
W51LXLIFT
 62
6
 10
348.582
 20
-6102.036
 30
120.000
 70
    32
  0
VERTEX
  8
W51LXLIFT
 62
6
 10
354.698
 20
-6115.233
 30
120.000
 70
    32
  0
VERTEX
  8
W51LXLIFT
 62
6
 10
354.634
 20
-6123.343
 30
120.000
 70
    32
  0
VERTEX
  8
W51LXLIFT
 62
6
 10
360.403
 20
-6141.517
 30
120.000
 70
    32
  0
VERTEX
  8
W51LXLIFT
 62
6
 10
353.515
 20
-6144.242
 30
120.000
 70
    32
  0
VERTEX
  8
W51LXLIFT
 62
6
 10
347.330
 20
-6142.492
 30
120.000
 70
    32
  0
VERTEX
  8
W51LXLIFT
 62
6
 10
345.673
 20
-6133.773
 30
120.000
 70
    32
  0
VERTEX
  8
W51LXLIFT
 62
6
 10
341.988
 20
-6122.188
 30
120.000
 70
    32
  0
VERTEX
  8
W51LXLIFT
 62
6
 10
336.958
 20
-6107.793
 30
120.000
 70
    32
  0
VERTEX
  8
W51LXLIFT
 62
6
 10
331.991
 20
-6102.599
 30
120.000
 70
    32
  0
SEQEND
  8
W51LXLIFT
  0
POLYLINE
  8
W51LXLIFT
 62
1
 66
     1
 70
     9
  0
VERTEX
  8
W51LXLIFT
 62
1
 10
332.991
 20
-6101.599
 30
131.000
 70
    32
  0
VERTEX
  8
W51LXLIFT
 62
1
 10
337.958
 20
-6106.793
 30
131.000
 70
    32
  0
VERTEX
  8
W51LXLIFT
 62
1
 10
342.988
 20
-6121.188
 30
131.000
 70
    32
  0
VERTEX
  8
W51LXLIFT
 62
1
 10
346.673
 20
-6132.773
 30
131.000
 70
    32
  0
VERTEX
  8
W51LXLIFT
 62
1
 10
348.330
 20
-6141.492
 30
131.000
 70
    32
  0
VERTEX
  8
W51LXLIFT
 62
1
 10
354.515
 20
-6143.242
 30
131.000
 70
    32
  0
VERTEX
  8
W51LXLIFT
 62
1
 10
361.403
 20
-6140.517
 30
131.000
 70
    32
  0
VERTEX
  8
W51LXLIFT
 62
1
 10
355.634
 20
-6122.343
 30
131.000
 70
    32
  0
VERTEX
  8
W51LXLIFT
 62
1
 10
355.698
 20
-6114.233
 30
131.000
 70
    32
  0
VERTEX
  8
W51LXLIFT
 62
1
 10
349.582
 20
-6101.036
 30
131.000
 70
    32
  0
VERTEX
  8
W51LXLIFT
 62
1
 10
349.249
 20
-6092.669
 30
131.000
 70
    32
  0
VERTEX
  8
W51LXLIFT
 62
1
 10
344.782
 20
-6082.714
 30
131.000
 70
    32
  0
VERTEX
  8
W51LXLIFT
 62
1
 10
338.860
 20
-6064.325
 30
131.000
 70
    32
  0
VERTEX
  8
W51LXLIFT
 62
1
 10
333.669
 20
-6049.398
 30
131.000
 70
    32
  0
VERTEX
  8
W51LXLIFT
 62
1
 10
326.966
 20
-6042.209
 30
131.000
 70
    32
  0
VERTEX
  8
W51LXLIFT
 62
1
 10
321.018
 20
-6047.172
 30
131.000
 70
    32
  0
VERTEX
  8
W51LXLIFT
 62
1
 10
321.321
 20
-6052.764
 30
131.000
 70
    32
  0
VERTEX
  8
W51LXLIFT
 62
1
 10
332.686
 20
-6079.449
 30
131.000
 70
    32
  0
VERTEX
  8
W51LXLIFT
 62
1
 10
331.407
 20
-6085.086
 30
131.000
 70
    32
  0
SEQEND
  8
W51LXLIFT
  0
POLYLINE
  8
W51LXLIFT
 62
11
 66
     1
 70
     9
  0
VERTEX
  8
W51LXLIFT
 62
11
 10
1093.057
 20
-7566.864
 30
87.000
 70
    32
  0
VERTEX
  8
W51LXLIFT
 62
11
 10
1096.904
 20
-7563.638
 30
87.000
 70
    32
  0
VERTEX
  8
W51LXLIFT
 62
11
 10
1095.961
 20
-7555.310
 30
87.000
 70
    32
  0
VERTEX
  8
W51LXLIFT
 62
11
 10
1090.434
 20
-7544.556
 30
87.000
 70
    32
  0
VERTEX
  8
W51LXLIFT
 62
11
 10
1088.512
 20
-7533.682
 30
87.000
 70
    32
  0
VERTEX
  8
W51LXLIFT
 62
11
 10
1087.468
 20
-7530.748
 30
87.000
 70
    32
  0
VERTEX
  8
W51LXLIFT
 62
11
 10
1078.883
 20
-7523.408
 30
87.000
 70
    32
  0
VERTEX
  8
W51LXLIFT
 62
11
 10
1076.922
 20
-7519.511
 30
87.000
 70
    32
  0
VERTEX
  8
W51LXLIFT
 62
11
 10
1078.253
 20
-7511.922
 30
87.000
 70
    32
  0
VERTEX
  8
W51LXLIFT
 62
11
 10
1075.196
 20
-7506.215
 30
87.000
 70
    32
  0
VERTEX
  8
W51LXLIFT
 62
11
 10
1084.339
 20
-7495.777
 30
87.000
 70
    32
  0
VERTEX
  8
W51LXLIFT
 62
11
 10
1097.546
 20
-7493.030
 30
87.000
 70
    32
  0
VERTEX
  8
W51LXLIFT
 62
11
 10
1104.573
 20
-7494.335
 30
87.000
 70
    32
  0
VERTEX
  8
W51LXLIFT
 62
11
 10
1109.136
 20
-7499.274
 30
87.000
 70
    32
  0
VERTEX
  8
W51LXLIFT
 62
11
 10
1114.959
 20
-7519.260
 30
87.000
 70
    32
  0
VERTEX
  8
W51LXLIFT
 62
11
 10
1118.936
 20
-7537.003
 30
87.000
 70
    32
  0
VERTEX
  8
W51LXLIFT
 62
11
 10
1122.631
 20
-7552.562
 30
87.000
 70
    32
  0
VERTEX
  8
W51LXLIFT
 62
11
 10
1125.665
 20
-7569.903
 30
87.000
 70
    32
  0
VERTEX
  8
W51LXLIFT
 62
11
 10
1126.167
 20
-7579.419
 30
87.000
 70
    32
  0
VERTEX
  8
W51LXLIFT
 62
11
 10
1128.100
 20
-7585.073
 30
87.000
 70
    32
  0
VERTEX
  8
W51LXLIFT
 62
11
 10
1128.450
 20
-7590.791
 30
87.000
 70
    32
  0
VERTEX
  8
W51LXLIFT
 62
11
 10
1125.722
 20
-7593.314
 30
87.000
 70
    32
  0
VERTEX
  8
W51LXLIFT
 62
11
 10
1118.543
 20
-7594.942
 30
87.000
 70
    32
  0
VERTEX
  8
W51LXLIFT
 62
11
 10
1111.432
 20
-7593.373
 30
87.000
 70
    32
  0
VERTEX
  8
W51LXLIFT
 62
11
 10
1107.075
 20
-7589.913
 30
87.000
 70
    32
  0
VERTEX
  8
W51LXLIFT
 62
11
 10
1104.270
 20
-7583.806
 30
87.000
 70
    32
  0
VERTEX
  8
W51LXLIFT
 62
11
 10
1101.729
 20
-7578.810
 30
87.000
 70
    32
  0
VERTEX
  8
W51LXLIFT
 62
11
 10
1098.532
 20
-7577.548
 30
87.000
 70
    32
  0
VERTEX
  8
W51LXLIFT
 62
11
 10
1094.146
 20
-7577.040
 30
87.000
 70
    32
  0
SEQEND
  8
W51LXLIFT
  0
POLYLINE
  8
W51LXLIFT
 62
3
 66
     1
 70
     9
  0
VERTEX
  8
W51LXLIFT
 62
3
 10
612.970
 20
-6577.686
 30
158.000
 70
    32
  0
VERTEX
  8
W51LXLIFT
 62
3
 10
611.087
 20
-6574.600
 30
158.000
 70
    32
  0
VERTEX
  8
W51LXLIFT
 62
3
 10
605.709
 20
-6572.825
 30
158.000
 70
    32
  0
VERTEX
  8
W51LXLIFT
 62
3
 10
603.031
 20
-6573.010
 30
158.000
 70
    32
  0
VERTEX
  8
W51LXLIFT
 62
3
 10
601.122
 20
-6576.538
 30
158.000
 70
    32
  0
VERTEX
  8
W51LXLIFT
 62
3
 10
606.648
 20
-6586.532
 30
158.000
 70
    32
  0
VERTEX
  8
W51LXLIFT
 62
3
 10
610.589
 20
-6595.821
 30
158.000
 70
    32
  0
VERTEX
  8
W51LXLIFT
 62
3
 10
619.442
 20
-6612.732
 30
158.000
 70
    32
  0
VERTEX
  8
W51LXLIFT
 62
3
 10
624.414
 20
-6619.987
 30
158.000
 70
    32
  0
VERTEX
  8
W51LXLIFT
 62
3
 10
628.315
 20
-6629.521
 30
158.000
 70
    32
  0
VERTEX
  8
W51LXLIFT
 62
3
 10
631.465
 20
-6633.322
 30
158.000
 70
    32
  0
VERTEX
  8
W51LXLIFT
 62
3
 10
639.366
 20
-6632.427
 30
158.000
 70
    32
  0
VERTEX
  8
W51LXLIFT
 62
3
 10
649.074
 20
-6627.862
 30
158.000
 70
    32
  0
VERTEX
  8
W51LXLIFT
 62
3
 10
649.959
 20
-6621.391
 30
158.000
 70
    32
  0
VERTEX
  8
W51LXLIFT
 62
3
 10
647.080
 20
-6609.505
 30
158.000
 70
    32
  0
VERTEX
  8
W51LXLIFT
 62
3
 10
644.971
 20
-6604.743
 30
158.000
 70
    32
  0
VERTEX
  8
W51LXLIFT
 62
3
 10
626.582
 20
-6589.463
 30
158.000
 70
    32
  0
SEQEND
  8
W51LXLIFT
  0
POLYLINE
  8
W51LXLIFT
 62
6
 66
     1
 70
     9
  0
VERTEX
  8
W51LXLIFT
 62
6
 10
1148.107
 20
-7233.668
 30
207.000
 70
    32
  0
VERTEX
  8
W51LXLIFT
 62
6
 10
1142.920
 20
-7222.813
 30
207.000
 70
    32
  0
VERTEX
  8
W51LXLIFT
 62
6
 10
1135.024
 20
-7213.913
 30
207.000
 70
    32
  0
VERTEX
  8
W51LXLIFT
 62
6
 10
1124.437
 20
-7211.048
 30
207.000
 70
    32
  0
VERTEX
  8
W51LXLIFT
 62
6
 10
1113.666
 20
-7209.537
 30
207.000
 70
    32
  0
VERTEX
  8
W51LXLIFT
 62
6
 10
1106.089
 20
-7202.938
 30
207.000
 70
    32
  0
VERTEX
  8
W51LXLIFT
 62
6
 10
1107.551
 20
-7194.858
 30
207.000
 70
    32
  0
VERTEX
  8
W51LXLIFT
 62
6
 10
1102.821
 20
-7186.196
 30
207.000
 70
    32
  0
VERTEX
  8
W51LXLIFT
 62
6
 10
1090.997
 20
-7176.204
 30
207.000
 70
    32
  0
VERTEX
  8
W51LXLIFT
 62
6
 10
1082.721
 20
-7161.735
 30
207.000
 70
    32
  0
VERTEX
  8
W51LXLIFT
 62
6
 10
1059.901
 20
-7146.315
 30
207.000
 70
    32
  0
VERTEX
  8
W51LXLIFT
 62
6
 10
1051.725
 20
-7141.830
 30
207.000
 70
    32
  0
VERTEX
  8
W51LXLIFT
 62
6
 10
1047.082
 20
-7132.991
 30
207.000
 70
    32
  0
VERTEX
  8
W51LXLIFT
 62
6
 10
1048.066
 20
-7126.602
 30
207.000
 70
    32
  0
VERTEX
  8
W51LXLIFT
 62
6
 10
1042.295
 20
-7113.098
 30
207.000
 70
    32
  0
VERTEX
  8
W51LXLIFT
 62
6
 10
1039.718
 20
-7103.346
 30
207.000
 70
    32
  0
VERTEX
  8
W51LXLIFT
 62
6
 10
1045.168
 20
-7099.187
 30
207.000
 70
    32
  0
VERTEX
  8
W51LXLIFT
 62
6
 10
1048.897
 20
-7099.438
 30
207.000
 70
    32
  0
VERTEX
  8
W51LXLIFT
 62
6
 10
1053.520
 20
-7103.759
 30
207.000
 70
    32
  0
VERTEX
  8
W51LXLIFT
 62
6
 10
1059.859
 20
-7109.314
 30
207.000
 70
    32
  0
VERTEX
  8
W51LXLIFT
 62
6
 10
1061.990
 20
-7105.587
 30
207.000
 70
    32
  0
VERTEX
  8
W51LXLIFT
 62
6
 10
1071.563
 20
-7109.006
 30
207.000
 70
    32
  0
VERTEX
  8
W51LXLIFT
 62
6
 10
1070.236
 20
-7120.742
 30
207.000
 70
    32
  0
VERTEX
  8
W51LXLIFT
 62
6
 10
1070.320
 20
-7126.647
 30
207.000
 70
    32
  0
VERTEX
  8
W51LXLIFT
 62
6
 10
1076.185
 20
-7130.132
 30
207.000
 70
    32
  0
VERTEX
  8
W51LXLIFT
 62
6
 10
1085.163
 20
-7140.305
 30
207.000
 70
    32
  0
VERTEX
  8
W51LXLIFT
 62
6
 10
1089.618
 20
-7141.218
 30
207.000
 70
    32
  0
VERTEX
  8
W51LXLIFT
 62
6
 10
1096.575
 20
-7140.774
 30
207.000
 70
    32
  0
VERTEX
  8
W51LXLIFT
 62
6
 10
1097.569
 20
-7148.306
 30
207.000
 70
    32
  0
VERTEX
  8
W51LXLIFT
 62
6
 10
1103.552
 20
-7159.770
 30
207.000
 70
    32
  0
VERTEX
  8
W51LXLIFT
 62
6
 10
1121.004
 20
-7176.413
 30
207.000
 70
    32
  0
VERTEX
  8
W51LXLIFT
 62
6
 10
1129.882
 20
-7180.804
 30
207.000
 70
    32
  0
VERTEX
  8
W51LXLIFT
 62
6
 10
1140.807
 20
-7179.765
 30
207.000
 70
    32
  0
VERTEX
  8
W51LXLIFT
 62
6
 10
1148.528
 20
-7186.697
 30
207.000
 70
    32
  0
VERTEX
  8
W51LXLIFT
 62
6
 10
1145.834
 20
-7190.411
 30
207.000
 70
    32
  0
VERTEX
  8
W51LXLIFT
 62
6
 10
1145.317
 20
-7197.991
 30
207.000
 70
    32
  0
VERTEX
  8
W51LXLIFT
 62
6
 10
1149.101
 20
-7207.153
 30
207.000
 70
    32
  0
VERTEX
  8
W51LXLIFT
 62
6
 10
1158.172
 20
-7215.709
 30
207.000
 70
    32
  0
VERTEX
  8
W51LXLIFT
 62
6
 10
1171.859
 20
-7223.505
 30
207.000
 70
    32
  0
VERTEX
  8
W51LXLIFT
 62
6
 10
1178.200
 20
-7227.180
 30
207.000
 70
    32
  0
VERTEX
  8
W51LXLIFT
 62
6
 10
1186.829
 20
-7237.620
 30
207.000
 70
    32
  0
VERTEX
  8
W51LXLIFT
 62
6
 10
1171.227
 20
-7249.192
 30
207.000
 70
    32
  0
VERTEX
  8
W51LXLIFT
 62
6
 10
1162.847
 20
-7251.827
 30
207.000
 70
    32
  0
VERTEX
  8
W51LXLIFT
 62
6
 10
1156.637
 20
-7249.049
 30
207.000
 70
    32
  0
VERTEX
  8
W51LXLIFT
 62
6
 10
1151.050
 20
-7243.031
 30
207.000
 70
    32
  0
SEQEND
  8
W51LXLIFT
  0
POLYLINE
  8
W51LXLIFT
 62
1
 66
     1
 70
     9
  0
VERTEX
  8
W51LXLIFT
 62
1
 10
550.550
 20
-6732.624
 30
245.000
 70
    32
  0
VERTEX
  8
W51LXLIFT
 62
1
 10
555.073
 20
-6731.617
 30
245.000
 70
    32
  0
VERTEX
  8
W51LXLIFT
 62
1
 10
563.961
 20
-6727.380
 30
245.000
 70
    32
  0
VERTEX
  8
W51LXLIFT
 62
1
 10
570.472
 20
-6732.784
 30
245.000
 70
    32
  0
VERTEX
  8
W51LXLIFT
 62
1
 10
572.612
 20
-6740.784
 30
245.000
 70
    32
  0
VERTEX
  8
W51LXLIFT
 62
1
 10
579.365
 20
-6750.368
 30
245.000
 70
    32
  0
VERTEX
  8
W51LXLIFT
 62
1
 10
576.305
 20
-6753.056
 30
245.000
 70
    32
  0
VERTEX
  8
W51LXLIFT
 62
1
 10
576.188
 20
-6753.382
 30
245.000
 70
    32
  0
VERTEX
  8
W51LXLIFT
 62
1
 10
586.263
 20
-6774.851
 30
245.000
 70
    32
  0
VERTEX
  8
W51LXLIFT
 62
1
 10
578.955
 20
-6780.228
 30
245.000
 70
    32
  0
VERTEX
  8
W51LXLIFT
 62
1
 10
573.999
 20
-6773.840
 30
245.000
 70
    32
  0
VERTEX
  8
W51LXLIFT
 62
1
 10
568.575
 20
-6773.316
 30
245.000
 70
    32
  0
VERTEX
  8
W51LXLIFT
 62
1
 10
559.527
 20
-6773.836
 30
245.000
 70
    32
  0
VERTEX
  8
W51LXLIFT
 62
1
 10
552.296
 20
-6773.693
 30
245.000
 70
    32
  0
VERTEX
  8
W51LXLIFT
 62
1
 10
546.632
 20
-6771.714
 30
245.000
 70
    32
  0
VERTEX
  8
W51LXLIFT
 62
1
 10
552.815
 20
-6757.042
 30
245.000
 70
    32
  0
VERTEX
  8
W51LXLIFT
 62
1
 10
553.279
 20
-6754.977
 30
245.000
 70
    32
  0
VERTEX
  8
W51LXLIFT
 62
1
 10
551.554
 20
-6749.988
 30
245.000
 70
    32
  0
VERTEX
  8
W51LXLIFT
 62
1
 10
546.808
 20
-6743.042
 30
245.000
 70
    32
  0
VERTEX
  8
W51LXLIFT
 62
1
 10
522.839
 20
-6737.519
 30
245.000
 70
    32
  0
VERTEX
  8
W51LXLIFT
 62
1
 10
512.932
 20
-6742.686
 30
245.000
 70
    32
  0
VERTEX
  8
W51LXLIFT
 62
1
 10
510.371
 20
-6751.613
 30
245.000
 70
    32
  0
VERTEX
  8
W51LXLIFT
 62
1
 10
507.097
 20
-6756.029
 30
245.000
 70
    32
  0
VERTEX
  8
W51LXLIFT
 62
1
 10
504.136
 20
-6764.090
 30
245.000
 70
    32
  0
VERTEX
  8
W51LXLIFT
 62
1
 10
493.573
 20
-6764.874
 30
245.000
 70
    32
  0
VERTEX
  8
W51LXLIFT
 62
1
 10
487.128
 20
-6768.165
 30
245.000
 70
    32
  0
VERTEX
  8
W51LXLIFT
 62
1
 10
481.738
 20
-6765.183
 30
245.000
 70
    32
  0
VERTEX
  8
W51LXLIFT
 62
1
 10
484.593
 20
-6760.988
 30
245.000
 70
    32
  0
VERTEX
  8
W51LXLIFT
 62
1
 10
488.289
 20
-6753.489
 30
245.000
 70
    32
  0
VERTEX
  8
W51LXLIFT
 62
1
 10
484.507
 20
-6742.387
 30
245.000
 70
    32
  0
VERTEX
  8
W51LXLIFT
 62
1
 10
479.708
 20
-6729.622
 30
245.000
 70
    32
  0
VERTEX
  8
W51LXLIFT
 62
1
 10
481.921
 20
-6720.875
 30
245.000
 70
    32
  0
VERTEX
  8
W51LXLIFT
 62
1
 10
486.713
 20
-6713.315
 30
245.000
 70
    32
  0
VERTEX
  8
W51LXLIFT
 62
1
 10
487.405
 20
-6705.595
 30
245.000
 70
    32
  0
VERTEX
  8
W51LXLIFT
 62
1
 10
494.359
 20
-6702.419
 30
245.000
 70
    32
  0
VERTEX
  8
W51LXLIFT
 62
1
 10
500.851
 20
-6703.869
 30
245.000
 70
    32
  0
VERTEX
  8
W51LXLIFT
 62
1
 10
504.007
 20
-6712.176
 30
245.000
 70
    32
  0
VERTEX
  8
W51LXLIFT
 62
1
 10
512.517
 20
-6714.772
 30
245.000
 70
    32
  0
VERTEX
  8
W51LXLIFT
 62
1
 10
515.321
 20
-6726.850
 30
245.000
 70
    32
  0
SEQEND
  8
W51LXLIFT
  0
POLYLINE
  8
W51LXLIFT
 62
4
 66
     1
 70
     9
  0
VERTEX
  8
W51LXLIFT
 62
4
 10
549.550
 20
-6733.624
 30
234.000
 70
    32
  0
VERTEX
  8
W51LXLIFT
 62
4
 10
554.073
 20
-6732.617
 30
234.000
 70
    32
  0
VERTEX
  8
W51LXLIFT
 62
4
 10
562.961
 20
-6728.380
 30
234.000
 70
    32
  0
VERTEX
  8
W51LXLIFT
 62
4
 10
569.472
 20
-6733.784
 30
234.000
 70
    32
  0
VERTEX
  8
W51LXLIFT
 62
4
 10
571.612
 20
-6741.784
 30
234.000
 70
    32
  0
VERTEX
  8
W51LXLIFT
 62
4
 10
578.365
 20
-6751.368
 30
234.000
 70
    32
  0
VERTEX
  8
W51LXLIFT
 62
4
 10
575.305
 20
-6754.056
 30
234.000
 70
    32
  0
VERTEX
  8
W51LXLIFT
 62
4
 10
575.188
 20
-6754.382
 30
234.000
 70
    32
  0
VERTEX
  8
W51LXLIFT
 62
4
 10
585.263
 20
-6775.851
 30
234.000
 70
    32
  0
VERTEX
  8
W51LXLIFT
 62
4
 10
577.955
 20
-6781.228
 30
234.000
 70
    32
  0
VERTEX
  8
W51LXLIFT
 62
4
 10
572.999
 20
-6774.840
 30
234.000
 70
    32
  0
VERTEX
  8
W51LXLIFT
 62
4
 10
567.575
 20
-6774.316
 30
234.000
 70
    32
  0
VERTEX
  8
W51LXLIFT
 62
4
 10
558.527
 20
-6774.836
 30
234.000
 70
    32
  0
VERTEX
  8
W51LXLIFT
 62
4
 10
551.296
 20
-6774.693
 30
234.000
 70
    32
  0
VERTEX
  8
W51LXLIFT
 62
4
 10
545.632
 20
-6772.714
 30
234.000
 70
    32
  0
VERTEX
  8
W51LXLIFT
 62
4
 10
551.815
 20
-6758.042
 30
234.000
 70
    32
  0
VERTEX
  8
W51LXLIFT
 62
4
 10
552.279
 20
-6755.977
 30
234.000
 70
    32
  0
VERTEX
  8
W51LXLIFT
 62
4
 10
550.554
 20
-6750.988
 30
234.000
 70
    32
  0
VERTEX
  8
W51LXLIFT
 62
4
 10
545.808
 20
-6744.042
 30
234.000
 70
    32
  0
VERTEX
  8
W51LXLIFT
 62
4
 10
521.839
 20
-6738.519
 30
234.000
 70
    32
  0
VERTEX
  8
W51LXLIFT
 62
4
 10
511.932
 20
-6743.686
 30
234.000
 70
    32
  0
VERTEX
  8
W51LXLIFT
 62
4
 10
509.371
 20
-6752.613
 30
234.000
 70
    32
  0
VERTEX
  8
W51LXLIFT
 62
4
 10
506.097
 20
-6757.029
 30
234.000
 70
    32
  0
VERTEX
  8
W51LXLIFT
 62
4
 10
503.136
 20
-6765.090
 30
234.000
 70
    32
  0
VERTEX
  8
W51LXLIFT
 62
4
 10
492.573
 20
-6765.874
 30
234.000
 70
    32
  0
VERTEX
  8
W51LXLIFT
 62
4
 10
486.128
 20
-6769.165
 30
234.000
 70
    32
  0
VERTEX
  8
W51LXLIFT
 62
4
 10
480.738
 20
-6766.183
 30
234.000
 70
    32
  0
VERTEX
  8
W51LXLIFT
 62
4
 10
483.593
 20
-6761.988
 30
234.000
 70
    32
  0
VERTEX
  8
W51LXLIFT
 62
4
 10
487.289
 20
-6754.489
 30
234.000
 70
    32
  0
VERTEX
  8
W51LXLIFT
 62
4
 10
483.507
 20
-6743.387
 30
234.000
 70
    32
  0
VERTEX
  8
W51LXLIFT
 62
4
 10
478.708
 20
-6730.622
 30
234.000
 70
    32
  0
VERTEX
  8
W51LXLIFT
 62
4
 10
480.921
 20
-6721.875
 30
234.000
 70
    32
  0
VERTEX
  8
W51LXLIFT
 62
4
 10
485.713
 20
-6714.315
 30
234.000
 70
    32
  0
VERTEX
  8
W51LXLIFT
 62
4
 10
486.405
 20
-6706.595
 30
234.000
 70
    32
  0
VERTEX
  8
W51LXLIFT
 62
4
 10
493.359
 20
-6703.419
 30
234.000
 70
    32
  0
VERTEX
  8
W51LXLIFT
 62
4
 10
499.851
 20
-6704.869
 30
234.000
 70
    32
  0
VERTEX
  8
W51LXLIFT
 62
4
 10
503.007
 20
-6713.176
 30
234.000
 70
    32
  0
VERTEX
  8
W51LXLIFT
 62
4
 10
511.517
 20
-6715.772
 30
234.000
 70
    32
  0
VERTEX
  8
W51LXLIFT
 62
4
 10
514.321
 20
-6727.850
 30
234.000
 70
    32
  0
SEQEND
  8
W51LXLIFT
  0
POLYLINE
  8
W51LXLIFT
 62
1
 66
     1
 70
     9
  0
VERTEX
  8
W51LXLIFT
 62
1
 10
498.077
 20
-6452.183
 30
127.000
 70
    32
  0
VERTEX
  8
W51LXLIFT
 62
1
 10
488.854
 20
-6418.450
 30
127.000
 70
    32
  0
VERTEX
  8
W51LXLIFT
 62
1
 10
481.540
 20
-6384.826
 30
127.000
 70
    32
  0
VERTEX
  8
W51LXLIFT
 62
1
 10
477.739
 20
-6380.255
 30
127.000
 70
    32
  0
VERTEX
  8
W51LXLIFT
 62
1
 10
477.481
 20
-6379.630
 30
127.000
 70
    32
  0
VERTEX
  8
W51LXLIFT
 62
1
 10
465.040
 20
-6367.429
 30
127.000
 70
    32
  0
VERTEX
  8
W51LXLIFT
 62
1
 10
453.878
 20
-6359.292
 30
127.000
 70
    32
  0
VERTEX
  8
W51LXLIFT
 62
1
 10
443.229
 20
-6349.192
 30
127.000
 70
    32
  0
VERTEX
  8
W51LXLIFT
 62
1
 10
434.654
 20
-6344.861
 30
127.000
 70
    32
  0
VERTEX
  8
W51LXLIFT
 62
1
 10
433.679
 20
-6338.628
 30
127.000
 70
    32
  0
VERTEX
  8
W51LXLIFT
 62
1
 10
433.928
 20
-6332.332
 30
127.000
 70
    32
  0
VERTEX
  8
W51LXLIFT
 62
1
 10
435.815
 20
-6312.706
 30
127.000
 70
    32
  0
VERTEX
  8
W51LXLIFT
 62
1
 10
438.051
 20
-6309.263
 30
127.000
 70
    32
  0
VERTEX
  8
W51LXLIFT
 62
1
 10
439.888
 20
-6307.342
 30
127.000
 70
    32
  0
VERTEX
  8
W51LXLIFT
 62
1
 10
430.835
 20
-6284.534
 30
127.000
 70
    32
  0
VERTEX
  8
W51LXLIFT
 62
1
 10
416.753
 20
-6267.662
 30
127.000
 70
    32
  0
VERTEX
  8
W51LXLIFT
 62
1
 10
425.487
 20
-6260.245
 30
127.000
 70
    32
  0
VERTEX
  8
W51LXLIFT
 62
1
 10
436.753
 20
-6258.493
 30
127.000
 70
    32
  0
VERTEX
  8
W51LXLIFT
 62
1
 10
454.875
 20
-6273.610
 30
127.000
 70
    32
  0
VERTEX
  8
W51LXLIFT
 62
1
 10
460.736
 20
-6284.987
 30
127.000
 70
    32
  0
VERTEX
  8
W51LXLIFT
 62
1
 10
460.143
 20
-6296.307
 30
127.000
 70
    32
  0
VERTEX
  8
W51LXLIFT
 62
1
 10
458.249
 20
-6302.474
 30
127.000
 70
    32
  0
VERTEX
  8
W51LXLIFT
 62
1
 10
459.505
 20
-6330.501
 30
127.000
 70
    32
  0
VERTEX
  8
W51LXLIFT
 62
1
 10
468.533
 20
-6347.189
 30
127.000
 70
    32
  0
VERTEX
  8
W51LXLIFT
 62
1
 10
483.249
 20
-6357.943
 30
127.000
 70
    32
  0
VERTEX
  8
W51LXLIFT
 62
1
 10
489.268
 20
-6369.591
 30
127.000
 70
    32
  0
VERTEX
  8
W51LXLIFT
 62
1
 10
491.917
 20
-6376.766
 30
127.000
 70
    32
  0
VERTEX
  8
W51LXLIFT
 62
1
 10
494.936
 20
-6381.021
 30
127.000
 70
    32
  0
VERTEX
  8
W51LXLIFT
 62
1
 10
495.090
 20
-6381.862
 30
127.000
 70
    32
  0
VERTEX
  8
W51LXLIFT
 62
1
 10
506.209
 20
-6399.883
 30
127.000
 70
    32
  0
VERTEX
  8
W51LXLIFT
 62
1
 10
510.995
 20
-6409.744
 30
127.000
 70
    32
  0
VERTEX
  8
W51LXLIFT
 62
1
 10
520.053
 20
-6418.981
 30
127.000
 70
    32
  0
VERTEX
  8
W51LXLIFT
 62
1
 10
528.308
 20
-6422.966
 30
127.000
 70
    32
  0
VERTEX
  8
W51LXLIFT
 62
1
 10
522.049
 20
-6433.740
 30
127.000
 70
    32
  0
VERTEX
  8
W51LXLIFT
 62
1
 10
513.827
 20
-6425.015
 30
127.000
 70
    32
  0
VERTEX
  8
W51LXLIFT
 62
1
 10
502.556
 20
-6421.074
 30
127.000
 70
    32
  0
VERTEX
  8
W51LXLIFT
 62
1
 10
504.814
 20
-6432.279
 30
127.000
 70
    32
  0
VERTEX
  8
W51LXLIFT
 62
1
 10
505.594
 20
-6436.188
 30
127.000
 70
    32
  0
VERTEX
  8
W51LXLIFT
 62
1
 10
507.464
 20
-6449.722
 30
127.000
 70
    32
  0
VERTEX
  8
W51LXLIFT
 62
1
 10
517.246
 20
-6471.004
 30
127.000
 70
    32
  0
VERTEX
  8
W51LXLIFT
 62
1
 10
518.136
 20
-6484.105
 30
127.000
 70
    32
  0
VERTEX
  8
W51LXLIFT
 62
1
 10
515.939
 20
-6497.497
 30
127.000
 70
    32
  0
VERTEX
  8
W51LXLIFT
 62
1
 10
505.271
 20
-6514.771
 30
127.000
 70
    32
  0
VERTEX
  8
W51LXLIFT
 62
1
 10
504.101
 20
-6523.854
 30
127.000
 70
    32
  0
SEQEND
  8
W51LXLIFT
  0
POLYLINE
  8
W51LXLIFT
 62
2
 66
     1
 70
     9
  0
VERTEX
  8
W51LXLIFT
 62
2
 10
960.340
 20
-7172.266
 30
167.220
 70
    32
  0
VERTEX
  8
W51LXLIFT
 62
2
 10
953.727
 20
-7167.263
 30
167.220
 70
    32
  0
VERTEX
  8
W51LXLIFT
 62
2
 10
939.305
 20
-7150.815
 30
167.220
 70
    32
  0
VERTEX
  8
W51LXLIFT
 62
2
 10
935.102
 20
-7139.625
 30
167.219
 70
    32
  0
VERTEX
  8
W51LXLIFT
 62
2
 10
937.393
 20
-7137.698
 30
167.220
 70
    32
  0
VERTEX
  8
W51LXLIFT
 62
2
 10
947.041
 20
-7138.324
 30
167.220
 70
    32
  0
VERTEX
  8
W51LXLIFT
 62
2
 10
963.503
 20
-7165.015
 30
167.220
 70
    32
  0
VERTEX
  8
W51LXLIFT
 62
2
 10
965.282
 20
-7172.442
 30
167.220
 70
    32
  0
SEQEND
  8
W51LXLIFT
  0
POLYLINE
  8
W51LXLIFT
 62
1
 66
     1
 70
     9
  0
VERTEX
  8
W51LXLIFT
 62
1
 10
892.916
 20
-7110.321
 30
177.073
 70
    32
  0
VERTEX
  8
W51LXLIFT
 62
1
 10
898.617
 20
-7096.151
 30
177.090
 70
    32
  0
VERTEX
  8
W51LXLIFT
 62
1
 10
902.509
 20
-7072.219
 30
177.087
 70
    32
  0
VERTEX
  8
W51LXLIFT
 62
1
 10
913.340
 20
-7068.268
 30
177.139
 70
    32
  0
VERTEX
  8
W51LXLIFT
 62
1
 10
915.038
 20
-7061.830
 30
177.149
 70
    32
  0
VERTEX
  8
W51LXLIFT
 62
1
 10
920.725
 20
-7058.486
 30
177.177
 70
    32
  0
VERTEX
  8
W51LXLIFT
 62
1
 10
930.142
 20
-7060.771
 30
177.220
 70
    32
  0
VERTEX
  8
W51LXLIFT
 62
1
 10
937.679
 20
-7068.769
 30
177.220
 70
    32
  0
VERTEX
  8
W51LXLIFT
 62
1
 10
953.806
 20
-7089.483
 30
177.220
 70
    32
  0
VERTEX
  8
W51LXLIFT
 62
1
 10
961.340
 20
-7107.869
 30
177.220
 70
    32
  0
VERTEX
  8
W51LXLIFT
 62
1
 10
969.129
 20
-7111.189
 30
177.220
 70
    32
  0
VERTEX
  8
W51LXLIFT
 62
1
 10
976.253
 20
-7118.297
 30
177.220
 70
    32
  0
VERTEX
  8
W51LXLIFT
 62
1
 10
979.404
 20
-7124.013
 30
177.220
 70
    32
  0
VERTEX
  8
W51LXLIFT
 62
1
 10
982.323
 20
-7148.953
 30
177.220
 70
    32
  0
VERTEX
  8
W51LXLIFT
 62
1
 10
987.264
 20
-7157.376
 30
177.220
 70
    32
  0
VERTEX
  8
W51LXLIFT
 62
1
 10
1024.980
 20
-7191.014
 30
177.220
 70
    32
  0
VERTEX
  8
W51LXLIFT
 62
1
 10
1012.166
 20
-7204.816
 30
177.220
 70
    32
  0
VERTEX
  8
W51LXLIFT
 62
1
 10
994.532
 20
-7187.299
 30
177.220
 70
    32
  0
VERTEX
  8
W51LXLIFT
 62
1
 10
986.109
 20
-7180.782
 30
177.220
 70
    32
  0
VERTEX
  8
W51LXLIFT
 62
1
 10
980.210
 20
-7180.312
 30
177.220
 70
    32
  0
VERTEX
  8
W51LXLIFT
 62
1
 10
972.835
 20
-7184.304
 30
177.220
 70
    32
  0
VERTEX
  8
W51LXLIFT
 62
1
 10
978.072
 20
-7193.912
 30
177.220
 70
    32
  0
VERTEX
  8
W51LXLIFT
 62
1
 10
995.687
 20
-7215.832
 30
177.220
 70
    32
  0
VERTEX
  8
W51LXLIFT
 62
1
 10
990.915
 20
-7223.996
 30
177.220
 70
    32
  0
VERTEX
  8
W51LXLIFT
 62
1
 10
984.805
 20
-7229.029
 30
177.220
 70
    32
  0
VERTEX
  8
W51LXLIFT
 62
1
 10
974.793
 20
-7232.621
 30
177.220
 70
    32
  0
VERTEX
  8
W51LXLIFT
 62
1
 10
965.850
 20
-7234.071
 30
177.220
 70
    32
  0
VERTEX
  8
W51LXLIFT
 62
1
 10
957.071
 20
-7221.699
 30
177.220
 70
    32
  0
VERTEX
  8
W51LXLIFT
 62
1
 10
945.484
 20
-7212.044
 30
177.220
 70
    32
  0
VERTEX
  8
W51LXLIFT
 62
1
 10
933.657
 20
-7198.382
 30
177.202
 70
    32
  0
VERTEX
  8
W51LXLIFT
 62
1
 10
918.497
 20
-7162.854
 30
177.154
 70
    32
  0
VERTEX
  8
W51LXLIFT
 62
1
 10
914.046
 20
-7146.269
 30
177.141
 70
    32
  0
VERTEX
  8
W51LXLIFT
 62
1
 10
908.842
 20
-7131.819
 30
177.125
 70
    32
  0
VERTEX
  8
W51LXLIFT
 62
1
 10
902.005
 20
-7123.440
 30
177.102
 70
    32
  0
VERTEX
  8
W51LXLIFT
 62
1
 10
894.174
 20
-7122.504
 30
177.075
 70
    32
  0
SEQEND
  8
W51LXLIFT
  0
POLYLINE
  8
W51LXLIFT
 62
1
 66
     1
 70
     9
  0
VERTEX
  8
W51LXLIFT
 62
1
 10
1152.050
 20
-7242.031
 30
217.000
 70
    32
  0
VERTEX
  8
W51LXLIFT
 62
1
 10
1157.637
 20
-7248.049
 30
217.000
 70
    32
  0
VERTEX
  8
W51LXLIFT
 62
1
 10
1163.847
 20
-7250.827
 30
217.000
 70
    32
  0
VERTEX
  8
W51LXLIFT
 62
1
 10
1172.227
 20
-7248.192
 30
217.000
 70
    32
  0
VERTEX
  8
W51LXLIFT
 62
1
 10
1187.829
 20
-7236.620
 30
217.000
 70
    32
  0
VERTEX
  8
W51LXLIFT
 62
1
 10
1179.200
 20
-7226.180
 30
217.000
 70
    32
  0
VERTEX
  8
W51LXLIFT
 62
1
 10
1172.859
 20
-7222.505
 30
217.000
 70
    32
  0
VERTEX
  8
W51LXLIFT
 62
1
 10
1159.172
 20
-7214.709
 30
217.000
 70
    32
  0
VERTEX
  8
W51LXLIFT
 62
1
 10
1150.101
 20
-7206.153
 30
217.000
 70
    32
  0
VERTEX
  8
W51LXLIFT
 62
1
 10
1146.317
 20
-7196.991
 30
217.000
 70
    32
  0
VERTEX
  8
W51LXLIFT
 62
1
 10
1146.834
 20
-7189.411
 30
217.000
 70
    32
  0
VERTEX
  8
W51LXLIFT
 62
1
 10
1149.528
 20
-7185.697
 30
217.000
 70
    32
  0
VERTEX
  8
W51LXLIFT
 62
1
 10
1141.807
 20
-7178.765
 30
217.000
 70
    32
  0
VERTEX
  8
W51LXLIFT
 62
1
 10
1130.882
 20
-7179.804
 30
217.000
 70
    32
  0
VERTEX
  8
W51LXLIFT
 62
1
 10
1122.004
 20
-7175.413
 30
217.000
 70
    32
  0
VERTEX
  8
W51LXLIFT
 62
1
 10
1104.552
 20
-7158.770
 30
217.000
 70
    32
  0
VERTEX
  8
W51LXLIFT
 62
1
 10
1098.569
 20
-7147.306
 30
217.000
 70
    32
  0
VERTEX
  8
W51LXLIFT
 62
1
 10
1097.575
 20
-7139.774
 30
217.000
 70
    32
  0
VERTEX
  8
W51LXLIFT
 62
1
 10
1090.618
 20
-7140.218
 30
217.000
 70
    32
  0
VERTEX
  8
W51LXLIFT
 62
1
 10
1086.163
 20
-7139.305
 30
217.000
 70
    32
  0
VERTEX
  8
W51LXLIFT
 62
1
 10
1077.185
 20
-7129.132
 30
217.000
 70
    32
  0
VERTEX
  8
W51LXLIFT
 62
1
 10
1071.320
 20
-7125.647
 30
217.000
 70
    32
  0
VERTEX
  8
W51LXLIFT
 62
1
 10
1071.236
 20
-7119.742
 30
217.000
 70
    32
  0
VERTEX
  8
W51LXLIFT
 62
1
 10
1072.563
 20
-7108.006
 30
217.000
 70
    32
  0
VERTEX
  8
W51LXLIFT
 62
1
 10
1062.990
 20
-7104.587
 30
217.000
 70
    32
  0
VERTEX
  8
W51LXLIFT
 62
1
 10
1060.859
 20
-7108.314
 30
217.000
 70
    32
  0
VERTEX
  8
W51LXLIFT
 62
1
 10
1054.520
 20
-7102.759
 30
217.000
 70
    32
  0
VERTEX
  8
W51LXLIFT
 62
1
 10
1049.897
 20
-7098.438
 30
217.000
 70
    32
  0
VERTEX
  8
W51LXLIFT
 62
1
 10
1046.168
 20
-7098.187
 30
217.000
 70
    32
  0
VERTEX
  8
W51LXLIFT
 62
1
 10
1040.718
 20
-7102.346
 30
217.000
 70
    32
  0
VERTEX
  8
W51LXLIFT
 62
1
 10
1043.295
 20
-7112.098
 30
217.000
 70
    32
  0
VERTEX
  8
W51LXLIFT
 62
1
 10
1049.066
 20
-7125.602
 30
217.000
 70
    32
  0
VERTEX
  8
W51LXLIFT
 62
1
 10
1048.082
 20
-7131.991
 30
217.000
 70
    32
  0
VERTEX
  8
W51LXLIFT
 62
1
 10
1052.725
 20
-7140.830
 30
217.000
 70
    32
  0
VERTEX
  8
W51LXLIFT
 62
1
 10
1060.901
 20
-7145.315
 30
217.000
 70
    32
  0
VERTEX
  8
W51LXLIFT
 62
1
 10
1083.721
 20
-7160.735
 30
217.000
 70
    32
  0
VERTEX
  8
W51LXLIFT
 62
1
 10
1091.997
 20
-7175.204
 30
217.000
 70
    32
  0
VERTEX
  8
W51LXLIFT
 62
1
 10
1103.821
 20
-7185.196
 30
217.000
 70
    32
  0
VERTEX
  8
W51LXLIFT
 62
1
 10
1108.551
 20
-7193.858
 30
217.000
 70
    32
  0
VERTEX
  8
W51LXLIFT
 62
1
 10
1107.089
 20
-7201.938
 30
217.000
 70
    32
  0
VERTEX
  8
W51LXLIFT
 62
1
 10
1114.666
 20
-7208.537
 30
217.000
 70
    32
  0
VERTEX
  8
W51LXLIFT
 62
1
 10
1125.437
 20
-7210.048
 30
217.000
 70
    32
  0
VERTEX
  8
W51LXLIFT
 62
1
 10
1136.024
 20
-7212.913
 30
217.000
 70
    32
  0
VERTEX
  8
W51LXLIFT
 62
1
 10
1143.920
 20
-7221.813
 30
217.000
 70
    32
  0
VERTEX
  8
W51LXLIFT
 62
1
 10
1149.107
 20
-7232.668
 30
217.000
 70
    32
  0
SEQEND
  8
W51LXLIFT
  0
POLYLINE
  8
W51LXLIFT
 62
5
 66
     1
 70
     9
  0
VERTEX
  8
W51LXLIFT
 62
5
 10
983.109
 20
-7497.598
 30
197.288
 70
    32
  0
VERTEX
  8
W51LXLIFT
 62
5
 10
994.407
 20
-7504.242
 30
195.362
 70
    32
  0
VERTEX
  8
W51LXLIFT
 62
5
 10
1001.876
 20
-7512.606
 30
193.402
 70
    32
  0
VERTEX
  8
W51LXLIFT
 62
5
 10
1001.524
 20
-7529.988
 30
190.930
 70
    32
  0
VERTEX
  8
W51LXLIFT
 62
5
 10
1000.079
 20
-7541.817
 30
190.930
 70
    32
  0
VERTEX
  8
W51LXLIFT
 62
5
 10
997.399
 20
-7552.048
 30
190.930
 70
    32
  0
VERTEX
  8
W51LXLIFT
 62
5
 10
990.759
 20
-7560.451
 30
190.930
 70
    32
  0
VERTEX
  8
W51LXLIFT
 62
5
 10
981.816
 20
-7560.830
 30
190.930
 70
    32
  0
VERTEX
  8
W51LXLIFT
 62
5
 10
976.374
 20
-7554.900
 30
190.930
 70
    32
  0
VERTEX
  8
W51LXLIFT
 62
5
 10
973.766
 20
-7538.906
 30
190.930
 70
    32
  0
VERTEX
  8
W51LXLIFT
 62
5
 10
972.738
 20
-7532.604
 30
192.044
 70
    32
  0
VERTEX
  8
W51LXLIFT
 62
5
 10
963.967
 20
-7512.301
 30
196.021
 70
    32
  0
VERTEX
  8
W51LXLIFT
 62
5
 10
971.677
 20
-7503.898
 30
196.969
 70
    32
  0
SEQEND
  8
W51LXLIFT
  0
POLYLINE
  8
W51LXLIFT
 62
3
 66
     1
 70
     9
  0
VERTEX
  8
W51LXLIFT
 62
3
 10
997.971
 20
-7431.030
 30
203.000
 70
    32
  0
VERTEX
  8
W51LXLIFT
 62
3
 10
1006.190
 20
-7438.830
 30
203.000
 70
    32
  0
VERTEX
  8
W51LXLIFT
 62
3
 10
1015.629
 20
-7455.040
 30
203.000
 70
    32
  0
VERTEX
  8
W51LXLIFT
 62
3
 10
1019.800
 20
-7464.321
 30
203.000
 70
    32
  0
VERTEX
  8
W51LXLIFT
 62
3
 10
1020.712
 20
-7470.109
 30
203.000
 70
    32
  0
VERTEX
  8
W51LXLIFT
 62
3
 10
1033.116
 20
-7493.099
 30
203.000
 70
    32
  0
VERTEX
  8
W51LXLIFT
 62
3
 10
1040.149
 20
-7503.427
 30
203.000
 70
    32
  0
VERTEX
  8
W51LXLIFT
 62
3
 10
1047.522
 20
-7522.162
 30
203.000
 70
    32
  0
VERTEX
  8
W51LXLIFT
 62
3
 10
1051.310
 20
-7525.041
 30
203.000
 70
    32
  0
VERTEX
  8
W51LXLIFT
 62
3
 10
1057.490
 20
-7517.589
 30
203.000
 70
    32
  0
VERTEX
  8
W51LXLIFT
 62
3
 10
1066.799
 20
-7510.658
 30
203.000
 70
    32
  0
VERTEX
  8
W51LXLIFT
 62
3
 10
1059.748
 20
-7495.301
 30
203.000
 70
    32
  0
VERTEX
  8
W51LXLIFT
 62
3
 10
1059.463
 20
-7486.086
 30
203.000
 70
    32
  0
VERTEX
  8
W51LXLIFT
 62
3
 10
1040.643
 20
-7442.115
 30
203.000
 70
    32
  0
VERTEX
  8
W51LXLIFT
 62
3
 10
1036.786
 20
-7433.696
 30
203.000
 70
    32
  0
VERTEX
  8
W51LXLIFT
 62
3
 10
1032.470
 20
-7430.991
 30
203.000
 70
    32
  0
VERTEX
  8
W51LXLIFT
 62
3
 10
1009.883
 20
-7428.627
 30
203.000
 70
    32
  0
VERTEX
  8
W51LXLIFT
 62
3
 10
1006.006
 20
-7425.923
 30
203.000
 70
    32
  0
SEQEND
  8
W51LXLIFT
  0
POLYLINE
  8
W51LXLIFT
 62
1
 66
     1
 70
     9
  0
VERTEX
  8
W51LXLIFT
 62
1
 10
1055.300
 20
-7493.315
 30
172.000
 70
    32
  0
VERTEX
  8
W51LXLIFT
 62
1
 10
1063.844
 20
-7498.901
 30
172.000
 70
    32
  0
VERTEX
  8
W51LXLIFT
 62
1
 10
1069.332
 20
-7508.626
 30
172.000
 70
    32
  0
VERTEX
  8
W51LXLIFT
 62
1
 10
1074.626
 20
-7513.234
 30
172.000
 70
    32
  0
VERTEX
  8
W51LXLIFT
 62
1
 10
1086.036
 20
-7508.684
 30
172.000
 70
    32
  0
VERTEX
  8
W51LXLIFT
 62
1
 10
1085.717
 20
-7504.428
 30
172.000
 70
    32
  0
VERTEX
  8
W51LXLIFT
 62
1
 10
1082.375
 20
-7494.640
 30
172.000
 70
    32
  0
VERTEX
  8
W51LXLIFT
 62
1
 10
1080.963
 20
-7485.825
 30
172.000
 70
    32
  0
VERTEX
  8
W51LXLIFT
 62
1
 10
1083.757
 20
-7476.182
 30
172.000
 70
    32
  0
VERTEX
  8
W51LXLIFT
 62
1
 10
1082.267
 20
-7459.753
 30
172.000
 70
    32
  0
VERTEX
  8
W51LXLIFT
 62
1
 10
1080.644
 20
-7456.249
 30
172.000
 70
    32
  0
VERTEX
  8
W51LXLIFT
 62
1
 10
1079.349
 20
-7423.890
 30
172.000
 70
    32
  0
VERTEX
  8
W51LXLIFT
 62
1
 10
1079.141
 20
-7412.865
 30
172.000
 70
    32
  0
VERTEX
  8
W51LXLIFT
 62
1
 10
1071.724
 20
-7406.878
 30
172.000
 70
    32
  0
VERTEX
  8
W51LXLIFT
 62
1
 10
1068.206
 20
-7407.305
 30
172.000
 70
    32
  0
VERTEX
  8
W51LXLIFT
 62
1
 10
1066.523
 20
-7400.776
 30
172.000
 70
    32
  0
VERTEX
  8
W51LXLIFT
 62
1
 10
1060.313
 20
-7401.563
 30
172.000
 70
    32
  0
VERTEX
  8
W51LXLIFT
 62
1
 10
1055.377
 20
-7405.239
 30
172.000
 70
    32
  0
VERTEX
  8
W51LXLIFT
 62
1
 10
1052.348
 20
-7411.770
 30
172.000
 70
    32
  0
VERTEX
  8
W51LXLIFT
 62
1
 10
1049.291
 20
-7426.213
 30
172.000
 70
    32
  0
VERTEX
  8
W51LXLIFT
 62
1
 10
1049.942
 20
-7431.209
 30
172.000
 70
    32
  0
VERTEX
  8
W51LXLIFT
 62
1
 10
1057.089
 20
-7433.889
 30
172.000
 70
    32
  0
VERTEX
  8
W51LXLIFT
 62
1
 10
1061.632
 20
-7437.192
 30
172.000
 70
    32
  0
VERTEX
  8
W51LXLIFT
 62
1
 10
1061.594
 20
-7443.030
 30
172.000
 70
    32
  0
VERTEX
  8
W51LXLIFT
 62
1
 10
1063.905
 20
-7461.149
 30
172.000
 70
    32
  0
VERTEX
  8
W51LXLIFT
 62
1
 10
1064.162
 20
-7467.973
 30
172.000
 70
    32
  0
VERTEX
  8
W51LXLIFT
 62
1
 10
1056.611
 20
-7480.501
 30
172.000
 70
    32
  0
SEQEND
  8
W51LXLIFT
  0
POLYLINE
  8
W51LXLIFT
 62
1
 66
     1
 70
     9
  0
VERTEX
  8
W51LXLIFT
 62
1
 10
1068.940
 20
-7540.487
 30
186.000
 70
    32
  0
VERTEX
  8
W51LXLIFT
 62
1
 10
1075.220
 20
-7549.951
 30
186.000
 70
    32
  0
VERTEX
  8
W51LXLIFT
 62
1
 10
1080.452
 20
-7562.277
 30
186.000
 70
    32
  0
VERTEX
  8
W51LXLIFT
 62
1
 10
1082.019
 20
-7582.047
 30
186.000
 70
    32
  0
VERTEX
  8
W51LXLIFT
 62
1
 10
1091.868
 20
-7586.442
 30
186.000
 70
    32
  0
VERTEX
  8
W51LXLIFT
 62
1
 10
1096.864
 20
-7585.791
 30
186.000
 70
    32
  0
VERTEX
  8
W51LXLIFT
 62
1
 10
1105.861
 20
-7577.558
 30
186.000
 70
    32
  0
VERTEX
  8
W51LXLIFT
 62
1
 10
1102.856
 20
-7566.751
 30
186.000
 70
    32
  0
VERTEX
  8
W51LXLIFT
 62
1
 10
1100.306
 20
-7556.702
 30
186.000
 70
    32
  0
VERTEX
  8
W51LXLIFT
 62
1
 10
1104.528
 20
-7545.885
 30
186.000
 70
    32
  0
VERTEX
  8
W51LXLIFT
 62
1
 10
1094.996
 20
-7536.322
 30
186.000
 70
    32
  0
VERTEX
  8
W51LXLIFT
 62
1
 10
1091.277
 20
-7523.525
 30
186.000
 70
    32
  0
VERTEX
  8
W51LXLIFT
 62
1
 10
1084.921
 20
-7515.872
 30
186.000
 70
    32
  0
VERTEX
  8
W51LXLIFT
 62
1
 10
1066.560
 20
-7521.980
 30
186.000
 70
    32
  0
SEQEND
  8
W51LXLIFT
  0
POLYLINE
  8
W51LXLIFT
 62
7
 66
     1
 70
     9
  0
VERTEX
  8
W51LXLIFT
 62
7
 10
1035.191
 20
-7317.059
 30
197.000
 70
    32
  0
VERTEX
  8
W51LXLIFT
 62
7
 10
1042.460
 20
-7320.356
 30
197.000
 70
    32
  0
VERTEX
  8
W51LXLIFT
 62
7
 10
1054.185
 20
-7339.489
 30
197.000
 70
    32
  0
VERTEX
  8
W51LXLIFT
 62
7
 10
1054.511
 20
-7344.988
 30
197.000
 70
    32
  0
VERTEX
  8
W51LXLIFT
 62
7
 10
1050.357
 20
-7350.700
 30
197.000
 70
    32
  0
VERTEX
  8
W51LXLIFT
 62
7
 10
1050.260
 20
-7353.760
 30
197.000
 70
    32
  0
VERTEX
  8
W51LXLIFT
 62
7
 10
1059.443
 20
-7371.736
 30
197.000
 70
    32
  0
VERTEX
  8
W51LXLIFT
 62
7
 10
1055.730
 20
-7379.765
 30
197.000
 70
    32
  0
VERTEX
  8
W51LXLIFT
 62
7
 10
1057.324
 20
-7383.302
 30
197.000
 70
    32
  0
VERTEX
  8
W51LXLIFT
 62
7
 10
1062.060
 20
-7386.322
 30
197.000
 70
    32
  0
VERTEX
  8
W51LXLIFT
 62
7
 10
1066.639
 20
-7393.772
 30
197.000
 70
    32
  0
VERTEX
  8
W51LXLIFT
 62
7
 10
1046.970
 20
-7406.678
 30
197.000
 70
    32
  0
VERTEX
  8
W51LXLIFT
 62
7
 10
1046.262
 20
-7412.414
 30
197.000
 70
    32
  0
VERTEX
  8
W51LXLIFT
 62
7
 10
1043.750
 20
-7418.974
 30
197.000
 70
    32
  0
VERTEX
  8
W51LXLIFT
 62
7
 10
1014.774
 20
-7418.089
 30
197.000
 70
    32
  0
VERTEX
  8
W51LXLIFT
 62
7
 10
994.316
 20
-7380.832
 30
197.000
 70
    32
  0
VERTEX
  8
W51LXLIFT
 62
7
 10
983.709
 20
-7364.172
 30
197.000
 70
    32
  0
VERTEX
  8
W51LXLIFT
 62
7
 10
988.603
 20
-7356.030
 30
197.000
 70
    32
  0
VERTEX
  8
W51LXLIFT
 62
7
 10
991.443
 20
-7349.541
 30
197.000
 70
    32
  0
VERTEX
  8
W51LXLIFT
 62
7
 10
1002.725
 20
-7344.095
 30
197.000
 70
    32
  0
VERTEX
  8
W51LXLIFT
 62
7
 10
1025.540
 20
-7322.105
 30
197.000
 70
    32
  0
SEQEND
  8
W51LXLIFT
  0
POLYLINE
  8
W51LXLIFT
 62
1
 66
     1
 70
     9
  0
VERTEX
  8
W51LXLIFT
 62
1
 10
1036.191
 20
-7316.059
 30
207.000
 70
    32
  0
VERTEX
  8
W51LXLIFT
 62
1
 10
1043.460
 20
-7319.356
 30
207.000
 70
    32
  0
VERTEX
  8
W51LXLIFT
 62
1
 10
1055.185
 20
-7338.489
 30
207.000
 70
    32
  0
VERTEX
  8
W51LXLIFT
 62
1
 10
1055.511
 20
-7343.988
 30
207.000
 70
    32
  0
VERTEX
  8
W51LXLIFT
 62
1
 10
1051.357
 20
-7349.700
 30
207.000
 70
    32
  0
VERTEX
  8
W51LXLIFT
 62
1
 10
1051.260
 20
-7352.760
 30
207.000
 70
    32
  0
VERTEX
  8
W51LXLIFT
 62
1
 10
1060.443
 20
-7370.736
 30
207.000
 70
    32
  0
VERTEX
  8
W51LXLIFT
 62
1
 10
1056.730
 20
-7378.765
 30
207.000
 70
    32
  0
VERTEX
  8
W51LXLIFT
 62
1
 10
1058.324
 20
-7382.302
 30
207.000
 70
    32
  0
VERTEX
  8
W51LXLIFT
 62
1
 10
1063.060
 20
-7385.322
 30
207.000
 70
    32
  0
VERTEX
  8
W51LXLIFT
 62
1
 10
1067.639
 20
-7392.772
 30
207.000
 70
    32
  0
VERTEX
  8
W51LXLIFT
 62
1
 10
1047.970
 20
-7405.678
 30
207.000
 70
    32
  0
VERTEX
  8
W51LXLIFT
 62
1
 10
1047.262
 20
-7411.414
 30
207.000
 70
    32
  0
VERTEX
  8
W51LXLIFT
 62
1
 10
1044.750
 20
-7417.974
 30
207.000
 70
    32
  0
VERTEX
  8
W51LXLIFT
 62
1
 10
1015.774
 20
-7417.089
 30
207.000
 70
    32
  0
VERTEX
  8
W51LXLIFT
 62
1
 10
995.316
 20
-7379.832
 30
207.000
 70
    32
  0
VERTEX
  8
W51LXLIFT
 62
1
 10
984.709
 20
-7363.172
 30
207.000
 70
    32
  0
VERTEX
  8
W51LXLIFT
 62
1
 10
989.603
 20
-7355.030
 30
207.000
 70
    32
  0
VERTEX
  8
W51LXLIFT
 62
1
 10
992.443
 20
-7348.541
 30
207.000
 70
    32
  0
VERTEX
  8
W51LXLIFT
 62
1
 10
1003.725
 20
-7343.095
 30
207.000
 70
    32
  0
VERTEX
  8
W51LXLIFT
 62
1
 10
1026.540
 20
-7321.105
 30
207.000
 70
    32
  0
SEQEND
  8
W51LXLIFT
  0
POLYLINE
  8
W51LXLIFT
 62
1
 66
     1
 70
     9
  0
VERTEX
  8
W51LXLIFT
 62
1
 10
996.084
 20
-7281.948
 30
207.000
 70
    32
  0
VERTEX
  8
W51LXLIFT
 62
1
 10
971.592
 20
-7263.355
 30
207.000
 70
    32
  0
VERTEX
  8
W51LXLIFT
 62
1
 10
961.944
 20
-7263.355
 30
207.000
 70
    32
  0
VERTEX
  8
W51LXLIFT
 62
1
 10
954.345
 20
-7251.820
 30
207.000
 70
    32
  0
VERTEX
  8
W51LXLIFT
 62
1
 10
947.097
 20
-7244.638
 30
207.000
 70
    32
  0
VERTEX
  8
W51LXLIFT
 62
1
 10
942.330
 20
-7235.783
 30
207.000
 70
    32
  0
VERTEX
  8
W51LXLIFT
 62
1
 10
954.662
 20
-7217.752
 30
207.000
 70
    32
  0
VERTEX
  8
W51LXLIFT
 62
1
 10
961.723
 20
-7223.529
 30
207.000
 70
    32
  0
VERTEX
  8
W51LXLIFT
 62
1
 10
965.883
 20
-7227.098
 30
207.000
 70
    32
  0
VERTEX
  8
W51LXLIFT
 62
1
 10
970.014
 20
-7227.152
 30
207.000
 70
    32
  0
VERTEX
  8
W51LXLIFT
 62
1
 10
979.834
 20
-7226.403
 30
207.000
 70
    32
  0
VERTEX
  8
W51LXLIFT
 62
1
 10
986.337
 20
-7228.406
 30
207.000
 70
    32
  0
VERTEX
  8
W51LXLIFT
 62
1
 10
990.502
 20
-7234.734
 30
207.000
 70
    32
  0
VERTEX
  8
W51LXLIFT
 62
1
 10
992.213
 20
-7248.132
 30
207.000
 70
    32
  0
VERTEX
  8
W51LXLIFT
 62
1
 10
997.920
 20
-7260.249
 30
207.000
 70
    32
  0
VERTEX
  8
W51LXLIFT
 62
1
 10
1003.750
 20
-7265.861
 30
207.000
 70
    32
  0
VERTEX
  8
W51LXLIFT
 62
1
 10
1010.955
 20
-7278.492
 30
207.000
 70
    32
  0
SEQEND
  8
W51LXLIFT
  0
POLYLINE
  8
W51LXLIFT
 62
2
 66
     1
 70
     9
  0
VERTEX
  8
W51LXLIFT
 62
2
 10
891.916
 20
-7111.321
 30
167.073
 70
    32
  0
VERTEX
  8
W51LXLIFT
 62
2
 10
897.617
 20
-7097.151
 30
167.090
 70
    32
  0
VERTEX
  8
W51LXLIFT
 62
2
 10
901.509
 20
-7073.219
 30
167.087
 70
    32
  0
VERTEX
  8
W51LXLIFT
 62
2
 10
912.340
 20
-7069.268
 30
167.139
 70
    32
  0
VERTEX
  8
W51LXLIFT
 62
2
 10
914.038
 20
-7062.830
 30
167.149
 70
    32
  0
VERTEX
  8
W51LXLIFT
 62
2
 10
919.725
 20
-7059.486
 30
167.177
 70
    32
  0
VERTEX
  8
W51LXLIFT
 62
2
 10
929.142
 20
-7061.771
 30
167.220
 70
    32
  0
VERTEX
  8
W51LXLIFT
 62
2
 10
936.679
 20
-7069.769
 30
167.220
 70
    32
  0
VERTEX
  8
W51LXLIFT
 62
2
 10
952.806
 20
-7090.483
 30
167.220
 70
    32
  0
VERTEX
  8
W51LXLIFT
 62
2
 10
960.340
 20
-7108.869
 30
167.220
 70
    32
  0
VERTEX
  8
W51LXLIFT
 62
2
 10
968.129
 20
-7112.189
 30
167.220
 70
    32
  0
VERTEX
  8
W51LXLIFT
 62
2
 10
975.253
 20
-7119.297
 30
167.220
 70
    32
  0
VERTEX
  8
W51LXLIFT
 62
2
 10
978.404
 20
-7125.013
 30
167.220
 70
    32
  0
VERTEX
  8
W51LXLIFT
 62
2
 10
981.323
 20
-7149.953
 30
167.220
 70
    32
  0
VERTEX
  8
W51LXLIFT
 62
2
 10
986.264
 20
-7158.376
 30
167.220
 70
    32
  0
VERTEX
  8
W51LXLIFT
 62
2
 10
1023.980
 20
-7192.014
 30
167.220
 70
    32
  0
VERTEX
  8
W51LXLIFT
 62
2
 10
1011.166
 20
-7205.816
 30
167.220
 70
    32
  0
VERTEX
  8
W51LXLIFT
 62
2
 10
993.532
 20
-7188.299
 30
167.220
 70
    32
  0
VERTEX
  8
W51LXLIFT
 62
2
 10
985.109
 20
-7181.782
 30
167.220
 70
    32
  0
VERTEX
  8
W51LXLIFT
 62
2
 10
979.210
 20
-7181.312
 30
167.220
 70
    32
  0
VERTEX
  8
W51LXLIFT
 62
2
 10
971.835
 20
-7185.304
 30
167.220
 70
    32
  0
VERTEX
  8
W51LXLIFT
 62
2
 10
977.072
 20
-7194.912
 30
167.220
 70
    32
  0
VERTEX
  8
W51LXLIFT
 62
2
 10
994.687
 20
-7216.832
 30
167.220
 70
    32
  0
VERTEX
  8
W51LXLIFT
 62
2
 10
989.915
 20
-7224.996
 30
167.220
 70
    32
  0
VERTEX
  8
W51LXLIFT
 62
2
 10
983.805
 20
-7230.029
 30
167.220
 70
    32
  0
VERTEX
  8
W51LXLIFT
 62
2
 10
973.793
 20
-7233.621
 30
167.220
 70
    32
  0
VERTEX
  8
W51LXLIFT
 62
2
 10
964.850
 20
-7235.071
 30
167.220
 70
    32
  0
VERTEX
  8
W51LXLIFT
 62
2
 10
956.071
 20
-7222.699
 30
167.220
 70
    32
  0
VERTEX
  8
W51LXLIFT
 62
2
 10
944.484
 20
-7213.044
 30
167.220
 70
    32
  0
VERTEX
  8
W51LXLIFT
 62
2
 10
932.657
 20
-7199.382
 30
167.202
 70
    32
  0
VERTEX
  8
W51LXLIFT
 62
2
 10
917.497
 20
-7163.854
 30
167.154
 70
    32
  0
VERTEX
  8
W51LXLIFT
 62
2
 10
913.046
 20
-7147.269
 30
167.141
 70
    32
  0
VERTEX
  8
W51LXLIFT
 62
2
 10
907.842
 20
-7132.819
 30
167.125
 70
    32
  0
VERTEX
  8
W51LXLIFT
 62
2
 10
901.005
 20
-7124.440
 30
167.102
 70
    32
  0
VERTEX
  8
W51LXLIFT
 62
2
 10
893.174
 20
-7123.504
 30
167.075
 70
    32
  0
SEQEND
  8
W51LXLIFT
  0
POLYLINE
  8
W51LXLIFT
 62
2
 66
     1
 70
     9
  0
VERTEX
  8
W51LXLIFT
 62
2
 10
497.077
 20
-6453.183
 30
117.000
 70
    32
  0
VERTEX
  8
W51LXLIFT
 62
2
 10
487.854
 20
-6419.450
 30
117.000
 70
    32
  0
VERTEX
  8
W51LXLIFT
 62
2
 10
480.540
 20
-6385.826
 30
117.000
 70
    32
  0
VERTEX
  8
W51LXLIFT
 62
2
 10
476.739
 20
-6381.255
 30
117.000
 70
    32
  0
VERTEX
  8
W51LXLIFT
 62
2
 10
476.481
 20
-6380.630
 30
117.000
 70
    32
  0
VERTEX
  8
W51LXLIFT
 62
2
 10
464.040
 20
-6368.429
 30
117.000
 70
    32
  0
VERTEX
  8
W51LXLIFT
 62
2
 10
452.878
 20
-6360.292
 30
117.000
 70
    32
  0
VERTEX
  8
W51LXLIFT
 62
2
 10
442.229
 20
-6350.192
 30
117.000
 70
    32
  0
VERTEX
  8
W51LXLIFT
 62
2
 10
433.654
 20
-6345.861
 30
117.000
 70
    32
  0
VERTEX
  8
W51LXLIFT
 62
2
 10
432.679
 20
-6339.628
 30
117.000
 70
    32
  0
VERTEX
  8
W51LXLIFT
 62
2
 10
432.928
 20
-6333.332
 30
117.000
 70
    32
  0
VERTEX
  8
W51LXLIFT
 62
2
 10
434.815
 20
-6313.706
 30
117.000
 70
    32
  0
VERTEX
  8
W51LXLIFT
 62
2
 10
437.051
 20
-6310.263
 30
117.000
 70
    32
  0
VERTEX
  8
W51LXLIFT
 62
2
 10
438.888
 20
-6308.342
 30
117.000
 70
    32
  0
VERTEX
  8
W51LXLIFT
 62
2
 10
429.835
 20
-6285.534
 30
117.000
 70
    32
  0
VERTEX
  8
W51LXLIFT
 62
2
 10
415.753
 20
-6268.662
 30
117.000
 70
    32
  0
VERTEX
  8
W51LXLIFT
 62
2
 10
424.487
 20
-6261.245
 30
117.000
 70
    32
  0
VERTEX
  8
W51LXLIFT
 62
2
 10
435.753
 20
-6259.493
 30
117.000
 70
    32
  0
VERTEX
  8
W51LXLIFT
 62
2
 10
453.875
 20
-6274.610
 30
117.000
 70
    32
  0
VERTEX
  8
W51LXLIFT
 62
2
 10
459.736
 20
-6285.987
 30
117.000
 70
    32
  0
VERTEX
  8
W51LXLIFT
 62
2
 10
459.143
 20
-6297.307
 30
117.000
 70
    32
  0
VERTEX
  8
W51LXLIFT
 62
2
 10
457.249
 20
-6303.474
 30
117.000
 70
    32
  0
VERTEX
  8
W51LXLIFT
 62
2
 10
458.505
 20
-6331.501
 30
117.000
 70
    32
  0
VERTEX
  8
W51LXLIFT
 62
2
 10
467.533
 20
-6348.189
 30
117.000
 70
    32
  0
VERTEX
  8
W51LXLIFT
 62
2
 10
482.249
 20
-6358.943
 30
117.000
 70
    32
  0
VERTEX
  8
W51LXLIFT
 62
2
 10
488.268
 20
-6370.591
 30
117.000
 70
    32
  0
VERTEX
  8
W51LXLIFT
 62
2
 10
490.917
 20
-6377.766
 30
117.000
 70
    32
  0
VERTEX
  8
W51LXLIFT
 62
2
 10
493.936
 20
-6382.021
 30
117.000
 70
    32
  0
VERTEX
  8
W51LXLIFT
 62
2
 10
494.090
 20
-6382.862
 30
117.000
 70
    32
  0
VERTEX
  8
W51LXLIFT
 62
2
 10
505.209
 20
-6400.883
 30
117.000
 70
    32
  0
VERTEX
  8
W51LXLIFT
 62
2
 10
509.995
 20
-6410.744
 30
117.000
 70
    32
  0
VERTEX
  8
W51LXLIFT
 62
2
 10
519.053
 20
-6419.981
 30
117.000
 70
    32
  0
VERTEX
  8
W51LXLIFT
 62
2
 10
527.308
 20
-6423.966
 30
117.000
 70
    32
  0
VERTEX
  8
W51LXLIFT
 62
2
 10
521.049
 20
-6434.740
 30
117.000
 70
    32
  0
VERTEX
  8
W51LXLIFT
 62
2
 10
512.827
 20
-6426.015
 30
117.000
 70
    32
  0
VERTEX
  8
W51LXLIFT
 62
2
 10
501.556
 20
-6422.074
 30
117.000
 70
    32
  0
VERTEX
  8
W51LXLIFT
 62
2
 10
503.814
 20
-6433.279
 30
117.000
 70
    32
  0
VERTEX
  8
W51LXLIFT
 62
2
 10
504.594
 20
-6437.188
 30
117.000
 70
    32
  0
VERTEX
  8
W51LXLIFT
 62
2
 10
506.464
 20
-6450.722
 30
117.000
 70
    32
  0
VERTEX
  8
W51LXLIFT
 62
2
 10
516.246
 20
-6472.004
 30
117.000
 70
    32
  0
VERTEX
  8
W51LXLIFT
 62
2
 10
517.136
 20
-6485.105
 30
117.000
 70
    32
  0
VERTEX
  8
W51LXLIFT
 62
2
 10
514.939
 20
-6498.497
 30
117.000
 70
    32
  0
VERTEX
  8
W51LXLIFT
 62
2
 10
504.271
 20
-6515.771
 30
117.000
 70
    32
  0
VERTEX
  8
W51LXLIFT
 62
2
 10
503.101
 20
-6524.854
 30
117.000
 70
    32
  0
SEQEND
  8
W51LXLIFT
  0
POLYLINE
  8
W51LXLIFT
 62
1
 66
     1
 70
     9
  0
VERTEX
  8
W51LXLIFT
 62
1
 10
1193.452
 20
-8245.558
 30
223.000
 70
    32
  0
VERTEX
  8
W51LXLIFT
 62
1
 10
1191.424
 20
-8240.737
 30
223.000
 70
    32
  0
VERTEX
  8
W51LXLIFT
 62
1
 10
1177.579
 20
-8219.164
 30
223.000
 70
    32
  0
VERTEX
  8
W51LXLIFT
 62
1
 10
1165.843
 20
-8215.422
 30
223.000
 70
    32
  0
VERTEX
  8
W51LXLIFT
 62
1
 10
1158.546
 20
-8205.928
 30
223.000
 70
    32
  0
VERTEX
  8
W51LXLIFT
 62
1
 10
1150.168
 20
-8206.600
 30
223.000
 70
    32
  0
VERTEX
  8
W51LXLIFT
 62
1
 10
1140.157
 20
-8198.606
 30
223.000
 70
    32
  0
VERTEX
  8
W51LXLIFT
 62
1
 10
1135.800
 20
-8191.879
 30
223.000
 70
    32
  0
VERTEX
  8
W51LXLIFT
 62
1
 10
1137.329
 20
-8182.799
 30
223.000
 70
    32
  0
VERTEX
  8
W51LXLIFT
 62
1
 10
1143.165
 20
-8178.860
 30
223.000
 70
    32
  0
VERTEX
  8
W51LXLIFT
 62
1
 10
1153.058
 20
-8177.434
 30
223.000
 70
    32
  0
VERTEX
  8
W51LXLIFT
 62
1
 10
1150.231
 20
-8173.614
 30
223.000
 70
    32
  0
VERTEX
  8
W51LXLIFT
 62
1
 10
1155.331
 20
-8169.551
 30
223.000
 70
    32
  0
VERTEX
  8
W51LXLIFT
 62
1
 10
1160.831
 20
-8177.733
 30
223.000
 70
    32
  0
VERTEX
  8
W51LXLIFT
 62
1
 10
1171.102
 20
-8183.058
 30
223.000
 70
    32
  0
VERTEX
  8
W51LXLIFT
 62
1
 10
1178.789
 20
-8192.490
 30
223.000
 70
    32
  0
VERTEX
  8
W51LXLIFT
 62
1
 10
1193.708
 20
-8214.055
 30
223.000
 70
    32
  0
VERTEX
  8
W51LXLIFT
 62
1
 10
1205.230
 20
-8236.310
 30
223.000
 70
    32
  0
SEQEND
  8
W51LXLIFT
  0
POLYLINE
  8
W51LXLIFT
 62
2
 66
     1
 70
     9
  0
VERTEX
  8
W51LXLIFT
 62
2
 10
1202.664
 20
-7977.630
 30
85.406
 70
    32
  0
VERTEX
  8
W51LXLIFT
 62
2
 10
1199.693
 20
-7971.858
 30
85.399
 70
    32
  0
VERTEX
  8
W51LXLIFT
 62
2
 10
1207.288
 20
-7967.355
 30
85.278
 70
    32
  0
VERTEX
  8
W51LXLIFT
 62
2
 10
1210.542
 20
-7961.646
 30
85.317
 70
    32
  0
VERTEX
  8
W51LXLIFT
 62
2
 10
1215.023
 20
-7966.655
 30
85.333
 70
    32
  0
VERTEX
  8
W51LXLIFT
 62
2
 10
1222.557
 20
-7971.087
 30
85.378
 70
    32
  0
VERTEX
  8
W51LXLIFT
 62
2
 10
1236.558
 20
-7974.865
 30
85.482
 70
    32
  0
VERTEX
  8
W51LXLIFT
 62
2
 10
1236.410
 20
-7978.116
 30
85.466
 70
    32
  0
VERTEX
  8
W51LXLIFT
 62
2
 10
1248.878
 20
-7997.204
 30
85.489
 70
    32
  0
VERTEX
  8
W51LXLIFT
 62
2
 10
1245.454
 20
-8001.626
 30
85.441
 70
    32
  0
VERTEX
  8
W51LXLIFT
 62
2
 10
1235.708
 20
-8007.355
 30
85.332
 70
    32
  0
VERTEX
  8
W51LXLIFT
 62
2
 10
1218.995
 20
-7994.257
 30
85.333
 70
    32
  0
SEQEND
  8
W51LXLIFT
  0
POLYLINE
  8
W51LXLIFT
 62
6
 66
     1
 70
     9
  0
VERTEX
  8
W51LXLIFT
 62
6
 10
1084.729
 20
-7935.737
 30
86.494
 70
    32
  0
VERTEX
  8
W51LXLIFT
 62
6
 10
1073.349
 20
-7897.865
 30
86.356
 70
    32
  0
VERTEX
  8
W51LXLIFT
 62
6
 10
1046.562
 20
-7868.397
 30
86.460
 70
    32
  0
VERTEX
  8
W51LXLIFT
 62
6
 10
1029.287
 20
-7833.476
 30
86.452
 70
    32
  0
VERTEX
  8
W51LXLIFT
 62
6
 10
1025.437
 20
-7821.074
 30
86.524
 70
    32
  0
VERTEX
  8
W51LXLIFT
 62
6
 10
1023.531
 20
-7802.499
 30
86.573
 70
    32
  0
VERTEX
  8
W51LXLIFT
 62
6
 10
1029.006
 20
-7786.189
 30
86.508
 70
    32
  0
VERTEX
  8
W51LXLIFT
 62
6
 10
1021.822
 20
-7778.035
 30
86.626
 70
    32
  0
VERTEX
  8
W51LXLIFT
 62
6
 10
1013.665
 20
-7775.896
 30
86.752
 70
    32
  0
VERTEX
  8
W51LXLIFT
 62
6
 10
1012.402
 20
-7761.519
 30
86.787
 70
    32
  0
VERTEX
  8
W51LXLIFT
 62
6
 10
1009.547
 20
-7754.254
 30
86.838
 70
    32
  0
VERTEX
  8
W51LXLIFT
 62
6
 10
1016.980
 20
-7748.025
 30
86.732
 70
    32
  0
VERTEX
  8
W51LXLIFT
 62
6
 10
1035.826
 20
-7755.016
 30
86.439
 70
    32
  0
VERTEX
  8
W51LXLIFT
 62
6
 10
1039.819
 20
-7755.186
 30
86.379
 70
    32
  0
VERTEX
  8
W51LXLIFT
 62
6
 10
1052.535
 20
-7770.409
 30
86.170
 70
    32
  0
VERTEX
  8
W51LXLIFT
 62
6
 10
1058.167
 20
-7790.091
 30
86.063
 70
    32
  0
VERTEX
  8
W51LXLIFT
 62
6
 10
1091.019
 20
-7837.737
 30
85.716
 70
    32
  0
VERTEX
  8
W51LXLIFT
 62
6
 10
1090.895
 20
-7849.093
 30
85.716
 70
    32
  0
VERTEX
  8
W51LXLIFT
 62
6
 10
1084.174
 20
-7853.951
 30
85.913
 70
    32
  0
VERTEX
  8
W51LXLIFT
 62
6
 10
1091.650
 20
-7876.640
 30
85.988
 70
    32
  0
VERTEX
  8
W51LXLIFT
 62
6
 10
1099.002
 20
-7888.034
 30
85.983
 70
    32
  0
VERTEX
  8
W51LXLIFT
 62
6
 10
1100.272
 20
-7897.310
 30
86.035
 70
    32
  0
VERTEX
  8
W51LXLIFT
 62
6
 10
1105.226
 20
-7911.844
 30
86.081
 70
    32
  0
VERTEX
  8
W51LXLIFT
 62
6
 10
1108.866
 20
-7916.590
 30
86.072
 70
    32
  0
VERTEX
  8
W51LXLIFT
 62
6
 10
1117.766
 20
-7922.314
 30
86.008
 70
    32
  0
VERTEX
  8
W51LXLIFT
 62
6
 10
1122.416
 20
-7941.837
 30
86.094
 70
    32
  0
VERTEX
  8
W51LXLIFT
 62
6
 10
1129.914
 20
-7960.499
 30
86.140
 70
    32
  0
VERTEX
  8
W51LXLIFT
 62
6
 10
1129.219
 20
-7964.795
 30
86.179
 70
    32
  0
VERTEX
  8
W51LXLIFT
 62
6
 10
1123.870
 20
-7975.267
 30
86.317
 70
    32
  0
VERTEX
  8
W51LXLIFT
 62
6
 10
1120.677
 20
-7970.089
 30
86.317
 70
    32
  0
VERTEX
  8
W51LXLIFT
 62
6
 10
1090.104
 20
-7941.835
 30
86.474
 70
    32
  0
SEQEND
  8
W51LXLIFT
  0
POLYLINE
  8
W51LXLIFT
 62
13
 66
     1
 70
     9
  0
VERTEX
  8
W51LXLIFT
 62
13
 10
383.615
 20
-5999.664
 30
93.908
 70
    32
  0
VERTEX
  8
W51LXLIFT
 62
13
 10
380.223
 20
-5993.635
 30
93.888
 70
    32
  0
VERTEX
  8
W51LXLIFT
 62
13
 10
388.890
 20
-5984.743
 30
93.643
 70
    32
  0
VERTEX
  8
W51LXLIFT
 62
13
 10
396.525
 20
-5981.978
 30
93.489
 70
    32
  0
VERTEX
  8
W51LXLIFT
 62
13
 10
400.343
 20
-5987.582
 30
93.497
 70
    32
  0
VERTEX
  8
W51LXLIFT
 62
13
 10
404.676
 20
-5985.340
 30
93.401
 70
    32
  0
VERTEX
  8
W51LXLIFT
 62
13
 10
409.732
 20
-5988.554
 30
93.361
 70
    32
  0
VERTEX
  8
W51LXLIFT
 62
13
 10
412.797
 20
-5993.974
 30
93.379
 70
    32
  0
VERTEX
  8
W51LXLIFT
 62
13
 10
410.867
 20
-5997.222
 30
93.449
 70
    32
  0
VERTEX
  8
W51LXLIFT
 62
13
 10
408.184
 20
-5997.969
 30
93.500
 70
    32
  0
VERTEX
  8
W51LXLIFT
 62
13
 10
412.724
 20
-6003.947
 30
93.501
 70
    32
  0
VERTEX
  8
W51LXLIFT
 62
13
 10
416.748
 20
-6005.815
 30
93.410
 70
    32
  0
VERTEX
  8
W51LXLIFT
 62
13
 10
419.946
 20
-6011.121
 30
93.292
 70
    32
  0
VERTEX
  8
W51LXLIFT
 62
13
 10
423.867
 20
-6012.989
 30
93.183
 70
    32
  0
VERTEX
  8
W51LXLIFT
 62
13
 10
429.677
 20
-6025.494
 30
92.945
 70
    32
  0
VERTEX
  8
W51LXLIFT
 62
13
 10
435.397
 20
-6032.791
 30
92.750
 70
    32
  0
VERTEX
  8
W51LXLIFT
 62
13
 10
442.547
 20
-6050.669
 30
92.438
 70
    32
  0
VERTEX
  8
W51LXLIFT
 62
13
 10
447.770
 20
-6053.171
 30
92.292
 70
    32
  0
VERTEX
  8
W51LXLIFT
 62
13
 10
450.918
 20
-6059.006
 30
92.171
 70
    32
  0
VERTEX
  8
W51LXLIFT
 62
13
 10
456.259
 20
-6060.913
 30
92.027
 70
    32
  0
VERTEX
  8
W51LXLIFT
 62
13
 10
459.283
 20
-6066.513
 30
91.910
 70
    32
  0
VERTEX
  8
W51LXLIFT
 62
13
 10
461.723
 20
-6064.757
 30
91.865
 70
    32
  0
VERTEX
  8
W51LXLIFT
 62
13
 10
467.564
 20
-6072.874
 30
91.716
 70
    32
  0
VERTEX
  8
W51LXLIFT
 62
13
 10
465.440
 20
-6074.402
 30
91.749
 70
    32
  0
VERTEX
  8
W51LXLIFT
 62
13
 10
465.615
 20
-6092.591
 30
91.664
 70
    32
  0
VERTEX
  8
W51LXLIFT
 62
13
 10
454.521
 20
-6096.613
 30
91.855
 70
    32
  0
VERTEX
  8
W51LXLIFT
 62
13
 10
449.978
 20
-6103.552
 30
91.909
 70
    32
  0
VERTEX
  8
W51LXLIFT
 62
13
 10
446.574
 20
-6131.479
 30
91.848
 70
    32
  0
VERTEX
  8
W51LXLIFT
 62
13
 10
435.591
 20
-6131.915
 30
92.053
 70
    32
  0
VERTEX
  8
W51LXLIFT
 62
13
 10
428.270
 20
-6128.806
 30
92.205
 70
    32
  0
VERTEX
  8
W51LXLIFT
 62
13
 10
429.702
 20
-6102.632
 30
92.344
 70
    32
  0
VERTEX
  8
W51LXLIFT
 62
13
 10
423.016
 20
-6091.094
 30
92.596
 70
    32
  0
VERTEX
  8
W51LXLIFT
 62
13
 10
421.781
 20
-6081.255
 30
92.702
 70
    32
  0
VERTEX
  8
W51LXLIFT
 62
13
 10
433.937
 20
-6073.597
 30
92.468
 70
    32
  0
VERTEX
  8
W51LXLIFT
 62
13
 10
435.450
 20
-6068.599
 30
92.470
 70
    32
  0
VERTEX
  8
W51LXLIFT
 62
13
 10
430.437
 20
-6061.107
 30
92.650
 70
    32
  0
VERTEX
  8
W51LXLIFT
 62
13
 10
421.332
 20
-6062.533
 30
92.858
 70
    32
  0
VERTEX
  8
W51LXLIFT
 62
13
 10
412.738
 20
-6051.447
 30
93.152
 70
    32
  0
VERTEX
  8
W51LXLIFT
 62
13
 10
416.707
 20
-6046.712
 30
93.093
 70
    32
  0
VERTEX
  8
W51LXLIFT
 62
13
 10
417.498
 20
-6037.141
 30
93.149
 70
    32
  0
VERTEX
  8
W51LXLIFT
 62
13
 10
412.002
 20
-6028.980
 30
93.345
 70
    32
  0
VERTEX
  8
W51LXLIFT
 62
13
 10
410.351
 20
-6024.497
 30
93.420
 70
    32
  0
VERTEX
  8
W51LXLIFT
 62
13
 10
398.486
 20
-6010.523
 30
93.806
 70
    32
  0
VERTEX
  8
W51LXLIFT
 62
13
 10
394.127
 20
-6007.722
 30
93.841
 70
    32
  0
SEQEND
  8
W51LXLIFT
  0
POLYLINE
  8
W51LXLIFT
 62
1
 66
     1
 70
     9
  0
VERTEX
  8
W51LXLIFT
 62
1
 10
384.615
 20
-5998.664
 30
103.908
 70
    32
  0
VERTEX
  8
W51LXLIFT
 62
1
 10
381.223
 20
-5992.635
 30
103.888
 70
    32
  0
VERTEX
  8
W51LXLIFT
 62
1
 10
389.890
 20
-5983.743
 30
103.643
 70
    32
  0
VERTEX
  8
W51LXLIFT
 62
1
 10
397.525
 20
-5980.978
 30
103.489
 70
    32
  0
VERTEX
  8
W51LXLIFT
 62
1
 10
401.343
 20
-5986.582
 30
103.497
 70
    32
  0
VERTEX
  8
W51LXLIFT
 62
1
 10
405.676
 20
-5984.340
 30
103.401
 70
    32
  0
VERTEX
  8
W51LXLIFT
 62
1
 10
410.732
 20
-5987.554
 30
103.361
 70
    32
  0
VERTEX
  8
W51LXLIFT
 62
1
 10
413.797
 20
-5992.974
 30
103.379
 70
    32
  0
VERTEX
  8
W51LXLIFT
 62
1
 10
411.867
 20
-5996.222
 30
103.449
 70
    32
  0
VERTEX
  8
W51LXLIFT
 62
1
 10
409.184
 20
-5996.969
 30
103.500
 70
    32
  0
VERTEX
  8
W51LXLIFT
 62
1
 10
413.724
 20
-6002.947
 30
103.501
 70
    32
  0
VERTEX
  8
W51LXLIFT
 62
1
 10
417.748
 20
-6004.815
 30
103.410
 70
    32
  0
VERTEX
  8
W51LXLIFT
 62
1
 10
420.946
 20
-6010.121
 30
103.292
 70
    32
  0
VERTEX
  8
W51LXLIFT
 62
1
 10
424.867
 20
-6011.989
 30
103.183
 70
    32
  0
VERTEX
  8
W51LXLIFT
 62
1
 10
430.677
 20
-6024.494
 30
102.945
 70
    32
  0
VERTEX
  8
W51LXLIFT
 62
1
 10
436.397
 20
-6031.791
 30
102.750
 70
    32
  0
VERTEX
  8
W51LXLIFT
 62
1
 10
443.547
 20
-6049.669
 30
102.438
 70
    32
  0
VERTEX
  8
W51LXLIFT
 62
1
 10
448.770
 20
-6052.171
 30
102.292
 70
    32
  0
VERTEX
  8
W51LXLIFT
 62
1
 10
451.918
 20
-6058.006
 30
102.171
 70
    32
  0
VERTEX
  8
W51LXLIFT
 62
1
 10
457.259
 20
-6059.913
 30
102.027
 70
    32
  0
VERTEX
  8
W51LXLIFT
 62
1
 10
460.283
 20
-6065.513
 30
101.910
 70
    32
  0
VERTEX
  8
W51LXLIFT
 62
1
 10
462.723
 20
-6063.757
 30
101.865
 70
    32
  0
VERTEX
  8
W51LXLIFT
 62
1
 10
468.564
 20
-6071.874
 30
101.716
 70
    32
  0
VERTEX
  8
W51LXLIFT
 62
1
 10
466.440
 20
-6073.402
 30
101.749
 70
    32
  0
VERTEX
  8
W51LXLIFT
 62
1
 10
466.615
 20
-6091.591
 30
101.664
 70
    32
  0
VERTEX
  8
W51LXLIFT
 62
1
 10
455.521
 20
-6095.613
 30
101.855
 70
    32
  0
VERTEX
  8
W51LXLIFT
 62
1
 10
450.978
 20
-6102.552
 30
101.909
 70
    32
  0
VERTEX
  8
W51LXLIFT
 62
1
 10
447.574
 20
-6130.479
 30
101.848
 70
    32
  0
VERTEX
  8
W51LXLIFT
 62
1
 10
436.591
 20
-6130.915
 30
102.053
 70
    32
  0
VERTEX
  8
W51LXLIFT
 62
1
 10
429.270
 20
-6127.806
 30
102.205
 70
    32
  0
VERTEX
  8
W51LXLIFT
 62
1
 10
430.702
 20
-6101.632
 30
102.344
 70
    32
  0
VERTEX
  8
W51LXLIFT
 62
1
 10
424.016
 20
-6090.094
 30
102.596
 70
    32
  0
VERTEX
  8
W51LXLIFT
 62
1
 10
422.781
 20
-6080.255
 30
102.702
 70
    32
  0
VERTEX
  8
W51LXLIFT
 62
1
 10
434.937
 20
-6072.597
 30
102.468
 70
    32
  0
VERTEX
  8
W51LXLIFT
 62
1
 10
436.450
 20
-6067.599
 30
102.470
 70
    32
  0
VERTEX
  8
W51LXLIFT
 62
1
 10
431.437
 20
-6060.107
 30
102.650
 70
    32
  0
VERTEX
  8
W51LXLIFT
 62
1
 10
422.332
 20
-6061.533
 30
102.858
 70
    32
  0
VERTEX
  8
W51LXLIFT
 62
1
 10
413.738
 20
-6050.447
 30
103.152
 70
    32
  0
VERTEX
  8
W51LXLIFT
 62
1
 10
417.707
 20
-6045.712
 30
103.093
 70
    32
  0
VERTEX
  8
W51LXLIFT
 62
1
 10
418.498
 20
-6036.141
 30
103.149
 70
    32
  0
VERTEX
  8
W51LXLIFT
 62
1
 10
413.002
 20
-6027.980
 30
103.345
 70
    32
  0
VERTEX
  8
W51LXLIFT
 62
1
 10
411.351
 20
-6023.497
 30
103.420
 70
    32
  0
VERTEX
  8
W51LXLIFT
 62
1
 10
399.486
 20
-6009.523
 30
103.806
 70
    32
  0
VERTEX
  8
W51LXLIFT
 62
1
 10
395.127
 20
-6006.722
 30
103.841
 70
    32
  0
SEQEND
  8
W51LXLIFT
  0
POINT
  8
W51LXLIFT
 62
6
 10
1108.589
 20
-7173.291
 30
217.000
  0
POINT
  8
W51LXLIFT
 62
6
 10
1043.999
 20
-7164.493
 30
306.000
  0
LINE
  8
W51LXLIFT
 62
6
 10
1043.999
 20
-7164.493
 30
306.000
 11
1108.589
 21
-7173.291
 31
217.000
  0
POINT
  8
W51LXLIFT
 62
13
 10
339.136
 20
-6093.408
 30
131.000
  0
POINT
  8
W51LXLIFT
 62
13
 10
253.012
 20
-6118.971
 30
269.000
  0
LINE
  8
W51LXLIFT
 62
6
 10
253.012
 20
-6118.971
 30
269.000
 11
339.136
 21
-6093.408
 31
131.000
  0
LINE
  8
W51LXLIFT
 62
3
 10
632.070
 20
-6609.279
 30
158.000
 11
659.952
 21
-6582.391
 31
118.000
  0
POINT
  8
W51LXLIFT
 62
3
 10
659.952
 20
-6582.391
 30
118.000
  0
POINT
  8
W51LXLIFT
 62
3
 10
632.070
 20
-6609.279
 30
158.000
  0
POINT
  8
W51LXLIFT
 62
3
 10
1071.030
 20
-7455.596
 30
172.000
  0
POINT
  8
W51LXLIFT
 62
3
 10
1039.287
 20
-7466.718
 30
203.000
  0
POINT
  8
W51LXLIFT
 62
11
 10
1086.638
 20
-7550.372
 30
176.000
  0
LINE
  8
W51LXLIFT
 62
3
 10
1039.287
 20
-7466.718
 30
203.000
 11
1071.030
 21
-7455.596
 31
172.000
  0
POLYLINE
  8
W51LXLIFT
 62
7
 66
     1
 70
     9
  0
VERTEX
  8
W51LXLIFT
 62
7
 10
1037.076
 20
-7303.116
 30
88.202
 70
    32
  0
VERTEX
  8
W51LXLIFT
 62
7
 10
1051.900
 20
-7302.622
 30
88.166
 70
    32
  0
VERTEX
  8
W51LXLIFT
 62
7
 10
1054.365
 20
-7305.735
 30
88.143
 70
    32
  0
VERTEX
  8
W51LXLIFT
 62
7
 10
1056.315
 20
-7316.232
 30
88.079
 70
    32
  0
VERTEX
  8
W51LXLIFT
 62
7
 10
1094.890
 20
-7381.231
 30
87.614
 70
    32
  0
VERTEX
  8
W51LXLIFT
 62
7
 10
1095.486
 20
-7390.121
 30
87.562
 70
    32
  0
VERTEX
  8
W51LXLIFT
 62
7
 10
1078.322
 20
-7390.558
 30
87.604
 70
    32
  0
VERTEX
  8
W51LXLIFT
 62
7
 10
1076.049
 20
-7380.562
 30
87.666
 70
    32
  0
VERTEX
  8
W51LXLIFT
 62
7
 10
1073.287
 20
-7371.230
 30
87.726
 70
    32
  0
VERTEX
  8
W51LXLIFT
 62
7
 10
1062.697
 20
-7355.260
 30
87.843
 70
    32
  0
VERTEX
  8
W51LXLIFT
 62
7
 10
1055.859
 20
-7342.925
 30
87.930
 70
    32
  0
VERTEX
  8
W51LXLIFT
 62
7
 10
1042.505
 20
-7321.304
 30
88.086
 70
    32
  0
SEQEND
  8
W51LXLIFT
  0
POLYLINE
  8
W51LXLIFT
 62
1
 66
     1
 70
     9
  0
VERTEX
  8
W51LXLIFT
 62
1
 10
1038.076
 20
-7302.116
 30
98.202
 70
    32
  0
VERTEX
  8
W51LXLIFT
 62
1
 10
1052.900
 20
-7301.622
 30
98.166
 70
    32
  0
VERTEX
  8
W51LXLIFT
 62
1
 10
1055.365
 20
-7304.735
 30
98.143
 70
    32
  0
VERTEX
  8
W51LXLIFT
 62
1
 10
1057.315
 20
-7315.232
 30
98.079
 70
    32
  0
VERTEX
  8
W51LXLIFT
 62
1
 10
1095.890
 20
-7380.231
 30
97.614
 70
    32
  0
VERTEX
  8
W51LXLIFT
 62
1
 10
1096.486
 20
-7389.121
 30
97.562
 70
    32
  0
VERTEX
  8
W51LXLIFT
 62
1
 10
1079.322
 20
-7389.558
 30
97.604
 70
    32
  0
VERTEX
  8
W51LXLIFT
 62
1
 10
1077.049
 20
-7379.562
 30
97.666
 70
    32
  0
VERTEX
  8
W51LXLIFT
 62
1
 10
1074.287
 20
-7370.230
 30
97.726
 70
    32
  0
VERTEX
  8
W51LXLIFT
 62
1
 10
1063.697
 20
-7354.260
 30
97.843
 70
    32
  0
VERTEX
  8
W51LXLIFT
 62
1
 10
1056.859
 20
-7341.925
 30
97.930
 70
    32
  0
VERTEX
  8
W51LXLIFT
 62
1
 10
1043.505
 20
-7320.304
 30
98.086
 70
    32
  0
SEQEND
  8
W51LXLIFT
  0
POINT
  8
W51LXLIFT
 62
7
 10
1030.696
 20
-7371.272
 30
197.000
  0
POINT
  8
W51LXLIFT
 62
3
 10
1224.491
 20
-8572.577
 30
86.000
  0
LINE
  8
W51LXLIFT
 62
8
 10
1100.704
 20
-7329.645
 30
89.000
 11
1221.413
 21
-7420.625
 31
-51.000
  0
POINT
  8
W51LXLIFT
 62
8
 10
1100.704
 20
-7329.645
 30
89.000
  0
POINT
  8
W51LXLIFT
 62
8
 10
1221.413
 20
-7420.625
 30
-51.000
  0
POINT
  8
W51LXLIFT
 62
11
 10
1090.324
 20
-7537.997
 30
112.000
  0
LINE
  8
W51LXLIFT
 62
11
 10
1090.324
 20
-7537.997
 30
112.000
 11
1086.638
 21
-7550.372
 31
176.000
  0
LINE
  8
W51LXLIFT
 62
3
 10
1224.491
 20
-8572.577
 30
86.000
 11
1270.264
 21
-8546.706
 31
-51.678
  0
POINT
  8
W51LXLIFT
 62
1
 10
1270.264
 20
-8546.706
 30
-51.678
  0
POLYLINE
  8
W51LXLIFT
 62
3
 66
     1
 70
     9
  0
VERTEX
  8
W51LXLIFT
 62
3
 10
1226.851
 20
-8548.060
 30
85.639
 70
    32
  0
VERTEX
  8
W51LXLIFT
 62
3
 10
1236.642
 20
-8567.345
 30
85.588
 70
    32
  0
VERTEX
  8
W51LXLIFT
 62
3
 10
1234.208
 20
-8571.486
 30
85.582
 70
    32
  0
VERTEX
  8
W51LXLIFT
 62
3
 10
1240.038
 20
-8583.327
 30
85.550
 70
    32
  0
VERTEX
  8
W51LXLIFT
 62
3
 10
1244.990
 20
-8608.379
 30
85.491
 70
    32
  0
VERTEX
  8
W51LXLIFT
 62
3
 10
1236.686
 20
-8614.152
 30
85.486
 70
    32
  0
VERTEX
  8
W51LXLIFT
 62
3
 10
1225.879
 20
-8613.600
 30
85.500
 70
    32
  0
VERTEX
  8
W51LXLIFT
 62
3
 10
1225.094
 20
-8594.324
 30
85.542
 70
    32
  0
VERTEX
  8
W51LXLIFT
 62
3
 10
1223.256
 20
-8588.169
 30
85.557
 70
    32
  0
VERTEX
  8
W51LXLIFT
 62
3
 10
1211.356
 20
-8565.960
 30
85.617
 70
    32
  0
VERTEX
  8
W51LXLIFT
 62
3
 10
1208.960
 20
-8565.194
 30
85.621
 70
    32
  0
VERTEX
  8
W51LXLIFT
 62
3
 10
1202.714
 20
-8558.640
 30
85.641
 70
    32
  0
VERTEX
  8
W51LXLIFT
 62
3
 10
1204.124
 20
-8551.877
 30
85.654
 70
    32
  0
VERTEX
  8
W51LXLIFT
 62
3
 10
1216.298
 20
-8538.542
 30
85.671
 70
    32
  0
VERTEX
  8
W51LXLIFT
 62
3
 10
1223.755
 20
-8539.560
 30
85.661
 70
    32
  0
SEQEND
  8
W51LXLIFT
  0
POLYLINE
  8
W51LXLIFT
 62
1
 66
     1
 70
     9
  0
VERTEX
  8
W51LXLIFT
 62
1
 10
1227.851
 20
-8547.060
 30
95.639
 70
    32
  0
VERTEX
  8
W51LXLIFT
 62
1
 10
1237.642
 20
-8566.345
 30
95.588
 70
    32
  0
VERTEX
  8
W51LXLIFT
 62
1
 10
1235.208
 20
-8570.486
 30
95.582
 70
    32
  0
VERTEX
  8
W51LXLIFT
 62
1
 10
1241.038
 20
-8582.327
 30
95.550
 70
    32
  0
VERTEX
  8
W51LXLIFT
 62
1
 10
1245.990
 20
-8607.379
 30
95.491
 70
    32
  0
VERTEX
  8
W51LXLIFT
 62
1
 10
1237.686
 20
-8613.152
 30
95.486
 70
    32
  0
VERTEX
  8
W51LXLIFT
 62
1
 10
1226.879
 20
-8612.600
 30
95.500
 70
    32
  0
VERTEX
  8
W51LXLIFT
 62
1
 10
1226.094
 20
-8593.324
 30
95.542
 70
    32
  0
VERTEX
  8
W51LXLIFT
 62
1
 10
1224.256
 20
-8587.169
 30
95.557
 70
    32
  0
VERTEX
  8
W51LXLIFT
 62
1
 10
1212.356
 20
-8564.960
 30
95.617
 70
    32
  0
VERTEX
  8
W51LXLIFT
 62
1
 10
1209.960
 20
-8564.194
 30
95.621
 70
    32
  0
VERTEX
  8
W51LXLIFT
 62
1
 10
1203.714
 20
-8557.640
 30
95.641
 70
    32
  0
VERTEX
  8
W51LXLIFT
 62
1
 10
1205.124
 20
-8550.877
 30
95.654
 70
    32
  0
VERTEX
  8
W51LXLIFT
 62
1
 10
1217.298
 20
-8537.542
 30
95.671
 70
    32
  0
VERTEX
  8
W51LXLIFT
 62
1
 10
1224.755
 20
-8538.560
 30
95.661
 70
    32
  0
SEQEND
  8
W51LXLIFT
  0
LINE
  8
W51LXLIFT
 62
13
 10
432.512
 20
-6047.239
 30
92.894
 11
495.475
 21
-6001.855
 31
-45.547
  0
POINT
  8
W51LXLIFT
 62
1
 10
495.475
 20
-6001.855
 30
-45.547
  0
POINT
  8
W51LXLIFT
 62
1
 10
432.512
 20
-6047.239
 30
92.894
  0
POLYLINE
  8
W51LXLIFT
 62
7
 66
     1
 70
     9
  0
VERTEX
  8
W51LXLIFT
 62
7
 10
1176.835
 20
-7969.480
 30
85.652
 70
    32
  0
VERTEX
  8
W51LXLIFT
 62
7
 10
1156.667
 20
-7980.451
 30
85.968
 70
    32
  0
VERTEX
  8
W51LXLIFT
 62
7
 10
1154.776
 20
-8011.198
 30
86.211
 70
    32
  0
VERTEX
  8
W51LXLIFT
 62
7
 10
1150.475
 20
-8011.698
 30
86.265
 70
    32
  0
VERTEX
  8
W51LXLIFT
 62
7
 10
1146.273
 20
-8011.585
 30
86.314
 70
    32
  0
VERTEX
  8
W51LXLIFT
 62
7
 10
1142.833
 20
-8001.706
 30
86.283
 70
    32
  0
VERTEX
  8
W51LXLIFT
 62
7
 10
1137.617
 20
-7994.626
 30
86.294
 70
    32
  0
VERTEX
  8
W51LXLIFT
 62
7
 10
1129.830
 20
-7990.593
 30
86.357
 70
    32
  0
VERTEX
  8
W51LXLIFT
 62
7
 10
1123.090
 20
-7989.817
 30
86.430
 70
    32
  0
VERTEX
  8
W51LXLIFT
 62
7
 10
1121.404
 20
-7987.781
 30
86.436
 70
    32
  0
VERTEX
  8
W51LXLIFT
 62
7
 10
1123.870
 20
-7975.267
 30
86.317
 70
    32
  0
VERTEX
  8
W51LXLIFT
 62
7
 10
1129.219
 20
-7964.795
 30
86.179
 70
    32
  0
VERTEX
  8
W51LXLIFT
 62
7
 10
1156.181
 20
-7970.609
 30
85.903
 70
    32
  0
VERTEX
  8
W51LXLIFT
 62
7
 10
1163.969
 20
-7961.413
 30
85.745
 70
    32
  0
VERTEX
  8
W51LXLIFT
 62
7
 10
1165.767
 20
-7954.587
 30
85.675
 70
    32
  0
SEQEND
  8
W51LXLIFT
  0
POLYLINE
  8
W51LXLIFT
 62
1
 66
     1
 70
     9
  0
VERTEX
  8
W51LXLIFT
 62
1
 10
1177.835
 20
-7968.480
 30
95.652
 70
    32
  0
VERTEX
  8
W51LXLIFT
 62
1
 10
1157.667
 20
-7979.451
 30
95.968
 70
    32
  0
VERTEX
  8
W51LXLIFT
 62
1
 10
1155.776
 20
-8010.198
 30
96.211
 70
    32
  0
VERTEX
  8
W51LXLIFT
 62
1
 10
1151.475
 20
-8010.698
 30
96.265
 70
    32
  0
VERTEX
  8
W51LXLIFT
 62
1
 10
1147.273
 20
-8010.585
 30
96.314
 70
    32
  0
VERTEX
  8
W51LXLIFT
 62
1
 10
1143.833
 20
-8000.706
 30
96.283
 70
    32
  0
VERTEX
  8
W51LXLIFT
 62
1
 10
1138.617
 20
-7993.626
 30
96.294
 70
    32
  0
VERTEX
  8
W51LXLIFT
 62
1
 10
1130.830
 20
-7989.593
 30
96.357
 70
    32
  0
VERTEX
  8
W51LXLIFT
 62
1
 10
1124.090
 20
-7988.817
 30
96.430
 70
    32
  0
VERTEX
  8
W51LXLIFT
 62
1
 10
1122.404
 20
-7986.781
 30
96.436
 70
    32
  0
VERTEX
  8
W51LXLIFT
 62
1
 10
1124.870
 20
-7974.267
 30
96.317
 70
    32
  0
VERTEX
  8
W51LXLIFT
 62
1
 10
1130.219
 20
-7963.795
 30
96.179
 70
    32
  0
VERTEX
  8
W51LXLIFT
 62
1
 10
1157.181
 20
-7969.609
 30
95.903
 70
    32
  0
VERTEX
  8
W51LXLIFT
 62
1
 10
1164.969
 20
-7960.413
 30
95.745
 70
    32
  0
VERTEX
  8
W51LXLIFT
 62
1
 10
1166.767
 20
-7953.587
 30
95.675
 70
    32
  0
SEQEND
  8
W51LXLIFT
  0
POLYLINE
  8
W51LXLIFT
 62
8
 66
     1
 70
     9
  0
VERTEX
  8
W51LXLIFT
 62
8
 10
1116.218
 20
-7461.760
 30
87.106
 70
    32
  0
VERTEX
  8
W51LXLIFT
 62
8
 10
1118.878
 20
-7464.850
 30
87.082
 70
    32
  0
VERTEX
  8
W51LXLIFT
 62
8
 10
1125.863
 20
-7490.864
 30
86.918
 70
    32
  0
VERTEX
  8
W51LXLIFT
 62
8
 10
1131.333
 20
-7503.360
 30
86.833
 70
    32
  0
VERTEX
  8
W51LXLIFT
 62
8
 10
1133.656
 20
-7505.936
 30
86.813
 70
    32
  0
VERTEX
  8
W51LXLIFT
 62
8
 10
1145.141
 20
-7509.016
 30
86.766
 70
    32
  0
VERTEX
  8
W51LXLIFT
 62
8
 10
1171.647
 20
-7546.502
 30
86.799
 70
    32
  0
VERTEX
  8
W51LXLIFT
 62
8
 10
1174.711
 20
-7547.645
 30
86.820
 70
    32
  0
VERTEX
  8
W51LXLIFT
 62
8
 10
1182.376
 20
-7546.188
 30
86.892
 70
    32
  0
VERTEX
  8
W51LXLIFT
 62
8
 10
1188.285
 20
-7534.527
 30
86.993
 70
    32
  0
VERTEX
  8
W51LXLIFT
 62
8
 10
1179.005
 20
-7526.319
 30
86.950
 70
    32
  0
VERTEX
  8
W51LXLIFT
 62
8
 10
1150.258
 20
-7488.621
 30
86.869
 70
    32
  0
VERTEX
  8
W51LXLIFT
 62
8
 10
1133.015
 20
-7444.422
 30
87.160
 70
    32
  0
VERTEX
  8
W51LXLIFT
 62
8
 10
1134.736
 20
-7428.466
 30
87.245
 70
    32
  0
VERTEX
  8
W51LXLIFT
 62
8
 10
1140.900
 20
-7429.045
 30
87.226
 70
    32
  0
VERTEX
  8
W51LXLIFT
 62
8
 10
1140.484
 20
-7419.037
 30
87.283
 70
    32
  0
VERTEX
  8
W51LXLIFT
 62
8
 10
1124.860
 20
-7419.350
 30
87.322
 70
    32
  0
VERTEX
  8
W51LXLIFT
 62
8
 10
1124.124
 20
-7400.291
 30
87.431
 70
    32
  0
VERTEX
  8
W51LXLIFT
 62
8
 10
1131.508
 20
-7400.175
 30
87.412
 70
    32
  0
VERTEX
  8
W51LXLIFT
 62
8
 10
1132.076
 20
-7392.553
 30
87.454
 70
    32
  0
VERTEX
  8
W51LXLIFT
 62
8
 10
1136.896
 20
-7393.173
 30
87.438
 70
    32
  0
VERTEX
  8
W51LXLIFT
 62
8
 10
1140.989
 20
-7389.963
 30
87.445
 70
    32
  0
VERTEX
  8
W51LXLIFT
 62
8
 10
1138.758
 20
-7379.979
 30
87.507
 70
    32
  0
VERTEX
  8
W51LXLIFT
 62
8
 10
1128.719
 20
-7358.283
 30
87.655
 70
    32
  0
VERTEX
  8
W51LXLIFT
 62
8
 10
1121.612
 20
-7349.701
 30
87.721
 70
    32
  0
VERTEX
  8
W51LXLIFT
 62
8
 10
1086.306
 20
-7291.283
 30
88.141
 70
    32
  0
VERTEX
  8
W51LXLIFT
 62
8
 10
1073.392
 20
-7266.009
 30
88.316
 70
    32
  0
VERTEX
  8
W51LXLIFT
 62
8
 10
1068.772
 20
-7257.370
 30
88.342
 70
    32
  0
VERTEX
  8
W51LXLIFT
 62
8
 10
1057.440
 20
-7242.833
 30
88.223
 70
    32
  0
VERTEX
  8
W51LXLIFT
 62
8
 10
1020.139
 20
-7176.893
 30
87.721
 70
    32
  0
VERTEX
  8
W51LXLIFT
 62
8
 10
1020.238
 20
-7169.677
 30
87.678
 70
    32
  0
VERTEX
  8
W51LXLIFT
 62
8
 10
1018.499
 20
-7163.985
 30
87.639
 70
    32
  0
VERTEX
  8
W51LXLIFT
 62
8
 10
1007.744
 20
-7143.601
 30
87.486
 70
    32
  0
VERTEX
  8
W51LXLIFT
 62
8
 10
997.357
 20
-7133.386
 30
87.395
 70
    32
  0
VERTEX
  8
W51LXLIFT
 62
8
 10
991.611
 20
-7125.276
 30
87.330
 70
    32
  0
VERTEX
  8
W51LXLIFT
 62
8
 10
988.784
 20
-7114.725
 30
87.259
 70
    32
  0
VERTEX
  8
W51LXLIFT
 62
8
 10
978.593
 20
-7114.897
 30
87.231
 70
    32
  0
VERTEX
  8
W51LXLIFT
 62
8
 10
965.663
 20
-7105.615
 30
87.139
 70
    32
  0
VERTEX
  8
W51LXLIFT
 62
8
 10
956.821
 20
-7111.526
 30
87.150
 70
    32
  0
VERTEX
  8
W51LXLIFT
 62
8
 10
956.921
 20
-7118.085
 30
87.190
 70
    32
  0
VERTEX
  8
W51LXLIFT
 62
8
 10
954.490
 20
-7123.992
 30
87.219
 70
    32
  0
VERTEX
  8
W51LXLIFT
 62
8
 10
960.073
 20
-7131.052
 30
87.277
 70
    32
  0
VERTEX
  8
W51LXLIFT
 62
8
 10
968.814
 20
-7136.038
 30
87.331
 70
    32
  0
VERTEX
  8
W51LXLIFT
 62
8
 10
972.271
 20
-7140.183
 30
87.366
 70
    32
  0
VERTEX
  8
W51LXLIFT
 62
8
 10
977.686
 20
-7146.828
 30
87.421
 70
    32
  0
VERTEX
  8
W51LXLIFT
 62
8
 10
1000.153
 20
-7179.605
 30
87.682
 70
    32
  0
VERTEX
  8
W51LXLIFT
 62
8
 10
1013.070
 20
-7214.973
 30
87.931
 70
    32
  0
VERTEX
  8
W51LXLIFT
 62
8
 10
1024.305
 20
-7229.363
 30
88.049
 70
    32
  0
VERTEX
  8
W51LXLIFT
 62
8
 10
1040.768
 20
-7256.198
 30
88.257
 70
    32
  0
VERTEX
  8
W51LXLIFT
 62
8
 10
1050.263
 20
-7271.941
 30
88.343
 70
    32
  0
VERTEX
  8
W51LXLIFT
 62
8
 10
1059.034
 20
-7296.992
 30
88.180
 70
    32
  0
VERTEX
  8
W51LXLIFT
 62
8
 10
1067.296
 20
-7304.290
 30
88.117
 70
    32
  0
VERTEX
  8
W51LXLIFT
 62
8
 10
1069.827
 20
-7311.988
 30
88.067
 70
    32
  0
VERTEX
  8
W51LXLIFT
 62
8
 10
1077.358
 20
-7319.135
 30
88.008
 70
    32
  0
VERTEX
  8
W51LXLIFT
 62
8
 10
1079.857
 20
-7327.905
 30
87.952
 70
    32
  0
VERTEX
  8
W51LXLIFT
 62
8
 10
1085.705
 20
-7331.847
 30
87.915
 70
    32
  0
VERTEX
  8
W51LXLIFT
 62
8
 10
1101.412
 20
-7358.652
 30
87.723
 70
    32
  0
VERTEX
  8
W51LXLIFT
 62
8
 10
1106.704
 20
-7375.682
 30
87.614
 70
    32
  0
VERTEX
  8
W51LXLIFT
 62
8
 10
1103.819
 20
-7380.416
 30
87.595
 70
    32
  0
VERTEX
  8
W51LXLIFT
 62
8
 10
1105.605
 20
-7389.863
 30
87.537
 70
    32
  0
VERTEX
  8
W51LXLIFT
 62
8
 10
1111.112
 20
-7400.653
 30
87.462
 70
    32
  0
VERTEX
  8
W51LXLIFT
 62
8
 10
1115.235
 20
-7400.365
 30
87.453
 70
    32
  0
VERTEX
  8
W51LXLIFT
 62
8
 10
1114.906
 20
-7419.404
 30
87.347
 70
    32
  0
VERTEX
  8
W51LXLIFT
 62
8
 10
1113.572
 20
-7428.902
 30
87.297
 70
    32
  0
VERTEX
  8
W51LXLIFT
 62
8
 10
1111.596
 20
-7436.810
 30
87.258
 70
    32
  0
VERTEX
  8
W51LXLIFT
 62
8
 10
1111.290
 20
-7438.033
 30
87.252
 70
    32
  0
VERTEX
  8
W51LXLIFT
 62
8
 10
1111.326
 20
-7452.872
 30
87.169
 70
    32
  0
SEQEND
  8
W51LXLIFT
  0
POLYLINE
  8
W51LXLIFT
 62
1
 66
     1
 70
     9
  0
VERTEX
  8
W51LXLIFT
 62
1
 10
1117.218
 20
-7460.760
 30
97.106
 70
    32
  0
VERTEX
  8
W51LXLIFT
 62
1
 10
1119.878
 20
-7463.850
 30
97.082
 70
    32
  0
VERTEX
  8
W51LXLIFT
 62
1
 10
1126.863
 20
-7489.864
 30
96.918
 70
    32
  0
VERTEX
  8
W51LXLIFT
 62
1
 10
1132.333
 20
-7502.360
 30
96.833
 70
    32
  0
VERTEX
  8
W51LXLIFT
 62
1
 10
1134.656
 20
-7504.936
 30
96.813
 70
    32
  0
VERTEX
  8
W51LXLIFT
 62
1
 10
1146.141
 20
-7508.016
 30
96.766
 70
    32
  0
VERTEX
  8
W51LXLIFT
 62
1
 10
1172.647
 20
-7545.502
 30
96.799
 70
    32
  0
VERTEX
  8
W51LXLIFT
 62
1
 10
1175.711
 20
-7546.645
 30
96.820
 70
    32
  0
VERTEX
  8
W51LXLIFT
 62
1
 10
1183.376
 20
-7545.188
 30
96.892
 70
    32
  0
VERTEX
  8
W51LXLIFT
 62
1
 10
1189.285
 20
-7533.527
 30
96.993
 70
    32
  0
VERTEX
  8
W51LXLIFT
 62
1
 10
1180.005
 20
-7525.319
 30
96.950
 70
    32
  0
VERTEX
  8
W51LXLIFT
 62
1
 10
1151.258
 20
-7487.621
 30
96.869
 70
    32
  0
VERTEX
  8
W51LXLIFT
 62
1
 10
1134.015
 20
-7443.422
 30
97.160
 70
    32
  0
VERTEX
  8
W51LXLIFT
 62
1
 10
1135.736
 20
-7427.466
 30
97.245
 70
    32
  0
VERTEX
  8
W51LXLIFT
 62
1
 10
1141.900
 20
-7428.045
 30
97.226
 70
    32
  0
VERTEX
  8
W51LXLIFT
 62
1
 10
1141.484
 20
-7418.037
 30
97.283
 70
    32
  0
VERTEX
  8
W51LXLIFT
 62
1
 10
1125.860
 20
-7418.350
 30
97.322
 70
    32
  0
VERTEX
  8
W51LXLIFT
 62
1
 10
1125.124
 20
-7399.291
 30
97.431
 70
    32
  0
VERTEX
  8
W51LXLIFT
 62
1
 10
1132.508
 20
-7399.175
 30
97.412
 70
    32
  0
VERTEX
  8
W51LXLIFT
 62
1
 10
1133.076
 20
-7391.553
 30
97.454
 70
    32
  0
VERTEX
  8
W51LXLIFT
 62
1
 10
1137.896
 20
-7392.173
 30
97.438
 70
    32
  0
VERTEX
  8
W51LXLIFT
 62
1
 10
1141.989
 20
-7388.963
 30
97.445
 70
    32
  0
VERTEX
  8
W51LXLIFT
 62
1
 10
1139.758
 20
-7378.979
 30
97.507
 70
    32
  0
VERTEX
  8
W51LXLIFT
 62
1
 10
1129.719
 20
-7357.283
 30
97.655
 70
    32
  0
VERTEX
  8
W51LXLIFT
 62
1
 10
1122.612
 20
-7348.701
 30
97.721
 70
    32
  0
VERTEX
  8
W51LXLIFT
 62
1
 10
1087.306
 20
-7290.283
 30
98.141
 70
    32
  0
VERTEX
  8
W51LXLIFT
 62
1
 10
1074.392
 20
-7265.009
 30
98.316
 70
    32
  0
VERTEX
  8
W51LXLIFT
 62
1
 10
1069.772
 20
-7256.370
 30
98.342
 70
    32
  0
VERTEX
  8
W51LXLIFT
 62
1
 10
1058.440
 20
-7241.833
 30
98.223
 70
    32
  0
VERTEX
  8
W51LXLIFT
 62
1
 10
1021.139
 20
-7175.893
 30
97.721
 70
    32
  0
VERTEX
  8
W51LXLIFT
 62
1
 10
1021.238
 20
-7168.677
 30
97.678
 70
    32
  0
VERTEX
  8
W51LXLIFT
 62
1
 10
1019.499
 20
-7162.985
 30
97.639
 70
    32
  0
VERTEX
  8
W51LXLIFT
 62
1
 10
1008.744
 20
-7142.601
 30
97.486
 70
    32
  0
VERTEX
  8
W51LXLIFT
 62
1
 10
998.357
 20
-7132.386
 30
97.395
 70
    32
  0
VERTEX
  8
W51LXLIFT
 62
1
 10
992.611
 20
-7124.276
 30
97.330
 70
    32
  0
VERTEX
  8
W51LXLIFT
 62
1
 10
989.784
 20
-7113.725
 30
97.259
 70
    32
  0
VERTEX
  8
W51LXLIFT
 62
1
 10
979.593
 20
-7113.897
 30
97.231
 70
    32
  0
VERTEX
  8
W51LXLIFT
 62
1
 10
966.663
 20
-7104.615
 30
97.139
 70
    32
  0
VERTEX
  8
W51LXLIFT
 62
1
 10
957.821
 20
-7110.526
 30
97.150
 70
    32
  0
VERTEX
  8
W51LXLIFT
 62
1
 10
957.921
 20
-7117.085
 30
97.190
 70
    32
  0
VERTEX
  8
W51LXLIFT
 62
1
 10
955.490
 20
-7122.992
 30
97.219
 70
    32
  0
VERTEX
  8
W51LXLIFT
 62
1
 10
961.073
 20
-7130.052
 30
97.277
 70
    32
  0
VERTEX
  8
W51LXLIFT
 62
1
 10
969.814
 20
-7135.038
 30
97.331
 70
    32
  0
VERTEX
  8
W51LXLIFT
 62
1
 10
973.271
 20
-7139.183
 30
97.366
 70
    32
  0
VERTEX
  8
W51LXLIFT
 62
1
 10
978.686
 20
-7145.828
 30
97.421
 70
    32
  0
VERTEX
  8
W51LXLIFT
 62
1
 10
1001.153
 20
-7178.605
 30
97.682
 70
    32
  0
VERTEX
  8
W51LXLIFT
 62
1
 10
1014.070
 20
-7213.973
 30
97.931
 70
    32
  0
VERTEX
  8
W51LXLIFT
 62
1
 10
1025.305
 20
-7228.363
 30
98.049
 70
    32
  0
VERTEX
  8
W51LXLIFT
 62
1
 10
1041.768
 20
-7255.198
 30
98.257
 70
    32
  0
VERTEX
  8
W51LXLIFT
 62
1
 10
1051.263
 20
-7270.941
 30
98.343
 70
    32
  0
VERTEX
  8
W51LXLIFT
 62
1
 10
1060.034
 20
-7295.992
 30
98.180
 70
    32
  0
VERTEX
  8
W51LXLIFT
 62
1
 10
1068.296
 20
-7303.290
 30
98.117
 70
    32
  0
VERTEX
  8
W51LXLIFT
 62
1
 10
1070.827
 20
-7310.988
 30
98.067
 70
    32
  0
VERTEX
  8
W51LXLIFT
 62
1
 10
1078.358
 20
-7318.135
 30
98.008
 70
    32
  0
VERTEX
  8
W51LXLIFT
 62
1
 10
1080.857
 20
-7326.905
 30
97.952
 70
    32
  0
VERTEX
  8
W51LXLIFT
 62
1
 10
1086.705
 20
-7330.847
 30
97.915
 70
    32
  0
VERTEX
  8
W51LXLIFT
 62
1
 10
1102.412
 20
-7357.652
 30
97.723
 70
    32
  0
VERTEX
  8
W51LXLIFT
 62
1
 10
1107.704
 20
-7374.682
 30
97.614
 70
    32
  0
VERTEX
  8
W51LXLIFT
 62
1
 10
1104.819
 20
-7379.416
 30
97.595
 70
    32
  0
VERTEX
  8
W51LXLIFT
 62
1
 10
1106.605
 20
-7388.863
 30
97.537
 70
    32
  0
VERTEX
  8
W51LXLIFT
 62
1
 10
1112.112
 20
-7399.653
 30
97.462
 70
    32
  0
VERTEX
  8
W51LXLIFT
 62
1
 10
1116.235
 20
-7399.365
 30
97.453
 70
    32
  0
VERTEX
  8
W51LXLIFT
 62
1
 10
1115.906
 20
-7418.404
 30
97.347
 70
    32
  0
VERTEX
  8
W51LXLIFT
 62
1
 10
1114.572
 20
-7427.902
 30
97.297
 70
    32
  0
VERTEX
  8
W51LXLIFT
 62
1
 10
1112.596
 20
-7435.810
 30
97.258
 70
    32
  0
VERTEX
  8
W51LXLIFT
 62
1
 10
1112.290
 20
-7437.033
 30
97.252
 70
    32
  0
VERTEX
  8
W51LXLIFT
 62
1
 10
1112.326
 20
-7451.872
 30
97.169
 70
    32
  0
SEQEND
  8
W51LXLIFT
  0
POLYLINE
  8
W51LXLIFT
 62
1
 66
     1
 70
     9
  0
VERTEX
  8
W51LXLIFT
 62
1
 10
961.340
 20
-7171.266
 30
177.220
 70
    32
  0
VERTEX
  8
W51LXLIFT
 62
1
 10
954.727
 20
-7166.263
 30
177.220
 70
    32
  0
VERTEX
  8
W51LXLIFT
 62
1
 10
940.305
 20
-7149.815
 30
177.220
 70
    32
  0
VERTEX
  8
W51LXLIFT
 62
1
 10
936.102
 20
-7138.625
 30
177.219
 70
    32
  0
VERTEX
  8
W51LXLIFT
 62
1
 10
938.393
 20
-7136.698
 30
177.220
 70
    32
  0
VERTEX
  8
W51LXLIFT
 62
1
 10
948.041
 20
-7137.324
 30
177.220
 70
    32
  0
VERTEX
  8
W51LXLIFT
 62
1
 10
964.503
 20
-7164.015
 30
177.220
 70
    32
  0
VERTEX
  8
W51LXLIFT
 62
1
 10
966.282
 20
-7171.442
 30
177.220
 70
    32
  0
SEQEND
  8
W51LXLIFT
  0
POLYLINE
  8
W51LXLIFT
 62
1
 66
     1
 70
     9
  0
VERTEX
  8
W51LXLIFT
 62
1
 10
629.058
 20
-6578.755
 30
118.000
 70
    32
  0
VERTEX
  8
W51LXLIFT
 62
1
 10
643.778
 20
-6588.072
 30
118.000
 70
    32
  0
VERTEX
  8
W51LXLIFT
 62
1
 10
646.216
 20
-6595.026
 30
118.000
 70
    32
  0
VERTEX
  8
W51LXLIFT
 62
1
 10
653.299
 20
-6601.152
 30
118.000
 70
    32
  0
VERTEX
  8
W51LXLIFT
 62
1
 10
662.945
 20
-6603.067
 30
118.000
 70
    32
  0
VERTEX
  8
W51LXLIFT
 62
1
 10
678.202
 20
-6594.557
 30
118.000
 70
    32
  0
VERTEX
  8
W51LXLIFT
 62
1
 10
685.887
 20
-6584.121
 30
118.000
 70
    32
  0
VERTEX
  8
W51LXLIFT
 62
1
 10
684.870
 20
-6578.192
 30
118.000
 70
    32
  0
VERTEX
  8
W51LXLIFT
 62
1
 10
673.043
 20
-6566.282
 30
118.000
 70
    32
  0
VERTEX
  8
W51LXLIFT
 62
1
 10
668.367
 20
-6560.885
 30
118.000
 70
    32
  0
VERTEX
  8
W51LXLIFT
 62
1
 10
654.198
 20
-6554.664
 30
118.000
 70
    32
  0
VERTEX
  8
W51LXLIFT
 62
1
 10
654.422
 20
-6545.838
 30
118.000
 70
    32
  0
VERTEX
  8
W51LXLIFT
 62
1
 10
651.743
 20
-6542.681
 30
118.000
 70
    32
  0
VERTEX
  8
W51LXLIFT
 62
1
 10
646.978
 20
-6542.612
 30
118.000
 70
    32
  0
VERTEX
  8
W51LXLIFT
 62
1
 10
635.875
 20
-6554.935
 30
118.000
 70
    32
  0
VERTEX
  8
W51LXLIFT
 62
1
 10
630.553
 20
-6558.240
 30
118.000
 70
    32
  0
VERTEX
  8
W51LXLIFT
 62
1
 10
620.537
 20
-6566.575
 30
118.000
 70
    32
  0
SEQEND
  8
W51LXLIFT
  0
POLYLINE
  8
W51LXLIFT
 62
1
 66
     1
 70
     9
  0
VERTEX
  8
W51LXLIFT
 62
1
 10
613.970
 20
-6576.686
 30
168.000
 70
    32
  0
VERTEX
  8
W51LXLIFT
 62
1
 10
612.087
 20
-6573.600
 30
168.000
 70
    32
  0
VERTEX
  8
W51LXLIFT
 62
1
 10
606.709
 20
-6571.825
 30
168.000
 70
    32
  0
VERTEX
  8
W51LXLIFT
 62
1
 10
604.031
 20
-6572.010
 30
168.000
 70
    32
  0
VERTEX
  8
W51LXLIFT
 62
1
 10
602.122
 20
-6575.538
 30
168.000
 70
    32
  0
VERTEX
  8
W51LXLIFT
 62
1
 10
607.648
 20
-6585.532
 30
168.000
 70
    32
  0
VERTEX
  8
W51LXLIFT
 62
1
 10
611.589
 20
-6594.821
 30
168.000
 70
    32
  0
VERTEX
  8
W51LXLIFT
 62
1
 10
620.442
 20
-6611.732
 30
168.000
 70
    32
  0
VERTEX
  8
W51LXLIFT
 62
1
 10
625.414
 20
-6618.987
 30
168.000
 70
    32
  0
VERTEX
  8
W51LXLIFT
 62
1
 10
629.315
 20
-6628.521
 30
168.000
 70
    32
  0
VERTEX
  8
W51LXLIFT
 62
1
 10
632.465
 20
-6632.322
 30
168.000
 70
    32
  0
VERTEX
  8
W51LXLIFT
 62
1
 10
640.366
 20
-6631.427
 30
168.000
 70
    32
  0
VERTEX
  8
W51LXLIFT
 62
1
 10
650.074
 20
-6626.862
 30
168.000
 70
    32
  0
VERTEX
  8
W51LXLIFT
 62
1
 10
650.959
 20
-6620.391
 30
168.000
 70
    32
  0
VERTEX
  8
W51LXLIFT
 62
1
 10
648.080
 20
-6608.505
 30
168.000
 70
    32
  0
VERTEX
  8
W51LXLIFT
 62
1
 10
645.971
 20
-6603.743
 30
168.000
 70
    32
  0
VERTEX
  8
W51LXLIFT
 62
1
 10
627.582
 20
-6588.463
 30
168.000
 70
    32
  0
SEQEND
  8
W51LXLIFT
  0
POINT
  8
W51LXLIFT
 62
1
 10
1065.186
 20
-7344.092
 30
97.909
  0
LINE
  8
W51LXLIFT
 62
7
 10
1030.696
 20
-7371.272
 30
197.000
 11
1065.186
 21
-7344.092
 31
97.909
  0
POLYLINE
  8
W51LXLIFT
 62
13
 66
     1
 70
     9
  0
VERTEX
  8
W51LXLIFT
 62
13
 10
995.084
 20
-7282.948
 30
197.000
 70
    32
  0
VERTEX
  8
W51LXLIFT
 62
13
 10
970.592
 20
-7264.355
 30
197.000
 70
    32
  0
VERTEX
  8
W51LXLIFT
 62
13
 10
960.944
 20
-7264.355
 30
197.000
 70
    32
  0
VERTEX
  8
W51LXLIFT
 62
13
 10
953.345
 20
-7252.820
 30
197.000
 70
    32
  0
VERTEX
  8
W51LXLIFT
 62
13
 10
946.097
 20
-7245.638
 30
197.000
 70
    32
  0
VERTEX
  8
W51LXLIFT
 62
13
 10
941.330
 20
-7236.783
 30
197.000
 70
    32
  0
VERTEX
  8
W51LXLIFT
 62
13
 10
953.662
 20
-7218.752
 30
197.000
 70
    32
  0
VERTEX
  8
W51LXLIFT
 62
13
 10
960.723
 20
-7224.529
 30
197.000
 70
    32
  0
VERTEX
  8
W51LXLIFT
 62
13
 10
964.883
 20
-7228.098
 30
197.000
 70
    32
  0
VERTEX
  8
W51LXLIFT
 62
13
 10
969.014
 20
-7228.152
 30
197.000
 70
    32
  0
VERTEX
  8
W51LXLIFT
 62
13
 10
978.834
 20
-7227.403
 30
197.000
 70
    32
  0
VERTEX
  8
W51LXLIFT
 62
13
 10
985.337
 20
-7229.406
 30
197.000
 70
    32
  0
VERTEX
  8
W51LXLIFT
 62
13
 10
989.502
 20
-7235.734
 30
197.000
 70
    32
  0
VERTEX
  8
W51LXLIFT
 62
13
 10
991.213
 20
-7249.132
 30
197.000
 70
    32
  0
VERTEX
  8
W51LXLIFT
 62
13
 10
996.920
 20
-7261.249
 30
197.000
 70
    32
  0
VERTEX
  8
W51LXLIFT
 62
13
 10
1002.750
 20
-7266.861
 30
197.000
 70
    32
  0
VERTEX
  8
W51LXLIFT
 62
13
 10
1009.955
 20
-7279.492
 30
197.000
 70
    32
  0
SEQEND
  8
W51LXLIFT
  0
POLYLINE
  8
W51LXLIFT
 62
13
 66
     1
 70
     9
  0
VERTEX
  8
W51LXLIFT
 62
13
 10
1111.694
 20
-7972.597
 30
170.000
 70
    32
  0
VERTEX
  8
W51LXLIFT
 62
13
 10
1115.657
 20
-7978.119
 30
170.000
 70
    32
  0
VERTEX
  8
W51LXLIFT
 62
13
 10
1140.847
 20
-8013.218
 30
170.000
 70
    32
  0
VERTEX
  8
W51LXLIFT
 62
13
 10
1138.829
 20
-8014.667
 30
170.000
 70
    32
  0
VERTEX
  8
W51LXLIFT
 62
13
 10
1122.573
 20
-8026.333
 30
170.000
 70
    32
  0
VERTEX
  8
W51LXLIFT
 62
13
 10
1120.277
 20
-8027.981
 30
170.000
 70
    32
  0
VERTEX
  8
W51LXLIFT
 62
13
 10
1097.474
 20
-7996.208
 30
170.000
 70
    32
  0
VERTEX
  8
W51LXLIFT
 62
13
 10
1091.124
 20
-7987.360
 30
170.000
 70
    32
  0
VERTEX
  8
W51LXLIFT
 62
13
 10
1093.420
 20
-7985.712
 30
170.000
 70
    32
  0
VERTEX
  8
W51LXLIFT
 62
13
 10
1109.676
 20
-7974.046
 30
170.000
 70
    32
  0
SEQEND
  8
W51LXLIFT
  0
POLYLINE
  8
W51LXLIFT
 62
13
 66
     1
 70
     9
  0
VERTEX
  8
W51LXLIFT
 62
13
 10
1111.594
 20
-7972.669
 30
180.000
 70
    32
  0
VERTEX
  8
W51LXLIFT
 62
13
 10
1127.585
 20
-7994.950
 30
180.000
 70
    32
  0
VERTEX
  8
W51LXLIFT
 62
13
 10
1140.747
 20
-8013.290
 30
180.000
 70
    32
  0
VERTEX
  8
W51LXLIFT
 62
13
 10
1132.601
 20
-8019.136
 30
180.000
 70
    32
  0
VERTEX
  8
W51LXLIFT
 62
13
 10
1129.015
 20
-8021.710
 30
180.000
 70
    32
  0
VERTEX
  8
W51LXLIFT
 62
13
 10
1120.310
 20
-8027.958
 30
180.000
 70
    32
  0
VERTEX
  8
W51LXLIFT
 62
13
 10
1115.232
 20
-8020.883
 30
180.000
 70
    32
  0
VERTEX
  8
W51LXLIFT
 62
13
 10
1091.157
 20
-7987.336
 30
180.000
 70
    32
  0
VERTEX
  8
W51LXLIFT
 62
13
 10
1099.861
 20
-7981.089
 30
180.000
 70
    32
  0
VERTEX
  8
W51LXLIFT
 62
13
 10
1103.448
 20
-7978.515
 30
180.000
 70
    32
  0
SEQEND
  8
W51LXLIFT
  0
POLYLINE
  8
W51LXLIFT
 62
13
 66
     1
 70
     9
  0
VERTEX
  8
W51LXLIFT
 62
13
 10
1111.494
 20
-7972.741
 30
190.000
 70
    32
  0
VERTEX
  8
W51LXLIFT
 62
13
 10
1139.513
 20
-8011.782
 30
190.000
 70
    32
  0
VERTEX
  8
W51LXLIFT
 62
13
 10
1140.647
 20
-8013.362
 30
190.000
 70
    32
  0
VERTEX
  8
W51LXLIFT
 62
13
 10
1139.499
 20
-8014.186
 30
190.000
 70
    32
  0
VERTEX
  8
W51LXLIFT
 62
13
 10
1130.829
 20
-8020.408
 30
190.000
 70
    32
  0
VERTEX
  8
W51LXLIFT
 62
13
 10
1104.865
 20
-7984.230
 30
190.000
 70
    32
  0
VERTEX
  8
W51LXLIFT
 62
13
 10
1101.676
 20
-7979.787
 30
190.000
 70
    32
  0
VERTEX
  8
W51LXLIFT
 62
13
 10
1110.346
 20
-7973.565
 30
190.000
 70
    32
  0
SEQEND
  8
W51LXLIFT
  0
POLYLINE
  8
W51LXLIFT
 62
13
 66
     1
 70
     9
  0
VERTEX
  8
W51LXLIFT
 62
13
 10
1103.763
 20
-7978.289
 30
170.000
 70
    32
  0
VERTEX
  8
W51LXLIFT
 62
13
 10
1103.379
 20
-7978.565
 30
170.000
 70
    32
  0
VERTEX
  8
W51LXLIFT
 62
13
 10
1094.272
 20
-7985.101
 30
170.000
 70
    32
  0
VERTEX
  8
W51LXLIFT
 62
13
 10
1083.270
 20
-7992.997
 30
170.000
 70
    32
  0
VERTEX
  8
W51LXLIFT
 62
13
 10
1075.191
 20
-7981.740
 30
170.000
 70
    32
  0
VERTEX
  8
W51LXLIFT
 62
13
 10
1054.117
 20
-7952.375
 30
170.000
 70
    32
  0
VERTEX
  8
W51LXLIFT
 62
13
 10
1065.119
 20
-7944.479
 30
170.000
 70
    32
  0
VERTEX
  8
W51LXLIFT
 62
13
 10
1074.226
 20
-7937.943
 30
170.000
 70
    32
  0
VERTEX
  8
W51LXLIFT
 62
13
 10
1074.610
 20
-7937.667
 30
170.000
 70
    32
  0
VERTEX
  8
W51LXLIFT
 62
13
 10
1078.971
 20
-7934.538
 30
170.000
 70
    32
  0
VERTEX
  8
W51LXLIFT
 62
13
 10
1104.833
 20
-7970.573
 30
170.000
 70
    32
  0
VERTEX
  8
W51LXLIFT
 62
13
 10
1108.124
 20
-7975.159
 30
170.000
 70
    32
  0
SEQEND
  8
W51LXLIFT
  0
POLYLINE
  8
W51LXLIFT
 62
13
 66
     1
 70
     9
  0
VERTEX
  8
W51LXLIFT
 62
13
 10
1054.107
 20
-7952.382
 30
180.000
 70
    32
  0
VERTEX
  8
W51LXLIFT
 62
13
 10
1066.374
 20
-7969.474
 30
180.000
 70
    32
  0
VERTEX
  8
W51LXLIFT
 62
13
 10
1083.260
 20
-7993.003
 30
180.000
 70
    32
  0
VERTEX
  8
W51LXLIFT
 62
13
 10
1100.292
 20
-7980.780
 30
180.000
 70
    32
  0
VERTEX
  8
W51LXLIFT
 62
13
 10
1103.325
 20
-7978.603
 30
180.000
 70
    32
  0
VERTEX
  8
W51LXLIFT
 62
13
 10
1098.953
 20
-7972.512
 30
180.000
 70
    32
  0
VERTEX
  8
W51LXLIFT
 62
13
 10
1074.172
 20
-7937.982
 30
180.000
 70
    32
  0
VERTEX
  8
W51LXLIFT
 62
13
 10
1071.139
 20
-7940.158
 30
180.000
 70
    32
  0
SEQEND
  8
W51LXLIFT
  0
POLYLINE
  8
W51LXLIFT
 62
13
 66
     1
 70
     9
  0
VERTEX
  8
W51LXLIFT
 62
13
 10
1054.098
 20
-7952.389
 30
190.000
 70
    32
  0
VERTEX
  8
W51LXLIFT
 62
13
 10
1057.556
 20
-7957.208
 30
190.000
 70
    32
  0
VERTEX
  8
W51LXLIFT
 62
13
 10
1083.251
 20
-7993.010
 30
190.000
 70
    32
  0
VERTEX
  8
W51LXLIFT
 62
13
 10
1088.053
 20
-7989.564
 30
190.000
 70
    32
  0
VERTEX
  8
W51LXLIFT
 62
13
 10
1103.402
 20
-7978.548
 30
190.000
 70
    32
  0
VERTEX
  8
W51LXLIFT
 62
13
 10
1081.274
 20
-7947.714
 30
190.000
 70
    32
  0
VERTEX
  8
W51LXLIFT
 62
13
 10
1074.249
 20
-7937.926
 30
190.000
 70
    32
  0
VERTEX
  8
W51LXLIFT
 62
13
 10
1058.900
 20
-7948.942
 30
190.000
 70
    32
  0
SEQEND
  8
W51LXLIFT
  0
POLYLINE
  8
W51LXLIFT
 62
13
 66
     1
 70
     9
  0
VERTEX
  8
W51LXLIFT
 62
13
 10
1079.196
 20
-7934.376
 30
200.000
 70
    32
  0
VERTEX
  8
W51LXLIFT
 62
13
 10
1085.854
 20
-7943.654
 30
200.000
 70
    32
  0
VERTEX
  8
W51LXLIFT
 62
13
 10
1108.349
 20
-7974.998
 30
200.000
 70
    32
  0
VERTEX
  8
W51LXLIFT
 62
13
 10
1107.188
 20
-7975.831
 30
200.000
 70
    32
  0
VERTEX
  8
W51LXLIFT
 62
13
 10
1103.697
 20
-7978.336
 30
200.000
 70
    32
  0
VERTEX
  8
W51LXLIFT
 62
13
 10
1098.799
 20
-7981.852
 30
200.000
 70
    32
  0
VERTEX
  8
W51LXLIFT
 62
13
 10
1091.402
 20
-7987.160
 30
200.000
 70
    32
  0
VERTEX
  8
W51LXLIFT
 62
13
 10
1081.464
 20
-7994.292
 30
200.000
 70
    32
  0
VERTEX
  8
W51LXLIFT
 62
13
 10
1078.531
 20
-7996.398
 30
200.000
 70
    32
  0
VERTEX
  8
W51LXLIFT
 62
13
 10
1067.096
 20
-7980.464
 30
200.000
 70
    32
  0
VERTEX
  8
W51LXLIFT
 62
13
 10
1049.378
 20
-7955.776
 30
200.000
 70
    32
  0
VERTEX
  8
W51LXLIFT
 62
13
 10
1052.311
 20
-7953.671
 30
200.000
 70
    32
  0
VERTEX
  8
W51LXLIFT
 62
13
 10
1062.249
 20
-7946.539
 30
200.000
 70
    32
  0
VERTEX
  8
W51LXLIFT
 62
13
 10
1069.646
 20
-7941.230
 30
200.000
 70
    32
  0
VERTEX
  8
W51LXLIFT
 62
13
 10
1074.544
 20
-7937.715
 30
200.000
 70
    32
  0
VERTEX
  8
W51LXLIFT
 62
13
 10
1078.035
 20
-7935.209
 30
200.000
 70
    32
  0
SEQEND
  8
W51LXLIFT
  0
POLYLINE
  8
W51LXLIFT
 62
13
 66
     1
 70
     9
  0
VERTEX
  8
W51LXLIFT
 62
13
 10
1080.761
 20
-7933.253
 30
170.000
 70
    32
  0
VERTEX
  8
W51LXLIFT
 62
13
 10
1087.418
 20
-7928.476
 30
170.000
 70
    32
  0
VERTEX
  8
W51LXLIFT
 62
13
 10
1073.503
 20
-7909.087
 30
170.000
 70
    32
  0
VERTEX
  8
W51LXLIFT
 62
13
 10
1058.265
 20
-7887.854
 30
170.000
 70
    32
  0
VERTEX
  8
W51LXLIFT
 62
13
 10
1051.608
 20
-7892.631
 30
170.000
 70
    32
  0
VERTEX
  8
W51LXLIFT
 62
13
 10
1038.124
 20
-7902.309
 30
170.000
 70
    32
  0
VERTEX
  8
W51LXLIFT
 62
13
 10
1033.389
 20
-7905.707
 30
170.000
 70
    32
  0
VERTEX
  8
W51LXLIFT
 62
13
 10
1046.709
 20
-7924.267
 30
170.000
 70
    32
  0
VERTEX
  8
W51LXLIFT
 62
13
 10
1062.542
 20
-7946.328
 30
170.000
 70
    32
  0
VERTEX
  8
W51LXLIFT
 62
13
 10
1067.277
 20
-7942.930
 30
170.000
 70
    32
  0
SEQEND
  8
W51LXLIFT
  0
POLYLINE
  8
W51LXLIFT
 62
13
 66
     1
 70
     9
  0
VERTEX
  8
W51LXLIFT
 62
13
 10
1080.074
 20
-7933.746
 30
180.000
 70
    32
  0
VERTEX
  8
W51LXLIFT
 62
13
 10
1089.365
 20
-7927.078
 30
180.000
 70
    32
  0
VERTEX
  8
W51LXLIFT
 62
13
 10
1092.444
 20
-7924.869
 30
180.000
 70
    32
  0
VERTEX
  8
W51LXLIFT
 62
13
 10
1081.005
 20
-7908.930
 30
180.000
 70
    32
  0
VERTEX
  8
W51LXLIFT
 62
13
 10
1063.291
 20
-7884.247
 30
180.000
 70
    32
  0
VERTEX
  8
W51LXLIFT
 62
13
 10
1060.212
 20
-7886.457
 30
180.000
 70
    32
  0
VERTEX
  8
W51LXLIFT
 62
13
 10
1050.921
 20
-7893.125
 30
180.000
 70
    32
  0
VERTEX
  8
W51LXLIFT
 62
13
 10
1046.905
 20
-7896.007
 30
180.000
 70
    32
  0
VERTEX
  8
W51LXLIFT
 62
13
 10
1043.795
 20
-7898.239
 30
180.000
 70
    32
  0
VERTEX
  8
W51LXLIFT
 62
13
 10
1052.160
 20
-7909.896
 30
180.000
 70
    32
  0
VERTEX
  8
W51LXLIFT
 62
13
 10
1072.948
 20
-7938.860
 30
180.000
 70
    32
  0
VERTEX
  8
W51LXLIFT
 62
13
 10
1076.058
 20
-7936.628
 30
180.000
 70
    32
  0
SEQEND
  8
W51LXLIFT
  0
POLYLINE
  8
W51LXLIFT
 62
13
 66
     1
 70
     9
  0
VERTEX
  8
W51LXLIFT
 62
13
 10
1049.489
 20
-7894.152
 30
200.000
 70
    32
  0
VERTEX
  8
W51LXLIFT
 62
13
 10
1063.348
 20
-7884.206
 30
200.000
 70
    32
  0
VERTEX
  8
W51LXLIFT
 62
13
 10
1050.446
 20
-7866.228
 30
200.000
 70
    32
  0
VERTEX
  8
W51LXLIFT
 62
13
 10
1034.195
 20
-7843.584
 30
200.000
 70
    32
  0
VERTEX
  8
W51LXLIFT
 62
13
 10
1020.336
 20
-7853.531
 30
200.000
 70
    32
  0
VERTEX
  8
W51LXLIFT
 62
13
 10
1018.502
 20
-7854.847
 30
200.000
 70
    32
  0
VERTEX
  8
W51LXLIFT
 62
13
 10
1021.914
 20
-7859.601
 30
200.000
 70
    32
  0
VERTEX
  8
W51LXLIFT
 62
13
 10
1047.655
 20
-7895.468
 30
200.000
 70
    32
  0
SEQEND
  8
W51LXLIFT
  0
POLYLINE
  8
W51LXLIFT
 62
13
 66
     1
 70
     9
  0
VERTEX
  8
W51LXLIFT
 62
13
 10
1060.916
 20
-7885.952
 30
210.000
 70
    32
  0
VERTEX
  8
W51LXLIFT
 62
13
 10
1063.363
 20
-7884.196
 30
210.000
 70
    32
  0
VERTEX
  8
W51LXLIFT
 62
13
 10
1037.079
 20
-7847.572
 30
210.000
 70
    32
  0
VERTEX
  8
W51LXLIFT
 62
13
 10
1034.210
 20
-7843.574
 30
210.000
 70
    32
  0
VERTEX
  8
W51LXLIFT
 62
13
 10
1031.763
 20
-7845.330
 30
210.000
 70
    32
  0
VERTEX
  8
W51LXLIFT
 62
13
 10
1018.568
 20
-7854.800
 30
210.000
 70
    32
  0
VERTEX
  8
W51LXLIFT
 62
13
 10
1043.118
 20
-7889.007
 30
210.000
 70
    32
  0
VERTEX
  8
W51LXLIFT
 62
13
 10
1047.721
 20
-7895.421
 30
210.000
 70
    32
  0
SEQEND
  8
W51LXLIFT
  0
POLYLINE
  8
W51LXLIFT
 62
7
 66
     1
 70
     9
  0
VERTEX
  8
W51LXLIFT
 62
7
 10
420.447
 20
-6284.077
 30
172.000
 70
    32
  0
VERTEX
  8
W51LXLIFT
 62
7
 10
420.685
 20
-6285.088
 30
172.000
 70
    32
  0
VERTEX
  8
W51LXLIFT
 62
7
 10
420.548
 20
-6295.471
 30
172.000
 70
    32
  0
VERTEX
  8
W51LXLIFT
 62
7
 10
425.403
 20
-6310.100
 30
172.000
 70
    32
  0
VERTEX
  8
W51LXLIFT
 62
7
 10
428.289
 20
-6333.096
 30
172.000
 70
    32
  0
VERTEX
  8
W51LXLIFT
 62
7
 10
424.581
 20
-6334.870
 30
172.000
 70
    32
  0
VERTEX
  8
W51LXLIFT
 62
7
 10
424.636
 20
-6355.996
 30
172.000
 70
    32
  0
VERTEX
  8
W51LXLIFT
 62
7
 10
438.533
 20
-6366.932
 30
172.000
 70
    32
  0
VERTEX
  8
W51LXLIFT
 62
7
 10
442.334
 20
-6372.674
 30
172.000
 70
    32
  0
VERTEX
  8
W51LXLIFT
 62
7
 10
449.732
 20
-6371.108
 30
172.000
 70
    32
  0
VERTEX
  8
W51LXLIFT
 62
7
 10
456.868
 20
-6385.982
 30
172.000
 70
    32
  0
VERTEX
  8
W51LXLIFT
 62
7
 10
470.132
 20
-6402.657
 30
172.000
 70
    32
  0
VERTEX
  8
W51LXLIFT
 62
7
 10
475.883
 20
-6417.564
 30
172.000
 70
    32
  0
VERTEX
  8
W51LXLIFT
 62
7
 10
481.868
 20
-6421.816
 30
172.000
 70
    32
  0
VERTEX
  8
W51LXLIFT
 62
7
 10
480.375
 20
-6429.559
 30
172.000
 70
    32
  0
VERTEX
  8
W51LXLIFT
 62
7
 10
474.388
 20
-6431.596
 30
172.000
 70
    32
  0
VERTEX
  8
W51LXLIFT
 62
7
 10
470.759
 20
-6426.820
 30
172.000
 70
    32
  0
VERTEX
  8
W51LXLIFT
 62
7
 10
463.355
 20
-6426.168
 30
172.000
 70
    32
  0
VERTEX
  8
W51LXLIFT
 62
7
 10
451.441
 20
-6414.868
 30
172.000
 70
    32
  0
VERTEX
  8
W51LXLIFT
 62
7
 10
445.613
 20
-6415.168
 30
172.000
 70
    32
  0
VERTEX
  8
W51LXLIFT
 62
7
 10
442.002
 20
-6411.872
 30
172.000
 70
    32
  0
VERTEX
  8
W51LXLIFT
 62
7
 10
438.611
 20
-6408.237
 30
172.000
 70
    32
  0
VERTEX
  8
W51LXLIFT
 62
7
 10
434.789
 20
-6398.996
 30
172.000
 70
    32
  0
VERTEX
  8
W51LXLIFT
 62
7
 10
427.079
 20
-6390.418
 30
172.000
 70
    32
  0
VERTEX
  8
W51LXLIFT
 62
7
 10
423.723
 20
-6389.382
 30
172.000
 70
    32
  0
VERTEX
  8
W51LXLIFT
 62
7
 10
422.535
 20
-6388.310
 30
172.000
 70
    32
  0
VERTEX
  8
W51LXLIFT
 62
7
 10
409.335
 20
-6389.052
 30
172.000
 70
    32
  0
VERTEX
  8
W51LXLIFT
 62
7
 10
408.395
 20
-6379.440
 30
172.000
 70
    32
  0
VERTEX
  8
W51LXLIFT
 62
7
 10
399.742
 20
-6364.702
 30
172.000
 70
    32
  0
VERTEX
  8
W51LXLIFT
 62
7
 10
399.622
 20
-6357.368
 30
172.000
 70
    32
  0
VERTEX
  8
W51LXLIFT
 62
7
 10
399.626
 20
-6356.209
 30
172.000
 70
    32
  0
VERTEX
  8
W51LXLIFT
 62
7
 10
404.278
 20
-6350.619
 30
172.000
 70
    32
  0
VERTEX
  8
W51LXLIFT
 62
7
 10
406.978
 20
-6336.343
 30
172.000
 70
    32
  0
VERTEX
  8
W51LXLIFT
 62
7
 10
402.767
 20
-6321.059
 30
172.000
 70
    32
  0
VERTEX
  8
W51LXLIFT
 62
7
 10
403.733
 20
-6317.440
 30
172.000
 70
    32
  0
VERTEX
  8
W51LXLIFT
 62
7
 10
403.673
 20
-6308.301
 30
172.000
 70
    32
  0
VERTEX
  8
W51LXLIFT
 62
7
 10
403.899
 20
-6296.936
 30
172.000
 70
    32
  0
VERTEX
  8
W51LXLIFT
 62
7
 10
410.797
 20
-6285.830
 30
172.000
 70
    32
  0
VERTEX
  8
W51LXLIFT
 62
7
 10
410.910
 20
-6285.038
 30
172.000
 70
    32
  0
VERTEX
  8
W51LXLIFT
 62
7
 10
410.882
 20
-6284.870
 30
172.000
 70
    32
  0
SEQEND
  8
W51LXLIFT
  0
POLYLINE
  8
W51LXLIFT
 62
6
 66
     1
 70
     8
  0
VERTEX
  8
W51LXLIFT
 62
6
 10
421.708
 20
-6265.322
 30
151.000
 70
    32
  0
VERTEX
  8
W51LXLIFT
 62
6
 10
421.708
 20
-6282.715
 30
151.000
 70
    32
  0
VERTEX
  8
W51LXLIFT
 62
6
 10
427.498
 20
-6297.571
 30
151.000
 70
    32
  0
VERTEX
  8
W51LXLIFT
 62
6
 10
437.267
 20
-6292.861
 30
151.000
 70
    32
  0
VERTEX
  8
W51LXLIFT
 62
6
 10
440.524
 20
-6297.933
 30
151.000
 70
    32
  0
VERTEX
  8
W51LXLIFT
 62
6
 10
429.307
 20
-6306.629
 30
151.000
 70
    32
  0
VERTEX
  8
W51LXLIFT
 62
6
 10
438.715
 20
-6333.081
 30
151.000
 70
    32
  0
VERTEX
  8
W51LXLIFT
 62
6
 10
445.589
 20
-6354.096
 30
151.000
 70
    32
  0
VERTEX
  8
W51LXLIFT
 62
6
 10
454.273
 20
-6366.054
 30
151.000
 70
    32
  0
VERTEX
  8
W51LXLIFT
 62
6
 10
463.319
 20
-6382.359
 30
151.000
 70
    32
  0
VERTEX
  8
W51LXLIFT
 62
6
 10
479.240
 20
-6389.606
 30
151.000
 70
    32
  0
VERTEX
  8
W51LXLIFT
 62
6
 10
472.727
 20
-6398.665
 30
151.000
 70
    32
  0
VERTEX
  8
W51LXLIFT
 62
6
 10
460.063
 20
-6395.766
 30
151.000
 70
    32
  0
VERTEX
  8
W51LXLIFT
 62
6
 10
450.293
 20
-6384.533
 30
151.000
 70
    32
  0
VERTEX
  8
W51LXLIFT
 62
6
 10
429.669
 20
-6376.562
 30
151.000
 70
    32
  0
VERTEX
  8
W51LXLIFT
 62
6
 10
423.156
 20
-6361.706
 30
151.000
 70
    32
  0
VERTEX
  8
W51LXLIFT
 62
6
 10
423.156
 20
-6361.706
 30
151.000
 70
    32
  0
VERTEX
  8
W51LXLIFT
 62
6
 10
431.116
 20
-6342.864
 30
151.000
 70
    32
  0
VERTEX
  8
W51LXLIFT
 62
6
 10
430.031
 20
-6326.921
 30
151.000
 70
    32
  0
VERTEX
  8
W51LXLIFT
 62
6
 10
419.176
 20
-6305.180
 30
151.000
 70
    32
  0
VERTEX
  8
W51LXLIFT
 62
6
 10
413.386
 20
-6285.976
 30
151.000
 70
    32
  0
VERTEX
  8
W51LXLIFT
 62
6
 10
413.386
 20
-6264.235
 30
151.000
 70
    32
  0
SEQEND
  8
W51LXLIFT
  0
POLYLINE
  8
W51LXLIFT
 62
5
 66
     1
 70
     9
  0
VERTEX
  8
W51LXLIFT
 62
5
 10
428.092
 20
-6236.108
 30
140.000
 70
    32
  0
VERTEX
  8
W51LXLIFT
 62
5
 10
436.483
 20
-6239.657
 30
140.000
 70
    32
  0
VERTEX
  8
W51LXLIFT
 62
5
 10
439.073
 20
-6247.105
 30
140.000
 70
    32
  0
VERTEX
  8
W51LXLIFT
 62
5
 10
443.758
 20
-6255.730
 30
140.000
 70
    32
  0
VERTEX
  8
W51LXLIFT
 62
5
 10
447.634
 20
-6276.915
 30
140.000
 70
    32
  0
VERTEX
  8
W51LXLIFT
 62
5
 10
454.248
 20
-6302.277
 30
140.000
 70
    32
  0
VERTEX
  8
W51LXLIFT
 62
5
 10
460.079
 20
-6322.370
 30
140.000
 70
    32
  0
VERTEX
  8
W51LXLIFT
 62
5
 10
462.675
 20
-6339.960
 30
140.000
 70
    32
  0
VERTEX
  8
W51LXLIFT
 62
5
 10
472.056
 20
-6357.718
 30
140.000
 70
    32
  0
VERTEX
  8
W51LXLIFT
 62
5
 10
471.801
 20
-6357.767
 30
140.000
 70
    32
  0
VERTEX
  8
W51LXLIFT
 62
5
 10
477.705
 20
-6365.733
 30
140.000
 70
    32
  0
VERTEX
  8
W51LXLIFT
 62
5
 10
492.004
 20
-6385.036
 30
140.000
 70
    32
  0
VERTEX
  8
W51LXLIFT
 62
5
 10
503.533
 20
-6399.061
 30
140.000
 70
    32
  0
VERTEX
  8
W51LXLIFT
 62
5
 10
495.523
 20
-6406.356
 30
140.000
 70
    32
  0
VERTEX
  8
W51LXLIFT
 62
5
 10
487.386
 20
-6410.330
 30
140.000
 70
    32
  0
VERTEX
  8
W51LXLIFT
 62
5
 10
483.338
 20
-6399.744
 30
140.000
 70
    32
  0
VERTEX
  8
W51LXLIFT
 62
5
 10
472.858
 20
-6385.650
 30
140.000
 70
    32
  0
VERTEX
  8
W51LXLIFT
 62
5
 10
460.110
 20
-6372.946
 30
140.000
 70
    32
  0
VERTEX
  8
W51LXLIFT
 62
5
 10
446.784
 20
-6370.354
 30
140.000
 70
    32
  0
VERTEX
  8
W51LXLIFT
 62
5
 10
441.858
 20
-6362.564
 30
140.000
 70
    32
  0
VERTEX
  8
W51LXLIFT
 62
5
 10
428.975
 20
-6354.542
 30
140.000
 70
    32
  0
VERTEX
  8
W51LXLIFT
 62
5
 10
424.973
 20
-6348.201
 30
140.000
 70
    32
  0
VERTEX
  8
W51LXLIFT
 62
5
 10
431.859
 20
-6341.960
 30
140.000
 70
    32
  0
VERTEX
  8
W51LXLIFT
 62
5
 10
433.758
 20
-6333.506
 30
140.000
 70
    32
  0
VERTEX
  8
W51LXLIFT
 62
5
 10
439.262
 20
-6326.378
 30
140.000
 70
    32
  0
VERTEX
  8
W51LXLIFT
 62
5
 10
436.557
 20
-6318.266
 30
140.000
 70
    32
  0
VERTEX
  8
W51LXLIFT
 62
5
 10
430.332
 20
-6310.219
 30
140.000
 70
    32
  0
VERTEX
  8
W51LXLIFT
 62
5
 10
425.477
 20
-6309.026
 30
140.000
 70
    32
  0
VERTEX
  8
W51LXLIFT
 62
5
 10
427.201
 20
-6296.063
 30
140.000
 70
    32
  0
VERTEX
  8
W51LXLIFT
 62
5
 10
431.628
 20
-6282.274
 30
140.000
 70
    32
  0
VERTEX
  8
W51LXLIFT
 62
5
 10
432.969
 20
-6274.421
 30
140.000
 70
    32
  0
VERTEX
  8
W51LXLIFT
 62
5
 10
431.617
 20
-6257.134
 30
140.000
 70
    32
  0
VERTEX
  8
W51LXLIFT
 62
5
 10
426.944
 20
-6249.394
 30
140.000
 70
    32
  0
SEQEND
  8
W51LXLIFT
  0
POLYLINE
  8
W51LXLIFT
 62
2
 66
     1
 70
     8
  0
VERTEX
  8
W51LXLIFT
 62
2
 10
437.020
 20
-6340.813
 30
0.000
 70
    32
  0
VERTEX
  8
W51LXLIFT
 62
2
 10
429.870
 20
-6343.625
 30
0.000
 70
    32
  0
VERTEX
  8
W51LXLIFT
 62
2
 10
430.573
 20
-6354.170
 30
0.000
 70
    32
  0
VERTEX
  8
W51LXLIFT
 62
2
 10
430.391
 20
-6362.631
 30
0.000
 70
    32
  0
SEQEND
  8
W51LXLIFT
  0
LINE
  8
W51LXLIFT
 62
2
 10
443.585
 20
-6354.975
 30
0.000
 11
437.020
 21
-6340.813
 31
0.000
  0
LINE
  8
W51LXLIFT
 62
2
 10
452.394
 20
-6364.698
 30
0.000
 11
443.585
 21
-6354.975
 31
0.000
  0
LINE
  8
W51LXLIFT
 62
2
 10
459.803
 20
-6373.102
 30
0.000
 11
452.394
 21
-6364.698
 31
0.000
  0
LINE
  8
W51LXLIFT
 62
2
 10
463.552
 20
-6380.055
 30
0.000
 11
459.803
 21
-6373.102
 31
0.000
  0
LINE
  8
W51LXLIFT
 62
2
 10
471.906
 20
-6381.328
 30
0.000
 11
463.552
 21
-6380.055
 31
0.000
  0
LINE
  8
W51LXLIFT
 62
2
 10
478.862
 20
-6385.937
 30
0.000
 11
471.906
 21
-6381.328
 31
0.000
  0
LINE
  8
W51LXLIFT
 62
2
 10
477.782
 20
-6393.641
 30
0.000
 11
478.862
 21
-6385.937
 31
0.000
  0
LINE
  8
W51LXLIFT
 62
2
 10
464.761
 20
-6396.419
 30
0.000
 11
477.782
 21
-6393.641
 31
0.000
  0
LINE
  8
W51LXLIFT
 62
2
 10
461.796
 20
-6394.494
 30
0.000
 11
464.761
 21
-6396.419
 31
0.000
  0
LINE
  8
W51LXLIFT
 62
2
 10
458.635
 20
-6391.515
 30
0.000
 11
461.796
 21
-6394.494
 31
0.000
  0
LINE
  8
W51LXLIFT
 62
2
 10
451.031
 20
-6382.714
 30
0.000
 11
458.635
 21
-6391.515
 31
0.000
  0
LINE
  8
W51LXLIFT
 62
2
 10
439.201
 20
-6380.471
 30
0.000
 11
451.031
 21
-6382.714
 31
0.000
  0
POLYLINE
  8
W51LXLIFT
 62
2
 66
     1
 70
     8
  0
VERTEX
  8
W51LXLIFT
 62
2
 10
439.201
 20
-6380.471
 30
0.000
 70
    32
  0
VERTEX
  8
W51LXLIFT
 62
2
 10
434.955
 20
-6379.022
 30
0.000
 70
    32
  0
VERTEX
  8
W51LXLIFT
 62
2
 10
430.398
 20
-6369.540
 30
0.000
 70
    32
  0
VERTEX
  8
W51LXLIFT
 62
2
 10
430.391
 20
-6362.631
 30
0.000
 70
    32
  0
SEQEND
  8
W51LXLIFT
  0
POLYLINE
  8
W51LXLIFT
 62
8
 66
     1
 70
     9
  0
VERTEX
  8
W51LXLIFT
 62
8
 10
382.154
 20
-6203.165
 30
151.000
 70
    32
  0
VERTEX
  8
W51LXLIFT
 62
8
 10
415.092
 20
-6227.872
 30
151.000
 70
    32
  0
VERTEX
  8
W51LXLIFT
 62
8
 10
424.287
 20
-6233.891
 30
151.000
 70
    32
  0
VERTEX
  8
W51LXLIFT
 62
8
 10
434.565
 20
-6243.601
 30
151.000
 70
    32
  0
VERTEX
  8
W51LXLIFT
 62
8
 10
430.282
 20
-6255.284
 30
151.000
 70
    32
  0
VERTEX
  8
W51LXLIFT
 62
8
 10
428.771
 20
-6269.108
 30
151.000
 70
    32
  0
VERTEX
  8
W51LXLIFT
 62
8
 10
425.090
 20
-6271.851
 30
151.000
 70
    32
  0
VERTEX
  8
W51LXLIFT
 62
8
 10
423.285
 20
-6280.339
 30
151.000
 70
    32
  0
VERTEX
  8
W51LXLIFT
 62
8
 10
427.035
 20
-6292.009
 30
151.000
 70
    32
  0
VERTEX
  8
W51LXLIFT
 62
8
 10
440.999
 20
-6288.718
 30
151.000
 70
    32
  0
VERTEX
  8
W51LXLIFT
 62
8
 10
444.315
 20
-6297.227
 30
151.000
 70
    32
  0
VERTEX
  8
W51LXLIFT
 62
8
 10
449.270
 20
-6318.819
 30
151.000
 70
    32
  0
VERTEX
  8
W51LXLIFT
 62
8
 10
454.804
 20
-6333.350
 30
151.000
 70
    32
  0
VERTEX
  8
W51LXLIFT
 62
8
 10
454.335
 20
-6338.961
 30
151.000
 70
    32
  0
VERTEX
  8
W51LXLIFT
 62
8
 10
462.882
 20
-6359.595
 30
151.000
 70
    32
  0
VERTEX
  8
W51LXLIFT
 62
8
 10
474.175
 20
-6367.480
 30
151.000
 70
    32
  0
VERTEX
  8
W51LXLIFT
 62
8
 10
476.567
 20
-6388.335
 30
151.000
 70
    32
  0
VERTEX
  8
W51LXLIFT
 62
8
 10
466.075
 20
-6394.208
 30
151.000
 70
    32
  0
VERTEX
  8
W51LXLIFT
 62
8
 10
456.162
 20
-6390.542
 30
151.000
 70
    32
  0
VERTEX
  8
W51LXLIFT
 62
8
 10
453.799
 20
-6382.654
 30
151.000
 70
    32
  0
VERTEX
  8
W51LXLIFT
 62
8
 10
436.514
 20
-6377.045
 30
151.000
 70
    32
  0
VERTEX
  8
W51LXLIFT
 62
8
 10
428.608
 20
-6362.109
 30
151.000
 70
    32
  0
VERTEX
  8
W51LXLIFT
 62
8
 10
426.033
 20
-6351.422
 30
151.000
 70
    32
  0
VERTEX
  8
W51LXLIFT
 62
8
 10
431.124
 20
-6342.174
 30
151.000
 70
    32
  0
VERTEX
  8
W51LXLIFT
 62
8
 10
430.292
 20
-6328.120
 30
151.000
 70
    32
  0
VERTEX
  8
W51LXLIFT
 62
8
 10
416.687
 20
-6326.905
 30
151.000
 70
    32
  0
VERTEX
  8
W51LXLIFT
 62
8
 10
409.540
 20
-6303.697
 30
151.000
 70
    32
  0
VERTEX
  8
W51LXLIFT
 62
8
 10
408.990
 20
-6295.884
 30
151.000
 70
    32
  0
VERTEX
  8
W51LXLIFT
 62
8
 10
410.213
 20
-6277.724
 30
151.000
 70
    32
  0
VERTEX
  8
W51LXLIFT
 62
8
 10
413.162
 20
-6263.570
 30
151.000
 70
    32
  0
VERTEX
  8
W51LXLIFT
 62
8
 10
407.185
 20
-6238.759
 30
151.000
 70
    32
  0
VERTEX
  8
W51LXLIFT
 62
8
 10
389.662
 20
-6220.727
 30
151.000
 70
    32
  0
SEQEND
  8
W51LXLIFT
  0
ENDSEC
  0
EOF
