999
********************************
999
*   DXF File - Entities Only   *
999
*        3D Data Format        *
999
*     Output from ENVISAGE     *
999
*     31-Dec-2007 15:49:20     *
999
********************************
  0
SECTION 
  2
HEADER
  9
$ACADVER
  1
AC1009
  9
$EXTMIN
 10
-290000.000
 20
-250000.000
 30
-4000.000
  9
$EXTMAX
 10
320000.000
 20
160000.000
 30
6000.000
  0
ENDSEC
  0
SECTION
  2
ENTITIES
  0
POLYLINE
  8
W53LXLIFT
 62
6
 66
     1
 70
     9
  0
VERTEX
  8
W53LXLIFT
 62
6
 10
1206.729
 20
-7982.702
 30
-50.000
 70
    32
  0
VERTEX
  8
W53LXLIFT
 62
6
 10
1209.857
 20
-7983.216
 30
-50.000
 70
    32
  0
VERTEX
  8
W53LXLIFT
 62
6
 10
1213.481
 20
-7980.726
 30
-50.000
 70
    32
  0
VERTEX
  8
W53LXLIFT
 62
6
 10
1212.066
 20
-7975.311
 30
-50.000
 70
    32
  0
VERTEX
  8
W53LXLIFT
 62
6
 10
1204.661
 20
-7955.721
 30
-50.000
 70
    32
  0
VERTEX
  8
W53LXLIFT
 62
6
 10
1201.715
 20
-7939.600
 30
-50.000
 70
    32
  0
VERTEX
  8
W53LXLIFT
 62
6
 10
1194.535
 20
-7922.365
 30
-50.000
 70
    32
  0
VERTEX
  8
W53LXLIFT
 62
6
 10
1194.998
 20
-7918.728
 30
-50.000
 70
    32
  0
VERTEX
  8
W53LXLIFT
 62
6
 10
1196.305
 20
-7914.459
 30
-50.000
 70
    32
  0
VERTEX
  8
W53LXLIFT
 62
6
 10
1197.412
 20
-7902.878
 30
-50.000
 70
    32
  0
VERTEX
  8
W53LXLIFT
 62
6
 10
1194.333
 20
-7893.770
 30
-50.000
 70
    32
  0
VERTEX
  8
W53LXLIFT
 62
6
 10
1189.988
 20
-7884.729
 30
-50.000
 70
    32
  0
VERTEX
  8
W53LXLIFT
 62
6
 10
1180.197
 20
-7873.836
 30
-50.000
 70
    32
  0
VERTEX
  8
W53LXLIFT
 62
6
 10
1166.496
 20
-7868.718
 30
-50.000
 70
    32
  0
VERTEX
  8
W53LXLIFT
 62
6
 10
1155.565
 20
-7867.893
 30
-50.000
 70
    32
  0
VERTEX
  8
W53LXLIFT
 62
6
 10
1141.196
 20
-7851.315
 30
-50.000
 70
    32
  0
VERTEX
  8
W53LXLIFT
 62
6
 10
1128.568
 20
-7834.424
 30
-50.000
 70
    32
  0
VERTEX
  8
W53LXLIFT
 62
6
 10
1119.810
 20
-7826.379
 30
-50.000
 70
    32
  0
VERTEX
  8
W53LXLIFT
 62
6
 10
1113.616
 20
-7819.269
 30
-50.000
 70
    32
  0
VERTEX
  8
W53LXLIFT
 62
6
 10
1107.399
 20
-7804.496
 30
-50.000
 70
    32
  0
VERTEX
  8
W53LXLIFT
 62
6
 10
1103.410
 20
-7792.996
 30
-50.000
 70
    32
  0
VERTEX
  8
W53LXLIFT
 62
6
 10
1105.105
 20
-7787.339
 30
-50.000
 70
    32
  0
VERTEX
  8
W53LXLIFT
 62
6
 10
1108.662
 20
-7771.404
 30
-50.000
 70
    32
  0
VERTEX
  8
W53LXLIFT
 62
6
 10
1102.878
 20
-7761.026
 30
-50.000
 70
    32
  0
VERTEX
  8
W53LXLIFT
 62
6
 10
1094.196
 20
-7748.974
 30
-50.000
 70
    32
  0
VERTEX
  8
W53LXLIFT
 62
6
 10
1089.918
 20
-7742.078
 30
-50.000
 70
    32
  0
VERTEX
  8
W53LXLIFT
 62
6
 10
1083.971
 20
-7723.702
 30
-50.000
 70
    32
  0
VERTEX
  8
W53LXLIFT
 62
6
 10
1080.331
 20
-7713.257
 30
-50.000
 70
    32
  0
VERTEX
  8
W53LXLIFT
 62
6
 10
1074.863
 20
-7714.602
 30
-50.000
 70
    32
  0
VERTEX
  8
W53LXLIFT
 62
6
 10
1068.851
 20
-7715.366
 30
-50.000
 70
    32
  0
VERTEX
  8
W53LXLIFT
 62
6
 10
1059.905
 20
-7715.581
 30
-50.000
 70
    32
  0
VERTEX
  8
W53LXLIFT
 62
6
 10
1054.016
 20
-7716.363
 30
-50.000
 70
    32
  0
VERTEX
  8
W53LXLIFT
 62
6
 10
1048.877
 20
-7720.644
 30
-50.000
 70
    32
  0
VERTEX
  8
W53LXLIFT
 62
6
 10
1049.607
 20
-7737.763
 30
-50.000
 70
    32
  0
VERTEX
  8
W53LXLIFT
 62
6
 10
1047.522
 20
-7745.247
 30
-50.000
 70
    32
  0
VERTEX
  8
W53LXLIFT
 62
6
 10
1048.217
 20
-7750.433
 30
-50.000
 70
    32
  0
VERTEX
  8
W53LXLIFT
 62
6
 10
1053.928
 20
-7751.321
 30
-50.000
 70
    32
  0
VERTEX
  8
W53LXLIFT
 62
6
 10
1066.173
 20
-7742.604
 30
-50.000
 70
    32
  0
VERTEX
  8
W53LXLIFT
 62
6
 10
1076.820
 20
-7756.698
 30
-50.000
 70
    32
  0
VERTEX
  8
W53LXLIFT
 62
6
 10
1085.600
 20
-7773.724
 30
-50.000
 70
    32
  0
VERTEX
  8
W53LXLIFT
 62
6
 10
1085.376
 20
-7782.230
 30
-50.000
 70
    32
  0
VERTEX
  8
W53LXLIFT
 62
6
 10
1084.143
 20
-7784.250
 30
-50.000
 70
    32
  0
VERTEX
  8
W53LXLIFT
 62
6
 10
1086.035
 20
-7799.842
 30
-50.000
 70
    32
  0
VERTEX
  8
W53LXLIFT
 62
6
 10
1101.031
 20
-7819.900
 30
-50.000
 70
    32
  0
VERTEX
  8
W53LXLIFT
 62
6
 10
1117.342
 20
-7842.597
 30
-50.000
 70
    32
  0
VERTEX
  8
W53LXLIFT
 62
6
 10
1124.440
 20
-7856.053
 30
-50.000
 70
    32
  0
VERTEX
  8
W53LXLIFT
 62
6
 10
1132.879
 20
-7865.433
 30
-50.000
 70
    32
  0
VERTEX
  8
W53LXLIFT
 62
6
 10
1136.959
 20
-7875.879
 30
-50.000
 70
    32
  0
VERTEX
  8
W53LXLIFT
 62
6
 10
1143.810
 20
-7889.739
 30
-50.000
 70
    32
  0
VERTEX
  8
W53LXLIFT
 62
6
 10
1150.667
 20
-7899.205
 30
-50.000
 70
    32
  0
VERTEX
  8
W53LXLIFT
 62
6
 10
1160.937
 20
-7907.217
 30
-50.000
 70
    32
  0
VERTEX
  8
W53LXLIFT
 62
6
 10
1170.074
 20
-7920.026
 30
-50.000
 70
    32
  0
VERTEX
  8
W53LXLIFT
 62
6
 10
1180.491
 20
-7934.840
 30
-50.000
 70
    32
  0
VERTEX
  8
W53LXLIFT
 62
6
 10
1186.639
 20
-7948.786
 30
-50.000
 70
    32
  0
VERTEX
  8
W53LXLIFT
 62
6
 10
1195.994
 20
-7968.784
 30
-50.000
 70
    32
  0
VERTEX
  8
W53LXLIFT
 62
6
 10
1198.951
 20
-7977.875
 30
-50.000
 70
    32
  0
SEQEND
  8
W53LXLIFT
  0
POLYLINE
  8
W53LXLIFT
 62
13
 66
     1
 70
     9
  0
VERTEX
  8
W53LXLIFT
 62
13
 10
1103.380
 20
-8289.288
 30
-51.000
 70
    32
  0
VERTEX
  8
W53LXLIFT
 62
13
 10
1089.736
 20
-8281.604
 30
-51.000
 70
    32
  0
VERTEX
  8
W53LXLIFT
 62
13
 10
1080.742
 20
-8278.673
 30
-51.000
 70
    32
  0
VERTEX
  8
W53LXLIFT
 62
13
 10
1074.507
 20
-8275.324
 30
-51.000
 70
    32
  0
VERTEX
  8
W53LXLIFT
 62
13
 10
1071.406
 20
-8269.414
 30
-51.000
 70
    32
  0
VERTEX
  8
W53LXLIFT
 62
13
 10
1067.670
 20
-8264.417
 30
-51.000
 70
    32
  0
VERTEX
  8
W53LXLIFT
 62
13
 10
1057.012
 20
-8257.354
 30
-51.000
 70
    32
  0
VERTEX
  8
W53LXLIFT
 62
13
 10
1050.110
 20
-8254.285
 30
-51.000
 70
    32
  0
VERTEX
  8
W53LXLIFT
 62
13
 10
1043.415
 20
-8253.256
 30
-51.000
 70
    32
  0
VERTEX
  8
W53LXLIFT
 62
13
 10
1037.319
 20
-8251.559
 30
-51.000
 70
    32
  0
VERTEX
  8
W53LXLIFT
 62
13
 10
1028.962
 20
-8245.518
 30
-51.000
 70
    32
  0
VERTEX
  8
W53LXLIFT
 62
13
 10
1022.218
 20
-8242.221
 30
-51.000
 70
    32
  0
VERTEX
  8
W53LXLIFT
 62
13
 10
1018.603
 20
-8239.000
 30
-51.000
 70
    32
  0
VERTEX
  8
W53LXLIFT
 62
13
 10
1014.092
 20
-8235.021
 30
-51.000
 70
    32
  0
VERTEX
  8
W53LXLIFT
 62
13
 10
1006.556
 20
-8232.426
 30
-51.000
 70
    32
  0
VERTEX
  8
W53LXLIFT
 62
13
 10
997.740
 20
-8227.825
 30
-51.000
 70
    32
  0
VERTEX
  8
W53LXLIFT
 62
13
 10
993.086
 20
-8225.709
 30
-51.000
 70
    32
  0
VERTEX
  8
W53LXLIFT
 62
13
 10
988.481
 20
-8237.161
 30
-51.000
 70
    32
  0
VERTEX
  8
W53LXLIFT
 62
13
 10
997.713
 20
-8245.401
 30
-51.000
 70
    32
  0
VERTEX
  8
W53LXLIFT
 62
13
 10
1029.164
 20
-8263.252
 30
-51.000
 70
    32
  0
VERTEX
  8
W53LXLIFT
 62
13
 10
1038.056
 20
-8275.146
 30
-51.000
 70
    32
  0
VERTEX
  8
W53LXLIFT
 62
13
 10
1045.414
 20
-8279.411
 30
-51.000
 70
    32
  0
VERTEX
  8
W53LXLIFT
 62
13
 10
1087.816
 20
-8295.767
 30
-51.000
 70
    32
  0
VERTEX
  8
W53LXLIFT
 62
13
 10
1094.033
 20
-8298.799
 30
-51.000
 70
    32
  0
SEQEND
  8
W53LXLIFT
  0
POLYLINE
  8
W53LXLIFT
 62
6
 66
     1
 70
     9
  0
VERTEX
  8
W53LXLIFT
 62
6
 10
1199.055
 20
-7982.303
 30
-41.000
 70
    32
  0
VERTEX
  8
W53LXLIFT
 62
6
 10
1201.776
 20
-7982.584
 30
-41.000
 70
    32
  0
VERTEX
  8
W53LXLIFT
 62
6
 10
1205.318
 20
-7978.216
 30
-41.000
 70
    32
  0
VERTEX
  8
W53LXLIFT
 62
6
 10
1205.861
 20
-7970.386
 30
-41.000
 70
    32
  0
VERTEX
  8
W53LXLIFT
 62
6
 10
1202.691
 20
-7960.932
 30
-41.000
 70
    32
  0
VERTEX
  8
W53LXLIFT
 62
6
 10
1199.824
 20
-7956.171
 30
-41.000
 70
    32
  0
VERTEX
  8
W53LXLIFT
 62
6
 10
1199.524
 20
-7951.040
 30
-41.000
 70
    32
  0
VERTEX
  8
W53LXLIFT
 62
6
 10
1195.656
 20
-7924.843
 30
-41.000
 70
    32
  0
VERTEX
  8
W53LXLIFT
 62
6
 10
1191.316
 20
-7892.987
 30
-41.000
 70
    32
  0
VERTEX
  8
W53LXLIFT
 62
6
 10
1185.627
 20
-7887.364
 30
-41.000
 70
    32
  0
VERTEX
  8
W53LXLIFT
 62
6
 10
1173.637
 20
-7881.050
 30
-41.000
 70
    32
  0
VERTEX
  8
W53LXLIFT
 62
6
 10
1169.995
 20
-7873.912
 30
-41.000
 70
    32
  0
VERTEX
  8
W53LXLIFT
 62
6
 10
1165.261
 20
-7875.339
 30
-41.000
 70
    32
  0
VERTEX
  8
W53LXLIFT
 62
6
 10
1163.553
 20
-7873.326
 30
-41.000
 70
    32
  0
VERTEX
  8
W53LXLIFT
 62
6
 10
1160.403
 20
-7874.236
 30
-41.000
 70
    32
  0
VERTEX
  8
W53LXLIFT
 62
6
 10
1158.639
 20
-7872.591
 30
-41.000
 70
    32
  0
VERTEX
  8
W53LXLIFT
 62
6
 10
1150.611
 20
-7875.471
 30
-41.000
 70
    32
  0
VERTEX
  8
W53LXLIFT
 62
6
 10
1139.829
 20
-7866.952
 30
-41.000
 70
    32
  0
VERTEX
  8
W53LXLIFT
 62
6
 10
1127.556
 20
-7844.898
 30
-41.000
 70
    32
  0
VERTEX
  8
W53LXLIFT
 62
6
 10
1120.982
 20
-7832.173
 30
-41.000
 70
    32
  0
VERTEX
  8
W53LXLIFT
 62
6
 10
1107.870
 20
-7809.428
 30
-41.000
 70
    32
  0
VERTEX
  8
W53LXLIFT
 62
6
 10
1104.532
 20
-7801.519
 30
-41.000
 70
    32
  0
VERTEX
  8
W53LXLIFT
 62
6
 10
1102.358
 20
-7787.506
 30
-41.000
 70
    32
  0
VERTEX
  8
W53LXLIFT
 62
6
 10
1100.140
 20
-7777.567
 30
-41.000
 70
    32
  0
VERTEX
  8
W53LXLIFT
 62
6
 10
1088.140
 20
-7783.495
 30
-41.000
 70
    32
  0
VERTEX
  8
W53LXLIFT
 62
6
 10
1079.703
 20
-7765.594
 30
-41.000
 70
    32
  0
VERTEX
  8
W53LXLIFT
 62
6
 10
1080.315
 20
-7760.663
 30
-41.000
 70
    32
  0
VERTEX
  8
W53LXLIFT
 62
6
 10
1090.747
 20
-7755.567
 30
-41.000
 70
    32
  0
VERTEX
  8
W53LXLIFT
 62
6
 10
1091.411
 20
-7750.706
 30
-41.000
 70
    32
  0
VERTEX
  8
W53LXLIFT
 62
6
 10
1085.616
 20
-7739.918
 30
-41.000
 70
    32
  0
VERTEX
  8
W53LXLIFT
 62
6
 10
1081.699
 20
-7721.186
 30
-41.000
 70
    32
  0
VERTEX
  8
W53LXLIFT
 62
6
 10
1078.356
 20
-7716.667
 30
-41.000
 70
    32
  0
VERTEX
  8
W53LXLIFT
 62
6
 10
1050.596
 20
-7728.464
 30
-41.000
 70
    32
  0
VERTEX
  8
W53LXLIFT
 62
6
 10
1048.441
 20
-7735.739
 30
-41.000
 70
    32
  0
VERTEX
  8
W53LXLIFT
 62
6
 10
1046.277
 20
-7738.869
 30
-41.000
 70
    32
  0
VERTEX
  8
W53LXLIFT
 62
6
 10
1060.433
 20
-7760.514
 30
-41.000
 70
    32
  0
VERTEX
  8
W53LXLIFT
 62
6
 10
1066.117
 20
-7769.527
 30
-41.000
 70
    32
  0
VERTEX
  8
W53LXLIFT
 62
6
 10
1067.873
 20
-7775.001
 30
-41.000
 70
    32
  0
VERTEX
  8
W53LXLIFT
 62
6
 10
1077.055
 20
-7791.696
 30
-41.000
 70
    32
  0
VERTEX
  8
W53LXLIFT
 62
6
 10
1087.671
 20
-7801.321
 30
-41.000
 70
    32
  0
VERTEX
  8
W53LXLIFT
 62
6
 10
1094.102
 20
-7809.127
 30
-41.000
 70
    32
  0
VERTEX
  8
W53LXLIFT
 62
6
 10
1104.870
 20
-7822.353
 30
-41.000
 70
    32
  0
VERTEX
  8
W53LXLIFT
 62
6
 10
1109.225
 20
-7838.577
 30
-41.000
 70
    32
  0
VERTEX
  8
W53LXLIFT
 62
6
 10
1114.721
 20
-7852.208
 30
-41.000
 70
    32
  0
VERTEX
  8
W53LXLIFT
 62
6
 10
1114.540
 20
-7860.972
 30
-41.000
 70
    32
  0
VERTEX
  8
W53LXLIFT
 62
6
 10
1119.322
 20
-7870.980
 30
-41.000
 70
    32
  0
VERTEX
  8
W53LXLIFT
 62
6
 10
1127.879
 20
-7883.876
 30
-41.000
 70
    32
  0
VERTEX
  8
W53LXLIFT
 62
6
 10
1138.271
 20
-7892.902
 30
-41.000
 70
    32
  0
VERTEX
  8
W53LXLIFT
 62
6
 10
1146.077
 20
-7899.909
 30
-41.000
 70
    32
  0
VERTEX
  8
W53LXLIFT
 62
6
 10
1151.775
 20
-7898.752
 30
-41.000
 70
    32
  0
VERTEX
  8
W53LXLIFT
 62
6
 10
1157.984
 20
-7905.520
 30
-41.000
 70
    32
  0
VERTEX
  8
W53LXLIFT
 62
6
 10
1169.558
 20
-7921.756
 30
-41.000
 70
    32
  0
VERTEX
  8
W53LXLIFT
 62
6
 10
1180.153
 20
-7939.917
 30
-41.000
 70
    32
  0
VERTEX
  8
W53LXLIFT
 62
6
 10
1185.574
 20
-7956.991
 30
-41.000
 70
    32
  0
VERTEX
  8
W53LXLIFT
 62
6
 10
1187.416
 20
-7970.704
 30
-41.000
 70
    32
  0
VERTEX
  8
W53LXLIFT
 62
6
 10
1186.931
 20
-7977.726
 30
-41.000
 70
    32
  0
VERTEX
  8
W53LXLIFT
 62
6
 10
1188.559
 20
-7981.109
 30
-41.000
 70
    32
  0
SEQEND
  8
W53LXLIFT
  0
POLYLINE
  8
W53LXLIFT
 62
6
 66
     1
 70
     9
  0
VERTEX
  8
W53LXLIFT
 62
6
 10
1054.892
 20
-7715.077
 30
-30.000
 70
    32
  0
VERTEX
  8
W53LXLIFT
 62
6
 10
1061.304
 20
-7719.716
 30
-30.000
 70
    32
  0
VERTEX
  8
W53LXLIFT
 62
6
 10
1066.959
 20
-7724.810
 30
-30.000
 70
    32
  0
VERTEX
  8
W53LXLIFT
 62
6
 10
1073.559
 20
-7725.586
 30
-30.000
 70
    32
  0
VERTEX
  8
W53LXLIFT
 62
6
 10
1087.646
 20
-7740.382
 30
-30.000
 70
    32
  0
VERTEX
  8
W53LXLIFT
 62
6
 10
1089.765
 20
-7763.656
 30
-30.000
 70
    32
  0
VERTEX
  8
W53LXLIFT
 62
6
 10
1092.259
 20
-7768.915
 30
-30.000
 70
    32
  0
VERTEX
  8
W53LXLIFT
 62
6
 10
1086.026
 20
-7774.215
 30
-30.000
 70
    32
  0
VERTEX
  8
W53LXLIFT
 62
6
 10
1088.878
 20
-7782.600
 30
-30.000
 70
    32
  0
VERTEX
  8
W53LXLIFT
 62
6
 10
1097.713
 20
-7781.822
 30
-30.000
 70
    32
  0
VERTEX
  8
W53LXLIFT
 62
6
 10
1107.156
 20
-7794.057
 30
-30.000
 70
    32
  0
VERTEX
  8
W53LXLIFT
 62
6
 10
1114.413
 20
-7808.795
 30
-30.000
 70
    32
  0
VERTEX
  8
W53LXLIFT
 62
6
 10
1115.944
 20
-7818.493
 30
-30.000
 70
    32
  0
VERTEX
  8
W53LXLIFT
 62
6
 10
1119.421
 20
-7829.041
 30
-30.000
 70
    32
  0
VERTEX
  8
W53LXLIFT
 62
6
 10
1123.900
 20
-7844.754
 30
-30.000
 70
    32
  0
VERTEX
  8
W53LXLIFT
 62
6
 10
1131.134
 20
-7855.788
 30
-30.000
 70
    32
  0
VERTEX
  8
W53LXLIFT
 62
6
 10
1148.573
 20
-7871.262
 30
-30.000
 70
    32
  0
VERTEX
  8
W53LXLIFT
 62
6
 10
1164.585
 20
-7882.763
 30
-30.000
 70
    32
  0
VERTEX
  8
W53LXLIFT
 62
6
 10
1179.714
 20
-7890.434
 30
-30.000
 70
    32
  0
VERTEX
  8
W53LXLIFT
 62
6
 10
1185.863
 20
-7895.160
 30
-30.000
 70
    32
  0
VERTEX
  8
W53LXLIFT
 62
6
 10
1189.967
 20
-7901.846
 30
-30.000
 70
    32
  0
VERTEX
  8
W53LXLIFT
 62
6
 10
1191.677
 20
-7910.755
 30
-30.000
 70
    32
  0
VERTEX
  8
W53LXLIFT
 62
6
 10
1190.985
 20
-7918.057
 30
-30.000
 70
    32
  0
VERTEX
  8
W53LXLIFT
 62
6
 10
1190.671
 20
-7928.364
 30
-30.000
 70
    32
  0
VERTEX
  8
W53LXLIFT
 62
6
 10
1191.877
 20
-7935.567
 30
-30.000
 70
    32
  0
VERTEX
  8
W53LXLIFT
 62
6
 10
1194.004
 20
-7945.478
 30
-30.000
 70
    32
  0
VERTEX
  8
W53LXLIFT
 62
6
 10
1198.791
 20
-7958.225
 30
-30.000
 70
    32
  0
VERTEX
  8
W53LXLIFT
 62
6
 10
1202.867
 20
-7968.546
 30
-30.000
 70
    32
  0
VERTEX
  8
W53LXLIFT
 62
6
 10
1203.362
 20
-7972.884
 30
-30.000
 70
    32
  0
VERTEX
  8
W53LXLIFT
 62
6
 10
1199.619
 20
-7984.321
 30
-30.000
 70
    32
  0
VERTEX
  8
W53LXLIFT
 62
6
 10
1194.223
 20
-7986.042
 30
-30.000
 70
    32
  0
VERTEX
  8
W53LXLIFT
 62
6
 10
1186.042
 20
-7985.348
 30
-30.000
 70
    32
  0
VERTEX
  8
W53LXLIFT
 62
6
 10
1179.962
 20
-7981.448
 30
-30.000
 70
    32
  0
VERTEX
  8
W53LXLIFT
 62
6
 10
1183.714
 20
-7977.667
 30
-30.000
 70
    32
  0
VERTEX
  8
W53LXLIFT
 62
6
 10
1184.081
 20
-7973.015
 30
-30.000
 70
    32
  0
VERTEX
  8
W53LXLIFT
 62
6
 10
1181.510
 20
-7953.690
 30
-30.000
 70
    32
  0
VERTEX
  8
W53LXLIFT
 62
6
 10
1175.866
 20
-7945.085
 30
-30.000
 70
    32
  0
VERTEX
  8
W53LXLIFT
 62
6
 10
1170.742
 20
-7933.356
 30
-30.000
 70
    32
  0
VERTEX
  8
W53LXLIFT
 62
6
 10
1161.819
 20
-7923.142
 30
-30.000
 70
    32
  0
VERTEX
  8
W53LXLIFT
 62
6
 10
1151.177
 20
-7912.677
 30
-30.000
 70
    32
  0
VERTEX
  8
W53LXLIFT
 62
6
 10
1143.198
 20
-7904.169
 30
-30.000
 70
    32
  0
VERTEX
  8
W53LXLIFT
 62
6
 10
1132.045
 20
-7888.610
 30
-30.000
 70
    32
  0
VERTEX
  8
W53LXLIFT
 62
6
 10
1124.054
 20
-7872.885
 30
-30.000
 70
    32
  0
VERTEX
  8
W53LXLIFT
 62
6
 10
1115.593
 20
-7861.233
 30
-30.000
 70
    32
  0
VERTEX
  8
W53LXLIFT
 62
6
 10
1111.837
 20
-7850.018
 30
-30.000
 70
    32
  0
VERTEX
  8
W53LXLIFT
 62
6
 10
1108.150
 20
-7833.605
 30
-30.000
 70
    32
  0
VERTEX
  8
W53LXLIFT
 62
6
 10
1100.334
 20
-7823.552
 30
-30.000
 70
    32
  0
VERTEX
  8
W53LXLIFT
 62
6
 10
1091.060
 20
-7808.017
 30
-30.000
 70
    32
  0
VERTEX
  8
W53LXLIFT
 62
6
 10
1085.574
 20
-7799.623
 30
-30.000
 70
    32
  0
VERTEX
  8
W53LXLIFT
 62
6
 10
1071.130
 20
-7786.406
 30
-30.000
 70
    32
  0
VERTEX
  8
W53LXLIFT
 62
6
 10
1063.356
 20
-7779.497
 30
-30.000
 70
    32
  0
VERTEX
  8
W53LXLIFT
 62
6
 10
1057.237
 20
-7765.991
 30
-30.000
 70
    32
  0
VERTEX
  8
W53LXLIFT
 62
6
 10
1051.560
 20
-7756.753
 30
-30.000
 70
    32
  0
VERTEX
  8
W53LXLIFT
 62
6
 10
1052.130
 20
-7748.994
 30
-30.000
 70
    32
  0
VERTEX
  8
W53LXLIFT
 62
6
 10
1048.061
 20
-7742.062
 30
-30.000
 70
    32
  0
VERTEX
  8
W53LXLIFT
 62
6
 10
1043.846
 20
-7736.991
 30
-30.000
 70
    32
  0
VERTEX
  8
W53LXLIFT
 62
6
 10
1042.429
 20
-7729.945
 30
-30.000
 70
    32
  0
VERTEX
  8
W53LXLIFT
 62
6
 10
1047.312
 20
-7724.008
 30
-30.000
 70
    32
  0
SEQEND
  8
W53LXLIFT
  0
POLYLINE
  8
W53LXLIFT
 62
6
 66
     1
 70
     9
  0
VERTEX
  8
W53LXLIFT
 62
6
 10
1058.512
 20
-7707.883
 30
-22.000
 70
    32
  0
VERTEX
  8
W53LXLIFT
 62
6
 10
1071.273
 20
-7731.135
 30
-22.000
 70
    32
  0
VERTEX
  8
W53LXLIFT
 62
6
 10
1077.890
 20
-7746.251
 30
-22.000
 70
    32
  0
VERTEX
  8
W53LXLIFT
 62
6
 10
1083.191
 20
-7757.528
 30
-22.000
 70
    32
  0
VERTEX
  8
W53LXLIFT
 62
6
 10
1092.774
 20
-7780.183
 30
-22.000
 70
    32
  0
VERTEX
  8
W53LXLIFT
 62
6
 10
1104.198
 20
-7800.158
 30
-22.000
 70
    32
  0
VERTEX
  8
W53LXLIFT
 62
6
 10
1117.258
 20
-7816.731
 30
-22.000
 70
    32
  0
VERTEX
  8
W53LXLIFT
 62
6
 10
1123.635
 20
-7820.755
 30
-22.000
 70
    32
  0
VERTEX
  8
W53LXLIFT
 62
6
 10
1124.283
 20
-7827.824
 30
-22.000
 70
    32
  0
VERTEX
  8
W53LXLIFT
 62
6
 10
1121.830
 20
-7832.926
 30
-22.000
 70
    32
  0
VERTEX
  8
W53LXLIFT
 62
6
 10
1128.442
 20
-7852.313
 30
-22.000
 70
    32
  0
VERTEX
  8
W53LXLIFT
 62
6
 10
1138.134
 20
-7874.230
 30
-22.000
 70
    32
  0
VERTEX
  8
W53LXLIFT
 62
6
 10
1142.521
 20
-7878.964
 30
-22.000
 70
    32
  0
VERTEX
  8
W53LXLIFT
 62
6
 10
1150.860
 20
-7884.158
 30
-22.000
 70
    32
  0
VERTEX
  8
W53LXLIFT
 62
6
 10
1158.694
 20
-7888.523
 30
-22.000
 70
    32
  0
VERTEX
  8
W53LXLIFT
 62
6
 10
1164.032
 20
-7896.163
 30
-22.000
 70
    32
  0
VERTEX
  8
W53LXLIFT
 62
6
 10
1176.710
 20
-7905.141
 30
-22.000
 70
    32
  0
VERTEX
  8
W53LXLIFT
 62
6
 10
1183.944
 20
-7913.124
 30
-22.000
 70
    32
  0
VERTEX
  8
W53LXLIFT
 62
6
 10
1184.486
 20
-7917.099
 30
-22.000
 70
    32
  0
VERTEX
  8
W53LXLIFT
 62
6
 10
1184.972
 20
-7928.228
 30
-22.000
 70
    32
  0
VERTEX
  8
W53LXLIFT
 62
6
 10
1186.768
 20
-7934.337
 30
-22.000
 70
    32
  0
VERTEX
  8
W53LXLIFT
 62
6
 10
1178.511
 20
-7940.023
 30
-22.000
 70
    32
  0
VERTEX
  8
W53LXLIFT
 62
6
 10
1169.498
 20
-7942.770
 30
-22.000
 70
    32
  0
VERTEX
  8
W53LXLIFT
 62
6
 10
1164.560
 20
-7935.819
 30
-22.000
 70
    32
  0
VERTEX
  8
W53LXLIFT
 62
6
 10
1160.000
 20
-7930.557
 30
-22.000
 70
    32
  0
VERTEX
  8
W53LXLIFT
 62
6
 10
1155.580
 20
-7922.237
 30
-22.000
 70
    32
  0
VERTEX
  8
W53LXLIFT
 62
6
 10
1150.308
 20
-7912.032
 30
-22.000
 70
    32
  0
VERTEX
  8
W53LXLIFT
 62
6
 10
1142.077
 20
-7896.363
 30
-22.000
 70
    32
  0
VERTEX
  8
W53LXLIFT
 62
6
 10
1135.965
 20
-7888.860
 30
-22.000
 70
    32
  0
VERTEX
  8
W53LXLIFT
 62
6
 10
1113.090
 20
-7853.744
 30
-22.000
 70
    32
  0
VERTEX
  8
W53LXLIFT
 62
6
 10
1105.395
 20
-7849.713
 30
-22.000
 70
    32
  0
VERTEX
  8
W53LXLIFT
 62
6
 10
1101.151
 20
-7847.827
 30
-22.000
 70
    32
  0
VERTEX
  8
W53LXLIFT
 62
6
 10
1096.480
 20
-7840.350
 30
-22.000
 70
    32
  0
VERTEX
  8
W53LXLIFT
 62
6
 10
1091.553
 20
-7824.856
 30
-22.000
 70
    32
  0
VERTEX
  8
W53LXLIFT
 62
6
 10
1092.246
 20
-7813.400
 30
-22.000
 70
    32
  0
VERTEX
  8
W53LXLIFT
 62
6
 10
1091.446
 20
-7805.240
 30
-22.000
 70
    32
  0
VERTEX
  8
W53LXLIFT
 62
6
 10
1088.507
 20
-7799.213
 30
-22.000
 70
    32
  0
VERTEX
  8
W53LXLIFT
 62
6
 10
1085.491
 20
-7794.557
 30
-22.000
 70
    32
  0
VERTEX
  8
W53LXLIFT
 62
6
 10
1074.122
 20
-7783.951
 30
-22.000
 70
    32
  0
VERTEX
  8
W53LXLIFT
 62
6
 10
1061.690
 20
-7771.616
 30
-22.000
 70
    32
  0
VERTEX
  8
W53LXLIFT
 62
6
 10
1060.056
 20
-7768.233
 30
-22.000
 70
    32
  0
VERTEX
  8
W53LXLIFT
 62
6
 10
1051.698
 20
-7750.032
 30
-22.000
 70
    32
  0
VERTEX
  8
W53LXLIFT
 62
6
 10
1046.679
 20
-7738.545
 30
-22.000
 70
    32
  0
VERTEX
  8
W53LXLIFT
 62
6
 10
1040.986
 20
-7728.215
 30
-22.000
 70
    32
  0
VERTEX
  8
W53LXLIFT
 62
6
 10
1045.184
 20
-7725.319
 30
-22.000
 70
    32
  0
VERTEX
  8
W53LXLIFT
 62
6
 10
1054.420
 20
-7713.873
 30
-22.000
 70
    32
  0
SEQEND
  8
W53LXLIFT
  0
POLYLINE
  8
W53LXLIFT
 62
6
 66
     1
 70
     9
  0
VERTEX
  8
W53LXLIFT
 62
6
 10
1038.917
 20
-7729.943
 30
-11.000
 70
    32
  0
VERTEX
  8
W53LXLIFT
 62
6
 10
1046.174
 20
-7740.749
 30
-11.000
 70
    32
  0
VERTEX
  8
W53LXLIFT
 62
6
 10
1049.271
 20
-7746.985
 30
-11.000
 70
    32
  0
VERTEX
  8
W53LXLIFT
 62
6
 10
1057.464
 20
-7771.431
 30
-11.000
 70
    32
  0
VERTEX
  8
W53LXLIFT
 62
6
 10
1058.771
 20
-7780.856
 30
-11.000
 70
    32
  0
VERTEX
  8
W53LXLIFT
 62
6
 10
1067.354
 20
-7789.912
 30
-11.000
 70
    32
  0
VERTEX
  8
W53LXLIFT
 62
6
 10
1071.894
 20
-7795.732
 30
-11.000
 70
    32
  0
VERTEX
  8
W53LXLIFT
 62
6
 10
1076.750
 20
-7798.146
 30
-11.000
 70
    32
  0
VERTEX
  8
W53LXLIFT
 62
6
 10
1083.498
 20
-7797.950
 30
-11.000
 70
    32
  0
VERTEX
  8
W53LXLIFT
 62
6
 10
1087.461
 20
-7799.603
 30
-11.000
 70
    32
  0
VERTEX
  8
W53LXLIFT
 62
6
 10
1090.897
 20
-7804.821
 30
-11.000
 70
    32
  0
VERTEX
  8
W53LXLIFT
 62
6
 10
1094.089
 20
-7813.394
 30
-11.000
 70
    32
  0
VERTEX
  8
W53LXLIFT
 62
6
 10
1085.550
 20
-7824.001
 30
-11.000
 70
    32
  0
VERTEX
  8
W53LXLIFT
 62
6
 10
1089.698
 20
-7834.599
 30
-11.000
 70
    32
  0
VERTEX
  8
W53LXLIFT
 62
6
 10
1096.744
 20
-7845.562
 30
-11.000
 70
    32
  0
VERTEX
  8
W53LXLIFT
 62
6
 10
1103.498
 20
-7858.493
 30
-11.000
 70
    32
  0
VERTEX
  8
W53LXLIFT
 62
6
 10
1108.399
 20
-7866.125
 30
-11.000
 70
    32
  0
VERTEX
  8
W53LXLIFT
 62
6
 10
1117.895
 20
-7889.822
 30
-11.000
 70
    32
  0
VERTEX
  8
W53LXLIFT
 62
6
 10
1119.353
 20
-7893.554
 30
-11.000
 70
    32
  0
VERTEX
  8
W53LXLIFT
 62
6
 10
1124.682
 20
-7896.163
 30
-11.000
 70
    32
  0
VERTEX
  8
W53LXLIFT
 62
6
 10
1130.553
 20
-7899.354
 30
-11.000
 70
    32
  0
VERTEX
  8
W53LXLIFT
 62
6
 10
1145.818
 20
-7921.832
 30
-11.000
 70
    32
  0
VERTEX
  8
W53LXLIFT
 62
6
 10
1148.793
 20
-7928.049
 30
-11.000
 70
    32
  0
VERTEX
  8
W53LXLIFT
 62
6
 10
1153.746
 20
-7931.922
 30
-11.000
 70
    32
  0
VERTEX
  8
W53LXLIFT
 62
6
 10
1163.545
 20
-7940.403
 30
-11.000
 70
    32
  0
VERTEX
  8
W53LXLIFT
 62
6
 10
1167.673
 20
-7944.342
 30
-11.000
 70
    32
  0
VERTEX
  8
W53LXLIFT
 62
6
 10
1170.641
 20
-7959.099
 30
-11.000
 70
    32
  0
VERTEX
  8
W53LXLIFT
 62
6
 10
1174.612
 20
-7966.217
 30
-11.000
 70
    32
  0
VERTEX
  8
W53LXLIFT
 62
6
 10
1176.778
 20
-7968.986
 30
-11.000
 70
    32
  0
VERTEX
  8
W53LXLIFT
 62
6
 10
1179.447
 20
-7969.192
 30
-11.000
 70
    32
  0
VERTEX
  8
W53LXLIFT
 62
6
 10
1183.698
 20
-7965.927
 30
-11.000
 70
    32
  0
VERTEX
  8
W53LXLIFT
 62
6
 10
1185.411
 20
-7964.108
 30
-11.000
 70
    32
  0
VERTEX
  8
W53LXLIFT
 62
6
 10
1181.939
 20
-7959.136
 30
-11.000
 70
    32
  0
VERTEX
  8
W53LXLIFT
 62
6
 10
1178.599
 20
-7955.816
 30
-11.000
 70
    32
  0
VERTEX
  8
W53LXLIFT
 62
6
 10
1177.190
 20
-7949.203
 30
-11.000
 70
    32
  0
VERTEX
  8
W53LXLIFT
 62
6
 10
1181.237
 20
-7940.946
 30
-11.000
 70
    32
  0
VERTEX
  8
W53LXLIFT
 62
6
 10
1182.777
 20
-7931.378
 30
-11.000
 70
    32
  0
VERTEX
  8
W53LXLIFT
 62
6
 10
1182.101
 20
-7925.751
 30
-11.000
 70
    32
  0
VERTEX
  8
W53LXLIFT
 62
6
 10
1176.633
 20
-7915.586
 30
-11.000
 70
    32
  0
VERTEX
  8
W53LXLIFT
 62
6
 10
1176.392
 20
-7907.450
 30
-11.000
 70
    32
  0
VERTEX
  8
W53LXLIFT
 62
6
 10
1170.408
 20
-7898.652
 30
-11.000
 70
    32
  0
VERTEX
  8
W53LXLIFT
 62
6
 10
1158.986
 20
-7887.984
 30
-11.000
 70
    32
  0
VERTEX
  8
W53LXLIFT
 62
6
 10
1152.087
 20
-7886.650
 30
-11.000
 70
    32
  0
VERTEX
  8
W53LXLIFT
 62
6
 10
1142.047
 20
-7880.644
 30
-11.000
 70
    32
  0
VERTEX
  8
W53LXLIFT
 62
6
 10
1136.956
 20
-7872.607
 30
-11.000
 70
    32
  0
VERTEX
  8
W53LXLIFT
 62
6
 10
1135.376
 20
-7865.026
 30
-11.000
 70
    32
  0
VERTEX
  8
W53LXLIFT
 62
6
 10
1123.196
 20
-7847.589
 30
-11.000
 70
    32
  0
VERTEX
  8
W53LXLIFT
 62
6
 10
1116.532
 20
-7834.044
 30
-11.000
 70
    32
  0
VERTEX
  8
W53LXLIFT
 62
6
 10
1109.805
 20
-7815.403
 30
-11.000
 70
    32
  0
VERTEX
  8
W53LXLIFT
 62
6
 10
1107.545
 20
-7806.905
 30
-11.000
 70
    32
  0
VERTEX
  8
W53LXLIFT
 62
6
 10
1098.629
 20
-7797.549
 30
-11.000
 70
    32
  0
VERTEX
  8
W53LXLIFT
 62
6
 10
1086.715
 20
-7779.586
 30
-11.000
 70
    32
  0
VERTEX
  8
W53LXLIFT
 62
6
 10
1089.320
 20
-7775.136
 30
-11.000
 70
    32
  0
VERTEX
  8
W53LXLIFT
 62
6
 10
1086.654
 20
-7766.829
 30
-11.000
 70
    32
  0
VERTEX
  8
W53LXLIFT
 62
6
 10
1079.242
 20
-7748.150
 30
-11.000
 70
    32
  0
VERTEX
  8
W53LXLIFT
 62
6
 10
1072.766
 20
-7735.889
 30
-11.000
 70
    32
  0
VERTEX
  8
W53LXLIFT
 62
6
 10
1069.587
 20
-7724.680
 30
-11.000
 70
    32
  0
VERTEX
  8
W53LXLIFT
 62
6
 10
1058.671
 20
-7718.231
 30
-11.000
 70
    32
  0
SEQEND
  8
W53LXLIFT
  0
POLYLINE
  8
W53LXLIFT
 62
6
 66
     1
 70
     9
  0
VERTEX
  8
W53LXLIFT
 62
6
 10
1035.765
 20
-7734.904
 30
-4.000
 70
    32
  0
VERTEX
  8
W53LXLIFT
 62
6
 10
1048.673
 20
-7756.041
 30
-4.000
 70
    32
  0
VERTEX
  8
W53LXLIFT
 62
6
 10
1056.042
 20
-7776.016
 30
-4.000
 70
    32
  0
VERTEX
  8
W53LXLIFT
 62
6
 10
1059.862
 20
-7783.889
 30
-4.000
 70
    32
  0
VERTEX
  8
W53LXLIFT
 62
6
 10
1076.717
 20
-7805.505
 30
-4.000
 70
    32
  0
VERTEX
  8
W53LXLIFT
 62
6
 10
1080.581
 20
-7815.960
 30
-4.000
 70
    32
  0
VERTEX
  8
W53LXLIFT
 62
6
 10
1087.094
 20
-7826.758
 30
-4.000
 70
    32
  0
VERTEX
  8
W53LXLIFT
 62
6
 10
1097.048
 20
-7842.983
 30
-4.000
 70
    32
  0
VERTEX
  8
W53LXLIFT
 62
6
 10
1109.648
 20
-7870.230
 30
-4.000
 70
    32
  0
VERTEX
  8
W53LXLIFT
 62
6
 10
1117.779
 20
-7886.050
 30
-4.000
 70
    32
  0
VERTEX
  8
W53LXLIFT
 62
6
 10
1127.504
 20
-7898.848
 30
-4.000
 70
    32
  0
VERTEX
  8
W53LXLIFT
 62
6
 10
1133.872
 20
-7904.849
 30
-4.000
 70
    32
  0
VERTEX
  8
W53LXLIFT
 62
6
 10
1136.846
 20
-7904.299
 30
-4.000
 70
    32
  0
VERTEX
  8
W53LXLIFT
 62
6
 10
1137.179
 20
-7900.895
 30
-4.000
 70
    32
  0
VERTEX
  8
W53LXLIFT
 62
6
 10
1137.559
 20
-7889.394
 30
-4.000
 70
    32
  0
VERTEX
  8
W53LXLIFT
 62
6
 10
1140.065
 20
-7888.207
 30
-4.000
 70
    32
  0
VERTEX
  8
W53LXLIFT
 62
6
 10
1133.323
 20
-7880.955
 30
-4.000
 70
    32
  0
VERTEX
  8
W53LXLIFT
 62
6
 10
1126.639
 20
-7869.629
 30
-4.000
 70
    32
  0
VERTEX
  8
W53LXLIFT
 62
6
 10
1117.340
 20
-7851.180
 30
-4.000
 70
    32
  0
VERTEX
  8
W53LXLIFT
 62
6
 10
1107.790
 20
-7831.498
 30
-4.000
 70
    32
  0
VERTEX
  8
W53LXLIFT
 62
6
 10
1099.768
 20
-7815.381
 30
-4.000
 70
    32
  0
VERTEX
  8
W53LXLIFT
 62
6
 10
1090.771
 20
-7796.601
 30
-4.000
 70
    32
  0
VERTEX
  8
W53LXLIFT
 62
6
 10
1088.983
 20
-7792.684
 30
-4.000
 70
    32
  0
VERTEX
  8
W53LXLIFT
 62
6
 10
1086.937
 20
-7790.046
 30
-4.000
 70
    32
  0
VERTEX
  8
W53LXLIFT
 62
6
 10
1081.174
 20
-7778.044
 30
-4.000
 70
    32
  0
VERTEX
  8
W53LXLIFT
 62
6
 10
1078.902
 20
-7769.906
 30
-4.000
 70
    32
  0
VERTEX
  8
W53LXLIFT
 62
6
 10
1074.609
 20
-7760.202
 30
-4.000
 70
    32
  0
VERTEX
  8
W53LXLIFT
 62
6
 10
1070.342
 20
-7754.837
 30
-4.000
 70
    32
  0
VERTEX
  8
W53LXLIFT
 62
6
 10
1067.533
 20
-7740.774
 30
-4.000
 70
    32
  0
VERTEX
  8
W53LXLIFT
 62
6
 10
1064.875
 20
-7734.336
 30
-4.000
 70
    32
  0
VERTEX
  8
W53LXLIFT
 62
6
 10
1058.944
 20
-7725.073
 30
-4.000
 70
    32
  0
VERTEX
  8
W53LXLIFT
 62
6
 10
1054.586
 20
-7716.615
 30
-4.000
 70
    32
  0
VERTEX
  8
W53LXLIFT
 62
6
 10
1053.036
 20
-7715.247
 30
-4.000
 70
    32
  0
VERTEX
  8
W53LXLIFT
 62
6
 10
1050.123
 20
-7721.963
 30
-4.000
 70
    32
  0
VERTEX
  8
W53LXLIFT
 62
6
 10
1044.039
 20
-7724.360
 30
-4.000
 70
    32
  0
VERTEX
  8
W53LXLIFT
 62
6
 10
1039.305
 20
-7726.965
 30
-4.000
 70
    32
  0
VERTEX
  8
W53LXLIFT
 62
6
 10
1037.797
 20
-7730.252
 30
-4.000
 70
    32
  0
SEQEND
  8
W53LXLIFT
  0
POLYLINE
  8
W53LXLIFT
 62
6
 66
     1
 70
     9
  0
VERTEX
  8
W53LXLIFT
 62
6
 10
1138.401
 20
-7890.540
 30
5.000
 70
    32
  0
VERTEX
  8
W53LXLIFT
 62
6
 10
1133.438
 20
-7881.206
 30
5.000
 70
    32
  0
VERTEX
  8
W53LXLIFT
 62
6
 10
1126.035
 20
-7864.166
 30
5.000
 70
    32
  0
VERTEX
  8
W53LXLIFT
 62
6
 10
1108.192
 20
-7833.216
 30
5.000
 70
    32
  0
VERTEX
  8
W53LXLIFT
 62
6
 10
1100.331
 20
-7816.297
 30
5.000
 70
    32
  0
VERTEX
  8
W53LXLIFT
 62
6
 10
1098.644
 20
-7809.016
 30
5.000
 70
    32
  0
VERTEX
  8
W53LXLIFT
 62
6
 10
1093.765
 20
-7804.215
 30
5.000
 70
    32
  0
VERTEX
  8
W53LXLIFT
 62
6
 10
1088.521
 20
-7791.261
 30
5.000
 70
    32
  0
VERTEX
  8
W53LXLIFT
 62
6
 10
1080.889
 20
-7777.891
 30
5.000
 70
    32
  0
VERTEX
  8
W53LXLIFT
 62
6
 10
1076.745
 20
-7762.588
 30
5.000
 70
    32
  0
VERTEX
  8
W53LXLIFT
 62
6
 10
1070.151
 20
-7745.165
 30
5.000
 70
    32
  0
VERTEX
  8
W53LXLIFT
 62
6
 10
1066.448
 20
-7737.085
 30
5.000
 70
    32
  0
VERTEX
  8
W53LXLIFT
 62
6
 10
1065.846
 20
-7730.529
 30
5.000
 70
    32
  0
VERTEX
  8
W53LXLIFT
 62
6
 10
1051.937
 20
-7718.430
 30
5.000
 70
    32
  0
VERTEX
  8
W53LXLIFT
 62
6
 10
1045.327
 20
-7723.230
 30
5.000
 70
    32
  0
VERTEX
  8
W53LXLIFT
 62
6
 10
1042.298
 20
-7728.433
 30
5.000
 70
    32
  0
VERTEX
  8
W53LXLIFT
 62
6
 10
1032.064
 20
-7730.563
 30
5.000
 70
    32
  0
VERTEX
  8
W53LXLIFT
 62
6
 10
1038.171
 20
-7739.376
 30
5.000
 70
    32
  0
VERTEX
  8
W53LXLIFT
 62
6
 10
1046.162
 20
-7758.386
 30
5.000
 70
    32
  0
VERTEX
  8
W53LXLIFT
 62
6
 10
1052.625
 20
-7773.718
 30
5.000
 70
    32
  0
VERTEX
  8
W53LXLIFT
 62
6
 10
1059.379
 20
-7787.083
 30
5.000
 70
    32
  0
VERTEX
  8
W53LXLIFT
 62
6
 10
1071.383
 20
-7804.426
 30
5.000
 70
    32
  0
VERTEX
  8
W53LXLIFT
 62
6
 10
1083.388
 20
-7821.768
 30
5.000
 70
    32
  0
VERTEX
  8
W53LXLIFT
 62
6
 10
1086.340
 20
-7828.985
 30
5.000
 70
    32
  0
VERTEX
  8
W53LXLIFT
 62
6
 10
1087.746
 20
-7832.646
 30
5.000
 70
    32
  0
VERTEX
  8
W53LXLIFT
 62
6
 10
1087.002
 20
-7841.514
 30
5.000
 70
    32
  0
VERTEX
  8
W53LXLIFT
 62
6
 10
1089.904
 20
-7848.220
 30
5.000
 70
    32
  0
VERTEX
  8
W53LXLIFT
 62
6
 10
1095.884
 20
-7854.063
 30
5.000
 70
    32
  0
VERTEX
  8
W53LXLIFT
 62
6
 10
1103.085
 20
-7865.674
 30
5.000
 70
    32
  0
VERTEX
  8
W53LXLIFT
 62
6
 10
1112.508
 20
-7886.465
 30
5.000
 70
    32
  0
VERTEX
  8
W53LXLIFT
 62
6
 10
1120.121
 20
-7903.787
 30
5.000
 70
    32
  0
SEQEND
  8
W53LXLIFT
  0
POLYLINE
  8
W53LXLIFT
 62
6
 66
     1
 70
     9
  0
VERTEX
  8
W53LXLIFT
 62
6
 10
1136.242
 20
-7896.918
 30
9.000
 70
    32
  0
VERTEX
  8
W53LXLIFT
 62
6
 10
1134.524
 20
-7893.818
 30
9.000
 70
    32
  0
VERTEX
  8
W53LXLIFT
 62
6
 10
1126.070
 20
-7881.050
 30
9.000
 70
    32
  0
VERTEX
  8
W53LXLIFT
 62
6
 10
1122.680
 20
-7872.531
 30
9.000
 70
    32
  0
VERTEX
  8
W53LXLIFT
 62
6
 10
1119.966
 20
-7863.299
 30
9.000
 70
    32
  0
VERTEX
  8
W53LXLIFT
 62
6
 10
1116.491
 20
-7854.515
 30
9.000
 70
    32
  0
VERTEX
  8
W53LXLIFT
 62
6
 10
1107.395
 20
-7836.990
 30
9.000
 70
    32
  0
VERTEX
  8
W53LXLIFT
 62
6
 10
1107.396
 20
-7834.159
 30
9.000
 70
    32
  0
VERTEX
  8
W53LXLIFT
 62
6
 10
1099.478
 20
-7820.782
 30
9.000
 70
    32
  0
VERTEX
  8
W53LXLIFT
 62
6
 10
1097.725
 20
-7813.462
 30
9.000
 70
    32
  0
VERTEX
  8
W53LXLIFT
 62
6
 10
1092.235
 20
-7805.496
 30
9.000
 70
    32
  0
VERTEX
  8
W53LXLIFT
 62
6
 10
1088.238
 20
-7797.638
 30
9.000
 70
    32
  0
VERTEX
  8
W53LXLIFT
 62
6
 10
1081.765
 20
-7789.519
 30
9.000
 70
    32
  0
VERTEX
  8
W53LXLIFT
 62
6
 10
1079.499
 20
-7781.049
 30
9.000
 70
    32
  0
VERTEX
  8
W53LXLIFT
 62
6
 10
1070.997
 20
-7759.716
 30
9.000
 70
    32
  0
VERTEX
  8
W53LXLIFT
 62
6
 10
1068.869
 20
-7755.609
 30
9.000
 70
    32
  0
VERTEX
  8
W53LXLIFT
 62
6
 10
1068.433
 20
-7751.137
 30
9.000
 70
    32
  0
VERTEX
  8
W53LXLIFT
 62
6
 10
1062.117
 20
-7733.543
 30
9.000
 70
    32
  0
VERTEX
  8
W53LXLIFT
 62
6
 10
1047.998
 20
-7722.407
 30
9.000
 70
    32
  0
VERTEX
  8
W53LXLIFT
 62
6
 10
1044.121
 20
-7723.061
 30
9.000
 70
    32
  0
VERTEX
  8
W53LXLIFT
 62
6
 10
1033.748
 20
-7733.901
 30
9.000
 70
    32
  0
VERTEX
  8
W53LXLIFT
 62
6
 10
1035.345
 20
-7743.839
 30
9.000
 70
    32
  0
VERTEX
  8
W53LXLIFT
 62
6
 10
1036.332
 20
-7753.242
 30
9.000
 70
    32
  0
VERTEX
  8
W53LXLIFT
 62
6
 10
1040.940
 20
-7762.832
 30
9.000
 70
    32
  0
VERTEX
  8
W53LXLIFT
 62
6
 10
1049.552
 20
-7774.178
 30
9.000
 70
    32
  0
VERTEX
  8
W53LXLIFT
 62
6
 10
1048.552
 20
-7785.033
 30
9.000
 70
    32
  0
VERTEX
  8
W53LXLIFT
 62
6
 10
1053.586
 20
-7794.311
 30
9.000
 70
    32
  0
VERTEX
  8
W53LXLIFT
 62
6
 10
1058.136
 20
-7804.270
 30
9.000
 70
    32
  0
VERTEX
  8
W53LXLIFT
 62
6
 10
1070.303
 20
-7808.557
 30
9.000
 70
    32
  0
VERTEX
  8
W53LXLIFT
 62
6
 10
1080.079
 20
-7826.566
 30
9.000
 70
    32
  0
VERTEX
  8
W53LXLIFT
 62
6
 10
1083.666
 20
-7833.417
 30
9.000
 70
    32
  0
VERTEX
  8
W53LXLIFT
 62
6
 10
1088.239
 20
-7841.617
 30
9.000
 70
    32
  0
VERTEX
  8
W53LXLIFT
 62
6
 10
1088.901
 20
-7846.250
 30
9.000
 70
    32
  0
VERTEX
  8
W53LXLIFT
 62
6
 10
1087.384
 20
-7850.732
 30
9.000
 70
    32
  0
VERTEX
  8
W53LXLIFT
 62
6
 10
1090.721
 20
-7864.843
 30
9.000
 70
    32
  0
VERTEX
  8
W53LXLIFT
 62
6
 10
1088.517
 20
-7868.085
 30
9.000
 70
    32
  0
VERTEX
  8
W53LXLIFT
 62
6
 10
1087.719
 20
-7869.974
 30
9.000
 70
    32
  0
VERTEX
  8
W53LXLIFT
 62
6
 10
1093.737
 20
-7873.744
 30
9.000
 70
    32
  0
VERTEX
  8
W53LXLIFT
 62
6
 10
1100.883
 20
-7888.448
 30
9.000
 70
    32
  0
VERTEX
  8
W53LXLIFT
 62
6
 10
1104.773
 20
-7894.968
 30
9.000
 70
    32
  0
VERTEX
  8
W53LXLIFT
 62
6
 10
1113.226
 20
-7900.879
 30
9.000
 70
    32
  0
VERTEX
  8
W53LXLIFT
 62
6
 10
1120.546
 20
-7908.815
 30
9.000
 70
    32
  0
SEQEND
  8
W53LXLIFT
  0
POLYLINE
  8
W53LXLIFT
 62
6
 66
     1
 70
     9
  0
VERTEX
  8
W53LXLIFT
 62
6
 10
1135.610
 20
-7894.028
 30
21.000
 70
    32
  0
VERTEX
  8
W53LXLIFT
 62
6
 10
1123.242
 20
-7872.334
 30
21.000
 70
    32
  0
VERTEX
  8
W53LXLIFT
 62
6
 10
1116.725
 20
-7854.320
 30
21.000
 70
    32
  0
VERTEX
  8
W53LXLIFT
 62
6
 10
1113.490
 20
-7851.235
 30
21.000
 70
    32
  0
VERTEX
  8
W53LXLIFT
 62
6
 10
1109.429
 20
-7840.907
 30
21.000
 70
    32
  0
VERTEX
  8
W53LXLIFT
 62
6
 10
1097.404
 20
-7812.970
 30
21.000
 70
    32
  0
VERTEX
  8
W53LXLIFT
 62
6
 10
1084.823
 20
-7791.431
 30
21.000
 70
    32
  0
VERTEX
  8
W53LXLIFT
 62
6
 10
1079.875
 20
-7780.336
 30
21.000
 70
    32
  0
VERTEX
  8
W53LXLIFT
 62
6
 10
1071.579
 20
-7759.589
 30
21.000
 70
    32
  0
VERTEX
  8
W53LXLIFT
 62
6
 10
1064.283
 20
-7749.010
 30
21.000
 70
    32
  0
VERTEX
  8
W53LXLIFT
 62
6
 10
1059.097
 20
-7735.800
 30
21.000
 70
    32
  0
VERTEX
  8
W53LXLIFT
 62
6
 10
1050.613
 20
-7725.980
 30
21.000
 70
    32
  0
VERTEX
  8
W53LXLIFT
 62
6
 10
1042.115
 20
-7727.177
 30
21.000
 70
    32
  0
VERTEX
  8
W53LXLIFT
 62
6
 10
1034.744
 20
-7734.090
 30
21.000
 70
    32
  0
VERTEX
  8
W53LXLIFT
 62
6
 10
1031.214
 20
-7743.426
 30
21.000
 70
    32
  0
VERTEX
  8
W53LXLIFT
 62
6
 10
1037.408
 20
-7750.560
 30
21.000
 70
    32
  0
VERTEX
  8
W53LXLIFT
 62
6
 10
1040.674
 20
-7758.309
 30
21.000
 70
    32
  0
VERTEX
  8
W53LXLIFT
 62
6
 10
1044.740
 20
-7771.031
 30
21.000
 70
    32
  0
VERTEX
  8
W53LXLIFT
 62
6
 10
1046.306
 20
-7790.919
 30
21.000
 70
    32
  0
VERTEX
  8
W53LXLIFT
 62
6
 10
1052.850
 20
-7803.900
 30
21.000
 70
    32
  0
VERTEX
  8
W53LXLIFT
 62
6
 10
1061.949
 20
-7813.815
 30
21.000
 70
    32
  0
VERTEX
  8
W53LXLIFT
 62
6
 10
1075.255
 20
-7810.848
 30
21.000
 70
    32
  0
VERTEX
  8
W53LXLIFT
 62
6
 10
1086.418
 20
-7837.454
 30
21.000
 70
    32
  0
VERTEX
  8
W53LXLIFT
 62
6
 10
1089.976
 20
-7859.919
 30
21.000
 70
    32
  0
VERTEX
  8
W53LXLIFT
 62
6
 10
1095.733
 20
-7873.911
 30
21.000
 70
    32
  0
VERTEX
  8
W53LXLIFT
 62
6
 10
1101.035
 20
-7886.384
 30
21.000
 70
    32
  0
VERTEX
  8
W53LXLIFT
 62
6
 10
1110.475
 20
-7898.556
 30
21.000
 70
    32
  0
VERTEX
  8
W53LXLIFT
 62
6
 10
1118.533
 20
-7903.021
 30
21.000
 70
    32
  0
VERTEX
  8
W53LXLIFT
 62
6
 10
1124.467
 20
-7901.299
 30
21.000
 70
    32
  0
SEQEND
  8
W53LXLIFT
  0
POLYLINE
  8
W53LXLIFT
 62
6
 66
     1
 70
     9
  0
VERTEX
  8
W53LXLIFT
 62
6
 10
1127.260
 20
-7901.287
 30
29.000
 70
    32
  0
VERTEX
  8
W53LXLIFT
 62
6
 10
1126.295
 20
-7895.033
 30
29.000
 70
    32
  0
VERTEX
  8
W53LXLIFT
 62
6
 10
1120.384
 20
-7878.251
 30
29.000
 70
    32
  0
VERTEX
  8
W53LXLIFT
 62
6
 10
1117.912
 20
-7869.182
 30
29.000
 70
    32
  0
VERTEX
  8
W53LXLIFT
 62
6
 10
1109.611
 20
-7854.791
 30
29.000
 70
    32
  0
VERTEX
  8
W53LXLIFT
 62
6
 10
1103.837
 20
-7840.735
 30
29.000
 70
    32
  0
VERTEX
  8
W53LXLIFT
 62
6
 10
1094.177
 20
-7820.595
 30
29.000
 70
    32
  0
VERTEX
  8
W53LXLIFT
 62
6
 10
1082.766
 20
-7797.600
 30
29.000
 70
    32
  0
VERTEX
  8
W53LXLIFT
 62
6
 10
1074.833
 20
-7782.072
 30
29.000
 70
    32
  0
VERTEX
  8
W53LXLIFT
 62
6
 10
1070.927
 20
-7771.330
 30
29.000
 70
    32
  0
VERTEX
  8
W53LXLIFT
 62
6
 10
1064.241
 20
-7755.872
 30
29.000
 70
    32
  0
VERTEX
  8
W53LXLIFT
 62
6
 10
1054.660
 20
-7741.217
 30
29.000
 70
    32
  0
VERTEX
  8
W53LXLIFT
 62
6
 10
1047.784
 20
-7735.354
 30
29.000
 70
    32
  0
VERTEX
  8
W53LXLIFT
 62
6
 10
1040.637
 20
-7731.209
 30
29.000
 70
    32
  0
VERTEX
  8
W53LXLIFT
 62
6
 10
1032.519
 20
-7737.227
 30
29.000
 70
    32
  0
VERTEX
  8
W53LXLIFT
 62
6
 10
1031.978
 20
-7760.226
 30
29.000
 70
    32
  0
VERTEX
  8
W53LXLIFT
 62
6
 10
1042.720
 20
-7771.101
 30
29.000
 70
    32
  0
VERTEX
  8
W53LXLIFT
 62
6
 10
1047.070
 20
-7793.802
 30
29.000
 70
    32
  0
VERTEX
  8
W53LXLIFT
 62
6
 10
1048.488
 20
-7802.769
 30
29.000
 70
    32
  0
VERTEX
  8
W53LXLIFT
 62
6
 10
1053.987
 20
-7821.373
 30
29.000
 70
    32
  0
VERTEX
  8
W53LXLIFT
 62
6
 10
1055.024
 20
-7829.965
 30
29.000
 70
    32
  0
VERTEX
  8
W53LXLIFT
 62
6
 10
1060.348
 20
-7831.307
 30
29.000
 70
    32
  0
VERTEX
  8
W53LXLIFT
 62
6
 10
1062.142
 20
-7827.501
 30
29.000
 70
    32
  0
VERTEX
  8
W53LXLIFT
 62
6
 10
1063.496
 20
-7820.103
 30
29.000
 70
    32
  0
VERTEX
  8
W53LXLIFT
 62
6
 10
1067.151
 20
-7816.464
 30
29.000
 70
    32
  0
VERTEX
  8
W53LXLIFT
 62
6
 10
1072.798
 20
-7817.354
 30
29.000
 70
    32
  0
VERTEX
  8
W53LXLIFT
 62
6
 10
1076.954
 20
-7820.524
 30
29.000
 70
    32
  0
VERTEX
  8
W53LXLIFT
 62
6
 10
1082.456
 20
-7832.713
 30
29.000
 70
    32
  0
VERTEX
  8
W53LXLIFT
 62
6
 10
1085.226
 20
-7845.478
 30
29.000
 70
    32
  0
VERTEX
  8
W53LXLIFT
 62
6
 10
1089.329
 20
-7863.359
 30
29.000
 70
    32
  0
VERTEX
  8
W53LXLIFT
 62
6
 10
1097.270
 20
-7884.424
 30
29.000
 70
    32
  0
VERTEX
  8
W53LXLIFT
 62
6
 10
1105.764
 20
-7896.392
 30
29.000
 70
    32
  0
VERTEX
  8
W53LXLIFT
 62
6
 10
1111.904
 20
-7903.334
 30
29.000
 70
    32
  0
VERTEX
  8
W53LXLIFT
 62
6
 10
1114.238
 20
-7907.287
 30
29.000
 70
    32
  0
VERTEX
  8
W53LXLIFT
 62
6
 10
1119.941
 20
-7904.223
 30
29.000
 70
    32
  0
SEQEND
  8
W53LXLIFT
  0
POLYLINE
  8
W53LXLIFT
 62
6
 66
     1
 70
     9
  0
VERTEX
  8
W53LXLIFT
 62
6
 10
1041.351
 20
-7727.300
 30
38.000
 70
    32
  0
VERTEX
  8
W53LXLIFT
 62
6
 10
1031.724
 20
-7739.104
 30
38.000
 70
    32
  0
VERTEX
  8
W53LXLIFT
 62
6
 10
1030.740
 20
-7760.247
 30
38.000
 70
    32
  0
VERTEX
  8
W53LXLIFT
 62
6
 10
1044.627
 20
-7773.140
 30
38.000
 70
    32
  0
VERTEX
  8
W53LXLIFT
 62
6
 10
1047.851
 20
-7781.350
 30
38.000
 70
    32
  0
VERTEX
  8
W53LXLIFT
 62
6
 10
1048.583
 20
-7798.606
 30
38.000
 70
    32
  0
VERTEX
  8
W53LXLIFT
 62
6
 10
1047.965
 20
-7813.147
 30
38.000
 70
    32
  0
VERTEX
  8
W53LXLIFT
 62
6
 10
1048.477
 20
-7822.268
 30
38.000
 70
    32
  0
VERTEX
  8
W53LXLIFT
 62
6
 10
1053.868
 20
-7831.935
 30
38.000
 70
    32
  0
VERTEX
  8
W53LXLIFT
 62
6
 10
1058.516
 20
-7835.272
 30
38.000
 70
    32
  0
VERTEX
  8
W53LXLIFT
 62
6
 10
1062.822
 20
-7820.847
 30
38.000
 70
    32
  0
VERTEX
  8
W53LXLIFT
 62
6
 10
1066.722
 20
-7813.709
 30
38.000
 70
    32
  0
VERTEX
  8
W53LXLIFT
 62
6
 10
1074.560
 20
-7813.381
 30
38.000
 70
    32
  0
VERTEX
  8
W53LXLIFT
 62
6
 10
1086.891
 20
-7844.127
 30
38.000
 70
    32
  0
VERTEX
  8
W53LXLIFT
 62
6
 10
1086.739
 20
-7859.743
 30
38.000
 70
    32
  0
VERTEX
  8
W53LXLIFT
 62
6
 10
1087.326
 20
-7865.861
 30
38.000
 70
    32
  0
VERTEX
  8
W53LXLIFT
 62
6
 10
1091.175
 20
-7874.919
 30
38.000
 70
    32
  0
VERTEX
  8
W53LXLIFT
 62
6
 10
1089.587
 20
-7882.970
 30
38.000
 70
    32
  0
VERTEX
  8
W53LXLIFT
 62
6
 10
1085.690
 20
-7889.669
 30
38.000
 70
    32
  0
VERTEX
  8
W53LXLIFT
 62
6
 10
1100.266
 20
-7899.651
 30
38.000
 70
    32
  0
VERTEX
  8
W53LXLIFT
 62
6
 10
1112.063
 20
-7910.156
 30
38.000
 70
    32
  0
VERTEX
  8
W53LXLIFT
 62
6
 10
1124.955
 20
-7903.366
 30
38.000
 70
    32
  0
VERTEX
  8
W53LXLIFT
 62
6
 10
1120.206
 20
-7887.766
 30
38.000
 70
    32
  0
VERTEX
  8
W53LXLIFT
 62
6
 10
1116.358
 20
-7873.684
 30
38.000
 70
    32
  0
VERTEX
  8
W53LXLIFT
 62
6
 10
1115.364
 20
-7865.683
 30
38.000
 70
    32
  0
VERTEX
  8
W53LXLIFT
 62
6
 10
1104.933
 20
-7844.016
 30
38.000
 70
    32
  0
VERTEX
  8
W53LXLIFT
 62
6
 10
1102.294
 20
-7832.753
 30
38.000
 70
    32
  0
VERTEX
  8
W53LXLIFT
 62
6
 10
1092.770
 20
-7814.237
 30
38.000
 70
    32
  0
VERTEX
  8
W53LXLIFT
 62
6
 10
1085.125
 20
-7798.264
 30
38.000
 70
    32
  0
VERTEX
  8
W53LXLIFT
 62
6
 10
1075.467
 20
-7778.974
 30
38.000
 70
    32
  0
VERTEX
  8
W53LXLIFT
 62
6
 10
1066.005
 20
-7759.210
 30
38.000
 70
    32
  0
VERTEX
  8
W53LXLIFT
 62
6
 10
1051.329
 20
-7739.039
 30
38.000
 70
    32
  0
VERTEX
  8
W53LXLIFT
 62
6
 10
1047.253
 20
-7734.406
 30
38.000
 70
    32
  0
SEQEND
  8
W53LXLIFT
  0
POLYLINE
  8
W53LXLIFT
 62
7
 66
     1
 70
     9
  0
VERTEX
  8
W53LXLIFT
 62
7
 10
1213.188
 20
-7993.581
 30
39.000
 70
    32
  0
VERTEX
  8
W53LXLIFT
 62
7
 10
1217.732
 20
-7989.680
 30
39.000
 70
    32
  0
VERTEX
  8
W53LXLIFT
 62
7
 10
1222.149
 20
-7993.297
 30
39.000
 70
    32
  0
VERTEX
  8
W53LXLIFT
 62
7
 10
1225.041
 20
-7996.621
 30
39.000
 70
    32
  0
VERTEX
  8
W53LXLIFT
 62
7
 10
1228.628
 20
-7996.156
 30
39.000
 70
    32
  0
VERTEX
  8
W53LXLIFT
 62
7
 10
1229.855
 20
-7984.659
 30
39.000
 70
    32
  0
VERTEX
  8
W53LXLIFT
 62
7
 10
1226.583
 20
-7975.938
 30
39.000
 70
    32
  0
VERTEX
  8
W53LXLIFT
 62
7
 10
1231.776
 20
-7969.811
 30
39.000
 70
    32
  0
VERTEX
  8
W53LXLIFT
 62
7
 10
1240.551
 20
-7980.364
 30
39.000
 70
    32
  0
VERTEX
  8
W53LXLIFT
 62
7
 10
1251.276
 20
-7990.897
 30
39.000
 70
    32
  0
VERTEX
  8
W53LXLIFT
 62
7
 10
1259.966
 20
-7998.673
 30
39.000
 70
    32
  0
VERTEX
  8
W53LXLIFT
 62
7
 10
1272.305
 20
-8011.835
 30
39.000
 70
    32
  0
VERTEX
  8
W53LXLIFT
 62
7
 10
1266.336
 20
-8016.024
 30
39.000
 70
    32
  0
VERTEX
  8
W53LXLIFT
 62
7
 10
1260.301
 20
-8010.217
 30
39.000
 70
    32
  0
VERTEX
  8
W53LXLIFT
 62
7
 10
1252.833
 20
-8015.186
 30
39.000
 70
    32
  0
VERTEX
  8
W53LXLIFT
 62
7
 10
1254.437
 20
-8026.230
 30
39.000
 70
    32
  0
VERTEX
  8
W53LXLIFT
 62
7
 10
1247.470
 20
-8032.467
 30
39.000
 70
    32
  0
VERTEX
  8
W53LXLIFT
 62
7
 10
1233.123
 20
-8036.400
 30
39.000
 70
    32
  0
VERTEX
  8
W53LXLIFT
 62
7
 10
1225.302
 20
-8027.435
 30
39.000
 70
    32
  0
VERTEX
  8
W53LXLIFT
 62
7
 10
1217.148
 20
-8016.096
 30
39.000
 70
    32
  0
VERTEX
  8
W53LXLIFT
 62
7
 10
1214.404
 20
-8007.205
 30
39.000
 70
    32
  0
VERTEX
  8
W53LXLIFT
 62
7
 10
1206.491
 20
-7998.854
 30
39.000
 70
    32
  0
SEQEND
  8
W53LXLIFT
  0
POLYLINE
  8
W53LXLIFT
 62
6
 66
     1
 70
     9
  0
VERTEX
  8
W53LXLIFT
 62
6
 10
1027.880
 20
-7741.898
 30
44.000
 70
    32
  0
VERTEX
  8
W53LXLIFT
 62
6
 10
1026.818
 20
-7751.662
 30
44.000
 70
    32
  0
VERTEX
  8
W53LXLIFT
 62
6
 10
1031.805
 20
-7771.925
 30
44.000
 70
    32
  0
VERTEX
  8
W53LXLIFT
 62
6
 10
1034.239
 20
-7777.558
 30
44.000
 70
    32
  0
VERTEX
  8
W53LXLIFT
 62
6
 10
1041.830
 20
-7781.440
 30
44.000
 70
    32
  0
VERTEX
  8
W53LXLIFT
 62
6
 10
1048.133
 20
-7790.218
 30
44.000
 70
    32
  0
VERTEX
  8
W53LXLIFT
 62
6
 10
1050.297
 20
-7813.016
 30
44.000
 70
    32
  0
VERTEX
  8
W53LXLIFT
 62
6
 10
1052.882
 20
-7828.279
 30
44.000
 70
    32
  0
VERTEX
  8
W53LXLIFT
 62
6
 10
1061.440
 20
-7831.989
 30
44.000
 70
    32
  0
VERTEX
  8
W53LXLIFT
 62
6
 10
1068.827
 20
-7838.102
 30
44.000
 70
    32
  0
VERTEX
  8
W53LXLIFT
 62
6
 10
1076.974
 20
-7850.982
 30
44.000
 70
    32
  0
VERTEX
  8
W53LXLIFT
 62
6
 10
1086.276
 20
-7876.904
 30
44.000
 70
    32
  0
VERTEX
  8
W53LXLIFT
 62
6
 10
1099.382
 20
-7908.536
 30
44.000
 70
    32
  0
VERTEX
  8
W53LXLIFT
 62
6
 10
1104.805
 20
-7913.919
 30
44.000
 70
    32
  0
VERTEX
  8
W53LXLIFT
 62
6
 10
1111.057
 20
-7918.358
 30
44.000
 70
    32
  0
VERTEX
  8
W53LXLIFT
 62
6
 10
1126.931
 20
-7904.812
 30
44.000
 70
    32
  0
VERTEX
  8
W53LXLIFT
 62
6
 10
1122.397
 20
-7897.236
 30
44.000
 70
    32
  0
VERTEX
  8
W53LXLIFT
 62
6
 10
1117.787
 20
-7882.931
 30
44.000
 70
    32
  0
VERTEX
  8
W53LXLIFT
 62
6
 10
1113.729
 20
-7863.182
 30
44.000
 70
    32
  0
VERTEX
  8
W53LXLIFT
 62
6
 10
1107.562
 20
-7847.517
 30
44.000
 70
    32
  0
VERTEX
  8
W53LXLIFT
 62
6
 10
1096.266
 20
-7823.624
 30
44.000
 70
    32
  0
VERTEX
  8
W53LXLIFT
 62
6
 10
1085.897
 20
-7800.684
 30
44.000
 70
    32
  0
VERTEX
  8
W53LXLIFT
 62
6
 10
1071.692
 20
-7779.061
 30
44.000
 70
    32
  0
VERTEX
  8
W53LXLIFT
 62
6
 10
1064.378
 20
-7764.358
 30
44.000
 70
    32
  0
VERTEX
  8
W53LXLIFT
 62
6
 10
1062.590
 20
-7755.617
 30
44.000
 70
    32
  0
VERTEX
  8
W53LXLIFT
 62
6
 10
1050.177
 20
-7738.027
 30
44.000
 70
    32
  0
VERTEX
  8
W53LXLIFT
 62
6
 10
1045.080
 20
-7730.431
 30
44.000
 70
    32
  0
VERTEX
  8
W53LXLIFT
 62
6
 10
1037.176
 20
-7729.957
 30
44.000
 70
    32
  0
VERTEX
  8
W53LXLIFT
 62
6
 10
1032.163
 20
-7734.994
 30
44.000
 70
    32
  0
SEQEND
  8
W53LXLIFT
  0
POLYLINE
  8
W53LXLIFT
 62
7
 66
     1
 70
     9
  0
VERTEX
  8
W53LXLIFT
 62
7
 10
1238.935
 20
-8031.396
 30
52.000
 70
    32
  0
VERTEX
  8
W53LXLIFT
 62
7
 10
1247.854
 20
-8021.158
 30
52.000
 70
    32
  0
VERTEX
  8
W53LXLIFT
 62
7
 10
1246.293
 20
-8008.746
 30
52.000
 70
    32
  0
VERTEX
  8
W53LXLIFT
 62
7
 10
1251.774
 20
-7997.122
 30
52.000
 70
    32
  0
VERTEX
  8
W53LXLIFT
 62
7
 10
1251.921
 20
-7991.869
 30
52.000
 70
    32
  0
VERTEX
  8
W53LXLIFT
 62
7
 10
1247.856
 20
-7985.368
 30
52.000
 70
    32
  0
VERTEX
  8
W53LXLIFT
 62
7
 10
1236.941
 20
-7978.484
 30
52.000
 70
    32
  0
VERTEX
  8
W53LXLIFT
 62
7
 10
1233.367
 20
-7980.155
 30
52.000
 70
    32
  0
VERTEX
  8
W53LXLIFT
 62
7
 10
1231.227
 20
-7979.337
 30
52.000
 70
    32
  0
VERTEX
  8
W53LXLIFT
 62
7
 10
1227.979
 20
-7982.626
 30
52.000
 70
    32
  0
VERTEX
  8
W53LXLIFT
 62
7
 10
1229.998
 20
-7986.816
 30
52.000
 70
    32
  0
VERTEX
  8
W53LXLIFT
 62
7
 10
1222.022
 20
-7990.664
 30
52.000
 70
    32
  0
VERTEX
  8
W53LXLIFT
 62
7
 10
1216.666
 20
-7986.106
 30
52.000
 70
    32
  0
VERTEX
  8
W53LXLIFT
 62
7
 10
1210.579
 20
-7983.953
 30
52.000
 70
    32
  0
VERTEX
  8
W53LXLIFT
 62
7
 10
1205.707
 20
-7985.056
 30
52.000
 70
    32
  0
VERTEX
  8
W53LXLIFT
 62
7
 10
1203.112
 20
-7991.580
 30
52.000
 70
    32
  0
VERTEX
  8
W53LXLIFT
 62
7
 10
1212.257
 20
-8005.361
 30
52.000
 70
    32
  0
VERTEX
  8
W53LXLIFT
 62
7
 10
1227.921
 20
-8023.054
 30
52.000
 70
    32
  0
VERTEX
  8
W53LXLIFT
 62
7
 10
1235.844
 20
-8027.236
 30
52.000
 70
    32
  0
SEQEND
  8
W53LXLIFT
  0
POLYLINE
  8
W53LXLIFT
 62
6
 66
     1
 70
     9
  0
VERTEX
  8
W53LXLIFT
 62
6
 10
1122.472
 20
-7904.323
 30
52.000
 70
    32
  0
VERTEX
  8
W53LXLIFT
 62
6
 10
1113.878
 20
-7881.302
 30
52.000
 70
    32
  0
VERTEX
  8
W53LXLIFT
 62
6
 10
1107.062
 20
-7860.244
 30
52.000
 70
    32
  0
VERTEX
  8
W53LXLIFT
 62
6
 10
1101.494
 20
-7848.416
 30
52.000
 70
    32
  0
VERTEX
  8
W53LXLIFT
 62
6
 10
1098.056
 20
-7833.706
 30
52.000
 70
    32
  0
VERTEX
  8
W53LXLIFT
 62
6
 10
1089.146
 20
-7817.797
 30
52.000
 70
    32
  0
VERTEX
  8
W53LXLIFT
 62
6
 10
1083.112
 20
-7804.894
 30
52.000
 70
    32
  0
VERTEX
  8
W53LXLIFT
 62
6
 10
1079.428
 20
-7797.244
 30
52.000
 70
    32
  0
VERTEX
  8
W53LXLIFT
 62
6
 10
1074.285
 20
-7789.688
 30
52.000
 70
    32
  0
VERTEX
  8
W53LXLIFT
 62
6
 10
1071.963
 20
-7782.996
 30
52.000
 70
    32
  0
VERTEX
  8
W53LXLIFT
 62
6
 10
1065.143
 20
-7769.473
 30
52.000
 70
    32
  0
VERTEX
  8
W53LXLIFT
 62
6
 10
1049.779
 20
-7747.631
 30
52.000
 70
    32
  0
VERTEX
  8
W53LXLIFT
 62
6
 10
1042.290
 20
-7738.968
 30
52.000
 70
    32
  0
VERTEX
  8
W53LXLIFT
 62
6
 10
1038.010
 20
-7738.198
 30
52.000
 70
    32
  0
VERTEX
  8
W53LXLIFT
 62
6
 10
1032.544
 20
-7738.632
 30
52.000
 70
    32
  0
VERTEX
  8
W53LXLIFT
 62
6
 10
1025.458
 20
-7744.411
 30
52.000
 70
    32
  0
VERTEX
  8
W53LXLIFT
 62
6
 10
1027.964
 20
-7756.971
 30
52.000
 70
    32
  0
VERTEX
  8
W53LXLIFT
 62
6
 10
1028.364
 20
-7762.243
 30
52.000
 70
    32
  0
VERTEX
  8
W53LXLIFT
 62
6
 10
1029.396
 20
-7774.581
 30
52.000
 70
    32
  0
VERTEX
  8
W53LXLIFT
 62
6
 10
1034.241
 20
-7789.126
 30
52.000
 70
    32
  0
VERTEX
  8
W53LXLIFT
 62
6
 10
1041.152
 20
-7804.547
 30
52.000
 70
    32
  0
VERTEX
  8
W53LXLIFT
 62
6
 10
1046.189
 20
-7821.569
 30
52.000
 70
    32
  0
VERTEX
  8
W53LXLIFT
 62
6
 10
1053.809
 20
-7831.445
 30
52.000
 70
    32
  0
VERTEX
  8
W53LXLIFT
 62
6
 10
1062.228
 20
-7840.185
 30
52.000
 70
    32
  0
VERTEX
  8
W53LXLIFT
 62
6
 10
1076.433
 20
-7852.621
 30
52.000
 70
    32
  0
VERTEX
  8
W53LXLIFT
 62
6
 10
1078.508
 20
-7861.788
 30
52.000
 70
    32
  0
VERTEX
  8
W53LXLIFT
 62
6
 10
1085.474
 20
-7876.840
 30
52.000
 70
    32
  0
VERTEX
  8
W53LXLIFT
 62
6
 10
1091.090
 20
-7891.689
 30
52.000
 70
    32
  0
VERTEX
  8
W53LXLIFT
 62
6
 10
1101.854
 20
-7908.631
 30
52.000
 70
    32
  0
VERTEX
  8
W53LXLIFT
 62
6
 10
1108.813
 20
-7912.881
 30
52.000
 70
    32
  0
VERTEX
  8
W53LXLIFT
 62
6
 10
1114.390
 20
-7911.710
 30
52.000
 70
    32
  0
SEQEND
  8
W53LXLIFT
  0
POLYLINE
  8
W53LXLIFT
 62
7
 66
     1
 70
     9
  0
VERTEX
  8
W53LXLIFT
 62
7
 10
1208.444
 20
-7983.197
 30
62.000
 70
    32
  0
VERTEX
  8
W53LXLIFT
 62
7
 10
1216.822
 20
-7985.525
 30
62.000
 70
    32
  0
VERTEX
  8
W53LXLIFT
 62
7
 10
1219.705
 20
-7987.655
 30
62.000
 70
    32
  0
VERTEX
  8
W53LXLIFT
 62
7
 10
1224.723
 20
-7986.023
 30
62.000
 70
    32
  0
VERTEX
  8
W53LXLIFT
 62
7
 10
1230.174
 20
-7985.274
 30
62.000
 70
    32
  0
VERTEX
  8
W53LXLIFT
 62
7
 10
1237.000
 20
-7983.726
 30
62.000
 70
    32
  0
VERTEX
  8
W53LXLIFT
 62
7
 10
1245.968
 20
-7994.244
 30
62.000
 70
    32
  0
VERTEX
  8
W53LXLIFT
 62
7
 10
1242.624
 20
-7999.769
 30
62.000
 70
    32
  0
VERTEX
  8
W53LXLIFT
 62
7
 10
1238.615
 20
-8012.228
 30
62.000
 70
    32
  0
VERTEX
  8
W53LXLIFT
 62
7
 10
1235.288
 20
-8015.558
 30
62.000
 70
    32
  0
VERTEX
  8
W53LXLIFT
 62
7
 10
1230.503
 20
-8016.471
 30
62.000
 70
    32
  0
VERTEX
  8
W53LXLIFT
 62
7
 10
1225.490
 20
-8015.152
 30
62.000
 70
    32
  0
VERTEX
  8
W53LXLIFT
 62
7
 10
1219.002
 20
-8006.514
 30
62.000
 70
    32
  0
VERTEX
  8
W53LXLIFT
 62
7
 10
1215.252
 20
-8003.061
 30
62.000
 70
    32
  0
VERTEX
  8
W53LXLIFT
 62
7
 10
1210.079
 20
-7999.457
 30
62.000
 70
    32
  0
VERTEX
  8
W53LXLIFT
 62
7
 10
1203.821
 20
-7993.052
 30
62.000
 70
    32
  0
VERTEX
  8
W53LXLIFT
 62
7
 10
1204.771
 20
-7990.494
 30
62.000
 70
    32
  0
VERTEX
  8
W53LXLIFT
 62
7
 10
1203.195
 20
-7985.108
 30
62.000
 70
    32
  0
SEQEND
  8
W53LXLIFT
  0
POLYLINE
  8
W53LXLIFT
 62
6
 66
     1
 70
     9
  0
VERTEX
  8
W53LXLIFT
 62
6
 10
1116.593
 20
-7900.000
 30
60.000
 70
    32
  0
VERTEX
  8
W53LXLIFT
 62
6
 10
1111.012
 20
-7881.833
 30
60.000
 70
    32
  0
VERTEX
  8
W53LXLIFT
 62
6
 10
1099.340
 20
-7853.965
 30
60.000
 70
    32
  0
VERTEX
  8
W53LXLIFT
 62
6
 10
1093.279
 20
-7836.481
 30
60.000
 70
    32
  0
VERTEX
  8
W53LXLIFT
 62
6
 10
1089.273
 20
-7825.018
 30
60.000
 70
    32
  0
VERTEX
  8
W53LXLIFT
 62
6
 10
1086.346
 20
-7821.064
 30
60.000
 70
    32
  0
VERTEX
  8
W53LXLIFT
 62
6
 10
1081.641
 20
-7808.806
 30
60.000
 70
    32
  0
VERTEX
  8
W53LXLIFT
 62
6
 10
1077.815
 20
-7799.506
 30
60.000
 70
    32
  0
VERTEX
  8
W53LXLIFT
 62
6
 10
1074.839
 20
-7789.139
 30
60.000
 70
    32
  0
VERTEX
  8
W53LXLIFT
 62
6
 10
1067.939
 20
-7773.916
 30
60.000
 70
    32
  0
VERTEX
  8
W53LXLIFT
 62
6
 10
1060.897
 20
-7761.749
 30
60.000
 70
    32
  0
VERTEX
  8
W53LXLIFT
 62
6
 10
1051.636
 20
-7750.570
 30
60.000
 70
    32
  0
VERTEX
  8
W53LXLIFT
 62
6
 10
1042.640
 20
-7744.770
 30
60.000
 70
    32
  0
VERTEX
  8
W53LXLIFT
 62
6
 10
1036.471
 20
-7739.391
 30
60.000
 70
    32
  0
VERTEX
  8
W53LXLIFT
 62
6
 10
1029.432
 20
-7744.057
 30
60.000
 70
    32
  0
VERTEX
  8
W53LXLIFT
 62
6
 10
1033.433
 20
-7750.494
 30
60.000
 70
    32
  0
VERTEX
  8
W53LXLIFT
 62
6
 10
1032.279
 20
-7758.236
 30
60.000
 70
    32
  0
VERTEX
  8
W53LXLIFT
 62
6
 10
1031.067
 20
-7769.737
 30
60.000
 70
    32
  0
VERTEX
  8
W53LXLIFT
 62
6
 10
1032.930
 20
-7775.353
 30
60.000
 70
    32
  0
VERTEX
  8
W53LXLIFT
 62
6
 10
1047.198
 20
-7806.874
 30
60.000
 70
    32
  0
VERTEX
  8
W53LXLIFT
 62
6
 10
1048.543
 20
-7810.906
 30
60.000
 70
    32
  0
VERTEX
  8
W53LXLIFT
 62
6
 10
1057.733
 20
-7816.672
 30
60.000
 70
    32
  0
VERTEX
  8
W53LXLIFT
 62
6
 10
1067.252
 20
-7820.227
 30
60.000
 70
    32
  0
VERTEX
  8
W53LXLIFT
 62
6
 10
1072.745
 20
-7835.617
 30
60.000
 70
    32
  0
VERTEX
  8
W53LXLIFT
 62
6
 10
1080.856
 20
-7848.194
 30
60.000
 70
    32
  0
VERTEX
  8
W53LXLIFT
 62
6
 10
1082.155
 20
-7868.549
 30
60.000
 70
    32
  0
VERTEX
  8
W53LXLIFT
 62
6
 10
1082.683
 20
-7882.696
 30
60.000
 70
    32
  0
VERTEX
  8
W53LXLIFT
 62
6
 10
1086.073
 20
-7888.603
 30
60.000
 70
    32
  0
VERTEX
  8
W53LXLIFT
 62
6
 10
1105.835
 20
-7912.338
 30
60.000
 70
    32
  0
SEQEND
  8
W53LXLIFT
  0
POLYLINE
  8
W53LXLIFT
 62
7
 66
     1
 70
     9
  0
VERTEX
  8
W53LXLIFT
 62
7
 10
1240.740
 20
-7995.762
 30
72.000
 70
    32
  0
VERTEX
  8
W53LXLIFT
 62
7
 10
1229.003
 20
-7984.339
 30
72.000
 70
    32
  0
VERTEX
  8
W53LXLIFT
 62
7
 10
1221.712
 20
-7978.479
 30
72.000
 70
    32
  0
VERTEX
  8
W53LXLIFT
 62
7
 10
1215.024
 20
-7977.419
 30
72.000
 70
    32
  0
VERTEX
  8
W53LXLIFT
 62
7
 10
1208.365
 20
-7971.527
 30
72.000
 70
    32
  0
VERTEX
  8
W53LXLIFT
 62
7
 10
1206.049
 20
-7971.056
 30
72.000
 70
    32
  0
VERTEX
  8
W53LXLIFT
 62
7
 10
1201.538
 20
-7976.036
 30
72.000
 70
    32
  0
VERTEX
  8
W53LXLIFT
 62
7
 10
1207.158
 20
-7982.150
 30
72.000
 70
    32
  0
VERTEX
  8
W53LXLIFT
 62
7
 10
1206.278
 20
-7991.000
 30
72.000
 70
    32
  0
VERTEX
  8
W53LXLIFT
 62
7
 10
1208.778
 20
-7993.194
 30
72.000
 70
    32
  0
VERTEX
  8
W53LXLIFT
 62
7
 10
1215.395
 20
-7991.355
 30
72.000
 70
    32
  0
VERTEX
  8
W53LXLIFT
 62
7
 10
1223.495
 20
-7994.321
 30
72.000
 70
    32
  0
VERTEX
  8
W53LXLIFT
 62
7
 10
1233.980
 20
-8003.609
 30
72.000
 70
    32
  0
SEQEND
  8
W53LXLIFT
  0
POLYLINE
  8
W53LXLIFT
 62
6
 66
     1
 70
     9
  0
VERTEX
  8
W53LXLIFT
 62
6
 10
1119.474
 20
-7923.228
 30
69.000
 70
    32
  0
VERTEX
  8
W53LXLIFT
 62
6
 10
1117.075
 20
-7910.246
 30
69.000
 70
    32
  0
VERTEX
  8
W53LXLIFT
 62
6
 10
1112.949
 20
-7898.326
 30
69.000
 70
    32
  0
VERTEX
  8
W53LXLIFT
 62
6
 10
1104.994
 20
-7874.592
 30
69.000
 70
    32
  0
VERTEX
  8
W53LXLIFT
 62
6
 10
1101.850
 20
-7865.770
 30
69.000
 70
    32
  0
VERTEX
  8
W53LXLIFT
 62
6
 10
1092.117
 20
-7845.540
 30
69.000
 70
    32
  0
VERTEX
  8
W53LXLIFT
 62
6
 10
1087.166
 20
-7839.149
 30
69.000
 70
    32
  0
VERTEX
  8
W53LXLIFT
 62
6
 10
1079.315
 20
-7821.460
 30
69.000
 70
    32
  0
VERTEX
  8
W53LXLIFT
 62
6
 10
1073.389
 20
-7813.605
 30
69.000
 70
    32
  0
VERTEX
  8
W53LXLIFT
 62
6
 10
1070.028
 20
-7805.819
 30
69.000
 70
    32
  0
VERTEX
  8
W53LXLIFT
 62
6
 10
1064.482
 20
-7796.262
 30
69.000
 70
    32
  0
VERTEX
  8
W53LXLIFT
 62
6
 10
1051.045
 20
-7784.021
 30
69.000
 70
    32
  0
VERTEX
  8
W53LXLIFT
 62
6
 10
1047.858
 20
-7779.275
 30
69.000
 70
    32
  0
VERTEX
  8
W53LXLIFT
 62
6
 10
1050.412
 20
-7769.732
 30
69.000
 70
    32
  0
VERTEX
  8
W53LXLIFT
 62
6
 10
1047.367
 20
-7764.882
 30
69.000
 70
    32
  0
VERTEX
  8
W53LXLIFT
 62
6
 10
1041.947
 20
-7763.320
 30
69.000
 70
    32
  0
VERTEX
  8
W53LXLIFT
 62
6
 10
1036.133
 20
-7760.192
 30
69.000
 70
    32
  0
VERTEX
  8
W53LXLIFT
 62
6
 10
1030.474
 20
-7763.180
 30
69.000
 70
    32
  0
VERTEX
  8
W53LXLIFT
 62
6
 10
1032.238
 20
-7770.728
 30
69.000
 70
    32
  0
VERTEX
  8
W53LXLIFT
 62
6
 10
1032.897
 20
-7783.576
 30
69.000
 70
    32
  0
VERTEX
  8
W53LXLIFT
 62
6
 10
1033.395
 20
-7794.139
 30
69.000
 70
    32
  0
VERTEX
  8
W53LXLIFT
 62
6
 10
1034.091
 20
-7806.741
 30
69.000
 70
    32
  0
VERTEX
  8
W53LXLIFT
 62
6
 10
1040.857
 20
-7826.655
 30
69.000
 70
    32
  0
VERTEX
  8
W53LXLIFT
 62
6
 10
1049.058
 20
-7844.521
 30
69.000
 70
    32
  0
VERTEX
  8
W53LXLIFT
 62
6
 10
1060.215
 20
-7858.997
 30
69.000
 70
    32
  0
VERTEX
  8
W53LXLIFT
 62
6
 10
1067.168
 20
-7868.387
 30
69.000
 70
    32
  0
VERTEX
  8
W53LXLIFT
 62
6
 10
1079.959
 20
-7894.223
 30
69.000
 70
    32
  0
VERTEX
  8
W53LXLIFT
 62
6
 10
1088.259
 20
-7904.693
 30
69.000
 70
    32
  0
VERTEX
  8
W53LXLIFT
 62
6
 10
1098.853
 20
-7922.100
 30
69.000
 70
    32
  0
VERTEX
  8
W53LXLIFT
 62
6
 10
1102.619
 20
-7929.696
 30
69.000
 70
    32
  0
VERTEX
  8
W53LXLIFT
 62
6
 10
1112.635
 20
-7929.494
 30
69.000
 70
    32
  0
SEQEND
  8
W53LXLIFT
  0
POLYLINE
  8
W53LXLIFT
 62
7
 66
     1
 70
     9
  0
VERTEX
  8
W53LXLIFT
 62
7
 10
1249.213
 20
-8000.856
 30
79.000
 70
    32
  0
VERTEX
  8
W53LXLIFT
 62
7
 10
1245.545
 20
-8000.184
 30
79.000
 70
    32
  0
VERTEX
  8
W53LXLIFT
 62
7
 10
1247.284
 20
-7994.414
 30
79.000
 70
    32
  0
VERTEX
  8
W53LXLIFT
 62
7
 10
1242.396
 20
-7989.288
 30
79.000
 70
    32
  0
VERTEX
  8
W53LXLIFT
 62
7
 10
1241.832
 20
-7986.755
 30
79.000
 70
    32
  0
VERTEX
  8
W53LXLIFT
 62
7
 10
1238.564
 20
-7983.818
 30
79.000
 70
    32
  0
VERTEX
  8
W53LXLIFT
 62
7
 10
1233.071
 20
-7982.748
 30
79.000
 70
    32
  0
VERTEX
  8
W53LXLIFT
 62
7
 10
1227.128
 20
-7983.432
 30
79.000
 70
    32
  0
VERTEX
  8
W53LXLIFT
 62
7
 10
1222.354
 20
-7982.594
 30
79.000
 70
    32
  0
VERTEX
  8
W53LXLIFT
 62
7
 10
1218.135
 20
-7980.144
 30
79.000
 70
    32
  0
VERTEX
  8
W53LXLIFT
 62
7
 10
1214.535
 20
-7976.907
 30
79.000
 70
    32
  0
VERTEX
  8
W53LXLIFT
 62
7
 10
1211.394
 20
-7979.013
 30
79.000
 70
    32
  0
VERTEX
  8
W53LXLIFT
 62
7
 10
1203.563
 20
-7986.890
 30
79.000
 70
    32
  0
VERTEX
  8
W53LXLIFT
 62
7
 10
1204.906
 20
-7991.361
 30
79.000
 70
    32
  0
VERTEX
  8
W53LXLIFT
 62
7
 10
1215.041
 20
-8000.471
 30
79.000
 70
    32
  0
VERTEX
  8
W53LXLIFT
 62
7
 10
1220.540
 20
-8009.079
 30
79.000
 70
    32
  0
VERTEX
  8
W53LXLIFT
 62
7
 10
1229.623
 20
-8009.240
 30
79.000
 70
    32
  0
VERTEX
  8
W53LXLIFT
 62
7
 10
1239.126
 20
-8015.431
 30
79.000
 70
    32
  0
VERTEX
  8
W53LXLIFT
 62
7
 10
1244.651
 20
-8014.182
 30
79.000
 70
    32
  0
VERTEX
  8
W53LXLIFT
 62
7
 10
1250.258
 20
-8008.172
 30
79.000
 70
    32
  0
SEQEND
  8
W53LXLIFT
  0
POLYLINE
  8
W53LXLIFT
 62
6
 66
     1
 70
     9
  0
VERTEX
  8
W53LXLIFT
 62
6
 10
1117.061
 20
-7913.351
 30
78.000
 70
    32
  0
VERTEX
  8
W53LXLIFT
 62
6
 10
1111.747
 20
-7904.716
 30
78.000
 70
    32
  0
VERTEX
  8
W53LXLIFT
 62
6
 10
1104.513
 20
-7879.784
 30
78.000
 70
    32
  0
VERTEX
  8
W53LXLIFT
 62
6
 10
1096.332
 20
-7851.071
 30
78.000
 70
    32
  0
VERTEX
  8
W53LXLIFT
 62
6
 10
1088.395
 20
-7836.396
 30
78.000
 70
    32
  0
VERTEX
  8
W53LXLIFT
 62
6
 10
1081.598
 20
-7811.906
 30
78.000
 70
    32
  0
VERTEX
  8
W53LXLIFT
 62
6
 10
1060.153
 20
-7776.079
 30
78.000
 70
    32
  0
VERTEX
  8
W53LXLIFT
 62
6
 10
1052.836
 20
-7764.008
 30
78.000
 70
    32
  0
VERTEX
  8
W53LXLIFT
 62
6
 10
1049.693
 20
-7753.433
 30
78.000
 70
    32
  0
VERTEX
  8
W53LXLIFT
 62
6
 10
1044.970
 20
-7745.890
 30
78.000
 70
    32
  0
VERTEX
  8
W53LXLIFT
 62
6
 10
1039.595
 20
-7742.331
 30
78.000
 70
    32
  0
VERTEX
  8
W53LXLIFT
 62
6
 10
1026.471
 20
-7745.725
 30
78.000
 70
    32
  0
VERTEX
  8
W53LXLIFT
 62
6
 10
1032.576
 20
-7757.931
 30
78.000
 70
    32
  0
VERTEX
  8
W53LXLIFT
 62
6
 10
1034.268
 20
-7774.068
 30
78.000
 70
    32
  0
VERTEX
  8
W53LXLIFT
 62
6
 10
1033.132
 20
-7797.006
 30
78.000
 70
    32
  0
VERTEX
  8
W53LXLIFT
 62
6
 10
1035.184
 20
-7811.564
 30
78.000
 70
    32
  0
VERTEX
  8
W53LXLIFT
 62
6
 10
1046.281
 20
-7829.909
 30
78.000
 70
    32
  0
VERTEX
  8
W53LXLIFT
 62
6
 10
1054.158
 20
-7839.050
 30
78.000
 70
    32
  0
VERTEX
  8
W53LXLIFT
 62
6
 10
1061.828
 20
-7847.469
 30
78.000
 70
    32
  0
VERTEX
  8
W53LXLIFT
 62
6
 10
1076.622
 20
-7871.385
 30
78.000
 70
    32
  0
VERTEX
  8
W53LXLIFT
 62
6
 10
1080.477
 20
-7880.118
 30
78.000
 70
    32
  0
VERTEX
  8
W53LXLIFT
 62
6
 10
1081.311
 20
-7885.516
 30
78.000
 70
    32
  0
VERTEX
  8
W53LXLIFT
 62
6
 10
1085.332
 20
-7892.705
 30
78.000
 70
    32
  0
VERTEX
  8
W53LXLIFT
 62
6
 10
1091.444
 20
-7906.984
 30
78.000
 70
    32
  0
VERTEX
  8
W53LXLIFT
 62
6
 10
1099.760
 20
-7922.908
 30
78.000
 70
    32
  0
SEQEND
  8
W53LXLIFT
  0
POLYLINE
  8
W53LXLIFT
 62
11
 66
     1
 70
     9
  0
VERTEX
  8
W53LXLIFT
 62
11
 10
1128.226
 20
-7580.520
 30
71.000
 70
    32
  0
VERTEX
  8
W53LXLIFT
 62
11
 10
1120.674
 20
-7583.608
 30
71.000
 70
    32
  0
VERTEX
  8
W53LXLIFT
 62
11
 10
1103.111
 20
-7586.031
 30
71.000
 70
    32
  0
VERTEX
  8
W53LXLIFT
 62
11
 10
1094.203
 20
-7575.796
 30
71.000
 70
    32
  0
VERTEX
  8
W53LXLIFT
 62
11
 10
1089.887
 20
-7560.841
 30
71.000
 70
    32
  0
VERTEX
  8
W53LXLIFT
 62
11
 10
1083.487
 20
-7548.089
 30
71.000
 70
    32
  0
VERTEX
  8
W53LXLIFT
 62
11
 10
1078.234
 20
-7541.158
 30
71.000
 70
    32
  0
VERTEX
  8
W53LXLIFT
 62
11
 10
1077.054
 20
-7534.704
 30
71.000
 70
    32
  0
VERTEX
  8
W53LXLIFT
 62
11
 10
1069.152
 20
-7520.222
 30
71.000
 70
    32
  0
VERTEX
  8
W53LXLIFT
 62
11
 10
1069.196
 20
-7504.657
 30
71.000
 70
    32
  0
VERTEX
  8
W53LXLIFT
 62
11
 10
1074.238
 20
-7497.743
 30
71.000
 70
    32
  0
VERTEX
  8
W53LXLIFT
 62
11
 10
1086.121
 20
-7489.581
 30
71.000
 70
    32
  0
VERTEX
  8
W53LXLIFT
 62
11
 10
1095.481
 20
-7487.011
 30
71.000
 70
    32
  0
VERTEX
  8
W53LXLIFT
 62
11
 10
1099.585
 20
-7498.733
 30
71.000
 70
    32
  0
VERTEX
  8
W53LXLIFT
 62
11
 10
1106.597
 20
-7512.015
 30
71.000
 70
    32
  0
VERTEX
  8
W53LXLIFT
 62
11
 10
1109.959
 20
-7524.506
 30
71.000
 70
    32
  0
VERTEX
  8
W53LXLIFT
 62
11
 10
1114.566
 20
-7534.104
 30
71.000
 70
    32
  0
VERTEX
  8
W53LXLIFT
 62
11
 10
1119.375
 20
-7566.086
 30
71.000
 70
    32
  0
SEQEND
  8
W53LXLIFT
  0
POLYLINE
  8
W53LXLIFT
 62
4
 66
     1
 70
     9
  0
VERTEX
  8
W53LXLIFT
 62
4
 10
836.812
 20
-6852.887
 30
-50.000
 70
    32
  0
VERTEX
  8
W53LXLIFT
 62
4
 10
834.470
 20
-6851.749
 30
-50.000
 70
    32
  0
VERTEX
  8
W53LXLIFT
 62
4
 10
829.366
 20
-6854.015
 30
-50.000
 70
    32
  0
VERTEX
  8
W53LXLIFT
 62
4
 10
824.235
 20
-6859.561
 30
-50.000
 70
    32
  0
VERTEX
  8
W53LXLIFT
 62
4
 10
814.035
 20
-6878.431
 30
-50.000
 70
    32
  0
VERTEX
  8
W53LXLIFT
 62
4
 10
818.907
 20
-6910.673
 30
-50.000
 70
    32
  0
VERTEX
  8
W53LXLIFT
 62
4
 10
824.992
 20
-6924.544
 30
-50.000
 70
    32
  0
VERTEX
  8
W53LXLIFT
 62
4
 10
831.851
 20
-6942.204
 30
-50.000
 70
    32
  0
VERTEX
  8
W53LXLIFT
 62
4
 10
832.730
 20
-6948.852
 30
-50.000
 70
    32
  0
VERTEX
  8
W53LXLIFT
 62
4
 10
830.870
 20
-6954.865
 30
-50.000
 70
    32
  0
VERTEX
  8
W53LXLIFT
 62
4
 10
856.458
 20
-6992.933
 30
-50.000
 70
    32
  0
VERTEX
  8
W53LXLIFT
 62
4
 10
871.203
 20
-7011.431
 30
-50.000
 70
    32
  0
VERTEX
  8
W53LXLIFT
 62
4
 10
874.527
 20
-7014.686
 30
-50.000
 70
    32
  0
VERTEX
  8
W53LXLIFT
 62
4
 10
879.373
 20
-7016.735
 30
-50.000
 70
    32
  0
VERTEX
  8
W53LXLIFT
 62
4
 10
888.913
 20
-7026.052
 30
-50.000
 70
    32
  0
VERTEX
  8
W53LXLIFT
 62
4
 10
896.655
 20
-7046.445
 30
-50.000
 70
    32
  0
VERTEX
  8
W53LXLIFT
 62
4
 10
894.706
 20
-7058.065
 30
-50.000
 70
    32
  0
VERTEX
  8
W53LXLIFT
 62
4
 10
897.424
 20
-7068.168
 30
-50.000
 70
    32
  0
VERTEX
  8
W53LXLIFT
 62
4
 10
901.703
 20
-7076.821
 30
-50.000
 70
    32
  0
VERTEX
  8
W53LXLIFT
 62
4
 10
903.018
 20
-7080.002
 30
-50.000
 70
    32
  0
VERTEX
  8
W53LXLIFT
 62
4
 10
899.080
 20
-7096.099
 30
-50.000
 70
    32
  0
VERTEX
  8
W53LXLIFT
 62
4
 10
905.062
 20
-7105.154
 30
-50.000
 70
    32
  0
VERTEX
  8
W53LXLIFT
 62
4
 10
911.384
 20
-7100.054
 30
-50.000
 70
    32
  0
VERTEX
  8
W53LXLIFT
 62
4
 10
916.017
 20
-7097.585
 30
-50.000
 70
    32
  0
VERTEX
  8
W53LXLIFT
 62
4
 10
919.784
 20
-7094.218
 30
-50.000
 70
    32
  0
VERTEX
  8
W53LXLIFT
 62
4
 10
919.891
 20
-7090.446
 30
-50.000
 70
    32
  0
VERTEX
  8
W53LXLIFT
 62
4
 10
918.204
 20
-7086.446
 30
-50.000
 70
    32
  0
VERTEX
  8
W53LXLIFT
 62
4
 10
918.041
 20
-7081.999
 30
-50.000
 70
    32
  0
VERTEX
  8
W53LXLIFT
 62
4
 10
917.432
 20
-7076.026
 30
-50.000
 70
    32
  0
VERTEX
  8
W53LXLIFT
 62
4
 10
909.372
 20
-7055.645
 30
-50.000
 70
    32
  0
VERTEX
  8
W53LXLIFT
 62
4
 10
913.133
 20
-7050.761
 30
-50.000
 70
    32
  0
VERTEX
  8
W53LXLIFT
 62
4
 10
901.154
 20
-7022.228
 30
-50.000
 70
    32
  0
VERTEX
  8
W53LXLIFT
 62
4
 10
895.657
 20
-7011.737
 30
-50.000
 70
    32
  0
VERTEX
  8
W53LXLIFT
 62
4
 10
888.926
 20
-7004.960
 30
-50.000
 70
    32
  0
VERTEX
  8
W53LXLIFT
 62
4
 10
886.951
 20
-6998.450
 30
-50.000
 70
    32
  0
VERTEX
  8
W53LXLIFT
 62
4
 10
883.394
 20
-6993.515
 30
-50.000
 70
    32
  0
VERTEX
  8
W53LXLIFT
 62
4
 10
875.532
 20
-6985.924
 30
-50.000
 70
    32
  0
VERTEX
  8
W53LXLIFT
 62
4
 10
868.129
 20
-6975.502
 30
-50.000
 70
    32
  0
VERTEX
  8
W53LXLIFT
 62
4
 10
867.441
 20
-6965.348
 30
-50.000
 70
    32
  0
VERTEX
  8
W53LXLIFT
 62
4
 10
862.030
 20
-6955.881
 30
-50.000
 70
    32
  0
VERTEX
  8
W53LXLIFT
 62
4
 10
851.846
 20
-6947.028
 30
-50.000
 70
    32
  0
VERTEX
  8
W53LXLIFT
 62
4
 10
845.508
 20
-6940.947
 30
-50.000
 70
    32
  0
VERTEX
  8
W53LXLIFT
 62
4
 10
824.997
 20
-6903.893
 30
-50.000
 70
    32
  0
VERTEX
  8
W53LXLIFT
 62
4
 10
824.518
 20
-6897.500
 30
-50.000
 70
    32
  0
VERTEX
  8
W53LXLIFT
 62
4
 10
829.307
 20
-6881.225
 30
-50.000
 70
    32
  0
VERTEX
  8
W53LXLIFT
 62
4
 10
826.730
 20
-6877.649
 30
-50.000
 70
    32
  0
VERTEX
  8
W53LXLIFT
 62
4
 10
834.112
 20
-6868.742
 30
-50.000
 70
    32
  0
VERTEX
  8
W53LXLIFT
 62
4
 10
838.794
 20
-6868.302
 30
-50.000
 70
    32
  0
SEQEND
  8
W53LXLIFT
  0
POLYLINE
  8
W53LXLIFT
 62
3
 66
     1
 70
     9
  0
VERTEX
  8
W53LXLIFT
 62
3
 10
554.203
 20
-6243.482
 30
-48.000
 70
    32
  0
VERTEX
  8
W53LXLIFT
 62
3
 10
561.223
 20
-6255.485
 30
-48.000
 70
    32
  0
VERTEX
  8
W53LXLIFT
 62
3
 10
557.783
 20
-6273.178
 30
-48.000
 70
    32
  0
VERTEX
  8
W53LXLIFT
 62
3
 10
558.881
 20
-6278.472
 30
-48.000
 70
    32
  0
VERTEX
  8
W53LXLIFT
 62
3
 10
565.094
 20
-6283.775
 30
-48.000
 70
    32
  0
VERTEX
  8
W53LXLIFT
 62
3
 10
573.445
 20
-6283.299
 30
-48.000
 70
    32
  0
VERTEX
  8
W53LXLIFT
 62
3
 10
584.763
 20
-6301.114
 30
-48.000
 70
    32
  0
VERTEX
  8
W53LXLIFT
 62
3
 10
589.704
 20
-6315.810
 30
-48.000
 70
    32
  0
VERTEX
  8
W53LXLIFT
 62
3
 10
593.914
 20
-6329.946
 30
-48.000
 70
    32
  0
VERTEX
  8
W53LXLIFT
 62
3
 10
593.952
 20
-6336.330
 30
-48.000
 70
    32
  0
VERTEX
  8
W53LXLIFT
 62
3
 10
590.015
 20
-6345.796
 30
-48.000
 70
    32
  0
VERTEX
  8
W53LXLIFT
 62
3
 10
594.582
 20
-6356.958
 30
-48.000
 70
    32
  0
VERTEX
  8
W53LXLIFT
 62
3
 10
606.787
 20
-6366.202
 30
-48.000
 70
    32
  0
VERTEX
  8
W53LXLIFT
 62
3
 10
616.313
 20
-6357.706
 30
-48.000
 70
    32
  0
VERTEX
  8
W53LXLIFT
 62
3
 10
620.164
 20
-6337.869
 30
-48.000
 70
    32
  0
VERTEX
  8
W53LXLIFT
 62
3
 10
616.694
 20
-6333.959
 30
-48.000
 70
    32
  0
VERTEX
  8
W53LXLIFT
 62
3
 10
609.721
 20
-6318.554
 30
-48.000
 70
    32
  0
VERTEX
  8
W53LXLIFT
 62
3
 10
608.846
 20
-6307.991
 30
-48.000
 70
    32
  0
VERTEX
  8
W53LXLIFT
 62
3
 10
607.912
 20
-6300.514
 30
-48.000
 70
    32
  0
VERTEX
  8
W53LXLIFT
 62
3
 10
610.689
 20
-6295.470
 30
-48.000
 70
    32
  0
VERTEX
  8
W53LXLIFT
 62
3
 10
620.786
 20
-6291.235
 30
-48.000
 70
    32
  0
VERTEX
  8
W53LXLIFT
 62
3
 10
632.610
 20
-6288.039
 30
-48.000
 70
    32
  0
VERTEX
  8
W53LXLIFT
 62
3
 10
634.592
 20
-6286.719
 30
-48.000
 70
    32
  0
VERTEX
  8
W53LXLIFT
 62
3
 10
634.547
 20
-6280.775
 30
-48.000
 70
    32
  0
VERTEX
  8
W53LXLIFT
 62
3
 10
631.987
 20
-6259.581
 30
-48.000
 70
    32
  0
VERTEX
  8
W53LXLIFT
 62
3
 10
632.290
 20
-6241.757
 30
-48.000
 70
    32
  0
VERTEX
  8
W53LXLIFT
 62
3
 10
628.197
 20
-6240.904
 30
-48.000
 70
    32
  0
VERTEX
  8
W53LXLIFT
 62
3
 10
614.691
 20
-6243.574
 30
-48.000
 70
    32
  0
VERTEX
  8
W53LXLIFT
 62
3
 10
618.764
 20
-6251.940
 30
-48.000
 70
    32
  0
VERTEX
  8
W53LXLIFT
 62
3
 10
618.903
 20
-6255.752
 30
-48.000
 70
    32
  0
VERTEX
  8
W53LXLIFT
 62
3
 10
616.042
 20
-6274.550
 30
-48.000
 70
    32
  0
VERTEX
  8
W53LXLIFT
 62
3
 10
613.754
 20
-6278.916
 30
-48.000
 70
    32
  0
VERTEX
  8
W53LXLIFT
 62
3
 10
610.361
 20
-6281.144
 30
-48.000
 70
    32
  0
VERTEX
  8
W53LXLIFT
 62
3
 10
601.344
 20
-6281.448
 30
-48.000
 70
    32
  0
VERTEX
  8
W53LXLIFT
 62
3
 10
594.617
 20
-6278.146
 30
-48.000
 70
    32
  0
VERTEX
  8
W53LXLIFT
 62
3
 10
589.130
 20
-6269.929
 30
-48.000
 70
    32
  0
VERTEX
  8
W53LXLIFT
 62
3
 10
586.902
 20
-6261.863
 30
-48.000
 70
    32
  0
VERTEX
  8
W53LXLIFT
 62
3
 10
590.094
 20
-6258.150
 30
-48.000
 70
    32
  0
VERTEX
  8
W53LXLIFT
 62
3
 10
594.306
 20
-6255.549
 30
-48.000
 70
    32
  0
VERTEX
  8
W53LXLIFT
 62
3
 10
595.452
 20
-6252.767
 30
-48.000
 70
    32
  0
VERTEX
  8
W53LXLIFT
 62
3
 10
591.423
 20
-6228.177
 30
-48.000
 70
    32
  0
VERTEX
  8
W53LXLIFT
 62
3
 10
588.870
 20
-6223.279
 30
-48.000
 70
    32
  0
VERTEX
  8
W53LXLIFT
 62
3
 10
581.119
 20
-6220.063
 30
-48.000
 70
    32
  0
VERTEX
  8
W53LXLIFT
 62
3
 10
577.823
 20
-6216.244
 30
-48.000
 70
    32
  0
VERTEX
  8
W53LXLIFT
 62
3
 10
588.125
 20
-6214.253
 30
-48.000
 70
    32
  0
VERTEX
  8
W53LXLIFT
 62
3
 10
600.358
 20
-6210.870
 30
-48.000
 70
    32
  0
VERTEX
  8
W53LXLIFT
 62
3
 10
602.738
 20
-6209.046
 30
-48.000
 70
    32
  0
VERTEX
  8
W53LXLIFT
 62
3
 10
602.918
 20
-6195.876
 30
-48.000
 70
    32
  0
VERTEX
  8
W53LXLIFT
 62
3
 10
596.275
 20
-6188.166
 30
-48.000
 70
    32
  0
VERTEX
  8
W53LXLIFT
 62
3
 10
594.206
 20
-6183.789
 30
-48.000
 70
    32
  0
VERTEX
  8
W53LXLIFT
 62
3
 10
594.166
 20
-6176.646
 30
-48.000
 70
    32
  0
VERTEX
  8
W53LXLIFT
 62
3
 10
597.758
 20
-6165.798
 30
-48.000
 70
    32
  0
VERTEX
  8
W53LXLIFT
 62
3
 10
602.840
 20
-6158.223
 30
-48.000
 70
    32
  0
VERTEX
  8
W53LXLIFT
 62
3
 10
602.716
 20
-6155.487
 30
-48.000
 70
    32
  0
VERTEX
  8
W53LXLIFT
 62
3
 10
599.056
 20
-6150.409
 30
-48.000
 70
    32
  0
VERTEX
  8
W53LXLIFT
 62
3
 10
595.570
 20
-6150.096
 30
-48.000
 70
    32
  0
VERTEX
  8
W53LXLIFT
 62
3
 10
588.146
 20
-6156.533
 30
-48.000
 70
    32
  0
VERTEX
  8
W53LXLIFT
 62
3
 10
584.404
 20
-6158.578
 30
-48.000
 70
    32
  0
VERTEX
  8
W53LXLIFT
 62
3
 10
575.582
 20
-6166.240
 30
-48.000
 70
    32
  0
VERTEX
  8
W53LXLIFT
 62
3
 10
569.262
 20
-6169.382
 30
-48.000
 70
    32
  0
VERTEX
  8
W53LXLIFT
 62
3
 10
562.460
 20
-6177.436
 30
-48.000
 70
    32
  0
VERTEX
  8
W53LXLIFT
 62
3
 10
552.491
 20
-6192.554
 30
-48.000
 70
    32
  0
VERTEX
  8
W53LXLIFT
 62
3
 10
551.090
 20
-6203.126
 30
-48.000
 70
    32
  0
VERTEX
  8
W53LXLIFT
 62
3
 10
553.032
 20
-6218.788
 30
-48.000
 70
    32
  0
VERTEX
  8
W53LXLIFT
 62
3
 10
557.231
 20
-6225.217
 30
-48.000
 70
    32
  0
VERTEX
  8
W53LXLIFT
 62
3
 10
555.552
 20
-6232.839
 30
-48.000
 70
    32
  0
SEQEND
  8
W53LXLIFT
  0
POLYLINE
  8
W53LXLIFT
 62
3
 66
     1
 70
     9
  0
VERTEX
  8
W53LXLIFT
 62
3
 10
553.115
 20
-6243.180
 30
-37.000
 70
    32
  0
VERTEX
  8
W53LXLIFT
 62
3
 10
557.746
 20
-6250.057
 30
-37.000
 70
    32
  0
VERTEX
  8
W53LXLIFT
 62
3
 10
552.741
 20
-6256.381
 30
-37.000
 70
    32
  0
VERTEX
  8
W53LXLIFT
 62
3
 10
555.281
 20
-6273.025
 30
-37.000
 70
    32
  0
VERTEX
  8
W53LXLIFT
 62
3
 10
558.515
 20
-6279.170
 30
-37.000
 70
    32
  0
VERTEX
  8
W53LXLIFT
 62
3
 10
557.756
 20
-6283.847
 30
-37.000
 70
    32
  0
VERTEX
  8
W53LXLIFT
 62
3
 10
563.160
 20
-6303.860
 30
-37.000
 70
    32
  0
VERTEX
  8
W53LXLIFT
 62
3
 10
554.314
 20
-6303.498
 30
-37.000
 70
    32
  0
VERTEX
  8
W53LXLIFT
 62
3
 10
546.337
 20
-6283.383
 30
-37.000
 70
    32
  0
VERTEX
  8
W53LXLIFT
 62
3
 10
530.849
 20
-6282.701
 30
-37.000
 70
    32
  0
VERTEX
  8
W53LXLIFT
 62
3
 10
518.133
 20
-6292.952
 30
-37.000
 70
    32
  0
VERTEX
  8
W53LXLIFT
 62
3
 10
521.943
 20
-6302.160
 30
-37.000
 70
    32
  0
VERTEX
  8
W53LXLIFT
 62
3
 10
529.671
 20
-6316.803
 30
-37.000
 70
    32
  0
VERTEX
  8
W53LXLIFT
 62
3
 10
536.583
 20
-6322.472
 30
-37.000
 70
    32
  0
VERTEX
  8
W53LXLIFT
 62
3
 10
542.597
 20
-6319.659
 30
-37.000
 70
    32
  0
VERTEX
  8
W53LXLIFT
 62
3
 10
565.665
 20
-6328.897
 30
-37.000
 70
    32
  0
VERTEX
  8
W53LXLIFT
 62
3
 10
567.342
 20
-6335.295
 30
-37.000
 70
    32
  0
VERTEX
  8
W53LXLIFT
 62
3
 10
571.977
 20
-6338.258
 30
-37.000
 70
    32
  0
VERTEX
  8
W53LXLIFT
 62
3
 10
579.919
 20
-6357.420
 30
-37.000
 70
    32
  0
VERTEX
  8
W53LXLIFT
 62
3
 10
604.692
 20
-6348.368
 30
-37.000
 70
    32
  0
VERTEX
  8
W53LXLIFT
 62
3
 10
614.201
 20
-6345.427
 30
-37.000
 70
    32
  0
VERTEX
  8
W53LXLIFT
 62
3
 10
615.272
 20
-6329.876
 30
-37.000
 70
    32
  0
VERTEX
  8
W53LXLIFT
 62
3
 10
605.575
 20
-6326.975
 30
-37.000
 70
    32
  0
VERTEX
  8
W53LXLIFT
 62
3
 10
602.894
 20
-6315.867
 30
-37.000
 70
    32
  0
VERTEX
  8
W53LXLIFT
 62
3
 10
605.741
 20
-6308.056
 30
-37.000
 70
    32
  0
VERTEX
  8
W53LXLIFT
 62
3
 10
604.599
 20
-6302.250
 30
-37.000
 70
    32
  0
VERTEX
  8
W53LXLIFT
 62
3
 10
596.949
 20
-6296.461
 30
-37.000
 70
    32
  0
VERTEX
  8
W53LXLIFT
 62
3
 10
590.871
 20
-6296.169
 30
-37.000
 70
    32
  0
VERTEX
  8
W53LXLIFT
 62
3
 10
586.193
 20
-6316.819
 30
-37.000
 70
    32
  0
VERTEX
  8
W53LXLIFT
 62
3
 10
577.741
 20
-6315.195
 30
-37.000
 70
    32
  0
VERTEX
  8
W53LXLIFT
 62
3
 10
575.521
 20
-6311.361
 30
-37.000
 70
    32
  0
VERTEX
  8
W53LXLIFT
 62
3
 10
573.217
 20
-6280.420
 30
-37.000
 70
    32
  0
VERTEX
  8
W53LXLIFT
 62
3
 10
574.117
 20
-6270.208
 30
-37.000
 70
    32
  0
VERTEX
  8
W53LXLIFT
 62
3
 10
580.162
 20
-6260.201
 30
-37.000
 70
    32
  0
VERTEX
  8
W53LXLIFT
 62
3
 10
590.268
 20
-6250.852
 30
-37.000
 70
    32
  0
VERTEX
  8
W53LXLIFT
 62
3
 10
592.235
 20
-6245.740
 30
-37.000
 70
    32
  0
VERTEX
  8
W53LXLIFT
 62
3
 10
591.350
 20
-6220.839
 30
-37.000
 70
    32
  0
VERTEX
  8
W53LXLIFT
 62
3
 10
582.457
 20
-6204.428
 30
-37.000
 70
    32
  0
VERTEX
  8
W53LXLIFT
 62
3
 10
577.509
 20
-6204.951
 30
-37.000
 70
    32
  0
VERTEX
  8
W53LXLIFT
 62
3
 10
554.762
 20
-6232.647
 30
-37.000
 70
    32
  0
SEQEND
  8
W53LXLIFT
  0
POLYLINE
  8
W53LXLIFT
 62
3
 66
     1
 70
     9
  0
VERTEX
  8
W53LXLIFT
 62
3
 10
542.548
 20
-6245.254
 30
-23.000
 70
    32
  0
VERTEX
  8
W53LXLIFT
 62
3
 10
548.903
 20
-6250.454
 30
-23.000
 70
    32
  0
VERTEX
  8
W53LXLIFT
 62
3
 10
550.749
 20
-6255.427
 30
-23.000
 70
    32
  0
VERTEX
  8
W53LXLIFT
 62
3
 10
550.234
 20
-6262.101
 30
-23.000
 70
    32
  0
VERTEX
  8
W53LXLIFT
 62
3
 10
553.641
 20
-6265.622
 30
-23.000
 70
    32
  0
VERTEX
  8
W53LXLIFT
 62
3
 10
554.527
 20
-6281.176
 30
-23.000
 70
    32
  0
VERTEX
  8
W53LXLIFT
 62
3
 10
541.181
 20
-6290.251
 30
-23.000
 70
    32
  0
VERTEX
  8
W53LXLIFT
 62
3
 10
524.025
 20
-6285.445
 30
-23.000
 70
    32
  0
VERTEX
  8
W53LXLIFT
 62
3
 10
515.905
 20
-6296.948
 30
-23.000
 70
    32
  0
VERTEX
  8
W53LXLIFT
 62
3
 10
516.649
 20
-6303.258
 30
-23.000
 70
    32
  0
VERTEX
  8
W53LXLIFT
 62
3
 10
511.029
 20
-6309.482
 30
-23.000
 70
    32
  0
VERTEX
  8
W53LXLIFT
 62
3
 10
515.159
 20
-6316.721
 30
-23.000
 70
    32
  0
VERTEX
  8
W53LXLIFT
 62
3
 10
527.492
 20
-6312.723
 30
-23.000
 70
    32
  0
VERTEX
  8
W53LXLIFT
 62
3
 10
531.525
 20
-6313.946
 30
-23.000
 70
    32
  0
VERTEX
  8
W53LXLIFT
 62
3
 10
548.249
 20
-6325.692
 30
-23.000
 70
    32
  0
VERTEX
  8
W53LXLIFT
 62
3
 10
559.985
 20
-6318.755
 30
-23.000
 70
    32
  0
VERTEX
  8
W53LXLIFT
 62
3
 10
565.415
 20
-6320.710
 30
-23.000
 70
    32
  0
VERTEX
  8
W53LXLIFT
 62
3
 10
571.554
 20
-6328.022
 30
-23.000
 70
    32
  0
VERTEX
  8
W53LXLIFT
 62
3
 10
578.995
 20
-6347.544
 30
-23.000
 70
    32
  0
VERTEX
  8
W53LXLIFT
 62
3
 10
580.075
 20
-6355.677
 30
-23.000
 70
    32
  0
VERTEX
  8
W53LXLIFT
 62
3
 10
577.322
 20
-6380.808
 30
-23.000
 70
    32
  0
VERTEX
  8
W53LXLIFT
 62
3
 10
581.723
 20
-6384.049
 30
-23.000
 70
    32
  0
VERTEX
  8
W53LXLIFT
 62
3
 10
589.284
 20
-6378.708
 30
-23.000
 70
    32
  0
VERTEX
  8
W53LXLIFT
 62
3
 10
594.044
 20
-6362.997
 30
-23.000
 70
    32
  0
VERTEX
  8
W53LXLIFT
 62
3
 10
600.670
 20
-6352.136
 30
-23.000
 70
    32
  0
VERTEX
  8
W53LXLIFT
 62
3
 10
610.262
 20
-6356.851
 30
-23.000
 70
    32
  0
VERTEX
  8
W53LXLIFT
 62
3
 10
613.398
 20
-6354.265
 30
-23.000
 70
    32
  0
VERTEX
  8
W53LXLIFT
 62
3
 10
614.324
 20
-6352.837
 30
-23.000
 70
    32
  0
VERTEX
  8
W53LXLIFT
 62
3
 10
616.902
 20
-6351.739
 30
-23.000
 70
    32
  0
VERTEX
  8
W53LXLIFT
 62
3
 10
620.969
 20
-6346.526
 30
-23.000
 70
    32
  0
VERTEX
  8
W53LXLIFT
 62
3
 10
617.422
 20
-6336.477
 30
-23.000
 70
    32
  0
VERTEX
  8
W53LXLIFT
 62
3
 10
604.427
 20
-6331.715
 30
-23.000
 70
    32
  0
VERTEX
  8
W53LXLIFT
 62
3
 10
588.609
 20
-6318.664
 30
-23.000
 70
    32
  0
VERTEX
  8
W53LXLIFT
 62
3
 10
580.253
 20
-6308.277
 30
-23.000
 70
    32
  0
VERTEX
  8
W53LXLIFT
 62
3
 10
574.459
 20
-6297.673
 30
-23.000
 70
    32
  0
VERTEX
  8
W53LXLIFT
 62
3
 10
586.460
 20
-6287.937
 30
-23.000
 70
    32
  0
VERTEX
  8
W53LXLIFT
 62
3
 10
586.727
 20
-6278.508
 30
-23.000
 70
    32
  0
VERTEX
  8
W53LXLIFT
 62
3
 10
592.085
 20
-6273.125
 30
-23.000
 70
    32
  0
VERTEX
  8
W53LXLIFT
 62
3
 10
586.335
 20
-6253.687
 30
-23.000
 70
    32
  0
VERTEX
  8
W53LXLIFT
 62
3
 10
587.214
 20
-6243.599
 30
-23.000
 70
    32
  0
VERTEX
  8
W53LXLIFT
 62
3
 10
587.068
 20
-6206.755
 30
-23.000
 70
    32
  0
VERTEX
  8
W53LXLIFT
 62
3
 10
574.837
 20
-6208.181
 30
-23.000
 70
    32
  0
VERTEX
  8
W53LXLIFT
 62
3
 10
561.953
 20
-6212.468
 30
-23.000
 70
    32
  0
VERTEX
  8
W53LXLIFT
 62
3
 10
558.450
 20
-6225.099
 30
-23.000
 70
    32
  0
VERTEX
  8
W53LXLIFT
 62
3
 10
548.773
 20
-6234.138
 30
-23.000
 70
    32
  0
VERTEX
  8
W53LXLIFT
 62
3
 10
539.928
 20
-6236.492
 30
-23.000
 70
    32
  0
SEQEND
  8
W53LXLIFT
  0
POLYLINE
  8
W53LXLIFT
 62
3
 66
     1
 70
     9
  0
VERTEX
  8
W53LXLIFT
 62
3
 10
540.739
 20
-6251.339
 30
-13.000
 70
    32
  0
VERTEX
  8
W53LXLIFT
 62
3
 10
541.280
 20
-6270.184
 30
-13.000
 70
    32
  0
VERTEX
  8
W53LXLIFT
 62
3
 10
560.935
 20
-6281.774
 30
-13.000
 70
    32
  0
VERTEX
  8
W53LXLIFT
 62
3
 10
553.936
 20
-6296.490
 30
-13.000
 70
    32
  0
VERTEX
  8
W53LXLIFT
 62
3
 10
544.822
 20
-6305.557
 30
-13.000
 70
    32
  0
VERTEX
  8
W53LXLIFT
 62
3
 10
537.998
 20
-6308.302
 30
-13.000
 70
    32
  0
VERTEX
  8
W53LXLIFT
 62
3
 10
530.960
 20
-6306.528
 30
-13.000
 70
    32
  0
VERTEX
  8
W53LXLIFT
 62
3
 10
522.541
 20
-6312.488
 30
-13.000
 70
    32
  0
VERTEX
  8
W53LXLIFT
 62
3
 10
528.132
 20
-6323.563
 30
-13.000
 70
    32
  0
VERTEX
  8
W53LXLIFT
 62
3
 10
523.151
 20
-6333.239
 30
-13.000
 70
    32
  0
VERTEX
  8
W53LXLIFT
 62
3
 10
529.388
 20
-6341.893
 30
-13.000
 70
    32
  0
VERTEX
  8
W53LXLIFT
 62
3
 10
549.239
 20
-6332.041
 30
-13.000
 70
    32
  0
VERTEX
  8
W53LXLIFT
 62
3
 10
560.948
 20
-6308.932
 30
-13.000
 70
    32
  0
VERTEX
  8
W53LXLIFT
 62
3
 10
567.122
 20
-6312.524
 30
-13.000
 70
    32
  0
VERTEX
  8
W53LXLIFT
 62
3
 10
562.094
 20
-6325.602
 30
-13.000
 70
    32
  0
VERTEX
  8
W53LXLIFT
 62
3
 10
563.624
 20
-6328.629
 30
-13.000
 70
    32
  0
VERTEX
  8
W53LXLIFT
 62
3
 10
559.137
 20
-6336.427
 30
-13.000
 70
    32
  0
VERTEX
  8
W53LXLIFT
 62
3
 10
565.060
 20
-6345.851
 30
-13.000
 70
    32
  0
VERTEX
  8
W53LXLIFT
 62
3
 10
568.579
 20
-6361.137
 30
-13.000
 70
    32
  0
VERTEX
  8
W53LXLIFT
 62
3
 10
575.989
 20
-6363.729
 30
-13.000
 70
    32
  0
VERTEX
  8
W53LXLIFT
 62
3
 10
579.864
 20
-6388.105
 30
-13.000
 70
    32
  0
VERTEX
  8
W53LXLIFT
 62
3
 10
585.156
 20
-6388.964
 30
-13.000
 70
    32
  0
VERTEX
  8
W53LXLIFT
 62
3
 10
588.225
 20
-6397.293
 30
-13.000
 70
    32
  0
VERTEX
  8
W53LXLIFT
 62
3
 10
596.498
 20
-6395.352
 30
-13.000
 70
    32
  0
VERTEX
  8
W53LXLIFT
 62
3
 10
594.155
 20
-6379.435
 30
-13.000
 70
    32
  0
VERTEX
  8
W53LXLIFT
 62
3
 10
596.946
 20
-6375.467
 30
-13.000
 70
    32
  0
VERTEX
  8
W53LXLIFT
 62
3
 10
592.930
 20
-6361.300
 30
-13.000
 70
    32
  0
VERTEX
  8
W53LXLIFT
 62
3
 10
600.273
 20
-6352.640
 30
-13.000
 70
    32
  0
VERTEX
  8
W53LXLIFT
 62
3
 10
580.381
 20
-6323.833
 30
-13.000
 70
    32
  0
VERTEX
  8
W53LXLIFT
 62
3
 10
577.795
 20
-6296.573
 30
-13.000
 70
    32
  0
VERTEX
  8
W53LXLIFT
 62
3
 10
581.150
 20
-6285.244
 30
-13.000
 70
    32
  0
VERTEX
  8
W53LXLIFT
 62
3
 10
587.474
 20
-6278.187
 30
-13.000
 70
    32
  0
VERTEX
  8
W53LXLIFT
 62
3
 10
584.437
 20
-6253.316
 30
-13.000
 70
    32
  0
VERTEX
  8
W53LXLIFT
 62
3
 10
577.114
 20
-6235.012
 30
-13.000
 70
    32
  0
VERTEX
  8
W53LXLIFT
 62
3
 10
576.023
 20
-6221.888
 30
-13.000
 70
    32
  0
VERTEX
  8
W53LXLIFT
 62
3
 10
569.226
 20
-6221.353
 30
-13.000
 70
    32
  0
VERTEX
  8
W53LXLIFT
 62
3
 10
552.875
 20
-6193.690
 30
-13.000
 70
    32
  0
VERTEX
  8
W53LXLIFT
 62
3
 10
550.453
 20
-6180.982
 30
-13.000
 70
    32
  0
VERTEX
  8
W53LXLIFT
 62
3
 10
543.772
 20
-6159.498
 30
-13.000
 70
    32
  0
VERTEX
  8
W53LXLIFT
 62
3
 10
537.837
 20
-6159.103
 30
-13.000
 70
    32
  0
VERTEX
  8
W53LXLIFT
 62
3
 10
533.320
 20
-6152.686
 30
-13.000
 70
    32
  0
VERTEX
  8
W53LXLIFT
 62
3
 10
529.329
 20
-6129.808
 30
-13.000
 70
    32
  0
VERTEX
  8
W53LXLIFT
 62
3
 10
524.221
 20
-6123.926
 30
-13.000
 70
    32
  0
VERTEX
  8
W53LXLIFT
 62
3
 10
522.738
 20
-6117.496
 30
-13.000
 70
    32
  0
VERTEX
  8
W53LXLIFT
 62
3
 10
514.581
 20
-6115.225
 30
-13.000
 70
    32
  0
VERTEX
  8
W53LXLIFT
 62
3
 10
510.590
 20
-6119.188
 30
-13.000
 70
    32
  0
VERTEX
  8
W53LXLIFT
 62
3
 10
514.321
 20
-6128.888
 30
-13.000
 70
    32
  0
VERTEX
  8
W53LXLIFT
 62
3
 10
523.517
 20
-6168.336
 30
-13.000
 70
    32
  0
VERTEX
  8
W53LXLIFT
 62
3
 10
519.041
 20
-6185.799
 30
-13.000
 70
    32
  0
VERTEX
  8
W53LXLIFT
 62
3
 10
525.145
 20
-6196.831
 30
-13.000
 70
    32
  0
VERTEX
  8
W53LXLIFT
 62
3
 10
523.688
 20
-6208.531
 30
-13.000
 70
    32
  0
VERTEX
  8
W53LXLIFT
 62
3
 10
535.211
 20
-6211.854
 30
-13.000
 70
    32
  0
VERTEX
  8
W53LXLIFT
 62
3
 10
539.061
 20
-6201.363
 30
-13.000
 70
    32
  0
VERTEX
  8
W53LXLIFT
 62
3
 10
545.246
 20
-6207.230
 30
-13.000
 70
    32
  0
VERTEX
  8
W53LXLIFT
 62
3
 10
544.807
 20
-6212.653
 30
-13.000
 70
    32
  0
VERTEX
  8
W53LXLIFT
 62
3
 10
552.572
 20
-6226.292
 30
-13.000
 70
    32
  0
VERTEX
  8
W53LXLIFT
 62
3
 10
553.519
 20
-6236.803
 30
-13.000
 70
    32
  0
VERTEX
  8
W53LXLIFT
 62
3
 10
543.476
 20
-6241.868
 30
-13.000
 70
    32
  0
SEQEND
  8
W53LXLIFT
  0
POLYLINE
  8
W53LXLIFT
 62
3
 66
     1
 70
     9
  0
VERTEX
  8
W53LXLIFT
 62
3
 10
510.846
 20
-6249.518
 30
-1.000
 70
    32
  0
VERTEX
  8
W53LXLIFT
 62
3
 10
513.647
 20
-6259.888
 30
-1.000
 70
    32
  0
VERTEX
  8
W53LXLIFT
 62
3
 10
524.137
 20
-6263.738
 30
-1.000
 70
    32
  0
VERTEX
  8
W53LXLIFT
 62
3
 10
528.644
 20
-6267.880
 30
-1.000
 70
    32
  0
VERTEX
  8
W53LXLIFT
 62
3
 10
531.716
 20
-6276.968
 30
-1.000
 70
    32
  0
VERTEX
  8
W53LXLIFT
 62
3
 10
540.505
 20
-6278.458
 30
-1.000
 70
    32
  0
VERTEX
  8
W53LXLIFT
 62
3
 10
547.418
 20
-6298.905
 30
-1.000
 70
    32
  0
VERTEX
  8
W53LXLIFT
 62
3
 10
526.200
 20
-6305.503
 30
-1.000
 70
    32
  0
VERTEX
  8
W53LXLIFT
 62
3
 10
531.260
 20
-6328.807
 30
-1.000
 70
    32
  0
VERTEX
  8
W53LXLIFT
 62
3
 10
561.240
 20
-6346.431
 30
-1.000
 70
    32
  0
VERTEX
  8
W53LXLIFT
 62
3
 10
564.261
 20
-6355.447
 30
-1.000
 70
    32
  0
VERTEX
  8
W53LXLIFT
 62
3
 10
571.918
 20
-6360.795
 30
-1.000
 70
    32
  0
VERTEX
  8
W53LXLIFT
 62
3
 10
576.307
 20
-6387.843
 30
-1.000
 70
    32
  0
VERTEX
  8
W53LXLIFT
 62
3
 10
585.965
 20
-6386.316
 30
-1.000
 70
    32
  0
VERTEX
  8
W53LXLIFT
 62
3
 10
584.484
 20
-6370.540
 30
-1.000
 70
    32
  0
VERTEX
  8
W53LXLIFT
 62
3
 10
591.495
 20
-6363.530
 30
-1.000
 70
    32
  0
VERTEX
  8
W53LXLIFT
 62
3
 10
587.848
 20
-6349.423
 30
-1.000
 70
    32
  0
VERTEX
  8
W53LXLIFT
 62
3
 10
581.076
 20
-6335.504
 30
-1.000
 70
    32
  0
VERTEX
  8
W53LXLIFT
 62
3
 10
570.212
 20
-6316.057
 30
-1.000
 70
    32
  0
VERTEX
  8
W53LXLIFT
 62
3
 10
567.849
 20
-6300.263
 30
-1.000
 70
    32
  0
VERTEX
  8
W53LXLIFT
 62
3
 10
567.030
 20
-6285.857
 30
-1.000
 70
    32
  0
VERTEX
  8
W53LXLIFT
 62
3
 10
563.735
 20
-6265.302
 30
-1.000
 70
    32
  0
VERTEX
  8
W53LXLIFT
 62
3
 10
563.029
 20
-6256.030
 30
-1.000
 70
    32
  0
VERTEX
  8
W53LXLIFT
 62
3
 10
566.974
 20
-6241.450
 30
-1.000
 70
    32
  0
VERTEX
  8
W53LXLIFT
 62
3
 10
555.067
 20
-6212.866
 30
-1.000
 70
    32
  0
VERTEX
  8
W53LXLIFT
 62
3
 10
549.686
 20
-6186.099
 30
-1.000
 70
    32
  0
VERTEX
  8
W53LXLIFT
 62
3
 10
541.636
 20
-6175.382
 30
-1.000
 70
    32
  0
VERTEX
  8
W53LXLIFT
 62
3
 10
540.947
 20
-6169.902
 30
-1.000
 70
    32
  0
VERTEX
  8
W53LXLIFT
 62
3
 10
532.595
 20
-6167.663
 30
-1.000
 70
    32
  0
VERTEX
  8
W53LXLIFT
 62
3
 10
521.713
 20
-6153.771
 30
-1.000
 70
    32
  0
VERTEX
  8
W53LXLIFT
 62
3
 10
512.047
 20
-6124.224
 30
-1.000
 70
    32
  0
VERTEX
  8
W53LXLIFT
 62
3
 10
502.493
 20
-6128.610
 30
-1.000
 70
    32
  0
VERTEX
  8
W53LXLIFT
 62
3
 10
511.180
 20
-6156.798
 30
-1.000
 70
    32
  0
VERTEX
  8
W53LXLIFT
 62
3
 10
514.243
 20
-6175.673
 30
-1.000
 70
    32
  0
VERTEX
  8
W53LXLIFT
 62
3
 10
516.693
 20
-6183.144
 30
-1.000
 70
    32
  0
VERTEX
  8
W53LXLIFT
 62
3
 10
516.191
 20
-6204.914
 30
-1.000
 70
    32
  0
VERTEX
  8
W53LXLIFT
 62
3
 10
512.241
 20
-6220.693
 30
-1.000
 70
    32
  0
VERTEX
  8
W53LXLIFT
 62
3
 10
504.128
 20
-6241.102
 30
-1.000
 70
    32
  0
SEQEND
  8
W53LXLIFT
  0
POLYLINE
  8
W53LXLIFT
 62
4
 66
     1
 70
     9
  0
VERTEX
  8
W53LXLIFT
 62
4
 10
865.318
 20
-7175.311
 30
81.000
 70
    32
  0
VERTEX
  8
W53LXLIFT
 62
4
 10
869.891
 20
-7156.475
 30
81.000
 70
    32
  0
VERTEX
  8
W53LXLIFT
 62
4
 10
870.896
 20
-7132.386
 30
81.000
 70
    32
  0
VERTEX
  8
W53LXLIFT
 62
4
 10
870.292
 20
-7125.215
 30
81.000
 70
    32
  0
VERTEX
  8
W53LXLIFT
 62
4
 10
859.276
 20
-7106.312
 30
81.000
 70
    32
  0
VERTEX
  8
W53LXLIFT
 62
4
 10
848.031
 20
-7098.550
 30
81.000
 70
    32
  0
VERTEX
  8
W53LXLIFT
 62
4
 10
841.844
 20
-7091.925
 30
81.000
 70
    32
  0
VERTEX
  8
W53LXLIFT
 62
4
 10
837.403
 20
-7057.416
 30
81.000
 70
    32
  0
VERTEX
  8
W53LXLIFT
 62
4
 10
822.794
 20
-7027.193
 30
81.000
 70
    32
  0
VERTEX
  8
W53LXLIFT
 62
4
 10
816.909
 20
-7007.418
 30
81.000
 70
    32
  0
VERTEX
  8
W53LXLIFT
 62
4
 10
809.800
 20
-6988.960
 30
81.000
 70
    32
  0
VERTEX
  8
W53LXLIFT
 62
4
 10
802.603
 20
-6978.823
 30
81.000
 70
    32
  0
VERTEX
  8
W53LXLIFT
 62
4
 10
781.840
 20
-6928.150
 30
81.000
 70
    32
  0
VERTEX
  8
W53LXLIFT
 62
4
 10
770.440
 20
-6932.236
 30
81.000
 70
    32
  0
VERTEX
  8
W53LXLIFT
 62
4
 10
793.299
 20
-6988.681
 30
81.000
 70
    32
  0
VERTEX
  8
W53LXLIFT
 62
4
 10
800.965
 20
-7013.040
 30
81.000
 70
    32
  0
VERTEX
  8
W53LXLIFT
 62
4
 10
806.964
 20
-7018.498
 30
81.000
 70
    32
  0
VERTEX
  8
W53LXLIFT
 62
4
 10
817.884
 20
-7036.817
 30
81.000
 70
    32
  0
VERTEX
  8
W53LXLIFT
 62
4
 10
823.088
 20
-7050.672
 30
81.000
 70
    32
  0
VERTEX
  8
W53LXLIFT
 62
4
 10
828.807
 20
-7077.304
 30
81.000
 70
    32
  0
VERTEX
  8
W53LXLIFT
 62
4
 10
833.963
 20
-7106.624
 30
81.000
 70
    32
  0
VERTEX
  8
W53LXLIFT
 62
4
 10
851.700
 20
-7134.702
 30
81.000
 70
    32
  0
VERTEX
  8
W53LXLIFT
 62
4
 10
855.653
 20
-7155.869
 30
81.000
 70
    32
  0
VERTEX
  8
W53LXLIFT
 62
4
 10
854.721
 20
-7175.233
 30
81.000
 70
    32
  0
SEQEND
  8
W53LXLIFT
  0
POLYLINE
  8
W53LXLIFT
 62
11
 66
     1
 70
     9
  0
VERTEX
  8
W53LXLIFT
 62
11
 10
465.796
 20
-6172.988
 30
69.000
 70
    32
  0
VERTEX
  8
W53LXLIFT
 62
11
 10
469.670
 20
-6206.710
 30
69.000
 70
    32
  0
VERTEX
  8
W53LXLIFT
 62
11
 10
470.627
 20
-6222.212
 30
69.000
 70
    32
  0
VERTEX
  8
W53LXLIFT
 62
11
 10
472.643
 20
-6231.192
 30
69.000
 70
    32
  0
VERTEX
  8
W53LXLIFT
 62
11
 10
474.850
 20
-6236.666
 30
69.000
 70
    32
  0
VERTEX
  8
W53LXLIFT
 62
11
 10
478.947
 20
-6240.994
 30
69.000
 70
    32
  0
VERTEX
  8
W53LXLIFT
 62
11
 10
492.120
 20
-6241.932
 30
69.000
 70
    32
  0
VERTEX
  8
W53LXLIFT
 62
11
 10
496.066
 20
-6246.804
 30
69.000
 70
    32
  0
VERTEX
  8
W53LXLIFT
 62
11
 10
489.296
 20
-6255.052
 30
69.000
 70
    32
  0
VERTEX
  8
W53LXLIFT
 62
11
 10
488.023
 20
-6261.729
 30
69.000
 70
    32
  0
VERTEX
  8
W53LXLIFT
 62
11
 10
489.566
 20
-6267.790
 30
69.000
 70
    32
  0
VERTEX
  8
W53LXLIFT
 62
11
 10
497.857
 20
-6270.399
 30
69.000
 70
    32
  0
VERTEX
  8
W53LXLIFT
 62
11
 10
500.801
 20
-6280.666
 30
69.000
 70
    32
  0
VERTEX
  8
W53LXLIFT
 62
11
 10
513.772
 20
-6282.076
 30
69.000
 70
    32
  0
VERTEX
  8
W53LXLIFT
 62
11
 10
515.391
 20
-6298.949
 30
69.000
 70
    32
  0
VERTEX
  8
W53LXLIFT
 62
11
 10
513.836
 20
-6301.917
 30
69.000
 70
    32
  0
VERTEX
  8
W53LXLIFT
 62
11
 10
515.343
 20
-6311.698
 30
69.000
 70
    32
  0
VERTEX
  8
W53LXLIFT
 62
11
 10
517.089
 20
-6320.003
 30
69.000
 70
    32
  0
VERTEX
  8
W53LXLIFT
 62
11
 10
518.444
 20
-6335.001
 30
69.000
 70
    32
  0
VERTEX
  8
W53LXLIFT
 62
11
 10
524.876
 20
-6343.623
 30
69.000
 70
    32
  0
VERTEX
  8
W53LXLIFT
 62
11
 10
529.636
 20
-6344.648
 30
69.000
 70
    32
  0
VERTEX
  8
W53LXLIFT
 62
11
 10
532.615
 20
-6339.132
 30
69.000
 70
    32
  0
VERTEX
  8
W53LXLIFT
 62
11
 10
542.502
 20
-6343.200
 30
69.000
 70
    32
  0
VERTEX
  8
W53LXLIFT
 62
11
 10
534.992
 20
-6360.675
 30
69.000
 70
    32
  0
VERTEX
  8
W53LXLIFT
 62
11
 10
538.712
 20
-6372.773
 30
69.000
 70
    32
  0
VERTEX
  8
W53LXLIFT
 62
11
 10
542.159
 20
-6380.722
 30
69.000
 70
    32
  0
VERTEX
  8
W53LXLIFT
 62
11
 10
531.140
 20
-6385.186
 30
69.000
 70
    32
  0
VERTEX
  8
W53LXLIFT
 62
11
 10
522.170
 20
-6389.477
 30
69.000
 70
    32
  0
VERTEX
  8
W53LXLIFT
 62
11
 10
516.668
 20
-6396.920
 30
69.000
 70
    32
  0
VERTEX
  8
W53LXLIFT
 62
11
 10
509.178
 20
-6390.147
 30
69.000
 70
    32
  0
VERTEX
  8
W53LXLIFT
 62
11
 10
515.022
 20
-6378.654
 30
69.000
 70
    32
  0
VERTEX
  8
W53LXLIFT
 62
11
 10
510.730
 20
-6366.968
 30
69.000
 70
    32
  0
VERTEX
  8
W53LXLIFT
 62
11
 10
511.179
 20
-6361.863
 30
69.000
 70
    32
  0
VERTEX
  8
W53LXLIFT
 62
11
 10
509.585
 20
-6355.730
 30
69.000
 70
    32
  0
VERTEX
  8
W53LXLIFT
 62
11
 10
500.634
 20
-6349.793
 30
69.000
 70
    32
  0
VERTEX
  8
W53LXLIFT
 62
11
 10
490.341
 20
-6346.670
 30
69.000
 70
    32
  0
VERTEX
  8
W53LXLIFT
 62
11
 10
475.957
 20
-6340.736
 30
69.000
 70
    32
  0
VERTEX
  8
W53LXLIFT
 62
11
 10
472.467
 20
-6336.948
 30
69.000
 70
    32
  0
VERTEX
  8
W53LXLIFT
 62
11
 10
476.057
 20
-6328.058
 30
69.000
 70
    32
  0
VERTEX
  8
W53LXLIFT
 62
11
 10
473.044
 20
-6323.274
 30
69.000
 70
    32
  0
VERTEX
  8
W53LXLIFT
 62
11
 10
471.540
 20
-6318.925
 30
69.000
 70
    32
  0
VERTEX
  8
W53LXLIFT
 62
11
 10
478.329
 20
-6315.227
 30
69.000
 70
    32
  0
VERTEX
  8
W53LXLIFT
 62
11
 10
484.137
 20
-6316.801
 30
69.000
 70
    32
  0
VERTEX
  8
W53LXLIFT
 62
11
 10
486.398
 20
-6323.105
 30
69.000
 70
    32
  0
VERTEX
  8
W53LXLIFT
 62
11
 10
491.749
 20
-6328.268
 30
69.000
 70
    32
  0
VERTEX
  8
W53LXLIFT
 62
11
 10
496.916
 20
-6331.064
 30
69.000
 70
    32
  0
VERTEX
  8
W53LXLIFT
 62
11
 10
498.551
 20
-6327.604
 30
69.000
 70
    32
  0
VERTEX
  8
W53LXLIFT
 62
11
 10
494.867
 20
-6319.174
 30
69.000
 70
    32
  0
VERTEX
  8
W53LXLIFT
 62
11
 10
486.038
 20
-6313.257
 30
69.000
 70
    32
  0
VERTEX
  8
W53LXLIFT
 62
11
 10
467.827
 20
-6311.059
 30
69.000
 70
    32
  0
VERTEX
  8
W53LXLIFT
 62
11
 10
460.712
 20
-6303.147
 30
69.000
 70
    32
  0
VERTEX
  8
W53LXLIFT
 62
11
 10
456.455
 20
-6299.804
 30
69.000
 70
    32
  0
VERTEX
  8
W53LXLIFT
 62
11
 10
461.798
 20
-6276.609
 30
69.000
 70
    32
  0
VERTEX
  8
W53LXLIFT
 62
11
 10
466.020
 20
-6271.610
 30
69.000
 70
    32
  0
VERTEX
  8
W53LXLIFT
 62
11
 10
466.678
 20
-6264.833
 30
69.000
 70
    32
  0
VERTEX
  8
W53LXLIFT
 62
11
 10
458.617
 20
-6249.125
 30
69.000
 70
    32
  0
VERTEX
  8
W53LXLIFT
 62
11
 10
457.387
 20
-6244.252
 30
69.000
 70
    32
  0
VERTEX
  8
W53LXLIFT
 62
11
 10
454.001
 20
-6231.261
 30
69.000
 70
    32
  0
VERTEX
  8
W53LXLIFT
 62
11
 10
446.996
 20
-6220.335
 30
69.000
 70
    32
  0
VERTEX
  8
W53LXLIFT
 62
11
 10
451.431
 20
-6212.465
 30
69.000
 70
    32
  0
VERTEX
  8
W53LXLIFT
 62
11
 10
451.669
 20
-6193.494
 30
69.000
 70
    32
  0
VERTEX
  8
W53LXLIFT
 62
11
 10
449.305
 20
-6174.985
 30
69.000
 70
    32
  0
SEQEND
  8
W53LXLIFT
  0
POLYLINE
  8
W53LXLIFT
 62
1
 66
     1
 70
     9
  0
VERTEX
  8
W53LXLIFT
 62
1
 10
466.796
 20
-6171.988
 30
81.000
 70
    32
  0
VERTEX
  8
W53LXLIFT
 62
1
 10
470.670
 20
-6205.710
 30
81.000
 70
    32
  0
VERTEX
  8
W53LXLIFT
 62
1
 10
471.627
 20
-6221.212
 30
81.000
 70
    32
  0
VERTEX
  8
W53LXLIFT
 62
1
 10
473.643
 20
-6230.192
 30
81.000
 70
    32
  0
VERTEX
  8
W53LXLIFT
 62
1
 10
475.850
 20
-6235.666
 30
81.000
 70
    32
  0
VERTEX
  8
W53LXLIFT
 62
1
 10
479.947
 20
-6239.994
 30
81.000
 70
    32
  0
VERTEX
  8
W53LXLIFT
 62
1
 10
493.120
 20
-6240.932
 30
81.000
 70
    32
  0
VERTEX
  8
W53LXLIFT
 62
1
 10
497.066
 20
-6245.804
 30
81.000
 70
    32
  0
VERTEX
  8
W53LXLIFT
 62
1
 10
490.296
 20
-6254.052
 30
81.000
 70
    32
  0
VERTEX
  8
W53LXLIFT
 62
1
 10
489.023
 20
-6260.729
 30
81.000
 70
    32
  0
VERTEX
  8
W53LXLIFT
 62
1
 10
490.566
 20
-6266.790
 30
81.000
 70
    32
  0
VERTEX
  8
W53LXLIFT
 62
1
 10
498.857
 20
-6269.399
 30
81.000
 70
    32
  0
VERTEX
  8
W53LXLIFT
 62
1
 10
501.801
 20
-6279.666
 30
81.000
 70
    32
  0
VERTEX
  8
W53LXLIFT
 62
1
 10
514.772
 20
-6281.076
 30
81.000
 70
    32
  0
VERTEX
  8
W53LXLIFT
 62
1
 10
516.391
 20
-6297.949
 30
81.000
 70
    32
  0
VERTEX
  8
W53LXLIFT
 62
1
 10
514.836
 20
-6300.917
 30
81.000
 70
    32
  0
VERTEX
  8
W53LXLIFT
 62
1
 10
516.343
 20
-6310.698
 30
81.000
 70
    32
  0
VERTEX
  8
W53LXLIFT
 62
1
 10
518.089
 20
-6319.003
 30
81.000
 70
    32
  0
VERTEX
  8
W53LXLIFT
 62
1
 10
519.444
 20
-6334.001
 30
81.000
 70
    32
  0
VERTEX
  8
W53LXLIFT
 62
1
 10
525.876
 20
-6342.623
 30
81.000
 70
    32
  0
VERTEX
  8
W53LXLIFT
 62
1
 10
530.636
 20
-6343.648
 30
81.000
 70
    32
  0
VERTEX
  8
W53LXLIFT
 62
1
 10
533.615
 20
-6338.132
 30
81.000
 70
    32
  0
VERTEX
  8
W53LXLIFT
 62
1
 10
543.502
 20
-6342.200
 30
81.000
 70
    32
  0
VERTEX
  8
W53LXLIFT
 62
1
 10
535.992
 20
-6359.675
 30
81.000
 70
    32
  0
VERTEX
  8
W53LXLIFT
 62
1
 10
539.712
 20
-6371.773
 30
81.000
 70
    32
  0
VERTEX
  8
W53LXLIFT
 62
1
 10
543.159
 20
-6379.722
 30
81.000
 70
    32
  0
VERTEX
  8
W53LXLIFT
 62
1
 10
532.140
 20
-6384.186
 30
81.000
 70
    32
  0
VERTEX
  8
W53LXLIFT
 62
1
 10
523.170
 20
-6388.477
 30
81.000
 70
    32
  0
VERTEX
  8
W53LXLIFT
 62
1
 10
517.668
 20
-6395.920
 30
81.000
 70
    32
  0
VERTEX
  8
W53LXLIFT
 62
1
 10
510.178
 20
-6389.147
 30
81.000
 70
    32
  0
VERTEX
  8
W53LXLIFT
 62
1
 10
516.022
 20
-6377.654
 30
81.000
 70
    32
  0
VERTEX
  8
W53LXLIFT
 62
1
 10
511.730
 20
-6365.968
 30
81.000
 70
    32
  0
VERTEX
  8
W53LXLIFT
 62
1
 10
512.179
 20
-6360.863
 30
81.000
 70
    32
  0
VERTEX
  8
W53LXLIFT
 62
1
 10
510.585
 20
-6354.730
 30
81.000
 70
    32
  0
VERTEX
  8
W53LXLIFT
 62
1
 10
501.634
 20
-6348.793
 30
81.000
 70
    32
  0
VERTEX
  8
W53LXLIFT
 62
1
 10
491.341
 20
-6345.670
 30
81.000
 70
    32
  0
VERTEX
  8
W53LXLIFT
 62
1
 10
476.957
 20
-6339.736
 30
81.000
 70
    32
  0
VERTEX
  8
W53LXLIFT
 62
1
 10
473.467
 20
-6335.948
 30
81.000
 70
    32
  0
VERTEX
  8
W53LXLIFT
 62
1
 10
477.057
 20
-6327.058
 30
81.000
 70
    32
  0
VERTEX
  8
W53LXLIFT
 62
1
 10
474.044
 20
-6322.274
 30
81.000
 70
    32
  0
VERTEX
  8
W53LXLIFT
 62
1
 10
472.540
 20
-6317.925
 30
81.000
 70
    32
  0
VERTEX
  8
W53LXLIFT
 62
1
 10
479.329
 20
-6314.227
 30
81.000
 70
    32
  0
VERTEX
  8
W53LXLIFT
 62
1
 10
485.137
 20
-6315.801
 30
81.000
 70
    32
  0
VERTEX
  8
W53LXLIFT
 62
1
 10
487.398
 20
-6322.105
 30
81.000
 70
    32
  0
VERTEX
  8
W53LXLIFT
 62
1
 10
492.749
 20
-6327.268
 30
81.000
 70
    32
  0
VERTEX
  8
W53LXLIFT
 62
1
 10
497.916
 20
-6330.064
 30
81.000
 70
    32
  0
VERTEX
  8
W53LXLIFT
 62
1
 10
499.551
 20
-6326.604
 30
81.000
 70
    32
  0
VERTEX
  8
W53LXLIFT
 62
1
 10
495.867
 20
-6318.174
 30
81.000
 70
    32
  0
VERTEX
  8
W53LXLIFT
 62
1
 10
487.038
 20
-6312.257
 30
81.000
 70
    32
  0
VERTEX
  8
W53LXLIFT
 62
1
 10
468.827
 20
-6310.059
 30
81.000
 70
    32
  0
VERTEX
  8
W53LXLIFT
 62
1
 10
461.712
 20
-6302.147
 30
81.000
 70
    32
  0
VERTEX
  8
W53LXLIFT
 62
1
 10
457.455
 20
-6298.804
 30
81.000
 70
    32
  0
VERTEX
  8
W53LXLIFT
 62
1
 10
462.798
 20
-6275.609
 30
81.000
 70
    32
  0
VERTEX
  8
W53LXLIFT
 62
1
 10
467.020
 20
-6270.610
 30
81.000
 70
    32
  0
VERTEX
  8
W53LXLIFT
 62
1
 10
467.678
 20
-6263.833
 30
81.000
 70
    32
  0
VERTEX
  8
W53LXLIFT
 62
1
 10
459.617
 20
-6248.125
 30
81.000
 70
    32
  0
VERTEX
  8
W53LXLIFT
 62
1
 10
458.387
 20
-6243.252
 30
81.000
 70
    32
  0
VERTEX
  8
W53LXLIFT
 62
1
 10
455.001
 20
-6230.261
 30
81.000
 70
    32
  0
VERTEX
  8
W53LXLIFT
 62
1
 10
447.996
 20
-6219.335
 30
81.000
 70
    32
  0
VERTEX
  8
W53LXLIFT
 62
1
 10
452.431
 20
-6211.465
 30
81.000
 70
    32
  0
VERTEX
  8
W53LXLIFT
 62
1
 10
452.669
 20
-6192.494
 30
81.000
 70
    32
  0
VERTEX
  8
W53LXLIFT
 62
1
 10
450.305
 20
-6173.985
 30
81.000
 70
    32
  0
SEQEND
  8
W53LXLIFT
  0
POLYLINE
  8
W53LXLIFT
 62
1
 66
     1
 70
     9
  0
VERTEX
  8
W53LXLIFT
 62
1
 10
855.721
 20
-7174.233
 30
91.000
 70
    32
  0
VERTEX
  8
W53LXLIFT
 62
1
 10
856.653
 20
-7154.869
 30
91.000
 70
    32
  0
VERTEX
  8
W53LXLIFT
 62
1
 10
852.700
 20
-7133.702
 30
91.000
 70
    32
  0
VERTEX
  8
W53LXLIFT
 62
1
 10
834.963
 20
-7105.624
 30
91.000
 70
    32
  0
VERTEX
  8
W53LXLIFT
 62
1
 10
829.807
 20
-7076.304
 30
91.000
 70
    32
  0
VERTEX
  8
W53LXLIFT
 62
1
 10
824.088
 20
-7049.672
 30
91.000
 70
    32
  0
VERTEX
  8
W53LXLIFT
 62
1
 10
818.884
 20
-7035.817
 30
91.000
 70
    32
  0
VERTEX
  8
W53LXLIFT
 62
1
 10
807.964
 20
-7017.498
 30
91.000
 70
    32
  0
VERTEX
  8
W53LXLIFT
 62
1
 10
801.965
 20
-7012.040
 30
91.000
 70
    32
  0
VERTEX
  8
W53LXLIFT
 62
1
 10
794.299
 20
-6987.681
 30
91.000
 70
    32
  0
VERTEX
  8
W53LXLIFT
 62
1
 10
771.440
 20
-6931.236
 30
91.000
 70
    32
  0
VERTEX
  8
W53LXLIFT
 62
1
 10
782.840
 20
-6927.150
 30
91.000
 70
    32
  0
VERTEX
  8
W53LXLIFT
 62
1
 10
803.603
 20
-6977.823
 30
91.000
 70
    32
  0
VERTEX
  8
W53LXLIFT
 62
1
 10
810.800
 20
-6987.960
 30
91.000
 70
    32
  0
VERTEX
  8
W53LXLIFT
 62
1
 10
817.909
 20
-7006.418
 30
91.000
 70
    32
  0
VERTEX
  8
W53LXLIFT
 62
1
 10
823.794
 20
-7026.193
 30
91.000
 70
    32
  0
VERTEX
  8
W53LXLIFT
 62
1
 10
838.403
 20
-7056.416
 30
91.000
 70
    32
  0
VERTEX
  8
W53LXLIFT
 62
1
 10
842.844
 20
-7090.925
 30
91.000
 70
    32
  0
VERTEX
  8
W53LXLIFT
 62
1
 10
849.031
 20
-7097.550
 30
91.000
 70
    32
  0
VERTEX
  8
W53LXLIFT
 62
1
 10
860.276
 20
-7105.312
 30
91.000
 70
    32
  0
VERTEX
  8
W53LXLIFT
 62
1
 10
871.292
 20
-7124.215
 30
91.000
 70
    32
  0
VERTEX
  8
W53LXLIFT
 62
1
 10
871.896
 20
-7131.386
 30
91.000
 70
    32
  0
VERTEX
  8
W53LXLIFT
 62
1
 10
870.891
 20
-7155.475
 30
91.000
 70
    32
  0
VERTEX
  8
W53LXLIFT
 62
1
 10
866.318
 20
-7174.311
 30
91.000
 70
    32
  0
SEQEND
  8
W53LXLIFT
  0
POLYLINE
  8
W53LXLIFT
 62
4
 66
     1
 70
     9
  0
VERTEX
  8
W53LXLIFT
 62
4
 10
812.884
 20
-6982.148
 30
64.000
 70
    32
  0
VERTEX
  8
W53LXLIFT
 62
4
 10
822.601
 20
-6998.697
 30
64.000
 70
    32
  0
VERTEX
  8
W53LXLIFT
 62
4
 10
836.486
 20
-7033.896
 30
64.000
 70
    32
  0
VERTEX
  8
W53LXLIFT
 62
4
 10
851.956
 20
-7075.133
 30
64.000
 70
    32
  0
VERTEX
  8
W53LXLIFT
 62
4
 10
854.292
 20
-7083.237
 30
64.000
 70
    32
  0
VERTEX
  8
W53LXLIFT
 62
4
 10
866.129
 20
-7086.893
 30
64.000
 70
    32
  0
VERTEX
  8
W53LXLIFT
 62
4
 10
868.746
 20
-7104.170
 30
64.000
 70
    32
  0
VERTEX
  8
W53LXLIFT
 62
4
 10
880.076
 20
-7133.497
 30
64.000
 70
    32
  0
VERTEX
  8
W53LXLIFT
 62
4
 10
872.147
 20
-7142.029
 30
64.000
 70
    32
  0
VERTEX
  8
W53LXLIFT
 62
4
 10
869.612
 20
-7146.611
 30
64.000
 70
    32
  0
VERTEX
  8
W53LXLIFT
 62
4
 10
858.201
 20
-7148.750
 30
64.000
 70
    32
  0
VERTEX
  8
W53LXLIFT
 62
4
 10
857.605
 20
-7136.318
 30
64.000
 70
    32
  0
VERTEX
  8
W53LXLIFT
 62
4
 10
854.072
 20
-7123.747
 30
64.000
 70
    32
  0
VERTEX
  8
W53LXLIFT
 62
4
 10
845.629
 20
-7097.322
 30
64.000
 70
    32
  0
VERTEX
  8
W53LXLIFT
 62
4
 10
837.752
 20
-7073.755
 30
64.000
 70
    32
  0
VERTEX
  8
W53LXLIFT
 62
4
 10
829.842
 20
-7049.993
 30
64.000
 70
    32
  0
VERTEX
  8
W53LXLIFT
 62
4
 10
807.968
 20
-6996.435
 30
64.000
 70
    32
  0
VERTEX
  8
W53LXLIFT
 62
4
 10
802.251
 20
-6986.989
 30
64.000
 70
    32
  0
SEQEND
  8
W53LXLIFT
  0
POLYLINE
  8
W53LXLIFT
 62
7
 66
     1
 70
     9
  0
VERTEX
  8
W53LXLIFT
 62
7
 10
310.866
 20
-5612.902
 30
-44.000
 70
    32
  0
VERTEX
  8
W53LXLIFT
 62
7
 10
294.386
 20
-5605.997
 30
-44.000
 70
    32
  0
VERTEX
  8
W53LXLIFT
 62
7
 10
290.362
 20
-5607.196
 30
-44.000
 70
    32
  0
VERTEX
  8
W53LXLIFT
 62
7
 10
284.377
 20
-5613.312
 30
-44.000
 70
    32
  0
VERTEX
  8
W53LXLIFT
 62
7
 10
277.279
 20
-5615.668
 30
-44.000
 70
    32
  0
VERTEX
  8
W53LXLIFT
 62
7
 10
270.827
 20
-5612.652
 30
-44.000
 70
    32
  0
VERTEX
  8
W53LXLIFT
 62
7
 10
266.216
 20
-5605.894
 30
-44.000
 70
    32
  0
VERTEX
  8
W53LXLIFT
 62
7
 10
263.108
 20
-5598.364
 30
-44.000
 70
    32
  0
VERTEX
  8
W53LXLIFT
 62
7
 10
262.046
 20
-5591.845
 30
-44.000
 70
    32
  0
VERTEX
  8
W53LXLIFT
 62
7
 10
269.044
 20
-5590.542
 30
-44.000
 70
    32
  0
VERTEX
  8
W53LXLIFT
 62
7
 10
270.976
 20
-5582.160
 30
-44.000
 70
    32
  0
VERTEX
  8
W53LXLIFT
 62
7
 10
269.865
 20
-5562.609
 30
-44.000
 70
    32
  0
VERTEX
  8
W53LXLIFT
 62
7
 10
268.505
 20
-5553.149
 30
-44.000
 70
    32
  0
VERTEX
  8
W53LXLIFT
 62
7
 10
280.499
 20
-5546.017
 30
-44.000
 70
    32
  0
VERTEX
  8
W53LXLIFT
 62
7
 10
287.169
 20
-5551.270
 30
-44.000
 70
    32
  0
VERTEX
  8
W53LXLIFT
 62
7
 10
289.208
 20
-5552.719
 30
-44.000
 70
    32
  0
VERTEX
  8
W53LXLIFT
 62
7
 10
293.380
 20
-5550.977
 30
-44.000
 70
    32
  0
VERTEX
  8
W53LXLIFT
 62
7
 10
293.975
 20
-5545.533
 30
-44.000
 70
    32
  0
VERTEX
  8
W53LXLIFT
 62
7
 10
300.708
 20
-5541.484
 30
-44.000
 70
    32
  0
VERTEX
  8
W53LXLIFT
 62
7
 10
303.829
 20
-5543.668
 30
-44.000
 70
    32
  0
VERTEX
  8
W53LXLIFT
 62
7
 10
312.667
 20
-5558.444
 30
-44.000
 70
    32
  0
VERTEX
  8
W53LXLIFT
 62
7
 10
319.365
 20
-5575.656
 30
-44.000
 70
    32
  0
VERTEX
  8
W53LXLIFT
 62
7
 10
322.423
 20
-5587.142
 30
-44.000
 70
    32
  0
VERTEX
  8
W53LXLIFT
 62
7
 10
323.198
 20
-5592.673
 30
-44.000
 70
    32
  0
VERTEX
  8
W53LXLIFT
 62
7
 10
315.182
 20
-5598.096
 30
-44.000
 70
    32
  0
SEQEND
  8
W53LXLIFT
  0
POLYLINE
  8
W53LXLIFT
 62
5
 66
     1
 70
     9
  0
VERTEX
  8
W53LXLIFT
 62
5
 10
500.734
 20
-6288.416
 30
21.000
 70
    32
  0
VERTEX
  8
W53LXLIFT
 62
5
 10
503.779
 20
-6288.409
 30
21.000
 70
    32
  0
VERTEX
  8
W53LXLIFT
 62
5
 10
519.405
 20
-6275.444
 30
21.000
 70
    32
  0
VERTEX
  8
W53LXLIFT
 62
5
 10
519.212
 20
-6267.073
 30
21.000
 70
    32
  0
VERTEX
  8
W53LXLIFT
 62
5
 10
511.496
 20
-6251.029
 30
21.000
 70
    32
  0
VERTEX
  8
W53LXLIFT
 62
5
 10
505.477
 20
-6243.058
 30
21.000
 70
    32
  0
VERTEX
  8
W53LXLIFT
 62
5
 10
504.872
 20
-6242.375
 30
21.000
 70
    32
  0
VERTEX
  8
W53LXLIFT
 62
5
 10
497.815
 20
-6233.248
 30
21.000
 70
    32
  0
VERTEX
  8
W53LXLIFT
 62
5
 10
510.316
 20
-6223.566
 30
21.000
 70
    32
  0
VERTEX
  8
W53LXLIFT
 62
5
 10
516.576
 20
-6231.441
 30
21.000
 70
    32
  0
VERTEX
  8
W53LXLIFT
 62
5
 10
520.846
 20
-6228.781
 30
21.000
 70
    32
  0
VERTEX
  8
W53LXLIFT
 62
5
 10
531.285
 20
-6239.232
 30
21.000
 70
    32
  0
VERTEX
  8
W53LXLIFT
 62
5
 10
531.302
 20
-6241.880
 30
21.000
 70
    32
  0
VERTEX
  8
W53LXLIFT
 62
5
 10
532.781
 20
-6242.231
 30
21.000
 70
    32
  0
VERTEX
  8
W53LXLIFT
 62
5
 10
543.717
 20
-6233.414
 30
21.000
 70
    32
  0
VERTEX
  8
W53LXLIFT
 62
5
 10
542.647
 20
-6222.322
 30
21.000
 70
    32
  0
VERTEX
  8
W53LXLIFT
 62
5
 10
530.549
 20
-6212.736
 30
21.000
 70
    32
  0
VERTEX
  8
W53LXLIFT
 62
5
 10
518.887
 20
-6209.338
 30
21.000
 70
    32
  0
VERTEX
  8
W53LXLIFT
 62
5
 10
532.241
 20
-6190.889
 30
21.000
 70
    32
  0
VERTEX
  8
W53LXLIFT
 62
5
 10
540.612
 20
-6202.124
 30
21.000
 70
    32
  0
VERTEX
  8
W53LXLIFT
 62
5
 10
548.609
 20
-6202.330
 30
21.000
 70
    32
  0
VERTEX
  8
W53LXLIFT
 62
5
 10
555.916
 20
-6213.514
 30
21.000
 70
    32
  0
VERTEX
  8
W53LXLIFT
 62
5
 10
557.040
 20
-6217.219
 30
21.000
 70
    32
  0
VERTEX
  8
W53LXLIFT
 62
5
 10
557.501
 20
-6223.635
 30
21.000
 70
    32
  0
VERTEX
  8
W53LXLIFT
 62
5
 10
557.711
 20
-6224.569
 30
21.000
 70
    32
  0
VERTEX
  8
W53LXLIFT
 62
5
 10
561.056
 20
-6240.114
 30
21.000
 70
    32
  0
VERTEX
  8
W53LXLIFT
 62
5
 10
575.289
 20
-6262.825
 30
21.000
 70
    32
  0
VERTEX
  8
W53LXLIFT
 62
5
 10
577.093
 20
-6272.653
 30
21.000
 70
    32
  0
VERTEX
  8
W53LXLIFT
 62
5
 10
572.862
 20
-6281.590
 30
21.000
 70
    32
  0
VERTEX
  8
W53LXLIFT
 62
5
 10
559.630
 20
-6287.481
 30
21.000
 70
    32
  0
VERTEX
  8
W53LXLIFT
 62
5
 10
561.620
 20
-6300.013
 30
21.000
 70
    32
  0
VERTEX
  8
W53LXLIFT
 62
5
 10
556.463
 20
-6303.419
 30
21.000
 70
    32
  0
VERTEX
  8
W53LXLIFT
 62
5
 10
556.894
 20
-6320.481
 30
21.000
 70
    32
  0
VERTEX
  8
W53LXLIFT
 62
5
 10
563.537
 20
-6328.311
 30
21.000
 70
    32
  0
VERTEX
  8
W53LXLIFT
 62
5
 10
572.970
 20
-6333.337
 30
21.000
 70
    32
  0
VERTEX
  8
W53LXLIFT
 62
5
 10
582.569
 20
-6345.059
 30
21.000
 70
    32
  0
VERTEX
  8
W53LXLIFT
 62
5
 10
589.827
 20
-6349.409
 30
21.000
 70
    32
  0
VERTEX
  8
W53LXLIFT
 62
5
 10
584.335
 20
-6358.627
 30
21.000
 70
    32
  0
VERTEX
  8
W53LXLIFT
 62
5
 10
581.105
 20
-6386.547
 30
21.000
 70
    32
  0
VERTEX
  8
W53LXLIFT
 62
5
 10
568.300
 20
-6388.790
 30
21.000
 70
    32
  0
VERTEX
  8
W53LXLIFT
 62
5
 10
562.273
 20
-6354.388
 30
21.000
 70
    32
  0
VERTEX
  8
W53LXLIFT
 62
5
 10
552.177
 20
-6343.557
 30
21.000
 70
    32
  0
VERTEX
  8
W53LXLIFT
 62
5
 10
544.023
 20
-6335.196
 30
21.000
 70
    32
  0
VERTEX
  8
W53LXLIFT
 62
5
 10
540.503
 20
-6321.074
 30
21.000
 70
    32
  0
VERTEX
  8
W53LXLIFT
 62
5
 10
537.197
 20
-6305.174
 30
21.000
 70
    32
  0
VERTEX
  8
W53LXLIFT
 62
5
 10
541.291
 20
-6301.016
 30
21.000
 70
    32
  0
VERTEX
  8
W53LXLIFT
 62
5
 10
538.879
 20
-6294.904
 30
21.000
 70
    32
  0
VERTEX
  8
W53LXLIFT
 62
5
 10
533.061
 20
-6292.687
 30
21.000
 70
    32
  0
VERTEX
  8
W53LXLIFT
 62
5
 10
524.384
 20
-6296.965
 30
21.000
 70
    32
  0
VERTEX
  8
W53LXLIFT
 62
5
 10
514.444
 20
-6295.886
 30
21.000
 70
    32
  0
VERTEX
  8
W53LXLIFT
 62
5
 10
507.759
 20
-6297.831
 30
21.000
 70
    32
  0
SEQEND
  8
W53LXLIFT
  0
POLYLINE
  8
W53LXLIFT
 62
5
 66
     1
 70
     9
  0
VERTEX
  8
W53LXLIFT
 62
5
 10
1109.783
 20
-7430.975
 30
-59.000
 70
    32
  0
VERTEX
  8
W53LXLIFT
 62
5
 10
1102.505
 20
-7437.905
 30
-59.000
 70
    32
  0
VERTEX
  8
W53LXLIFT
 62
5
 10
1083.144
 20
-7404.443
 30
-59.000
 70
    32
  0
VERTEX
  8
W53LXLIFT
 62
5
 10
1068.410
 20
-7359.646
 30
-59.000
 70
    32
  0
VERTEX
  8
W53LXLIFT
 62
5
 10
1066.581
 20
-7350.480
 30
-59.000
 70
    32
  0
VERTEX
  8
W53LXLIFT
 62
5
 10
1064.011
 20
-7342.687
 30
-59.000
 70
    32
  0
VERTEX
  8
W53LXLIFT
 62
5
 10
1054.229
 20
-7335.546
 30
-59.000
 70
    32
  0
VERTEX
  8
W53LXLIFT
 62
5
 10
1050.802
 20
-7335.956
 30
-59.000
 70
    32
  0
VERTEX
  8
W53LXLIFT
 62
5
 10
1048.242
 20
-7336.957
 30
-59.000
 70
    32
  0
VERTEX
  8
W53LXLIFT
 62
5
 10
1045.397
 20
-7338.167
 30
-59.000
 70
    32
  0
VERTEX
  8
W53LXLIFT
 62
5
 10
1043.703
 20
-7339.300
 30
-59.000
 70
    32
  0
VERTEX
  8
W53LXLIFT
 62
5
 10
1040.820
 20
-7340.758
 30
-59.000
 70
    32
  0
VERTEX
  8
W53LXLIFT
 62
5
 10
1037.680
 20
-7341.416
 30
-59.000
 70
    32
  0
VERTEX
  8
W53LXLIFT
 62
5
 10
1034.644
 20
-7342.217
 30
-59.000
 70
    32
  0
VERTEX
  8
W53LXLIFT
 62
5
 10
1032.641
 20
-7342.479
 30
-59.000
 70
    32
  0
VERTEX
  8
W53LXLIFT
 62
5
 10
1031.570
 20
-7341.618
 30
-59.000
 70
    32
  0
VERTEX
  8
W53LXLIFT
 62
5
 10
1030.612
 20
-7340.015
 30
-59.000
 70
    32
  0
VERTEX
  8
W53LXLIFT
 62
5
 10
1029.926
 20
-7337.884
 30
-59.000
 70
    32
  0
VERTEX
  8
W53LXLIFT
 62
5
 10
1029.263
 20
-7335.186
 30
-59.000
 70
    32
  0
VERTEX
  8
W53LXLIFT
 62
5
 10
1029.643
 20
-7332.711
 30
-59.000
 70
    32
  0
VERTEX
  8
W53LXLIFT
 62
5
 10
1030.970
 20
-7331.078
 30
-59.000
 70
    32
  0
VERTEX
  8
W53LXLIFT
 62
5
 10
1032.764
 20
-7330.530
 30
-59.000
 70
    32
  0
VERTEX
  8
W53LXLIFT
 62
5
 10
1035.609
 20
-7329.320
 30
-59.000
 70
    32
  0
VERTEX
  8
W53LXLIFT
 62
5
 10
1037.883
 20
-7328.529
 30
-59.000
 70
    32
  0
VERTEX
  8
W53LXLIFT
 62
5
 10
1040.900
 20
-7327.852
 30
-59.000
 70
    32
  0
VERTEX
  8
W53LXLIFT
 62
5
 10
1044.282
 20
-7326.028
 30
-59.000
 70
    32
  0
VERTEX
  8
W53LXLIFT
 62
5
 10
1047.327
 20
-7324.342
 30
-59.000
 70
    32
  0
VERTEX
  8
W53LXLIFT
 62
5
 10
1051.114
 20
-7322.770
 30
-59.000
 70
    32
  0
VERTEX
  8
W53LXLIFT
 62
5
 10
1052.903
 20
-7321.632
 30
-59.000
 70
    32
  0
VERTEX
  8
W53LXLIFT
 62
5
 10
1053.855
 20
-7319.876
 30
-59.000
 70
    32
  0
VERTEX
  8
W53LXLIFT
 62
5
 10
1055.130
 20
-7315.118
 30
-59.000
 70
    32
  0
VERTEX
  8
W53LXLIFT
 62
5
 10
1050.197
 20
-7302.316
 30
-59.000
 70
    32
  0
VERTEX
  8
W53LXLIFT
 62
5
 10
1043.252
 20
-7292.071
 30
-59.000
 70
    32
  0
VERTEX
  8
W53LXLIFT
 62
5
 10
1041.623
 20
-7285.546
 30
-59.000
 70
    32
  0
VERTEX
  8
W53LXLIFT
 62
5
 10
1042.335
 20
-7282.603
 30
-59.000
 70
    32
  0
VERTEX
  8
W53LXLIFT
 62
5
 10
1044.963
 20
-7271.739
 30
-59.000
 70
    32
  0
VERTEX
  8
W53LXLIFT
 62
5
 10
1050.416
 20
-7262.030
 30
-59.000
 70
    32
  0
VERTEX
  8
W53LXLIFT
 62
5
 10
1055.521
 20
-7269.773
 30
-59.000
 70
    32
  0
VERTEX
  8
W53LXLIFT
 62
5
 10
1055.551
 20
-7269.861
 30
-59.000
 70
    32
  0
VERTEX
  8
W53LXLIFT
 62
5
 10
1062.388
 20
-7289.985
 30
-59.000
 70
    32
  0
VERTEX
  8
W53LXLIFT
 62
5
 10
1066.390
 20
-7297.005
 30
-59.000
 70
    32
  0
VERTEX
  8
W53LXLIFT
 62
5
 10
1067.585
 20
-7304.575
 30
-59.000
 70
    32
  0
VERTEX
  8
W53LXLIFT
 62
5
 10
1077.313
 20
-7310.976
 30
-59.000
 70
    32
  0
VERTEX
  8
W53LXLIFT
 62
5
 10
1076.684
 20
-7328.152
 30
-59.000
 70
    32
  0
VERTEX
  8
W53LXLIFT
 62
5
 10
1077.364
 20
-7330.249
 30
-59.000
 70
    32
  0
VERTEX
  8
W53LXLIFT
 62
5
 10
1076.620
 20
-7330.945
 30
-59.000
 70
    32
  0
VERTEX
  8
W53LXLIFT
 62
5
 10
1079.117
 20
-7341.883
 30
-59.000
 70
    32
  0
VERTEX
  8
W53LXLIFT
 62
5
 10
1083.671
 20
-7353.398
 30
-59.000
 70
    32
  0
VERTEX
  8
W53LXLIFT
 62
5
 10
1088.197
 20
-7355.030
 30
-59.000
 70
    32
  0
VERTEX
  8
W53LXLIFT
 62
5
 10
1090.318
 20
-7369.948
 30
-59.000
 70
    32
  0
VERTEX
  8
W53LXLIFT
 62
5
 10
1093.489
 20
-7382.782
 30
-59.000
 70
    32
  0
VERTEX
  8
W53LXLIFT
 62
5
 10
1098.799
 20
-7391.943
 30
-59.000
 70
    32
  0
VERTEX
  8
W53LXLIFT
 62
5
 10
1102.674
 20
-7404.716
 30
-59.000
 70
    32
  0
VERTEX
  8
W53LXLIFT
 62
5
 10
1103.546
 20
-7412.019
 30
-59.000
 70
    32
  0
VERTEX
  8
W53LXLIFT
 62
5
 10
1108.977
 20
-7421.251
 30
-59.000
 70
    32
  0
SEQEND
  8
W53LXLIFT
  0
POLYLINE
  8
W53LXLIFT
 62
1
 66
     1
 70
     9
  0
VERTEX
  8
W53LXLIFT
 62
1
 10
311.866
 20
-5611.902
 30
-34.000
 70
    32
  0
VERTEX
  8
W53LXLIFT
 62
1
 10
295.386
 20
-5604.997
 30
-34.000
 70
    32
  0
VERTEX
  8
W53LXLIFT
 62
1
 10
291.362
 20
-5606.196
 30
-34.000
 70
    32
  0
VERTEX
  8
W53LXLIFT
 62
1
 10
285.377
 20
-5612.312
 30
-34.000
 70
    32
  0
VERTEX
  8
W53LXLIFT
 62
1
 10
278.279
 20
-5614.668
 30
-34.000
 70
    32
  0
VERTEX
  8
W53LXLIFT
 62
1
 10
271.827
 20
-5611.652
 30
-34.000
 70
    32
  0
VERTEX
  8
W53LXLIFT
 62
1
 10
267.216
 20
-5604.894
 30
-34.000
 70
    32
  0
VERTEX
  8
W53LXLIFT
 62
1
 10
264.108
 20
-5597.364
 30
-34.000
 70
    32
  0
VERTEX
  8
W53LXLIFT
 62
1
 10
263.046
 20
-5590.845
 30
-34.000
 70
    32
  0
VERTEX
  8
W53LXLIFT
 62
1
 10
270.044
 20
-5589.542
 30
-34.000
 70
    32
  0
VERTEX
  8
W53LXLIFT
 62
1
 10
271.976
 20
-5581.160
 30
-34.000
 70
    32
  0
VERTEX
  8
W53LXLIFT
 62
1
 10
270.865
 20
-5561.609
 30
-34.000
 70
    32
  0
VERTEX
  8
W53LXLIFT
 62
1
 10
269.505
 20
-5552.149
 30
-34.000
 70
    32
  0
VERTEX
  8
W53LXLIFT
 62
1
 10
281.499
 20
-5545.017
 30
-34.000
 70
    32
  0
VERTEX
  8
W53LXLIFT
 62
1
 10
288.169
 20
-5550.270
 30
-34.000
 70
    32
  0
VERTEX
  8
W53LXLIFT
 62
1
 10
290.208
 20
-5551.719
 30
-34.000
 70
    32
  0
VERTEX
  8
W53LXLIFT
 62
1
 10
294.380
 20
-5549.977
 30
-34.000
 70
    32
  0
VERTEX
  8
W53LXLIFT
 62
1
 10
294.975
 20
-5544.533
 30
-34.000
 70
    32
  0
VERTEX
  8
W53LXLIFT
 62
1
 10
301.708
 20
-5540.484
 30
-34.000
 70
    32
  0
VERTEX
  8
W53LXLIFT
 62
1
 10
304.829
 20
-5542.668
 30
-34.000
 70
    32
  0
VERTEX
  8
W53LXLIFT
 62
1
 10
313.667
 20
-5557.444
 30
-34.000
 70
    32
  0
VERTEX
  8
W53LXLIFT
 62
1
 10
320.365
 20
-5574.656
 30
-34.000
 70
    32
  0
VERTEX
  8
W53LXLIFT
 62
1
 10
323.423
 20
-5586.142
 30
-34.000
 70
    32
  0
VERTEX
  8
W53LXLIFT
 62
1
 10
324.198
 20
-5591.673
 30
-34.000
 70
    32
  0
VERTEX
  8
W53LXLIFT
 62
1
 10
316.182
 20
-5597.096
 30
-34.000
 70
    32
  0
SEQEND
  8
W53LXLIFT
  0
POLYLINE
  8
W53LXLIFT
 62
7
 66
     1
 70
     9
  0
VERTEX
  8
W53LXLIFT
 62
7
 10
310.235
 20
-5614.514
 30
-57.370
 70
    32
  0
VERTEX
  8
W53LXLIFT
 62
7
 10
296.821
 20
-5607.022
 30
-57.268
 70
    32
  0
VERTEX
  8
W53LXLIFT
 62
7
 10
292.526
 20
-5606.353
 30
-57.240
 70
    32
  0
VERTEX
  8
W53LXLIFT
 62
7
 10
278.478
 20
-5615.857
 30
-57.180
 70
    32
  0
VERTEX
  8
W53LXLIFT
 62
7
 10
274.469
 20
-5616.176
 30
-57.157
 70
    32
  0
VERTEX
  8
W53LXLIFT
 62
7
 10
271.177
 20
-5613.904
 30
-57.131
 70
    32
  0
VERTEX
  8
W53LXLIFT
 62
7
 10
267.131
 20
-5608.812
 30
-57.092
 70
    32
  0
VERTEX
  8
W53LXLIFT
 62
7
 10
262.004
 20
-5594.502
 30
-57.022
 70
    32
  0
VERTEX
  8
W53LXLIFT
 62
7
 10
267.868
 20
-5591.958
 30
-57.050
 70
    32
  0
VERTEX
  8
W53LXLIFT
 62
7
 10
269.294
 20
-5583.097
 30
-57.035
 70
    32
  0
VERTEX
  8
W53LXLIFT
 62
7
 10
259.609
 20
-5574.374
 30
-56.952
 70
    32
  0
VERTEX
  8
W53LXLIFT
 62
7
 10
257.387
 20
-5553.808
 30
-56.882
 70
    32
  0
VERTEX
  8
W53LXLIFT
 62
7
 10
263.254
 20
-5545.294
 30
-56.894
 70
    32
  0
VERTEX
  8
W53LXLIFT
 62
7
 10
274.182
 20
-5538.202
 30
-56.941
 70
    32
  0
VERTEX
  8
W53LXLIFT
 62
7
 10
280.790
 20
-5548.781
 30
-57.010
 70
    32
  0
VERTEX
  8
W53LXLIFT
 62
7
 10
286.057
 20
-5551.802
 30
-57.051
 70
    32
  0
VERTEX
  8
W53LXLIFT
 62
7
 10
287.742
 20
-5554.704
 30
-57.069
 70
    32
  0
VERTEX
  8
W53LXLIFT
 62
7
 10
293.636
 20
-5548.331
 30
-57.087
 70
    32
  0
VERTEX
  8
W53LXLIFT
 62
7
 10
303.696
 20
-5554.358
 30
-57.104
 70
    32
  0
VERTEX
  8
W53LXLIFT
 62
7
 10
307.290
 20
-5556.300
 30
-57.102
 70
    32
  0
VERTEX
  8
W53LXLIFT
 62
7
 10
308.752
 20
-5563.064
 30
-57.132
 70
    32
  0
VERTEX
  8
W53LXLIFT
 62
7
 10
306.248
 20
-5566.633
 30
-57.158
 70
    32
  0
VERTEX
  8
W53LXLIFT
 62
7
 10
317.389
 20
-5611.648
 30
-57.158
 70
    32
  0
SEQEND
  8
W53LXLIFT
  0
POLYLINE
  8
W53LXLIFT
 62
13
 66
     1
 70
     9
  0
VERTEX
  8
W53LXLIFT
 62
13
 10
441.084
 20
-6001.436
 30
-58.705
 70
    32
  0
VERTEX
  8
W53LXLIFT
 62
13
 10
440.817
 20
-5985.315
 30
-58.624
 70
    32
  0
VERTEX
  8
W53LXLIFT
 62
13
 10
446.865
 20
-5979.654
 30
-58.556
 70
    32
  0
VERTEX
  8
W53LXLIFT
 62
13
 10
456.187
 20
-5980.757
 30
-58.502
 70
    32
  0
VERTEX
  8
W53LXLIFT
 62
13
 10
469.982
 20
-5976.114
 30
-58.389
 70
    32
  0
VERTEX
  8
W53LXLIFT
 62
13
 10
474.293
 20
-5976.607
 30
-58.364
 70
    32
  0
VERTEX
  8
W53LXLIFT
 62
13
 10
480.546
 20
-5986.359
 30
-58.374
 70
    32
  0
VERTEX
  8
W53LXLIFT
 62
13
 10
485.943
 20
-5983.758
 30
-58.326
 70
    32
  0
VERTEX
  8
W53LXLIFT
 62
13
 10
489.420
 20
-5977.929
 30
-58.274
 70
    32
  0
VERTEX
  8
W53LXLIFT
 62
13
 10
497.525
 20
-5975.922
 30
-58.211
 70
    32
  0
VERTEX
  8
W53LXLIFT
 62
13
 10
503.849
 20
-5977.283
 30
-58.178
 70
    32
  0
VERTEX
  8
W53LXLIFT
 62
13
 10
513.307
 20
-5976.681
 30
-58.114
 70
    32
  0
VERTEX
  8
W53LXLIFT
 62
13
 10
527.464
 20
-5972.536
 30
-58.046
 70
    32
  0
VERTEX
  8
W53LXLIFT
 62
13
 10
530.959
 20
-5979.554
 30
-58.068
 70
    32
  0
VERTEX
  8
W53LXLIFT
 62
13
 10
540.346
 20
-5981.831
 30
-58.089
 70
    32
  0
VERTEX
  8
W53LXLIFT
 62
13
 10
542.187
 20
-5987.774
 30
-58.106
 70
    32
  0
VERTEX
  8
W53LXLIFT
 62
13
 10
541.946
 20
-5995.780
 30
-58.125
 70
    32
  0
VERTEX
  8
W53LXLIFT
 62
13
 10
544.640
 20
-5999.468
 30
-58.138
 70
    32
  0
VERTEX
  8
W53LXLIFT
 62
13
 10
539.543
 20
-6012.195
 30
-58.160
 70
    32
  0
VERTEX
  8
W53LXLIFT
 62
13
 10
540.756
 20
-6017.646
 30
-58.175
 70
    32
  0
VERTEX
  8
W53LXLIFT
 62
13
 10
522.020
 20
-6021.697
 30
-58.289
 70
    32
  0
VERTEX
  8
W53LXLIFT
 62
13
 10
520.774
 20
-6024.103
 30
-58.309
 70
    32
  0
VERTEX
  8
W53LXLIFT
 62
13
 10
514.018
 20
-6020.282
 30
-58.333
 70
    32
  0
VERTEX
  8
W53LXLIFT
 62
13
 10
508.586
 20
-6023.871
 30
-58.386
 70
    32
  0
VERTEX
  8
W53LXLIFT
 62
13
 10
507.943
 20
-6029.328
 30
-58.418
 70
    32
  0
VERTEX
  8
W53LXLIFT
 62
13
 10
515.112
 20
-6041.819
 30
-58.436
 70
    32
  0
VERTEX
  8
W53LXLIFT
 62
13
 10
514.580
 20
-6046.449
 30
-58.463
 70
    32
  0
VERTEX
  8
W53LXLIFT
 62
13
 10
507.631
 20
-6048.699
 30
-58.519
 70
    32
  0
VERTEX
  8
W53LXLIFT
 62
13
 10
505.215
 20
-6048.071
 30
-58.532
 70
    32
  0
VERTEX
  8
W53LXLIFT
 62
13
 10
492.946
 20
-6036.044
 30
-58.549
 70
    32
  0
VERTEX
  8
W53LXLIFT
 62
13
 10
482.997
 20
-6033.742
 30
-58.601
 70
    32
  0
VERTEX
  8
W53LXLIFT
 62
13
 10
476.079
 20
-6023.678
 30
-58.594
 70
    32
  0
VERTEX
  8
W53LXLIFT
 62
13
 10
472.429
 20
-6009.986
 30
-58.547
 70
    32
  0
VERTEX
  8
W53LXLIFT
 62
13
 10
462.863
 20
-6003.390
 30
-58.575
 70
    32
  0
VERTEX
  8
W53LXLIFT
 62
13
 10
450.783
 20
-6007.344
 30
-58.673
 70
    32
  0
SEQEND
  8
W53LXLIFT
  0
POLYLINE
  8
W53LXLIFT
 62
1
 66
     1
 70
     9
  0
VERTEX
  8
W53LXLIFT
 62
1
 10
442.084
 20
-6000.436
 30
-45.705
 70
    32
  0
VERTEX
  8
W53LXLIFT
 62
1
 10
441.817
 20
-5984.315
 30
-45.624
 70
    32
  0
VERTEX
  8
W53LXLIFT
 62
1
 10
447.865
 20
-5978.654
 30
-45.556
 70
    32
  0
VERTEX
  8
W53LXLIFT
 62
1
 10
457.187
 20
-5979.757
 30
-45.502
 70
    32
  0
VERTEX
  8
W53LXLIFT
 62
1
 10
470.982
 20
-5975.114
 30
-45.389
 70
    32
  0
VERTEX
  8
W53LXLIFT
 62
1
 10
475.293
 20
-5975.607
 30
-45.364
 70
    32
  0
VERTEX
  8
W53LXLIFT
 62
1
 10
481.546
 20
-5985.359
 30
-45.374
 70
    32
  0
VERTEX
  8
W53LXLIFT
 62
1
 10
486.943
 20
-5982.758
 30
-45.326
 70
    32
  0
VERTEX
  8
W53LXLIFT
 62
1
 10
490.420
 20
-5976.929
 30
-45.274
 70
    32
  0
VERTEX
  8
W53LXLIFT
 62
1
 10
498.525
 20
-5974.922
 30
-45.211
 70
    32
  0
VERTEX
  8
W53LXLIFT
 62
1
 10
504.849
 20
-5976.283
 30
-45.178
 70
    32
  0
VERTEX
  8
W53LXLIFT
 62
1
 10
514.307
 20
-5975.681
 30
-45.114
 70
    32
  0
VERTEX
  8
W53LXLIFT
 62
1
 10
528.464
 20
-5971.536
 30
-45.046
 70
    32
  0
VERTEX
  8
W53LXLIFT
 62
1
 10
531.959
 20
-5978.554
 30
-45.068
 70
    32
  0
VERTEX
  8
W53LXLIFT
 62
1
 10
541.346
 20
-5980.831
 30
-45.089
 70
    32
  0
VERTEX
  8
W53LXLIFT
 62
1
 10
543.187
 20
-5986.774
 30
-45.106
 70
    32
  0
VERTEX
  8
W53LXLIFT
 62
1
 10
542.946
 20
-5994.780
 30
-45.125
 70
    32
  0
VERTEX
  8
W53LXLIFT
 62
1
 10
545.640
 20
-5998.468
 30
-45.138
 70
    32
  0
VERTEX
  8
W53LXLIFT
 62
1
 10
540.543
 20
-6011.195
 30
-45.160
 70
    32
  0
VERTEX
  8
W53LXLIFT
 62
1
 10
541.756
 20
-6016.646
 30
-45.175
 70
    32
  0
VERTEX
  8
W53LXLIFT
 62
1
 10
523.020
 20
-6020.697
 30
-45.289
 70
    32
  0
VERTEX
  8
W53LXLIFT
 62
1
 10
521.774
 20
-6023.103
 30
-45.309
 70
    32
  0
VERTEX
  8
W53LXLIFT
 62
1
 10
515.018
 20
-6019.282
 30
-45.333
 70
    32
  0
VERTEX
  8
W53LXLIFT
 62
1
 10
509.586
 20
-6022.871
 30
-45.386
 70
    32
  0
VERTEX
  8
W53LXLIFT
 62
1
 10
508.943
 20
-6028.328
 30
-45.418
 70
    32
  0
VERTEX
  8
W53LXLIFT
 62
1
 10
516.112
 20
-6040.819
 30
-45.436
 70
    32
  0
VERTEX
  8
W53LXLIFT
 62
1
 10
515.580
 20
-6045.449
 30
-45.463
 70
    32
  0
VERTEX
  8
W53LXLIFT
 62
1
 10
508.631
 20
-6047.699
 30
-45.519
 70
    32
  0
VERTEX
  8
W53LXLIFT
 62
1
 10
506.215
 20
-6047.071
 30
-45.532
 70
    32
  0
VERTEX
  8
W53LXLIFT
 62
1
 10
493.946
 20
-6035.044
 30
-45.549
 70
    32
  0
VERTEX
  8
W53LXLIFT
 62
1
 10
483.997
 20
-6032.742
 30
-45.601
 70
    32
  0
VERTEX
  8
W53LXLIFT
 62
1
 10
477.079
 20
-6022.678
 30
-45.594
 70
    32
  0
VERTEX
  8
W53LXLIFT
 62
1
 10
473.429
 20
-6008.986
 30
-45.547
 70
    32
  0
VERTEX
  8
W53LXLIFT
 62
1
 10
463.863
 20
-6002.390
 30
-45.575
 70
    32
  0
VERTEX
  8
W53LXLIFT
 62
1
 10
451.783
 20
-6006.344
 30
-45.673
 70
    32
  0
SEQEND
  8
W53LXLIFT
  0
POLYLINE
  8
W53LXLIFT
 62
13
 66
     1
 70
     9
  0
VERTEX
  8
W53LXLIFT
 62
13
 10
1063.300
 20
-8287.458
 30
-60.861
 70
    32
  0
VERTEX
  8
W53LXLIFT
 62
13
 10
1041.787
 20
-8275.958
 30
-60.780
 70
    32
  0
VERTEX
  8
W53LXLIFT
 62
13
 10
1036.839
 20
-8263.662
 30
-60.756
 70
    32
  0
VERTEX
  8
W53LXLIFT
 62
13
 10
1032.140
 20
-8257.330
 30
-60.736
 70
    32
  0
VERTEX
  8
W53LXLIFT
 62
13
 10
1013.354
 20
-8253.201
 30
-60.669
 70
    32
  0
VERTEX
  8
W53LXLIFT
 62
13
 10
1005.914
 20
-8248.979
 30
-60.641
 70
    32
  0
VERTEX
  8
W53LXLIFT
 62
13
 10
999.073
 20
-8237.993
 30
-60.612
 70
    32
  0
VERTEX
  8
W53LXLIFT
 62
13
 10
998.302
 20
-8219.904
 30
-60.598
 70
    32
  0
VERTEX
  8
W53LXLIFT
 62
13
 10
994.576
 20
-8214.514
 30
-60.582
 70
    32
  0
VERTEX
  8
W53LXLIFT
 62
13
 10
998.790
 20
-8209.555
 30
-60.594
 70
    32
  0
VERTEX
  8
W53LXLIFT
 62
13
 10
1015.384
 20
-8217.676
 30
-60.656
 70
    32
  0
VERTEX
  8
W53LXLIFT
 62
13
 10
1033.805
 20
-8222.057
 30
-60.721
 70
    32
  0
VERTEX
  8
W53LXLIFT
 62
13
 10
1033.847
 20
-8233.330
 30
-60.728
 70
    32
  0
VERTEX
  8
W53LXLIFT
 62
13
 10
1046.829
 20
-8248.683
 30
-60.782
 70
    32
  0
VERTEX
  8
W53LXLIFT
 62
13
 10
1052.242
 20
-8252.153
 30
-60.802
 70
    32
  0
VERTEX
  8
W53LXLIFT
 62
13
 10
1059.416
 20
-8252.253
 30
-60.827
 70
    32
  0
VERTEX
  8
W53LXLIFT
 62
13
 10
1072.104
 20
-8261.889
 30
-60.876
 70
    32
  0
VERTEX
  8
W53LXLIFT
 62
13
 10
1077.543
 20
-8277.074
 30
-60.904
 70
    32
  0
SEQEND
  8
W53LXLIFT
  0
POLYLINE
  8
W53LXLIFT
 62
1
 66
     1
 70
     9
  0
VERTEX
  8
W53LXLIFT
 62
1
 10
1095.033
 20
-8297.799
 30
-41.000
 70
    32
  0
VERTEX
  8
W53LXLIFT
 62
1
 10
1088.816
 20
-8294.767
 30
-41.000
 70
    32
  0
VERTEX
  8
W53LXLIFT
 62
1
 10
1046.414
 20
-8278.411
 30
-41.000
 70
    32
  0
VERTEX
  8
W53LXLIFT
 62
1
 10
1039.056
 20
-8274.146
 30
-41.000
 70
    32
  0
VERTEX
  8
W53LXLIFT
 62
1
 10
1030.164
 20
-8262.252
 30
-41.000
 70
    32
  0
VERTEX
  8
W53LXLIFT
 62
1
 10
998.713
 20
-8244.401
 30
-41.000
 70
    32
  0
VERTEX
  8
W53LXLIFT
 62
1
 10
989.481
 20
-8236.161
 30
-41.000
 70
    32
  0
VERTEX
  8
W53LXLIFT
 62
1
 10
994.086
 20
-8224.709
 30
-41.000
 70
    32
  0
VERTEX
  8
W53LXLIFT
 62
1
 10
998.740
 20
-8226.825
 30
-41.000
 70
    32
  0
VERTEX
  8
W53LXLIFT
 62
1
 10
1007.556
 20
-8231.426
 30
-41.000
 70
    32
  0
VERTEX
  8
W53LXLIFT
 62
1
 10
1015.092
 20
-8234.021
 30
-41.000
 70
    32
  0
VERTEX
  8
W53LXLIFT
 62
1
 10
1019.603
 20
-8238.000
 30
-41.000
 70
    32
  0
VERTEX
  8
W53LXLIFT
 62
1
 10
1023.218
 20
-8241.221
 30
-41.000
 70
    32
  0
VERTEX
  8
W53LXLIFT
 62
1
 10
1029.962
 20
-8244.518
 30
-41.000
 70
    32
  0
VERTEX
  8
W53LXLIFT
 62
1
 10
1038.319
 20
-8250.559
 30
-41.000
 70
    32
  0
VERTEX
  8
W53LXLIFT
 62
1
 10
1044.415
 20
-8252.256
 30
-41.000
 70
    32
  0
VERTEX
  8
W53LXLIFT
 62
1
 10
1051.110
 20
-8253.285
 30
-41.000
 70
    32
  0
VERTEX
  8
W53LXLIFT
 62
1
 10
1058.012
 20
-8256.354
 30
-41.000
 70
    32
  0
VERTEX
  8
W53LXLIFT
 62
1
 10
1068.670
 20
-8263.417
 30
-41.000
 70
    32
  0
VERTEX
  8
W53LXLIFT
 62
1
 10
1072.406
 20
-8268.414
 30
-41.000
 70
    32
  0
VERTEX
  8
W53LXLIFT
 62
1
 10
1075.507
 20
-8274.324
 30
-41.000
 70
    32
  0
VERTEX
  8
W53LXLIFT
 62
1
 10
1081.742
 20
-8277.673
 30
-41.000
 70
    32
  0
VERTEX
  8
W53LXLIFT
 62
1
 10
1090.736
 20
-8280.604
 30
-41.000
 70
    32
  0
VERTEX
  8
W53LXLIFT
 62
1
 10
1104.380
 20
-8288.288
 30
-41.000
 70
    32
  0
SEQEND
  8
W53LXLIFT
  0
POLYLINE
  8
W53LXLIFT
 62
1
 66
     1
 70
     9
  0
VERTEX
  8
W53LXLIFT
 62
1
 10
837.812
 20
-6851.887
 30
-40.000
 70
    32
  0
VERTEX
  8
W53LXLIFT
 62
1
 10
835.470
 20
-6850.749
 30
-40.000
 70
    32
  0
VERTEX
  8
W53LXLIFT
 62
1
 10
830.366
 20
-6853.015
 30
-40.000
 70
    32
  0
VERTEX
  8
W53LXLIFT
 62
1
 10
825.235
 20
-6858.561
 30
-40.000
 70
    32
  0
VERTEX
  8
W53LXLIFT
 62
1
 10
815.035
 20
-6877.431
 30
-40.000
 70
    32
  0
VERTEX
  8
W53LXLIFT
 62
1
 10
819.907
 20
-6909.673
 30
-40.000
 70
    32
  0
VERTEX
  8
W53LXLIFT
 62
1
 10
825.992
 20
-6923.544
 30
-40.000
 70
    32
  0
VERTEX
  8
W53LXLIFT
 62
1
 10
832.851
 20
-6941.204
 30
-40.000
 70
    32
  0
VERTEX
  8
W53LXLIFT
 62
1
 10
833.730
 20
-6947.852
 30
-40.000
 70
    32
  0
VERTEX
  8
W53LXLIFT
 62
1
 10
831.870
 20
-6953.865
 30
-40.000
 70
    32
  0
VERTEX
  8
W53LXLIFT
 62
1
 10
857.458
 20
-6991.933
 30
-40.000
 70
    32
  0
VERTEX
  8
W53LXLIFT
 62
1
 10
872.203
 20
-7010.431
 30
-40.000
 70
    32
  0
VERTEX
  8
W53LXLIFT
 62
1
 10
875.527
 20
-7013.686
 30
-40.000
 70
    32
  0
VERTEX
  8
W53LXLIFT
 62
1
 10
880.373
 20
-7015.735
 30
-40.000
 70
    32
  0
VERTEX
  8
W53LXLIFT
 62
1
 10
889.913
 20
-7025.052
 30
-40.000
 70
    32
  0
VERTEX
  8
W53LXLIFT
 62
1
 10
897.655
 20
-7045.445
 30
-40.000
 70
    32
  0
VERTEX
  8
W53LXLIFT
 62
1
 10
895.706
 20
-7057.065
 30
-40.000
 70
    32
  0
VERTEX
  8
W53LXLIFT
 62
1
 10
898.424
 20
-7067.168
 30
-40.000
 70
    32
  0
VERTEX
  8
W53LXLIFT
 62
1
 10
902.703
 20
-7075.821
 30
-40.000
 70
    32
  0
VERTEX
  8
W53LXLIFT
 62
1
 10
904.018
 20
-7079.002
 30
-40.000
 70
    32
  0
VERTEX
  8
W53LXLIFT
 62
1
 10
900.080
 20
-7095.099
 30
-40.000
 70
    32
  0
VERTEX
  8
W53LXLIFT
 62
1
 10
906.062
 20
-7104.154
 30
-40.000
 70
    32
  0
VERTEX
  8
W53LXLIFT
 62
1
 10
912.384
 20
-7099.054
 30
-40.000
 70
    32
  0
VERTEX
  8
W53LXLIFT
 62
1
 10
917.017
 20
-7096.585
 30
-40.000
 70
    32
  0
VERTEX
  8
W53LXLIFT
 62
1
 10
920.784
 20
-7093.218
 30
-40.000
 70
    32
  0
VERTEX
  8
W53LXLIFT
 62
1
 10
920.891
 20
-7089.446
 30
-40.000
 70
    32
  0
VERTEX
  8
W53LXLIFT
 62
1
 10
919.204
 20
-7085.446
 30
-40.000
 70
    32
  0
VERTEX
  8
W53LXLIFT
 62
1
 10
919.041
 20
-7080.999
 30
-40.000
 70
    32
  0
VERTEX
  8
W53LXLIFT
 62
1
 10
918.432
 20
-7075.026
 30
-40.000
 70
    32
  0
VERTEX
  8
W53LXLIFT
 62
1
 10
910.372
 20
-7054.645
 30
-40.000
 70
    32
  0
VERTEX
  8
W53LXLIFT
 62
1
 10
914.133
 20
-7049.761
 30
-40.000
 70
    32
  0
VERTEX
  8
W53LXLIFT
 62
1
 10
902.154
 20
-7021.228
 30
-40.000
 70
    32
  0
VERTEX
  8
W53LXLIFT
 62
1
 10
896.657
 20
-7010.737
 30
-40.000
 70
    32
  0
VERTEX
  8
W53LXLIFT
 62
1
 10
889.926
 20
-7003.960
 30
-40.000
 70
    32
  0
VERTEX
  8
W53LXLIFT
 62
1
 10
887.951
 20
-6997.450
 30
-40.000
 70
    32
  0
VERTEX
  8
W53LXLIFT
 62
1
 10
884.394
 20
-6992.515
 30
-40.000
 70
    32
  0
VERTEX
  8
W53LXLIFT
 62
1
 10
876.532
 20
-6984.924
 30
-40.000
 70
    32
  0
VERTEX
  8
W53LXLIFT
 62
1
 10
869.129
 20
-6974.502
 30
-40.000
 70
    32
  0
VERTEX
  8
W53LXLIFT
 62
1
 10
868.441
 20
-6964.348
 30
-40.000
 70
    32
  0
VERTEX
  8
W53LXLIFT
 62
1
 10
863.030
 20
-6954.881
 30
-40.000
 70
    32
  0
VERTEX
  8
W53LXLIFT
 62
1
 10
852.846
 20
-6946.028
 30
-40.000
 70
    32
  0
VERTEX
  8
W53LXLIFT
 62
1
 10
846.508
 20
-6939.947
 30
-40.000
 70
    32
  0
VERTEX
  8
W53LXLIFT
 62
1
 10
825.997
 20
-6902.893
 30
-40.000
 70
    32
  0
VERTEX
  8
W53LXLIFT
 62
1
 10
825.518
 20
-6896.500
 30
-40.000
 70
    32
  0
VERTEX
  8
W53LXLIFT
 62
1
 10
830.307
 20
-6880.225
 30
-40.000
 70
    32
  0
VERTEX
  8
W53LXLIFT
 62
1
 10
827.730
 20
-6876.649
 30
-40.000
 70
    32
  0
VERTEX
  8
W53LXLIFT
 62
1
 10
835.112
 20
-6867.742
 30
-40.000
 70
    32
  0
VERTEX
  8
W53LXLIFT
 62
1
 10
839.794
 20
-6867.302
 30
-40.000
 70
    32
  0
SEQEND
  8
W53LXLIFT
  0
POLYLINE
  8
W53LXLIFT
 62
4
 66
     1
 70
     9
  0
VERTEX
  8
W53LXLIFT
 62
4
 10
825.241
 20
-6907.636
 30
-57.658
 70
    32
  0
VERTEX
  8
W53LXLIFT
 62
4
 10
821.441
 20
-6872.430
 30
-58.182
 70
    32
  0
VERTEX
  8
W53LXLIFT
 62
4
 10
824.227
 20
-6863.191
 30
-58.514
 70
    32
  0
VERTEX
  8
W53LXLIFT
 62
4
 10
829.125
 20
-6855.182
 30
-58.931
 70
    32
  0
VERTEX
  8
W53LXLIFT
 62
4
 10
834.309
 20
-6852.304
 30
-59.257
 70
    32
  0
VERTEX
  8
W53LXLIFT
 62
4
 10
836.284
 20
-6848.622
 30
-59.434
 70
    32
  0
VERTEX
  8
W53LXLIFT
 62
4
 10
840.639
 20
-6849.075
 30
-59.649
 70
    32
  0
VERTEX
  8
W53LXLIFT
 62
4
 10
843.851
 20
-6862.446
 30
-59.541
 70
    32
  0
VERTEX
  8
W53LXLIFT
 62
4
 10
837.844
 20
-6866.309
 30
-59.152
 70
    32
  0
VERTEX
  8
W53LXLIFT
 62
4
 10
832.719
 20
-6873.513
 30
-58.741
 70
    32
  0
VERTEX
  8
W53LXLIFT
 62
4
 10
834.584
 20
-6877.360
 30
-58.758
 70
    32
  0
VERTEX
  8
W53LXLIFT
 62
4
 10
841.496
 20
-6882.683
 30
-59.005
 70
    32
  0
VERTEX
  8
W53LXLIFT
 62
4
 10
842.753
 20
-6890.031
 30
-58.920
 70
    32
  0
VERTEX
  8
W53LXLIFT
 62
4
 10
841.028
 20
-6897.379
 30
-58.681
 70
    32
  0
VERTEX
  8
W53LXLIFT
 62
4
 10
850.840
 20
-6916.711
 30
-58.791
 70
    32
  0
VERTEX
  8
W53LXLIFT
 62
4
 10
849.249
 20
-6925.672
 30
-58.526
 70
    32
  0
VERTEX
  8
W53LXLIFT
 62
4
 10
849.633
 20
-6936.914
 30
-58.315
 70
    32
  0
VERTEX
  8
W53LXLIFT
 62
4
 10
871.974
 20
-6960.741
 30
-58.979
 70
    32
  0
VERTEX
  8
W53LXLIFT
 62
4
 10
874.425
 20
-6979.741
 30
-58.717
 70
    32
  0
VERTEX
  8
W53LXLIFT
 62
4
 10
877.021
 20
-6983.412
 30
-58.775
 70
    32
  0
VERTEX
  8
W53LXLIFT
 62
4
 10
885.527
 20
-6989.793
 30
-59.083
 70
    32
  0
VERTEX
  8
W53LXLIFT
 62
4
 10
890.778
 20
-6994.482
 30
-59.258
 70
    32
  0
VERTEX
  8
W53LXLIFT
 62
4
 10
893.854
 20
-7012.466
 30
-59.048
 70
    32
  0
VERTEX
  8
W53LXLIFT
 62
4
 10
899.749
 20
-7012.834
 30
-59.344
 70
    32
  0
VERTEX
  8
W53LXLIFT
 62
4
 10
911.595
 20
-7035.792
 30
-59.485
 70
    32
  0
VERTEX
  8
W53LXLIFT
 62
4
 10
917.812
 20
-7073.219
 30
-59.040
 70
    32
  0
VERTEX
  8
W53LXLIFT
 62
4
 10
941.324
 20
-7087.819
 30
-59.953
 70
    32
  0
VERTEX
  8
W53LXLIFT
 62
4
 10
959.971
 20
-7108.206
 30
-60.042
 70
    32
  0
VERTEX
  8
W53LXLIFT
 62
4
 10
985.089
 20
-7124.824
 30
-60.189
 70
    32
  0
VERTEX
  8
W53LXLIFT
 62
4
 10
995.134
 20
-7133.666
 30
-60.242
 70
    32
  0
VERTEX
  8
W53LXLIFT
 62
4
 10
981.689
 20
-7145.875
 30
-60.111
 70
    32
  0
VERTEX
  8
W53LXLIFT
 62
4
 10
932.818
 20
-7109.158
 30
-59.078
 70
    32
  0
VERTEX
  8
W53LXLIFT
 62
4
 10
918.485
 20
-7102.159
 30
-58.482
 70
    32
  0
VERTEX
  8
W53LXLIFT
 62
4
 10
915.026
 20
-7097.689
 30
-58.396
 70
    32
  0
VERTEX
  8
W53LXLIFT
 62
4
 10
901.803
 20
-7101.120
 30
-57.644
 70
    32
  0
VERTEX
  8
W53LXLIFT
 62
4
 10
896.889
 20
-7094.974
 30
-57.517
 70
    32
  0
VERTEX
  8
W53LXLIFT
 62
4
 10
901.614
 20
-7080.586
 30
-58.055
 70
    32
  0
VERTEX
  8
W53LXLIFT
 62
4
 10
894.170
 20
-7073.067
 30
-57.825
 70
    32
  0
VERTEX
  8
W53LXLIFT
 62
4
 10
891.901
 20
-7061.400
 30
-57.947
 70
    32
  0
VERTEX
  8
W53LXLIFT
 62
4
 10
893.962
 20
-7056.274
 30
-58.158
 70
    32
  0
VERTEX
  8
W53LXLIFT
 62
4
 10
895.699
 20
-7041.250
 30
-58.554
 70
    32
  0
VERTEX
  8
W53LXLIFT
 62
4
 10
894.445
 20
-7034.219
 30
-58.634
 70
    32
  0
VERTEX
  8
W53LXLIFT
 62
4
 10
888.231
 20
-7024.588
 30
-58.511
 70
    32
  0
VERTEX
  8
W53LXLIFT
 62
4
 10
881.632
 20
-7015.645
 30
-58.353
 70
    32
  0
VERTEX
  8
W53LXLIFT
 62
4
 10
869.530
 20
-7009.756
 30
-57.850
 70
    32
  0
VERTEX
  8
W53LXLIFT
 62
4
 10
866.011
 20
-7003.703
 30
-57.793
 70
    32
  0
VERTEX
  8
W53LXLIFT
 62
4
 10
850.108
 20
-6981.421
 30
-57.429
 70
    32
  0
VERTEX
  8
W53LXLIFT
 62
4
 10
845.221
 20
-6970.451
 30
-57.402
 70
    32
  0
VERTEX
  8
W53LXLIFT
 62
4
 10
837.619
 20
-6956.886
 30
-57.288
 70
    32
  0
VERTEX
  8
W53LXLIFT
 62
4
 10
833.082
 20
-6952.082
 30
-57.152
 70
    32
  0
VERTEX
  8
W53LXLIFT
 62
4
 10
823.212
 20
-6929.540
 30
-57.105
 70
    32
  0
SEQEND
  8
W53LXLIFT
  0
POINT
  8
W53LXLIFT
 62
3
 10
1224.491
 20
-8572.577
 30
86.000
  0
POINT
  8
W53LXLIFT
 62
8
 10
1221.413
 20
-7420.625
 30
-51.000
  0
POINT
  8
W53LXLIFT
 62
8
 10
1100.704
 20
-7329.645
 30
89.000
  0
LINE
  8
W53LXLIFT
 62
8
 10
1100.704
 20
-7329.645
 30
89.000
 11
1221.413
 21
-7420.625
 31
-51.000
  0
POINT
  8
W53LXLIFT
 62
4
 10
868.034
 20
-6984.449
 30
-40.000
  0
POINT
  8
W53LXLIFT
 62
4
 10
847.856
 20
-7074.550
 30
64.000
  0
LINE
  8
W53LXLIFT
 62
4
 10
847.856
 20
-7074.550
 30
64.000
 11
868.034
 21
-6984.449
 31
-40.000
  0
POINT
  8
W53LXLIFT
 62
4
 10
895.391
 20
-6882.701
 30
-122.000
  0
LINE
  8
W53LXLIFT
 62
4
 10
841.163
 20
-6916.711
 30
-58.791
 11
895.391
 21
-6882.701
 31
-122.000
  0
POINT
  8
W53LXLIFT
 62
4
 10
841.163
 20
-6916.711
 30
-58.791
  0
POLYLINE
  8
W53LXLIFT
 62
2
 66
     1
 70
     9
  0
VERTEX
  8
W53LXLIFT
 62
2
 10
1094.560
 20
-7283.120
 30
-60.617
 70
    32
  0
VERTEX
  8
W53LXLIFT
 62
2
 10
1083.921
 20
-7267.430
 30
-60.576
 70
    32
  0
VERTEX
  8
W53LXLIFT
 62
2
 10
1092.492
 20
-7258.613
 30
-60.662
 70
    32
  0
VERTEX
  8
W53LXLIFT
 62
2
 10
1096.613
 20
-7257.345
 30
-60.696
 70
    32
  0
VERTEX
  8
W53LXLIFT
 62
2
 10
1100.736
 20
-7261.017
 30
-60.718
 70
    32
  0
VERTEX
  8
W53LXLIFT
 62
2
 10
1107.541
 20
-7262.061
 30
-60.766
 70
    32
  0
VERTEX
  8
W53LXLIFT
 62
2
 10
1114.748
 20
-7267.092
 30
-60.808
 70
    32
  0
VERTEX
  8
W53LXLIFT
 62
2
 10
1119.768
 20
-7276.474
 30
-60.822
 70
    32
  0
VERTEX
  8
W53LXLIFT
 62
2
 10
1129.424
 20
-7287.833
 30
-60.866
 70
    32
  0
VERTEX
  8
W53LXLIFT
 62
2
 10
1149.992
 20
-7298.650
 30
-60.993
 70
    32
  0
VERTEX
  8
W53LXLIFT
 62
2
 10
1147.477
 20
-7303.900
 30
-60.962
 70
    32
  0
VERTEX
  8
W53LXLIFT
 62
2
 10
1139.748
 20
-7311.770
 30
-60.884
 70
    32
  0
VERTEX
  8
W53LXLIFT
 62
2
 10
1135.669
 20
-7310.701
 30
-60.857
 70
    32
  0
VERTEX
  8
W53LXLIFT
 62
2
 10
1129.364
 20
-7312.584
 30
-60.805
 70
    32
  0
VERTEX
  8
W53LXLIFT
 62
2
 10
1119.121
 20
-7313.241
 30
-60.727
 70
    32
  0
VERTEX
  8
W53LXLIFT
 62
2
 10
1117.533
 20
-7302.067
 30
-60.742
 70
    32
  0
VERTEX
  8
W53LXLIFT
 62
2
 10
1107.462
 20
-7287.500
 30
-60.703
 70
    32
  0
VERTEX
  8
W53LXLIFT
 62
2
 10
1104.530
 20
-7284.037
 30
-60.689
 70
    32
  0
SEQEND
  8
W53LXLIFT
  0
POLYLINE
  8
W53LXLIFT
 62
1
 66
     1
 70
     9
  0
VERTEX
  8
W53LXLIFT
 62
1
 10
1095.560
 20
-7282.120
 30
-50.617
 70
    32
  0
VERTEX
  8
W53LXLIFT
 62
1
 10
1084.921
 20
-7266.430
 30
-50.576
 70
    32
  0
VERTEX
  8
W53LXLIFT
 62
1
 10
1093.492
 20
-7257.613
 30
-50.662
 70
    32
  0
VERTEX
  8
W53LXLIFT
 62
1
 10
1097.613
 20
-7256.345
 30
-50.696
 70
    32
  0
VERTEX
  8
W53LXLIFT
 62
1
 10
1101.736
 20
-7260.017
 30
-50.718
 70
    32
  0
VERTEX
  8
W53LXLIFT
 62
1
 10
1108.541
 20
-7261.061
 30
-50.766
 70
    32
  0
VERTEX
  8
W53LXLIFT
 62
1
 10
1115.748
 20
-7266.092
 30
-50.808
 70
    32
  0
VERTEX
  8
W53LXLIFT
 62
1
 10
1120.768
 20
-7275.474
 30
-50.822
 70
    32
  0
VERTEX
  8
W53LXLIFT
 62
1
 10
1130.424
 20
-7286.833
 30
-50.866
 70
    32
  0
VERTEX
  8
W53LXLIFT
 62
1
 10
1150.992
 20
-7297.650
 30
-50.993
 70
    32
  0
VERTEX
  8
W53LXLIFT
 62
1
 10
1148.477
 20
-7302.900
 30
-50.962
 70
    32
  0
VERTEX
  8
W53LXLIFT
 62
1
 10
1140.748
 20
-7310.770
 30
-50.884
 70
    32
  0
VERTEX
  8
W53LXLIFT
 62
1
 10
1136.669
 20
-7309.701
 30
-50.857
 70
    32
  0
VERTEX
  8
W53LXLIFT
 62
1
 10
1130.364
 20
-7311.584
 30
-50.805
 70
    32
  0
VERTEX
  8
W53LXLIFT
 62
1
 10
1120.121
 20
-7312.241
 30
-50.727
 70
    32
  0
VERTEX
  8
W53LXLIFT
 62
1
 10
1118.533
 20
-7301.067
 30
-50.742
 70
    32
  0
VERTEX
  8
W53LXLIFT
 62
1
 10
1108.462
 20
-7286.500
 30
-50.703
 70
    32
  0
VERTEX
  8
W53LXLIFT
 62
1
 10
1105.530
 20
-7283.037
 30
-50.689
 70
    32
  0
SEQEND
  8
W53LXLIFT
  0
POINT
  8
W53LXLIFT
 62
2
 10
1119.812
 20
-7285.201
 30
-60.727
  0
LINE
  8
W53LXLIFT
 62
2
 10
1119.812
 20
-7285.201
 30
-60.727
 11
1143.336
 21
-7301.047
 31
-195.000
  0
POINT
  8
W53LXLIFT
 62
2
 10
1143.336
 20
-7301.047
 30
-195.000
  0
POLYLINE
  8
W53LXLIFT
 62
3
 66
     1
 70
     9
  0
VERTEX
  8
W53LXLIFT
 62
3
 10
1253.702
 20
-8512.129
 30
-61.645
 70
    32
  0
VERTEX
  8
W53LXLIFT
 62
3
 10
1263.218
 20
-8516.059
 30
-61.680
 70
    32
  0
VERTEX
  8
W53LXLIFT
 62
3
 10
1276.060
 20
-8534.551
 30
-61.734
 70
    32
  0
VERTEX
  8
W53LXLIFT
 62
3
 10
1282.677
 20
-8545.608
 30
-61.764
 70
    32
  0
VERTEX
  8
W53LXLIFT
 62
3
 10
1289.143
 20
-8559.595
 30
-61.794
 70
    32
  0
VERTEX
  8
W53LXLIFT
 62
3
 10
1287.666
 20
-8571.216
 30
-61.796
 70
    32
  0
VERTEX
  8
W53LXLIFT
 62
3
 10
1287.009
 20
-8586.571
 30
-61.802
 70
    32
  0
VERTEX
  8
W53LXLIFT
 62
3
 10
1279.300
 20
-8581.660
 30
-61.773
 70
    32
  0
VERTEX
  8
W53LXLIFT
 62
3
 10
1248.356
 20
-8534.905
 30
-61.640
 70
    32
  0
VERTEX
  8
W53LXLIFT
 62
3
 10
1250.771
 20
-8525.463
 30
-61.642
 70
    32
  0
SEQEND
  8
W53LXLIFT
  0
POLYLINE
  8
W53LXLIFT
 62
1
 66
     1
 70
     9
  0
VERTEX
  8
W53LXLIFT
 62
1
 10
1251.771
 20
-8524.463
 30
-51.642
 70
    32
  0
VERTEX
  8
W53LXLIFT
 62
1
 10
1249.356
 20
-8533.905
 30
-51.640
 70
    32
  0
VERTEX
  8
W53LXLIFT
 62
1
 10
1280.300
 20
-8580.660
 30
-51.773
 70
    32
  0
VERTEX
  8
W53LXLIFT
 62
1
 10
1288.009
 20
-8585.571
 30
-51.802
 70
    32
  0
VERTEX
  8
W53LXLIFT
 62
1
 10
1288.666
 20
-8570.216
 30
-51.796
 70
    32
  0
VERTEX
  8
W53LXLIFT
 62
1
 10
1290.143
 20
-8558.595
 30
-51.794
 70
    32
  0
VERTEX
  8
W53LXLIFT
 62
1
 10
1283.677
 20
-8544.608
 30
-51.764
 70
    32
  0
VERTEX
  8
W53LXLIFT
 62
1
 10
1277.060
 20
-8533.551
 30
-51.734
 70
    32
  0
VERTEX
  8
W53LXLIFT
 62
1
 10
1264.218
 20
-8515.059
 30
-51.680
 70
    32
  0
VERTEX
  8
W53LXLIFT
 62
1
 10
1254.702
 20
-8511.129
 30
-51.645
 70
    32
  0
SEQEND
  8
W53LXLIFT
  0
POINT
  8
W53LXLIFT
 62
1
 10
1270.264
 20
-8546.706
 30
-51.678
  0
LINE
  8
W53LXLIFT
 62
3
 10
1224.491
 20
-8572.577
 30
86.000
 11
1270.264
 21
-8546.706
 31
-51.678
  0
POLYLINE
  8
W53LXLIFT
 62
1
 66
     1
 70
     9
  0
VERTEX
  8
W53LXLIFT
 62
1
 10
1251.258
 20
-8007.172
 30
89.000
 70
    32
  0
VERTEX
  8
W53LXLIFT
 62
1
 10
1245.651
 20
-8013.182
 30
89.000
 70
    32
  0
VERTEX
  8
W53LXLIFT
 62
1
 10
1240.126
 20
-8014.431
 30
89.000
 70
    32
  0
VERTEX
  8
W53LXLIFT
 62
1
 10
1230.623
 20
-8008.240
 30
89.000
 70
    32
  0
VERTEX
  8
W53LXLIFT
 62
1
 10
1221.540
 20
-8008.079
 30
89.000
 70
    32
  0
VERTEX
  8
W53LXLIFT
 62
1
 10
1216.041
 20
-7999.471
 30
89.000
 70
    32
  0
VERTEX
  8
W53LXLIFT
 62
1
 10
1205.906
 20
-7990.361
 30
89.000
 70
    32
  0
VERTEX
  8
W53LXLIFT
 62
1
 10
1204.563
 20
-7985.890
 30
89.000
 70
    32
  0
VERTEX
  8
W53LXLIFT
 62
1
 10
1212.394
 20
-7978.013
 30
89.000
 70
    32
  0
VERTEX
  8
W53LXLIFT
 62
1
 10
1215.535
 20
-7975.907
 30
89.000
 70
    32
  0
VERTEX
  8
W53LXLIFT
 62
1
 10
1219.135
 20
-7979.144
 30
89.000
 70
    32
  0
VERTEX
  8
W53LXLIFT
 62
1
 10
1223.354
 20
-7981.594
 30
89.000
 70
    32
  0
VERTEX
  8
W53LXLIFT
 62
1
 10
1228.128
 20
-7982.432
 30
89.000
 70
    32
  0
VERTEX
  8
W53LXLIFT
 62
1
 10
1234.071
 20
-7981.748
 30
89.000
 70
    32
  0
VERTEX
  8
W53LXLIFT
 62
1
 10
1239.564
 20
-7982.818
 30
89.000
 70
    32
  0
VERTEX
  8
W53LXLIFT
 62
1
 10
1242.832
 20
-7985.755
 30
89.000
 70
    32
  0
VERTEX
  8
W53LXLIFT
 62
1
 10
1243.396
 20
-7988.288
 30
89.000
 70
    32
  0
VERTEX
  8
W53LXLIFT
 62
1
 10
1248.284
 20
-7993.414
 30
89.000
 70
    32
  0
VERTEX
  8
W53LXLIFT
 62
1
 10
1246.545
 20
-7999.184
 30
89.000
 70
    32
  0
VERTEX
  8
W53LXLIFT
 62
1
 10
1250.213
 20
-7999.856
 30
89.000
 70
    32
  0
SEQEND
  8
W53LXLIFT
  0
POLYLINE
  8
W53LXLIFT
 62
1
 66
     1
 70
     9
  0
VERTEX
  8
W53LXLIFT
 62
1
 10
1100.760
 20
-7921.908
 30
88.000
 70
    32
  0
VERTEX
  8
W53LXLIFT
 62
1
 10
1092.444
 20
-7905.984
 30
88.000
 70
    32
  0
VERTEX
  8
W53LXLIFT
 62
1
 10
1086.332
 20
-7891.705
 30
88.000
 70
    32
  0
VERTEX
  8
W53LXLIFT
 62
1
 10
1082.311
 20
-7884.516
 30
88.000
 70
    32
  0
VERTEX
  8
W53LXLIFT
 62
1
 10
1081.477
 20
-7879.118
 30
88.000
 70
    32
  0
VERTEX
  8
W53LXLIFT
 62
1
 10
1077.622
 20
-7870.385
 30
88.000
 70
    32
  0
VERTEX
  8
W53LXLIFT
 62
1
 10
1062.828
 20
-7846.469
 30
88.000
 70
    32
  0
VERTEX
  8
W53LXLIFT
 62
1
 10
1055.158
 20
-7838.050
 30
88.000
 70
    32
  0
VERTEX
  8
W53LXLIFT
 62
1
 10
1047.281
 20
-7828.909
 30
88.000
 70
    32
  0
VERTEX
  8
W53LXLIFT
 62
1
 10
1036.184
 20
-7810.564
 30
88.000
 70
    32
  0
VERTEX
  8
W53LXLIFT
 62
1
 10
1034.132
 20
-7796.006
 30
88.000
 70
    32
  0
VERTEX
  8
W53LXLIFT
 62
1
 10
1035.268
 20
-7773.068
 30
88.000
 70
    32
  0
VERTEX
  8
W53LXLIFT
 62
1
 10
1033.576
 20
-7756.931
 30
88.000
 70
    32
  0
VERTEX
  8
W53LXLIFT
 62
1
 10
1027.471
 20
-7744.725
 30
88.000
 70
    32
  0
VERTEX
  8
W53LXLIFT
 62
1
 10
1040.595
 20
-7741.331
 30
88.000
 70
    32
  0
VERTEX
  8
W53LXLIFT
 62
1
 10
1045.970
 20
-7744.890
 30
88.000
 70
    32
  0
VERTEX
  8
W53LXLIFT
 62
1
 10
1050.693
 20
-7752.433
 30
88.000
 70
    32
  0
VERTEX
  8
W53LXLIFT
 62
1
 10
1053.836
 20
-7763.008
 30
88.000
 70
    32
  0
VERTEX
  8
W53LXLIFT
 62
1
 10
1061.153
 20
-7775.079
 30
88.000
 70
    32
  0
VERTEX
  8
W53LXLIFT
 62
1
 10
1082.598
 20
-7810.906
 30
88.000
 70
    32
  0
VERTEX
  8
W53LXLIFT
 62
1
 10
1089.395
 20
-7835.396
 30
88.000
 70
    32
  0
VERTEX
  8
W53LXLIFT
 62
1
 10
1097.332
 20
-7850.071
 30
88.000
 70
    32
  0
VERTEX
  8
W53LXLIFT
 62
1
 10
1105.513
 20
-7878.784
 30
88.000
 70
    32
  0
VERTEX
  8
W53LXLIFT
 62
1
 10
1112.747
 20
-7903.716
 30
88.000
 70
    32
  0
VERTEX
  8
W53LXLIFT
 62
1
 10
1118.061
 20
-7912.351
 30
88.000
 70
    32
  0
SEQEND
  8
W53LXLIFT
  0
POLYLINE
  8
W53LXLIFT
 62
6
 66
     1
 70
     9
  0
VERTEX
  8
W53LXLIFT
 62
6
 10
1213.578
 20
-7974.640
 30
-61.154
 70
    32
  0
VERTEX
  8
W53LXLIFT
 62
6
 10
1210.272
 20
-7976.710
 30
-61.144
 70
    32
  0
VERTEX
  8
W53LXLIFT
 62
6
 10
1207.576
 20
-7972.653
 30
-61.128
 70
    32
  0
VERTEX
  8
W53LXLIFT
 62
6
 10
1202.029
 20
-7975.841
 30
-61.111
 70
    32
  0
VERTEX
  8
W53LXLIFT
 62
6
 10
1188.294
 20
-7957.996
 30
-61.033
 70
    32
  0
VERTEX
  8
W53LXLIFT
 62
6
 10
1191.787
 20
-7951.059
 30
-61.036
 70
    32
  0
VERTEX
  8
W53LXLIFT
 62
6
 10
1185.912
 20
-7943.495
 30
-61.002
 70
    32
  0
VERTEX
  8
W53LXLIFT
 62
6
 10
1181.108
 20
-7926.580
 30
-60.959
 70
    32
  0
VERTEX
  8
W53LXLIFT
 62
6
 10
1165.323
 20
-7908.105
 30
-60.872
 70
    32
  0
VERTEX
  8
W53LXLIFT
 62
6
 10
1160.887
 20
-7901.376
 30
-60.845
 70
    32
  0
VERTEX
  8
W53LXLIFT
 62
6
 10
1155.381
 20
-7893.879
 30
-60.813
 70
    32
  0
VERTEX
  8
W53LXLIFT
 62
6
 10
1149.777
 20
-7887.188
 30
-60.782
 70
    32
  0
VERTEX
  8
W53LXLIFT
 62
6
 10
1133.291
 20
-7865.978
 30
-60.687
 70
    32
  0
VERTEX
  8
W53LXLIFT
 62
6
 10
1122.968
 20
-7862.250
 30
-60.643
 70
    32
  0
VERTEX
  8
W53LXLIFT
 62
6
 10
1117.943
 20
-7855.605
 30
-60.614
 70
    32
  0
VERTEX
  8
W53LXLIFT
 62
6
 10
1120.239
 20
-7847.559
 30
-60.611
 70
    32
  0
VERTEX
  8
W53LXLIFT
 62
6
 10
1082.025
 20
-7794.029
 30
-60.611
 70
    32
  0
VERTEX
  8
W53LXLIFT
 62
6
 10
1087.740
 20
-7786.064
 30
-60.396
 70
    32
  0
VERTEX
  8
W53LXLIFT
 62
6
 10
1095.163
 20
-7773.290
 30
-60.405
 70
    32
  0
VERTEX
  8
W53LXLIFT
 62
6
 10
1094.151
 20
-7771.514
 30
-60.399
 70
    32
  0
VERTEX
  8
W53LXLIFT
 62
6
 10
1081.953
 20
-7756.049
 30
-60.330
 70
    32
  0
VERTEX
  8
W53LXLIFT
 62
6
 10
1066.691
 20
-7742.380
 30
-60.251
 70
    32
  0
VERTEX
  8
W53LXLIFT
 62
6
 10
1063.965
 20
-7740.927
 30
-60.239
 70
    32
  0
VERTEX
  8
W53LXLIFT
 62
6
 10
1058.043
 20
-7745.129
 30
-60.223
 70
    32
  0
VERTEX
  8
W53LXLIFT
 62
6
 10
1039.054
 20
-7718.751
 30
-60.111
 70
    32
  0
VERTEX
  8
W53LXLIFT
 62
6
 10
1078.720
 20
-7711.352
 30
-60.251
 70
    32
  0
VERTEX
  8
W53LXLIFT
 62
6
 10
1081.194
 20
-7703.721
 30
-60.250
 70
    32
  0
VERTEX
  8
W53LXLIFT
 62
6
 10
1086.731
 20
-7707.214
 30
-60.276
 70
    32
  0
VERTEX
  8
W53LXLIFT
 62
6
 10
1097.961
 20
-7744.014
 30
-60.373
 70
    32
  0
VERTEX
  8
W53LXLIFT
 62
6
 10
1117.776
 20
-7758.196
 30
-60.469
 70
    32
  0
VERTEX
  8
W53LXLIFT
 62
6
 10
1114.684
 20
-7783.154
 30
-60.494
 70
    32
  0
VERTEX
  8
W53LXLIFT
 62
6
 10
1095.808
 20
-7796.956
 30
-60.443
 70
    32
  0
VERTEX
  8
W53LXLIFT
 62
6
 10
1120.357
 20
-7831.224
 30
-60.587
 70
    32
  0
VERTEX
  8
W53LXLIFT
 62
6
 10
1133.173
 20
-7835.281
 30
-60.642
 70
    32
  0
VERTEX
  8
W53LXLIFT
 62
6
 10
1155.572
 20
-7861.455
 30
-60.766
 70
    32
  0
VERTEX
  8
W53LXLIFT
 62
6
 10
1185.718
 20
-7885.288
 30
-60.916
 70
    32
  0
VERTEX
  8
W53LXLIFT
 62
6
 10
1193.443
 20
-7897.708
 30
-60.963
 70
    32
  0
VERTEX
  8
W53LXLIFT
 62
6
 10
1196.006
 20
-7908.423
 30
-60.989
 70
    32
  0
VERTEX
  8
W53LXLIFT
 62
6
 10
1192.703
 20
-7915.012
 30
-60.986
 70
    32
  0
VERTEX
  8
W53LXLIFT
 62
6
 10
1204.779
 20
-7934.974
 30
-61.061
 70
    32
  0
VERTEX
  8
W53LXLIFT
 62
6
 10
1200.960
 20
-7942.996
 30
-61.059
 70
    32
  0
VERTEX
  8
W53LXLIFT
 62
6
 10
1218.871
 20
-7968.174
 30
-61.152
 70
    32
  0
SEQEND
  8
W53LXLIFT
  0
POLYLINE
  8
W53LXLIFT
 62
8
 66
     1
 70
     9
  0
VERTEX
  8
W53LXLIFT
 62
8
 10
1200.332
 20
-7347.140
 30
-61.180
 70
    32
  0
VERTEX
  8
W53LXLIFT
 62
8
 10
1203.851
 20
-7358.709
 30
-61.192
 70
    32
  0
VERTEX
  8
W53LXLIFT
 62
8
 10
1214.723
 20
-7375.764
 30
-61.226
 70
    32
  0
VERTEX
  8
W53LXLIFT
 62
8
 10
1226.626
 20
-7388.987
 30
-61.263
 70
    32
  0
VERTEX
  8
W53LXLIFT
 62
8
 10
1226.218
 20
-7392.471
 30
-61.262
 70
    32
  0
VERTEX
  8
W53LXLIFT
 62
8
 10
1219.350
 20
-7400.916
 30
-61.243
 70
    32
  0
VERTEX
  8
W53LXLIFT
 62
8
 10
1219.781
 20
-7405.541
 30
-61.245
 70
    32
  0
VERTEX
  8
W53LXLIFT
 62
8
 10
1236.596
 20
-7411.096
 30
-61.295
 70
    32
  0
VERTEX
  8
W53LXLIFT
 62
8
 10
1247.408
 20
-7432.258
 30
-61.330
 70
    32
  0
VERTEX
  8
W53LXLIFT
 62
8
 10
1261.224
 20
-7435.074
 30
-61.371
 70
    32
  0
VERTEX
  8
W53LXLIFT
 62
8
 10
1275.443
 20
-7455.492
 30
-61.415
 70
    32
  0
VERTEX
  8
W53LXLIFT
 62
8
 10
1280.245
 20
-7467.120
 30
-61.431
 70
    32
  0
VERTEX
  8
W53LXLIFT
 62
8
 10
1272.092
 20
-7483.536
 30
-61.409
 70
    32
  0
VERTEX
  8
W53LXLIFT
 62
8
 10
1258.440
 20
-7485.432
 30
-61.344
 70
    32
  0
VERTEX
  8
W53LXLIFT
 62
8
 10
1255.943
 20
-7488.912
 30
-61.317
 70
    32
  0
VERTEX
  8
W53LXLIFT
 62
8
 10
1261.065
 20
-7502.172
 30
-61.322
 70
    32
  0
VERTEX
  8
W53LXLIFT
 62
8
 10
1238.241
 20
-7509.373
 30
-61.134
 70
    32
  0
VERTEX
  8
W53LXLIFT
 62
8
 10
1234.075
 20
-7504.745
 30
-61.114
 70
    32
  0
VERTEX
  8
W53LXLIFT
 62
8
 10
1231.754
 20
-7497.993
 30
-61.114
 70
    32
  0
VERTEX
  8
W53LXLIFT
 62
8
 10
1223.701
 20
-7495.998
 30
-61.058
 70
    32
  0
VERTEX
  8
W53LXLIFT
 62
8
 10
1217.433
 20
-7487.691
 30
-61.032
 70
    32
  0
VERTEX
  8
W53LXLIFT
 62
8
 10
1216.019
 20
-7475.213
 30
-61.052
 70
    32
  0
VERTEX
  8
W53LXLIFT
 62
8
 10
1225.117
 20
-7470.000
 30
-61.133
 70
    32
  0
VERTEX
  8
W53LXLIFT
 62
8
 10
1225.577
 20
-7460.855
 30
-61.159
 70
    32
  0
VERTEX
  8
W53LXLIFT
 62
8
 10
1215.994
 20
-7462.097
 30
-61.084
 70
    32
  0
VERTEX
  8
W53LXLIFT
 62
8
 10
1212.339
 20
-7452.138
 30
-61.081
 70
    32
  0
VERTEX
  8
W53LXLIFT
 62
8
 10
1211.607
 20
-7439.432
 30
-61.107
 70
    32
  0
VERTEX
  8
W53LXLIFT
 62
8
 10
1215.291
 20
-7430.689
 30
-61.156
 70
    32
  0
VERTEX
  8
W53LXLIFT
 62
8
 10
1215.260
 20
-7426.758
 30
-61.166
 70
    32
  0
VERTEX
  8
W53LXLIFT
 62
8
 10
1210.287
 20
-7414.597
 30
-61.158
 70
    32
  0
VERTEX
  8
W53LXLIFT
 62
8
 10
1205.875
 20
-7413.224
 30
-61.129
 70
    32
  0
VERTEX
  8
W53LXLIFT
 62
8
 10
1197.062
 20
-7414.532
 30
-61.060
 70
    32
  0
VERTEX
  8
W53LXLIFT
 62
8
 10
1197.596
 20
-7395.363
 30
-61.111
 70
    32
  0
VERTEX
  8
W53LXLIFT
 62
8
 10
1183.234
 20
-7364.728
 30
-61.079
 70
    32
  0
VERTEX
  8
W53LXLIFT
 62
8
 10
1183.146
 20
-7359.522
 30
-61.091
 70
    32
  0
VERTEX
  8
W53LXLIFT
 62
8
 10
1193.591
 20
-7349.220
 30
-61.161
 70
    32
  0
SEQEND
  8
W53LXLIFT
  0
POLYLINE
  8
W53LXLIFT
 62
8
 66
     1
 70
     9
  0
VERTEX
  8
W53LXLIFT
 62
8
 10
1239.781
 20
-7444.006
 30
-61.307
 70
    32
  0
VERTEX
  8
W53LXLIFT
 62
8
 10
1258.025
 20
-7463.775
 30
-61.365
 70
    32
  0
VERTEX
  8
W53LXLIFT
 62
8
 10
1258.299
 20
-7464.148
 30
-61.366
 70
    32
  0
VERTEX
  8
W53LXLIFT
 62
8
 10
1260.231
 20
-7469.623
 30
-61.373
 70
    32
  0
VERTEX
  8
W53LXLIFT
 62
8
 10
1256.922
 20
-7474.687
 30
-61.359
 70
    32
  0
VERTEX
  8
W53LXLIFT
 62
8
 10
1243.407
 20
-7475.274
 30
-61.257
 70
    32
  0
VERTEX
  8
W53LXLIFT
 62
8
 10
1234.513
 20
-7465.552
 30
-61.214
 70
    32
  0
VERTEX
  8
W53LXLIFT
 62
8
 10
1232.331
 20
-7459.138
 30
-61.214
 70
    32
  0
VERTEX
  8
W53LXLIFT
 62
8
 10
1235.634
 20
-7449.576
 30
-61.262
 70
    32
  0
SEQEND
  8
W53LXLIFT
  0
POLYLINE
  8
W53LXLIFT
 62
1
 66
     1
 70
     9
  0
VERTEX
  8
W53LXLIFT
 62
1
 10
1240.781
 20
-7443.006
 30
-51.307
 70
    32
  0
VERTEX
  8
W53LXLIFT
 62
1
 10
1259.025
 20
-7462.775
 30
-51.365
 70
    32
  0
VERTEX
  8
W53LXLIFT
 62
1
 10
1259.299
 20
-7463.148
 30
-51.366
 70
    32
  0
VERTEX
  8
W53LXLIFT
 62
1
 10
1261.231
 20
-7468.623
 30
-51.373
 70
    32
  0
VERTEX
  8
W53LXLIFT
 62
1
 10
1257.922
 20
-7473.687
 30
-51.359
 70
    32
  0
VERTEX
  8
W53LXLIFT
 62
1
 10
1244.407
 20
-7474.274
 30
-51.257
 70
    32
  0
VERTEX
  8
W53LXLIFT
 62
1
 10
1235.513
 20
-7464.552
 30
-51.214
 70
    32
  0
VERTEX
  8
W53LXLIFT
 62
1
 10
1233.331
 20
-7458.138
 30
-51.214
 70
    32
  0
VERTEX
  8
W53LXLIFT
 62
1
 10
1236.634
 20
-7448.576
 30
-51.262
 70
    32
  0
SEQEND
  8
W53LXLIFT
  0
POLYLINE
  8
W53LXLIFT
 62
1
 66
     1
 70
     9
  0
VERTEX
  8
W53LXLIFT
 62
1
 10
1194.591
 20
-7348.220
 30
-51.161
 70
    32
  0
VERTEX
  8
W53LXLIFT
 62
1
 10
1184.146
 20
-7358.522
 30
-51.091
 70
    32
  0
VERTEX
  8
W53LXLIFT
 62
1
 10
1184.234
 20
-7363.728
 30
-51.079
 70
    32
  0
VERTEX
  8
W53LXLIFT
 62
1
 10
1198.596
 20
-7394.363
 30
-51.111
 70
    32
  0
VERTEX
  8
W53LXLIFT
 62
1
 10
1198.062
 20
-7413.532
 30
-51.060
 70
    32
  0
VERTEX
  8
W53LXLIFT
 62
1
 10
1206.875
 20
-7412.224
 30
-51.129
 70
    32
  0
VERTEX
  8
W53LXLIFT
 62
1
 10
1211.287
 20
-7413.597
 30
-51.158
 70
    32
  0
VERTEX
  8
W53LXLIFT
 62
1
 10
1216.260
 20
-7425.758
 30
-51.166
 70
    32
  0
VERTEX
  8
W53LXLIFT
 62
1
 10
1216.291
 20
-7429.689
 30
-51.156
 70
    32
  0
VERTEX
  8
W53LXLIFT
 62
1
 10
1212.607
 20
-7438.432
 30
-51.107
 70
    32
  0
VERTEX
  8
W53LXLIFT
 62
1
 10
1213.339
 20
-7451.138
 30
-51.081
 70
    32
  0
VERTEX
  8
W53LXLIFT
 62
1
 10
1216.994
 20
-7461.097
 30
-51.084
 70
    32
  0
VERTEX
  8
W53LXLIFT
 62
1
 10
1226.577
 20
-7459.855
 30
-51.159
 70
    32
  0
VERTEX
  8
W53LXLIFT
 62
1
 10
1226.117
 20
-7469.000
 30
-51.133
 70
    32
  0
VERTEX
  8
W53LXLIFT
 62
1
 10
1217.019
 20
-7474.213
 30
-51.052
 70
    32
  0
VERTEX
  8
W53LXLIFT
 62
1
 10
1218.433
 20
-7486.691
 30
-51.032
 70
    32
  0
VERTEX
  8
W53LXLIFT
 62
1
 10
1224.701
 20
-7494.998
 30
-51.058
 70
    32
  0
VERTEX
  8
W53LXLIFT
 62
1
 10
1232.754
 20
-7496.993
 30
-51.114
 70
    32
  0
VERTEX
  8
W53LXLIFT
 62
1
 10
1235.075
 20
-7503.745
 30
-51.114
 70
    32
  0
VERTEX
  8
W53LXLIFT
 62
1
 10
1239.241
 20
-7508.373
 30
-51.134
 70
    32
  0
VERTEX
  8
W53LXLIFT
 62
1
 10
1262.065
 20
-7501.172
 30
-51.322
 70
    32
  0
VERTEX
  8
W53LXLIFT
 62
1
 10
1256.943
 20
-7487.912
 30
-51.317
 70
    32
  0
VERTEX
  8
W53LXLIFT
 62
1
 10
1259.440
 20
-7484.432
 30
-51.344
 70
    32
  0
VERTEX
  8
W53LXLIFT
 62
1
 10
1273.092
 20
-7482.536
 30
-51.409
 70
    32
  0
VERTEX
  8
W53LXLIFT
 62
1
 10
1281.245
 20
-7466.120
 30
-51.431
 70
    32
  0
VERTEX
  8
W53LXLIFT
 62
1
 10
1276.443
 20
-7454.492
 30
-51.415
 70
    32
  0
VERTEX
  8
W53LXLIFT
 62
1
 10
1262.224
 20
-7434.074
 30
-51.371
 70
    32
  0
VERTEX
  8
W53LXLIFT
 62
1
 10
1248.408
 20
-7431.258
 30
-51.330
 70
    32
  0
VERTEX
  8
W53LXLIFT
 62
1
 10
1237.596
 20
-7410.096
 30
-51.295
 70
    32
  0
VERTEX
  8
W53LXLIFT
 62
1
 10
1220.781
 20
-7404.541
 30
-51.245
 70
    32
  0
VERTEX
  8
W53LXLIFT
 62
1
 10
1220.350
 20
-7399.916
 30
-51.243
 70
    32
  0
VERTEX
  8
W53LXLIFT
 62
1
 10
1227.218
 20
-7391.471
 30
-51.262
 70
    32
  0
VERTEX
  8
W53LXLIFT
 62
1
 10
1227.626
 20
-7387.987
 30
-51.263
 70
    32
  0
VERTEX
  8
W53LXLIFT
 62
1
 10
1215.723
 20
-7374.764
 30
-51.226
 70
    32
  0
VERTEX
  8
W53LXLIFT
 62
1
 10
1204.851
 20
-7357.709
 30
-51.192
 70
    32
  0
VERTEX
  8
W53LXLIFT
 62
1
 10
1201.332
 20
-7346.140
 30
-51.180
 70
    32
  0
SEQEND
  8
W53LXLIFT
  0
POLYLINE
  8
W53LXLIFT
 62
6
 66
     1
 70
     9
  0
VERTEX
  8
W53LXLIFT
 62
6
 10
541.938
 20
-6265.284
 30
-59.287
 70
    32
  0
VERTEX
  8
W53LXLIFT
 62
6
 10
548.169
 20
-6275.137
 30
-59.300
 70
    32
  0
VERTEX
  8
W53LXLIFT
 62
6
 10
556.256
 20
-6298.444
 30
-59.340
 70
    32
  0
VERTEX
  8
W53LXLIFT
 62
6
 10
568.841
 20
-6295.264
 30
-59.319
 70
    32
  0
VERTEX
  8
W53LXLIFT
 62
6
 10
577.809
 20
-6301.853
 30
-59.322
 70
    32
  0
VERTEX
  8
W53LXLIFT
 62
6
 10
576.788
 20
-6306.894
 30
-59.334
 70
    32
  0
VERTEX
  8
W53LXLIFT
 62
6
 10
578.655
 20
-6315.091
 30
-59.349
 70
    32
  0
VERTEX
  8
W53LXLIFT
 62
6
 10
575.564
 20
-6316.608
 30
-59.356
 70
    32
  0
VERTEX
  8
W53LXLIFT
 62
6
 10
571.066
 20
-6328.117
 30
-59.385
 70
    32
  0
VERTEX
  8
W53LXLIFT
 62
6
 10
564.782
 20
-6334.313
 30
-59.405
 70
    32
  0
VERTEX
  8
W53LXLIFT
 62
6
 10
558.519
 20
-6332.599
 30
-59.409
 70
    32
  0
VERTEX
  8
W53LXLIFT
 62
6
 10
550.658
 20
-6323.183
 30
-59.398
 70
    32
  0
VERTEX
  8
W53LXLIFT
 62
6
 10
547.662
 20
-6310.816
 30
-59.376
 70
    32
  0
VERTEX
  8
W53LXLIFT
 62
6
 10
548.783
 20
-6307.675
 30
-59.368
 70
    32
  0
VERTEX
  8
W53LXLIFT
 62
6
 10
543.911
 20
-6298.606
 30
-59.355
 70
    32
  0
VERTEX
  8
W53LXLIFT
 62
6
 10
536.252
 20
-6294.998
 30
-59.356
 70
    32
  0
VERTEX
  8
W53LXLIFT
 62
6
 10
536.164
 20
-6290.812
 30
-59.347
 70
    32
  0
VERTEX
  8
W53LXLIFT
 62
6
 10
526.978
 20
-6276.008
 30
-59.327
 70
    32
  0
VERTEX
  8
W53LXLIFT
 62
6
 10
525.075
 20
-6265.354
 30
-59.306
 70
    32
  0
VERTEX
  8
W53LXLIFT
 62
6
 10
522.665
 20
-6257.335
 30
-59.292
 70
    32
  0
VERTEX
  8
W53LXLIFT
 62
6
 10
531.197
 20
-6254.596
 30
-59.277
 70
    32
  0
VERTEX
  8
W53LXLIFT
 62
6
 10
536.600
 20
-6257.002
 30
-59.276
 70
    32
  0
SEQEND
  8
W53LXLIFT
  0
POLYLINE
  8
W53LXLIFT
 62
1
 66
     1
 70
     9
  0
VERTEX
  8
W53LXLIFT
 62
1
 10
542.938
 20
-6264.284
 30
-49.287
 70
    32
  0
VERTEX
  8
W53LXLIFT
 62
1
 10
549.169
 20
-6274.137
 30
-49.300
 70
    32
  0
VERTEX
  8
W53LXLIFT
 62
1
 10
557.256
 20
-6297.444
 30
-49.340
 70
    32
  0
VERTEX
  8
W53LXLIFT
 62
1
 10
569.841
 20
-6294.264
 30
-49.319
 70
    32
  0
VERTEX
  8
W53LXLIFT
 62
1
 10
578.809
 20
-6300.853
 30
-49.322
 70
    32
  0
VERTEX
  8
W53LXLIFT
 62
1
 10
577.788
 20
-6305.894
 30
-49.334
 70
    32
  0
VERTEX
  8
W53LXLIFT
 62
1
 10
579.655
 20
-6314.091
 30
-49.349
 70
    32
  0
VERTEX
  8
W53LXLIFT
 62
1
 10
576.564
 20
-6315.608
 30
-49.356
 70
    32
  0
VERTEX
  8
W53LXLIFT
 62
1
 10
572.066
 20
-6327.117
 30
-49.385
 70
    32
  0
VERTEX
  8
W53LXLIFT
 62
1
 10
565.782
 20
-6333.313
 30
-49.405
 70
    32
  0
VERTEX
  8
W53LXLIFT
 62
1
 10
559.519
 20
-6331.599
 30
-49.409
 70
    32
  0
VERTEX
  8
W53LXLIFT
 62
1
 10
551.658
 20
-6322.183
 30
-49.398
 70
    32
  0
VERTEX
  8
W53LXLIFT
 62
1
 10
548.662
 20
-6309.816
 30
-49.376
 70
    32
  0
VERTEX
  8
W53LXLIFT
 62
1
 10
549.783
 20
-6306.675
 30
-49.368
 70
    32
  0
VERTEX
  8
W53LXLIFT
 62
1
 10
544.911
 20
-6297.606
 30
-49.355
 70
    32
  0
VERTEX
  8
W53LXLIFT
 62
1
 10
537.252
 20
-6293.998
 30
-49.356
 70
    32
  0
VERTEX
  8
W53LXLIFT
 62
1
 10
537.164
 20
-6289.812
 30
-49.347
 70
    32
  0
VERTEX
  8
W53LXLIFT
 62
1
 10
527.978
 20
-6275.008
 30
-49.327
 70
    32
  0
VERTEX
  8
W53LXLIFT
 62
1
 10
526.075
 20
-6264.354
 30
-49.306
 70
    32
  0
VERTEX
  8
W53LXLIFT
 62
1
 10
523.665
 20
-6256.335
 30
-49.292
 70
    32
  0
VERTEX
  8
W53LXLIFT
 62
1
 10
532.197
 20
-6253.596
 30
-49.277
 70
    32
  0
VERTEX
  8
W53LXLIFT
 62
1
 10
537.600
 20
-6256.002
 30
-49.276
 70
    32
  0
SEQEND
  8
W53LXLIFT
  0
POLYLINE
  8
W53LXLIFT
 62
3
 66
     1
 70
     9
  0
VERTEX
  8
W53LXLIFT
 62
3
 10
589.068
 20
-6228.365
 30
-58.917
 70
    32
  0
VERTEX
  8
W53LXLIFT
 62
3
 10
593.953
 20
-6255.226
 30
-59.023
 70
    32
  0
VERTEX
  8
W53LXLIFT
 62
3
 10
586.064
 20
-6261.932
 30
-59.109
 70
    32
  0
VERTEX
  8
W53LXLIFT
 62
3
 10
585.205
 20
-6270.449
 30
-59.158
 70
    32
  0
VERTEX
  8
W53LXLIFT
 62
3
 10
594.808
 20
-6282.553
 30
-59.158
 70
    32
  0
VERTEX
  8
W53LXLIFT
 62
3
 10
605.015
 20
-6284.265
 30
-59.101
 70
    32
  0
VERTEX
  8
W53LXLIFT
 62
3
 10
611.311
 20
-6281.401
 30
-59.046
 70
    32
  0
VERTEX
  8
W53LXLIFT
 62
3
 10
615.490
 20
-6274.199
 30
-58.982
 70
    32
  0
VERTEX
  8
W53LXLIFT
 62
3
 10
615.429
 20
-6252.694
 30
-58.872
 70
    32
  0
VERTEX
  8
W53LXLIFT
 62
3
 10
612.770
 20
-6245.927
 30
-58.855
 70
    32
  0
VERTEX
  8
W53LXLIFT
 62
3
 10
628.599
 20
-6243.523
 30
-58.855
 70
    32
  0
VERTEX
  8
W53LXLIFT
 62
3
 10
634.059
 20
-6289.766
 30
-58.975
 70
    32
  0
VERTEX
  8
W53LXLIFT
 62
3
 10
616.282
 20
-6293.234
 30
-59.075
 70
    32
  0
VERTEX
  8
W53LXLIFT
 62
3
 10
606.262
 20
-6299.077
 30
-59.169
 70
    32
  0
VERTEX
  8
W53LXLIFT
 62
3
 10
608.090
 20
-6316.832
 30
-59.248
 70
    32
  0
VERTEX
  8
W53LXLIFT
 62
3
 10
611.543
 20
-6327.906
 30
-59.283
 70
    32
  0
VERTEX
  8
W53LXLIFT
 62
3
 10
617.641
 20
-6339.802
 30
-59.305
 70
    32
  0
VERTEX
  8
W53LXLIFT
 62
3
 10
616.412
 20
-6359.952
 30
-59.400
 70
    32
  0
VERTEX
  8
W53LXLIFT
 62
3
 10
611.973
 20
-6361.168
 30
-59.407
 70
    32
  0
VERTEX
  8
W53LXLIFT
 62
3
 10
608.501
 20
-6368.298
 30
-59.426
 70
    32
  0
VERTEX
  8
W53LXLIFT
 62
3
 10
599.780
 20
-6366.394
 30
-59.433
 70
    32
  0
VERTEX
  8
W53LXLIFT
 62
3
 10
591.157
 20
-6358.247
 30
-59.425
 70
    32
  0
VERTEX
  8
W53LXLIFT
 62
3
 10
588.715
 20
-6351.446
 30
-59.414
 70
    32
  0
VERTEX
  8
W53LXLIFT
 62
3
 10
593.343
 20
-6335.033
 30
-59.374
 70
    32
  0
VERTEX
  8
W53LXLIFT
 62
3
 10
585.682
 20
-6307.575
 30
-59.325
 70
    32
  0
VERTEX
  8
W53LXLIFT
 62
3
 10
574.181
 20
-6285.670
 30
-59.292
 70
    32
  0
VERTEX
  8
W53LXLIFT
 62
3
 10
564.341
 20
-6286.296
 30
-59.305
 70
    32
  0
VERTEX
  8
W53LXLIFT
 62
3
 10
555.370
 20
-6277.964
 30
-59.298
 70
    32
  0
VERTEX
  8
W53LXLIFT
 62
3
 10
559.557
 20
-6261.660
 30
-59.259
 70
    32
  0
VERTEX
  8
W53LXLIFT
 62
3
 10
559.941
 20
-6256.731
 30
-59.248
 70
    32
  0
VERTEX
  8
W53LXLIFT
 62
3
 10
554.419
 20
-6232.730
 30
-59.162
 70
    32
  0
VERTEX
  8
W53LXLIFT
 62
3
 10
556.378
 20
-6231.225
 30
-59.142
 70
    32
  0
VERTEX
  8
W53LXLIFT
 62
3
 10
550.928
 20
-6218.110
 30
-59.110
 70
    32
  0
VERTEX
  8
W53LXLIFT
 62
3
 10
549.530
 20
-6200.806
 30
-59.030
 70
    32
  0
VERTEX
  8
W53LXLIFT
 62
3
 10
551.883
 20
-6194.689
 30
-58.984
 70
    32
  0
VERTEX
  8
W53LXLIFT
 62
3
 10
566.707
 20
-6171.128
 30
-58.767
 70
    32
  0
VERTEX
  8
W53LXLIFT
 62
3
 10
572.808
 20
-6169.053
 30
-58.718
 70
    32
  0
VERTEX
  8
W53LXLIFT
 62
3
 10
593.735
 20
-6151.320
 30
-58.579
 70
    32
  0
VERTEX
  8
W53LXLIFT
 62
3
 10
600.598
 20
-6156.390
 30
-58.602
 70
    32
  0
VERTEX
  8
W53LXLIFT
 62
3
 10
602.510
 20
-6160.441
 30
-58.615
 70
    32
  0
VERTEX
  8
W53LXLIFT
 62
3
 10
595.227
 20
-6166.933
 30
-58.619
 70
    32
  0
VERTEX
  8
W53LXLIFT
 62
3
 10
592.119
 20
-6179.435
 30
-58.647
 70
    32
  0
VERTEX
  8
W53LXLIFT
 62
3
 10
592.899
 20
-6188.732
 30
-58.689
 70
    32
  0
VERTEX
  8
W53LXLIFT
 62
3
 10
602.527
 20
-6196.921
 30
-58.702
 70
    32
  0
VERTEX
  8
W53LXLIFT
 62
3
 10
600.722
 20
-6208.061
 30
-58.738
 70
    32
  0
VERTEX
  8
W53LXLIFT
 62
3
 10
597.322
 20
-6211.316
 30
-58.777
 70
    32
  0
VERTEX
  8
W53LXLIFT
 62
3
 10
585.769
 20
-6216.555
 30
-58.878
 70
    32
  0
VERTEX
  8
W53LXLIFT
 62
3
 10
583.238
 20
-6205.257
 30
-58.836
 70
    32
  0
VERTEX
  8
W53LXLIFT
 62
3
 10
580.404
 20
-6199.913
 30
-58.827
 70
    32
  0
VERTEX
  8
W53LXLIFT
 62
3
 10
577.145
 20
-6198.988
 30
-58.843
 70
    32
  0
VERTEX
  8
W53LXLIFT
 62
3
 10
572.857
 20
-6202.694
 30
-58.890
 70
    32
  0
VERTEX
  8
W53LXLIFT
 62
3
 10
571.341
 20
-6212.113
 30
-58.948
 70
    32
  0
VERTEX
  8
W53LXLIFT
 62
3
 10
576.940
 20
-6220.574
 30
-58.955
 70
    32
  0
VERTEX
  8
W53LXLIFT
 62
3
 10
581.571
 20
-6224.412
 30
-58.945
 70
    32
  0
SEQEND
  8
W53LXLIFT
  0
POINT
  8
W53LXLIFT
 62
1
 10
495.475
 20
-6001.855
 30
-45.547
  0
POINT
  8
W53LXLIFT
 62
1
 10
432.512
 20
-6047.239
 30
92.894
  0
LINE
  8
W53LXLIFT
 62
13
 10
432.512
 20
-6047.239
 30
92.894
 11
495.475
 21
-6001.855
 31
-45.547
  0
POLYLINE
  8
W53LXLIFT
 62
1
 66
     1
 70
     9
  0
VERTEX
  8
W53LXLIFT
 62
1
 10
505.128
 20
-6240.102
 30
9.000
 70
    32
  0
VERTEX
  8
W53LXLIFT
 62
1
 10
513.241
 20
-6219.693
 30
9.000
 70
    32
  0
VERTEX
  8
W53LXLIFT
 62
1
 10
517.191
 20
-6203.914
 30
9.000
 70
    32
  0
VERTEX
  8
W53LXLIFT
 62
1
 10
517.693
 20
-6182.144
 30
9.000
 70
    32
  0
VERTEX
  8
W53LXLIFT
 62
1
 10
515.243
 20
-6174.673
 30
9.000
 70
    32
  0
VERTEX
  8
W53LXLIFT
 62
1
 10
512.180
 20
-6155.798
 30
9.000
 70
    32
  0
VERTEX
  8
W53LXLIFT
 62
1
 10
503.493
 20
-6127.610
 30
9.000
 70
    32
  0
VERTEX
  8
W53LXLIFT
 62
1
 10
513.047
 20
-6123.224
 30
9.000
 70
    32
  0
VERTEX
  8
W53LXLIFT
 62
1
 10
522.713
 20
-6152.771
 30
9.000
 70
    32
  0
VERTEX
  8
W53LXLIFT
 62
1
 10
533.595
 20
-6166.663
 30
9.000
 70
    32
  0
VERTEX
  8
W53LXLIFT
 62
1
 10
541.947
 20
-6168.902
 30
9.000
 70
    32
  0
VERTEX
  8
W53LXLIFT
 62
1
 10
542.636
 20
-6174.382
 30
9.000
 70
    32
  0
VERTEX
  8
W53LXLIFT
 62
1
 10
550.686
 20
-6185.099
 30
9.000
 70
    32
  0
VERTEX
  8
W53LXLIFT
 62
1
 10
556.067
 20
-6211.866
 30
9.000
 70
    32
  0
VERTEX
  8
W53LXLIFT
 62
1
 10
567.974
 20
-6240.450
 30
9.000
 70
    32
  0
VERTEX
  8
W53LXLIFT
 62
1
 10
564.029
 20
-6255.030
 30
9.000
 70
    32
  0
VERTEX
  8
W53LXLIFT
 62
1
 10
564.735
 20
-6264.302
 30
9.000
 70
    32
  0
VERTEX
  8
W53LXLIFT
 62
1
 10
568.030
 20
-6284.857
 30
9.000
 70
    32
  0
VERTEX
  8
W53LXLIFT
 62
1
 10
568.849
 20
-6299.263
 30
9.000
 70
    32
  0
VERTEX
  8
W53LXLIFT
 62
1
 10
571.212
 20
-6315.057
 30
9.000
 70
    32
  0
VERTEX
  8
W53LXLIFT
 62
1
 10
582.076
 20
-6334.504
 30
9.000
 70
    32
  0
VERTEX
  8
W53LXLIFT
 62
1
 10
588.848
 20
-6348.423
 30
9.000
 70
    32
  0
VERTEX
  8
W53LXLIFT
 62
1
 10
592.495
 20
-6362.530
 30
9.000
 70
    32
  0
VERTEX
  8
W53LXLIFT
 62
1
 10
585.484
 20
-6369.540
 30
9.000
 70
    32
  0
VERTEX
  8
W53LXLIFT
 62
1
 10
586.965
 20
-6385.316
 30
9.000
 70
    32
  0
VERTEX
  8
W53LXLIFT
 62
1
 10
577.307
 20
-6386.843
 30
9.000
 70
    32
  0
VERTEX
  8
W53LXLIFT
 62
1
 10
572.918
 20
-6359.795
 30
9.000
 70
    32
  0
VERTEX
  8
W53LXLIFT
 62
1
 10
565.261
 20
-6354.447
 30
9.000
 70
    32
  0
VERTEX
  8
W53LXLIFT
 62
1
 10
562.240
 20
-6345.431
 30
9.000
 70
    32
  0
VERTEX
  8
W53LXLIFT
 62
1
 10
532.260
 20
-6327.807
 30
9.000
 70
    32
  0
VERTEX
  8
W53LXLIFT
 62
1
 10
527.200
 20
-6304.503
 30
9.000
 70
    32
  0
VERTEX
  8
W53LXLIFT
 62
1
 10
548.418
 20
-6297.905
 30
9.000
 70
    32
  0
VERTEX
  8
W53LXLIFT
 62
1
 10
541.505
 20
-6277.458
 30
9.000
 70
    32
  0
VERTEX
  8
W53LXLIFT
 62
1
 10
532.716
 20
-6275.968
 30
9.000
 70
    32
  0
VERTEX
  8
W53LXLIFT
 62
1
 10
529.644
 20
-6266.880
 30
9.000
 70
    32
  0
VERTEX
  8
W53LXLIFT
 62
1
 10
525.137
 20
-6262.738
 30
9.000
 70
    32
  0
VERTEX
  8
W53LXLIFT
 62
1
 10
514.647
 20
-6258.888
 30
9.000
 70
    32
  0
VERTEX
  8
W53LXLIFT
 62
1
 10
511.846
 20
-6248.518
 30
9.000
 70
    32
  0
SEQEND
  8
W53LXLIFT
  0
POLYLINE
  8
W53LXLIFT
 62
1
 66
     1
 70
     9
  0
VERTEX
  8
W53LXLIFT
 62
1
 10
1129.226
 20
-7579.520
 30
81.000
 70
    32
  0
VERTEX
  8
W53LXLIFT
 62
1
 10
1121.674
 20
-7582.608
 30
81.000
 70
    32
  0
VERTEX
  8
W53LXLIFT
 62
1
 10
1104.111
 20
-7585.031
 30
81.000
 70
    32
  0
VERTEX
  8
W53LXLIFT
 62
1
 10
1095.203
 20
-7574.796
 30
81.000
 70
    32
  0
VERTEX
  8
W53LXLIFT
 62
1
 10
1090.887
 20
-7559.841
 30
81.000
 70
    32
  0
VERTEX
  8
W53LXLIFT
 62
1
 10
1084.487
 20
-7547.089
 30
81.000
 70
    32
  0
VERTEX
  8
W53LXLIFT
 62
1
 10
1079.234
 20
-7540.158
 30
81.000
 70
    32
  0
VERTEX
  8
W53LXLIFT
 62
1
 10
1078.054
 20
-7533.704
 30
81.000
 70
    32
  0
VERTEX
  8
W53LXLIFT
 62
1
 10
1070.152
 20
-7519.222
 30
81.000
 70
    32
  0
VERTEX
  8
W53LXLIFT
 62
1
 10
1070.196
 20
-7503.657
 30
81.000
 70
    32
  0
VERTEX
  8
W53LXLIFT
 62
1
 10
1075.238
 20
-7496.743
 30
81.000
 70
    32
  0
VERTEX
  8
W53LXLIFT
 62
1
 10
1087.121
 20
-7488.581
 30
81.000
 70
    32
  0
VERTEX
  8
W53LXLIFT
 62
1
 10
1096.481
 20
-7486.011
 30
81.000
 70
    32
  0
VERTEX
  8
W53LXLIFT
 62
1
 10
1100.585
 20
-7497.733
 30
81.000
 70
    32
  0
VERTEX
  8
W53LXLIFT
 62
1
 10
1107.597
 20
-7511.015
 30
81.000
 70
    32
  0
VERTEX
  8
W53LXLIFT
 62
1
 10
1110.959
 20
-7523.506
 30
81.000
 70
    32
  0
VERTEX
  8
W53LXLIFT
 62
1
 10
1115.566
 20
-7533.104
 30
81.000
 70
    32
  0
VERTEX
  8
W53LXLIFT
 62
1
 10
1120.375
 20
-7565.086
 30
81.000
 70
    32
  0
SEQEND
  8
W53LXLIFT
  0
POLYLINE
  8
W53LXLIFT
 62
13
 66
     1
 70
     9
  0
VERTEX
  8
W53LXLIFT
 62
13
 10
1134.337
 20
-7956.372
 30
70.000
 70
    32
  0
VERTEX
  8
W53LXLIFT
 62
13
 10
1138.207
 20
-7953.594
 30
70.000
 70
    32
  0
VERTEX
  8
W53LXLIFT
 62
13
 10
1143.570
 20
-7949.746
 30
70.000
 70
    32
  0
VERTEX
  8
W53LXLIFT
 62
13
 10
1137.846
 20
-7941.770
 30
70.000
 70
    32
  0
VERTEX
  8
W53LXLIFT
 62
13
 10
1114.417
 20
-7909.124
 30
70.000
 70
    32
  0
VERTEX
  8
W53LXLIFT
 62
13
 10
1109.054
 20
-7912.973
 30
70.000
 70
    32
  0
VERTEX
  8
W53LXLIFT
 62
13
 10
1105.184
 20
-7915.751
 30
70.000
 70
    32
  0
VERTEX
  8
W53LXLIFT
 62
13
 10
1102.866
 20
-7917.414
 30
70.000
 70
    32
  0
VERTEX
  8
W53LXLIFT
 62
13
 10
1093.499
 20
-7924.136
 30
70.000
 70
    32
  0
VERTEX
  8
W53LXLIFT
 62
13
 10
1119.922
 20
-7960.954
 30
70.000
 70
    32
  0
VERTEX
  8
W53LXLIFT
 62
13
 10
1122.652
 20
-7964.758
 30
70.000
 70
    32
  0
VERTEX
  8
W53LXLIFT
 62
13
 10
1132.019
 20
-7958.035
 30
70.000
 70
    32
  0
SEQEND
  8
W53LXLIFT
  0
POLYLINE
  8
W53LXLIFT
 62
13
 66
     1
 70
     9
  0
VERTEX
  8
W53LXLIFT
 62
13
 10
1114.660
 20
-7908.949
 30
60.000
 70
    32
  0
VERTEX
  8
W53LXLIFT
 62
13
 10
1129.698
 20
-7929.903
 30
60.000
 70
    32
  0
VERTEX
  8
W53LXLIFT
 62
13
 10
1143.814
 20
-7949.571
 30
60.000
 70
    32
  0
VERTEX
  8
W53LXLIFT
 62
13
 10
1134.744
 20
-7956.080
 30
60.000
 70
    32
  0
VERTEX
  8
W53LXLIFT
 62
13
 10
1133.123
 20
-7957.243
 30
60.000
 70
    32
  0
VERTEX
  8
W53LXLIFT
 62
13
 10
1131.880
 20
-7958.135
 30
60.000
 70
    32
  0
VERTEX
  8
W53LXLIFT
 62
13
 10
1127.634
 20
-7961.183
 30
60.000
 70
    32
  0
VERTEX
  8
W53LXLIFT
 62
13
 10
1105.522
 20
-7930.373
 30
60.000
 70
    32
  0
VERTEX
  8
W53LXLIFT
 62
13
 10
1098.480
 20
-7920.561
 30
60.000
 70
    32
  0
VERTEX
  8
W53LXLIFT
 62
13
 10
1102.727
 20
-7917.514
 30
60.000
 70
    32
  0
VERTEX
  8
W53LXLIFT
 62
13
 10
1103.970
 20
-7916.622
 30
60.000
 70
    32
  0
VERTEX
  8
W53LXLIFT
 62
13
 10
1105.591
 20
-7915.459
 30
60.000
 70
    32
  0
SEQEND
  8
W53LXLIFT
  0
POLYLINE
  8
W53LXLIFT
 62
13
 66
     1
 70
     9
  0
VERTEX
  8
W53LXLIFT
 62
13
 10
1114.904
 20
-7908.775
 30
50.000
 70
    32
  0
VERTEX
  8
W53LXLIFT
 62
13
 10
1121.550
 20
-7918.036
 30
50.000
 70
    32
  0
VERTEX
  8
W53LXLIFT
 62
13
 10
1144.057
 20
-7949.396
 30
50.000
 70
    32
  0
VERTEX
  8
W53LXLIFT
 62
13
 10
1140.048
 20
-7952.273
 30
50.000
 70
    32
  0
VERTEX
  8
W53LXLIFT
 62
13
 10
1133.386
 20
-7957.055
 30
50.000
 70
    32
  0
VERTEX
  8
W53LXLIFT
 62
13
 10
1128.279
 20
-7960.720
 30
50.000
 70
    32
  0
VERTEX
  8
W53LXLIFT
 62
13
 10
1127.745
 20
-7961.103
 30
50.000
 70
    32
  0
VERTEX
  8
W53LXLIFT
 62
13
 10
1124.967
 20
-7957.232
 30
50.000
 70
    32
  0
VERTEX
  8
W53LXLIFT
 62
13
 10
1098.592
 20
-7920.481
 30
50.000
 70
    32
  0
VERTEX
  8
W53LXLIFT
 62
13
 10
1099.126
 20
-7920.098
 30
50.000
 70
    32
  0
VERTEX
  8
W53LXLIFT
 62
13
 10
1104.233
 20
-7916.433
 30
50.000
 70
    32
  0
VERTEX
  8
W53LXLIFT
 62
13
 10
1110.895
 20
-7911.652
 30
50.000
 70
    32
  0
SEQEND
  8
W53LXLIFT
  0
POLYLINE
  8
W53LXLIFT
 62
13
 66
     1
 70
     9
  0
VERTEX
  8
W53LXLIFT
 62
13
 10
1139.508
 20
-7952.661
 30
40.000
 70
    32
  0
VERTEX
  8
W53LXLIFT
 62
13
 10
1143.167
 20
-7950.035
 30
40.000
 70
    32
  0
VERTEX
  8
W53LXLIFT
 62
13
 10
1144.318
 20
-7949.209
 30
40.000
 70
    32
  0
VERTEX
  8
W53LXLIFT
 62
13
 10
1147.723
 20
-7946.765
 30
40.000
 70
    32
  0
VERTEX
  8
W53LXLIFT
 62
13
 10
1148.874
 20
-7945.939
 30
40.000
 70
    32
  0
VERTEX
  8
W53LXLIFT
 62
13
 10
1126.999
 20
-7915.458
 30
40.000
 70
    32
  0
VERTEX
  8
W53LXLIFT
 62
13
 10
1119.721
 20
-7905.317
 30
40.000
 70
    32
  0
VERTEX
  8
W53LXLIFT
 62
13
 10
1118.570
 20
-7906.144
 30
40.000
 70
    32
  0
VERTEX
  8
W53LXLIFT
 62
13
 10
1115.165
 20
-7908.588
 30
40.000
 70
    32
  0
VERTEX
  8
W53LXLIFT
 62
13
 10
1114.014
 20
-7909.414
 30
40.000
 70
    32
  0
VERTEX
  8
W53LXLIFT
 62
13
 10
1110.355
 20
-7912.039
 30
40.000
 70
    32
  0
VERTEX
  8
W53LXLIFT
 62
13
 10
1117.142
 20
-7921.496
 30
40.000
 70
    32
  0
SEQEND
  8
W53LXLIFT
  0
POLYLINE
  8
W53LXLIFT
 62
13
 66
     1
 70
     9
  0
VERTEX
  8
W53LXLIFT
 62
13
 10
1152.182
 20
-7943.565
 30
30.000
 70
    32
  0
VERTEX
  8
W53LXLIFT
 62
13
 10
1154.280
 20
-7942.059
 30
30.000
 70
    32
  0
VERTEX
  8
W53LXLIFT
 62
13
 10
1137.666
 20
-7918.909
 30
30.000
 70
    32
  0
VERTEX
  8
W53LXLIFT
 62
13
 10
1125.127
 20
-7901.438
 30
30.000
 70
    32
  0
VERTEX
  8
W53LXLIFT
 62
13
 10
1123.029
 20
-7902.944
 30
30.000
 70
    32
  0
VERTEX
  8
W53LXLIFT
 62
13
 10
1120.178
 20
-7904.990
 30
30.000
 70
    32
  0
VERTEX
  8
W53LXLIFT
 62
13
 10
1118.313
 20
-7906.328
 30
30.000
 70
    32
  0
VERTEX
  8
W53LXLIFT
 62
13
 10
1115.578
 20
-7908.291
 30
30.000
 70
    32
  0
VERTEX
  8
W53LXLIFT
 62
13
 10
1127.384
 20
-7924.742
 30
30.000
 70
    32
  0
VERTEX
  8
W53LXLIFT
 62
13
 10
1144.731
 20
-7948.913
 30
30.000
 70
    32
  0
VERTEX
  8
W53LXLIFT
 62
13
 10
1147.466
 20
-7946.949
 30
30.000
 70
    32
  0
VERTEX
  8
W53LXLIFT
 62
13
 10
1149.331
 20
-7945.611
 30
30.000
 70
    32
  0
SEQEND
  8
W53LXLIFT
  0
POLYLINE
  8
W53LXLIFT
 62
13
 66
     1
 70
     9
  0
VERTEX
  8
W53LXLIFT
 62
13
 10
1131.212
 20
-7897.071
 30
20.000
 70
    32
  0
VERTEX
  8
W53LXLIFT
 62
13
 10
1139.675
 20
-7908.863
 30
20.000
 70
    32
  0
VERTEX
  8
W53LXLIFT
 62
13
 10
1160.365
 20
-7937.692
 30
20.000
 70
    32
  0
VERTEX
  8
W53LXLIFT
 62
13
 10
1158.641
 20
-7938.930
 30
20.000
 70
    32
  0
VERTEX
  8
W53LXLIFT
 62
13
 10
1152.935
 20
-7943.025
 30
20.000
 70
    32
  0
VERTEX
  8
W53LXLIFT
 62
13
 10
1151.377
 20
-7944.143
 30
20.000
 70
    32
  0
VERTEX
  8
W53LXLIFT
 62
13
 10
1149.566
 20
-7945.443
 30
20.000
 70
    32
  0
VERTEX
  8
W53LXLIFT
 62
13
 10
1140.313
 20
-7932.550
 30
20.000
 70
    32
  0
VERTEX
  8
W53LXLIFT
 62
13
 10
1120.413
 20
-7904.821
 30
20.000
 70
    32
  0
VERTEX
  8
W53LXLIFT
 62
13
 10
1122.224
 20
-7903.522
 30
20.000
 70
    32
  0
VERTEX
  8
W53LXLIFT
 62
13
 10
1123.782
 20
-7902.403
 30
20.000
 70
    32
  0
VERTEX
  8
W53LXLIFT
 62
13
 10
1129.488
 20
-7898.308
 30
20.000
 70
    32
  0
SEQEND
  8
W53LXLIFT
  0
POLYLINE
  8
W53LXLIFT
 62
13
 66
     1
 70
     9
  0
VERTEX
  8
W53LXLIFT
 62
13
 10
1153.554
 20
-7942.581
 30
10.000
 70
    32
  0
VERTEX
  8
W53LXLIFT
 62
13
 10
1167.595
 20
-7932.504
 30
10.000
 70
    32
  0
VERTEX
  8
W53LXLIFT
 62
13
 10
1169.222
 20
-7931.336
 30
10.000
 70
    32
  0
VERTEX
  8
W53LXLIFT
 62
13
 10
1163.701
 20
-7923.644
 30
10.000
 70
    32
  0
VERTEX
  8
W53LXLIFT
 62
13
 10
1140.069
 20
-7890.715
 30
10.000
 70
    32
  0
VERTEX
  8
W53LXLIFT
 62
13
 10
1138.442
 20
-7891.882
 30
10.000
 70
    32
  0
VERTEX
  8
W53LXLIFT
 62
13
 10
1124.401
 20
-7901.959
 30
10.000
 70
    32
  0
VERTEX
  8
W53LXLIFT
 62
13
 10
1123.043
 20
-7902.933
 30
10.000
 70
    32
  0
VERTEX
  8
W53LXLIFT
 62
13
 10
1127.997
 20
-7909.836
 30
10.000
 70
    32
  0
VERTEX
  8
W53LXLIFT
 62
13
 10
1152.196
 20
-7943.555
 30
10.000
 70
    32
  0
SEQEND
  8
W53LXLIFT
  0
POLYLINE
  8
W53LXLIFT
 62
1
 66
     1
 70
     9
  0
VERTEX
  8
W53LXLIFT
 62
1
 10
185.463
 20
-5442.519
 30
-45.000
 70
    32
  0
VERTEX
  8
W53LXLIFT
 62
1
 10
190.407
 20
-5451.040
 30
-45.000
 70
    32
  0
VERTEX
  8
W53LXLIFT
 62
1
 10
200.236
 20
-5458.708
 30
-45.000
 70
    32
  0
VERTEX
  8
W53LXLIFT
 62
1
 10
203.853
 20
-5465.573
 30
-45.000
 70
    32
  0
VERTEX
  8
W53LXLIFT
 62
1
 10
213.861
 20
-5469.553
 30
-45.000
 70
    32
  0
VERTEX
  8
W53LXLIFT
 62
1
 10
228.913
 20
-5496.887
 30
-45.000
 70
    32
  0
VERTEX
  8
W53LXLIFT
 62
1
 10
233.416
 20
-5498.499
 30
-45.000
 70
    32
  0
VERTEX
  8
W53LXLIFT
 62
1
 10
235.713
 20
-5496.230
 30
-45.000
 70
    32
  0
VERTEX
  8
W53LXLIFT
 62
1
 10
234.158
 20
-5493.247
 30
-45.000
 70
    32
  0
VERTEX
  8
W53LXLIFT
 62
1
 10
235.068
 20
-5489.080
 30
-45.000
 70
    32
  0
VERTEX
  8
W53LXLIFT
 62
1
 10
237.682
 20
-5488.247
 30
-45.000
 70
    32
  0
VERTEX
  8
W53LXLIFT
 62
1
 10
244.108
 20
-5494.230
 30
-45.000
 70
    32
  0
VERTEX
  8
W53LXLIFT
 62
1
 10
245.108
 20
-5490.607
 30
-45.000
 70
    32
  0
VERTEX
  8
W53LXLIFT
 62
1
 10
243.429
 20
-5485.842
 30
-45.000
 70
    32
  0
VERTEX
  8
W53LXLIFT
 62
1
 10
237.622
 20
-5479.050
 30
-45.000
 70
    32
  0
VERTEX
  8
W53LXLIFT
 62
1
 10
239.849
 20
-5471.011
 30
-45.000
 70
    32
  0
VERTEX
  8
W53LXLIFT
 62
1
 10
233.202
 20
-5462.534
 30
-45.000
 70
    32
  0
VERTEX
  8
W53LXLIFT
 62
1
 10
229.314
 20
-5461.604
 30
-45.000
 70
    32
  0
VERTEX
  8
W53LXLIFT
 62
1
 10
226.442
 20
-5461.833
 30
-45.000
 70
    32
  0
VERTEX
  8
W53LXLIFT
 62
1
 10
219.096
 20
-5454.958
 30
-45.000
 70
    32
  0
VERTEX
  8
W53LXLIFT
 62
1
 10
216.946
 20
-5454.633
 30
-45.000
 70
    32
  0
VERTEX
  8
W53LXLIFT
 62
1
 10
207.968
 20
-5447.244
 30
-45.000
 70
    32
  0
VERTEX
  8
W53LXLIFT
 62
1
 10
203.676
 20
-5447.786
 30
-45.000
 70
    32
  0
VERTEX
  8
W53LXLIFT
 62
1
 10
191.278
 20
-5434.044
 30
-45.000
 70
    32
  0
SEQEND
  8
W53LXLIFT
  0
POLYLINE
  8
W53LXLIFT
 62
2
 66
     1
 70
     9
  0
VERTEX
  8
W53LXLIFT
 62
2
 10
196.125
 20
-5433.442
 30
-51.000
 70
    32
  0
VERTEX
  8
W53LXLIFT
 62
2
 10
186.767
 20
-5436.661
 30
-51.000
 70
    32
  0
VERTEX
  8
W53LXLIFT
 62
2
 10
187.115
 20
-5446.388
 30
-51.000
 70
    32
  0
VERTEX
  8
W53LXLIFT
 62
2
 10
193.332
 20
-5455.391
 30
-51.000
 70
    32
  0
VERTEX
  8
W53LXLIFT
 62
2
 10
206.588
 20
-5468.110
 30
-51.000
 70
    32
  0
VERTEX
  8
W53LXLIFT
 62
2
 10
214.060
 20
-5472.342
 30
-51.000
 70
    32
  0
VERTEX
  8
W53LXLIFT
 62
2
 10
229.502
 20
-5494.817
 30
-51.000
 70
    32
  0
VERTEX
  8
W53LXLIFT
 62
2
 10
229.200
 20
-5496.479
 30
-51.000
 70
    32
  0
VERTEX
  8
W53LXLIFT
 62
2
 10
233.193
 20
-5505.679
 30
-51.000
 70
    32
  0
VERTEX
  8
W53LXLIFT
 62
2
 10
237.013
 20
-5509.058
 30
-51.000
 70
    32
  0
VERTEX
  8
W53LXLIFT
 62
2
 10
239.648
 20
-5514.474
 30
-51.000
 70
    32
  0
VERTEX
  8
W53LXLIFT
 62
2
 10
246.686
 20
-5520.634
 30
-51.000
 70
    32
  0
VERTEX
  8
W53LXLIFT
 62
2
 10
251.475
 20
-5515.510
 30
-51.000
 70
    32
  0
VERTEX
  8
W53LXLIFT
 62
2
 10
249.410
 20
-5513.074
 30
-51.000
 70
    32
  0
VERTEX
  8
W53LXLIFT
 62
2
 10
253.112
 20
-5508.088
 30
-51.000
 70
    32
  0
VERTEX
  8
W53LXLIFT
 62
2
 10
249.143
 20
-5494.005
 30
-51.000
 70
    32
  0
VERTEX
  8
W53LXLIFT
 62
2
 10
247.141
 20
-5484.345
 30
-51.000
 70
    32
  0
VERTEX
  8
W53LXLIFT
 62
2
 10
244.377
 20
-5481.243
 30
-51.000
 70
    32
  0
VERTEX
  8
W53LXLIFT
 62
2
 10
244.667
 20
-5475.103
 30
-51.000
 70
    32
  0
VERTEX
  8
W53LXLIFT
 62
2
 10
242.024
 20
-5469.112
 30
-51.000
 70
    32
  0
VERTEX
  8
W53LXLIFT
 62
2
 10
236.900
 20
-5462.359
 30
-51.000
 70
    32
  0
VERTEX
  8
W53LXLIFT
 62
2
 10
231.268
 20
-5459.502
 30
-51.000
 70
    32
  0
VERTEX
  8
W53LXLIFT
 62
2
 10
220.626
 20
-5451.314
 30
-51.000
 70
    32
  0
VERTEX
  8
W53LXLIFT
 62
2
 10
215.597
 20
-5449.939
 30
-51.000
 70
    32
  0
VERTEX
  8
W53LXLIFT
 62
2
 10
211.789
 20
-5446.790
 30
-51.000
 70
    32
  0
VERTEX
  8
W53LXLIFT
 62
2
 10
208.056
 20
-5447.272
 30
-51.000
 70
    32
  0
VERTEX
  8
W53LXLIFT
 62
2
 10
202.713
 20
-5440.568
 30
-51.000
 70
    32
  0
SEQEND
  8
W53LXLIFT
  0
ENDSEC
  0
EOF
