999
********************************
999
*   DXF File - Entities Only   *
999
*        3D Data Format        *
999
*     Output from ENVISAGE     *
999
*     31-Dec-2007 15:51:48     *
999
********************************
  0
SECTION 
  2
HEADER
  9
$ACADVER
  1
AC1009
  9
$EXTMIN
 10
-290000.000
 20
-250000.000
 30
-4000.000
  9
$EXTMAX
 10
320000.000
 20
160000.000
 30
6000.000
  0
ENDSEC
  0
SECTION
  2
ENTITIES
  0
POLYLINE
  8
W54LXLIFT
 62
7
 66
     1
 70
     9
  0
VERTEX
  8
W54LXLIFT
 62
7
 10
1090.439
 20
-7594.479
 30
-196.000
 70
    32
  0
VERTEX
  8
W54LXLIFT
 62
7
 10
1091.218
 20
-7610.475
 30
-196.000
 70
    32
  0
VERTEX
  8
W54LXLIFT
 62
7
 10
1093.696
 20
-7638.778
 30
-196.000
 70
    32
  0
VERTEX
  8
W54LXLIFT
 62
7
 10
1093.597
 20
-7643.611
 30
-196.000
 70
    32
  0
VERTEX
  8
W54LXLIFT
 62
7
 10
1091.453
 20
-7651.320
 30
-196.000
 70
    32
  0
VERTEX
  8
W54LXLIFT
 62
7
 10
1099.295
 20
-7664.947
 30
-196.000
 70
    32
  0
VERTEX
  8
W54LXLIFT
 62
7
 10
1112.530
 20
-7689.093
 30
-196.000
 70
    32
  0
VERTEX
  8
W54LXLIFT
 62
7
 10
1115.650
 20
-7709.252
 30
-196.000
 70
    32
  0
VERTEX
  8
W54LXLIFT
 62
7
 10
1112.815
 20
-7714.644
 30
-196.000
 70
    32
  0
VERTEX
  8
W54LXLIFT
 62
7
 10
1105.840
 20
-7719.546
 30
-196.000
 70
    32
  0
VERTEX
  8
W54LXLIFT
 62
7
 10
1097.300
 20
-7715.943
 30
-196.000
 70
    32
  0
VERTEX
  8
W54LXLIFT
 62
7
 10
1095.526
 20
-7698.713
 30
-196.000
 70
    32
  0
VERTEX
  8
W54LXLIFT
 62
7
 10
1088.053
 20
-7685.901
 30
-196.000
 70
    32
  0
VERTEX
  8
W54LXLIFT
 62
7
 10
1077.708
 20
-7683.703
 30
-196.000
 70
    32
  0
VERTEX
  8
W54LXLIFT
 62
7
 10
1075.437
 20
-7656.441
 30
-196.000
 70
    32
  0
VERTEX
  8
W54LXLIFT
 62
7
 10
1075.978
 20
-7641.228
 30
-196.000
 70
    32
  0
VERTEX
  8
W54LXLIFT
 62
7
 10
1074.046
 20
-7633.417
 30
-196.000
 70
    32
  0
VERTEX
  8
W54LXLIFT
 62
7
 10
1079.375
 20
-7617.036
 30
-196.000
 70
    32
  0
VERTEX
  8
W54LXLIFT
 62
7
 10
1080.791
 20
-7596.865
 30
-196.000
 70
    32
  0
SEQEND
  8
W54LXLIFT
  0
POLYLINE
  8
W54LXLIFT
 62
1
 66
     1
 70
     9
  0
VERTEX
  8
W54LXLIFT
 62
1
 10
1081.791
 20
-7595.865
 30
-186.000
 70
    32
  0
VERTEX
  8
W54LXLIFT
 62
1
 10
1080.375
 20
-7616.036
 30
-186.000
 70
    32
  0
VERTEX
  8
W54LXLIFT
 62
1
 10
1075.046
 20
-7632.417
 30
-186.000
 70
    32
  0
VERTEX
  8
W54LXLIFT
 62
1
 10
1076.978
 20
-7640.228
 30
-186.000
 70
    32
  0
VERTEX
  8
W54LXLIFT
 62
1
 10
1076.437
 20
-7655.441
 30
-186.000
 70
    32
  0
VERTEX
  8
W54LXLIFT
 62
1
 10
1078.708
 20
-7682.703
 30
-186.000
 70
    32
  0
VERTEX
  8
W54LXLIFT
 62
1
 10
1089.053
 20
-7684.901
 30
-186.000
 70
    32
  0
VERTEX
  8
W54LXLIFT
 62
1
 10
1096.526
 20
-7697.713
 30
-186.000
 70
    32
  0
VERTEX
  8
W54LXLIFT
 62
1
 10
1098.300
 20
-7714.943
 30
-186.000
 70
    32
  0
VERTEX
  8
W54LXLIFT
 62
1
 10
1106.840
 20
-7718.546
 30
-186.000
 70
    32
  0
VERTEX
  8
W54LXLIFT
 62
1
 10
1113.815
 20
-7713.644
 30
-186.000
 70
    32
  0
VERTEX
  8
W54LXLIFT
 62
1
 10
1116.650
 20
-7708.252
 30
-186.000
 70
    32
  0
VERTEX
  8
W54LXLIFT
 62
1
 10
1113.530
 20
-7688.093
 30
-186.000
 70
    32
  0
VERTEX
  8
W54LXLIFT
 62
1
 10
1100.295
 20
-7663.947
 30
-186.000
 70
    32
  0
VERTEX
  8
W54LXLIFT
 62
1
 10
1092.453
 20
-7650.320
 30
-186.000
 70
    32
  0
VERTEX
  8
W54LXLIFT
 62
1
 10
1094.597
 20
-7642.611
 30
-186.000
 70
    32
  0
VERTEX
  8
W54LXLIFT
 62
1
 10
1094.696
 20
-7637.778
 30
-186.000
 70
    32
  0
VERTEX
  8
W54LXLIFT
 62
1
 10
1092.218
 20
-7609.475
 30
-186.000
 70
    32
  0
VERTEX
  8
W54LXLIFT
 62
1
 10
1091.439
 20
-7593.479
 30
-186.000
 70
    32
  0
SEQEND
  8
W54LXLIFT
  0
POLYLINE
  8
W54LXLIFT
 62
11
 66
     1
 70
     9
  0
VERTEX
  8
W54LXLIFT
 62
11
 10
1268.261
 20
-7928.905
 30
-193.000
 70
    32
  0
VERTEX
  8
W54LXLIFT
 62
11
 10
1261.593
 20
-7900.042
 30
-193.000
 70
    32
  0
VERTEX
  8
W54LXLIFT
 62
11
 10
1258.861
 20
-7887.504
 30
-193.000
 70
    32
  0
VERTEX
  8
W54LXLIFT
 62
11
 10
1258.556
 20
-7873.222
 30
-193.000
 70
    32
  0
VERTEX
  8
W54LXLIFT
 62
11
 10
1249.250
 20
-7854.694
 30
-193.000
 70
    32
  0
VERTEX
  8
W54LXLIFT
 62
11
 10
1245.610
 20
-7853.846
 30
-193.000
 70
    32
  0
VERTEX
  8
W54LXLIFT
 62
11
 10
1238.436
 20
-7856.512
 30
-193.000
 70
    32
  0
VERTEX
  8
W54LXLIFT
 62
11
 10
1234.862
 20
-7861.027
 30
-193.000
 70
    32
  0
VERTEX
  8
W54LXLIFT
 62
11
 10
1234.939
 20
-7866.707
 30
-193.000
 70
    32
  0
VERTEX
  8
W54LXLIFT
 62
11
 10
1235.407
 20
-7877.300
 30
-193.000
 70
    32
  0
VERTEX
  8
W54LXLIFT
 62
11
 10
1241.177
 20
-7883.976
 30
-193.000
 70
    32
  0
VERTEX
  8
W54LXLIFT
 62
11
 10
1244.993
 20
-7893.355
 30
-193.000
 70
    32
  0
VERTEX
  8
W54LXLIFT
 62
11
 10
1248.361
 20
-7903.163
 30
-193.000
 70
    32
  0
VERTEX
  8
W54LXLIFT
 62
11
 10
1250.259
 20
-7913.487
 30
-193.000
 70
    32
  0
VERTEX
  8
W54LXLIFT
 62
11
 10
1251.328
 20
-7919.645
 30
-193.000
 70
    32
  0
VERTEX
  8
W54LXLIFT
 62
11
 10
1253.231
 20
-7924.553
 30
-193.000
 70
    32
  0
VERTEX
  8
W54LXLIFT
 62
11
 10
1254.860
 20
-7929.984
 30
-193.000
 70
    32
  0
VERTEX
  8
W54LXLIFT
 62
11
 10
1257.625
 20
-7932.326
 30
-193.000
 70
    32
  0
VERTEX
  8
W54LXLIFT
 62
11
 10
1262.487
 20
-7931.863
 30
-193.000
 70
    32
  0
SEQEND
  8
W54LXLIFT
  0
POLYLINE
  8
W54LXLIFT
 62
11
 66
     1
 70
     9
  0
VERTEX
  8
W54LXLIFT
 62
11
 10
1182.312
 20
-7806.258
 30
-180.000
 70
    32
  0
VERTEX
  8
W54LXLIFT
 62
11
 10
1198.728
 20
-7827.902
 30
-180.000
 70
    32
  0
VERTEX
  8
W54LXLIFT
 62
11
 10
1194.671
 20
-7831.142
 30
-180.000
 70
    32
  0
VERTEX
  8
W54LXLIFT
 62
11
 10
1201.130
 20
-7835.916
 30
-180.000
 70
    32
  0
VERTEX
  8
W54LXLIFT
 62
11
 10
1213.217
 20
-7847.468
 30
-180.000
 70
    32
  0
VERTEX
  8
W54LXLIFT
 62
11
 10
1222.146
 20
-7858.692
 30
-180.000
 70
    32
  0
VERTEX
  8
W54LXLIFT
 62
11
 10
1225.528
 20
-7866.110
 30
-180.000
 70
    32
  0
VERTEX
  8
W54LXLIFT
 62
11
 10
1230.005
 20
-7870.685
 30
-180.000
 70
    32
  0
VERTEX
  8
W54LXLIFT
 62
11
 10
1239.488
 20
-7886.596
 30
-180.000
 70
    32
  0
VERTEX
  8
W54LXLIFT
 62
11
 10
1244.596
 20
-7905.002
 30
-180.000
 70
    32
  0
VERTEX
  8
W54LXLIFT
 62
11
 10
1248.478
 20
-7916.281
 30
-180.000
 70
    32
  0
VERTEX
  8
W54LXLIFT
 62
11
 10
1250.241
 20
-7922.048
 30
-180.000
 70
    32
  0
VERTEX
  8
W54LXLIFT
 62
11
 10
1256.591
 20
-7927.875
 30
-180.000
 70
    32
  0
VERTEX
  8
W54LXLIFT
 62
11
 10
1261.948
 20
-7929.004
 30
-180.000
 70
    32
  0
VERTEX
  8
W54LXLIFT
 62
11
 10
1269.930
 20
-7915.262
 30
-180.000
 70
    32
  0
VERTEX
  8
W54LXLIFT
 62
11
 10
1268.223
 20
-7907.614
 30
-180.000
 70
    32
  0
VERTEX
  8
W54LXLIFT
 62
11
 10
1265.202
 20
-7893.769
 30
-180.000
 70
    32
  0
VERTEX
  8
W54LXLIFT
 62
11
 10
1256.039
 20
-7871.676
 30
-180.000
 70
    32
  0
VERTEX
  8
W54LXLIFT
 62
11
 10
1249.156
 20
-7865.258
 30
-180.000
 70
    32
  0
VERTEX
  8
W54LXLIFT
 62
11
 10
1240.656
 20
-7861.410
 30
-180.000
 70
    32
  0
VERTEX
  8
W54LXLIFT
 62
11
 10
1236.991
 20
-7854.953
 30
-180.000
 70
    32
  0
VERTEX
  8
W54LXLIFT
 62
11
 10
1230.792
 20
-7840.902
 30
-180.000
 70
    32
  0
VERTEX
  8
W54LXLIFT
 62
11
 10
1220.292
 20
-7823.123
 30
-180.000
 70
    32
  0
VERTEX
  8
W54LXLIFT
 62
11
 10
1215.162
 20
-7815.230
 30
-180.000
 70
    32
  0
VERTEX
  8
W54LXLIFT
 62
11
 10
1199.143
 20
-7796.547
 30
-180.000
 70
    32
  0
SEQEND
  8
W54LXLIFT
  0
POLYLINE
  8
W54LXLIFT
 62
6
 66
     1
 70
     9
  0
VERTEX
  8
W54LXLIFT
 62
6
 10
1211.305
 20
-8070.895
 30
-180.000
 70
    32
  0
VERTEX
  8
W54LXLIFT
 62
6
 10
1201.125
 20
-8058.081
 30
-180.000
 70
    32
  0
VERTEX
  8
W54LXLIFT
 62
6
 10
1199.404
 20
-8048.605
 30
-180.000
 70
    32
  0
VERTEX
  8
W54LXLIFT
 62
6
 10
1199.960
 20
-8042.903
 30
-180.000
 70
    32
  0
VERTEX
  8
W54LXLIFT
 62
6
 10
1198.457
 20
-8034.785
 30
-180.000
 70
    32
  0
VERTEX
  8
W54LXLIFT
 62
6
 10
1205.115
 20
-8026.430
 30
-180.000
 70
    32
  0
VERTEX
  8
W54LXLIFT
 62
6
 10
1205.528
 20
-8024.294
 30
-180.000
 70
    32
  0
VERTEX
  8
W54LXLIFT
 62
6
 10
1206.053
 20
-8021.861
 30
-180.000
 70
    32
  0
VERTEX
  8
W54LXLIFT
 62
6
 10
1208.680
 20
-8018.891
 30
-180.000
 70
    32
  0
VERTEX
  8
W54LXLIFT
 62
6
 10
1212.867
 20
-8017.939
 30
-180.000
 70
    32
  0
VERTEX
  8
W54LXLIFT
 62
6
 10
1217.723
 20
-8019.428
 30
-180.000
 70
    32
  0
VERTEX
  8
W54LXLIFT
 62
6
 10
1217.761
 20
-8021.890
 30
-180.000
 70
    32
  0
VERTEX
  8
W54LXLIFT
 62
6
 10
1222.559
 20
-8024.503
 30
-180.000
 70
    32
  0
VERTEX
  8
W54LXLIFT
 62
6
 10
1226.372
 20
-8028.906
 30
-180.000
 70
    32
  0
VERTEX
  8
W54LXLIFT
 62
6
 10
1217.420
 20
-8042.804
 30
-180.000
 70
    32
  0
VERTEX
  8
W54LXLIFT
 62
6
 10
1220.909
 20
-8048.413
 30
-180.000
 70
    32
  0
VERTEX
  8
W54LXLIFT
 62
6
 10
1226.149
 20
-8048.327
 30
-180.000
 70
    32
  0
VERTEX
  8
W54LXLIFT
 62
6
 10
1229.730
 20
-8053.763
 30
-180.000
 70
    32
  0
VERTEX
  8
W54LXLIFT
 62
6
 10
1225.223
 20
-8060.896
 30
-180.000
 70
    32
  0
VERTEX
  8
W54LXLIFT
 62
6
 10
1225.142
 20
-8064.850
 30
-180.000
 70
    32
  0
VERTEX
  8
W54LXLIFT
 62
6
 10
1223.235
 20
-8069.575
 30
-180.000
 70
    32
  0
VERTEX
  8
W54LXLIFT
 62
6
 10
1216.331
 20
-8074.427
 30
-180.000
 70
    32
  0
SEQEND
  8
W54LXLIFT
  0
POLYLINE
  8
W54LXLIFT
 62
1
 66
     1
 70
     9
  0
VERTEX
  8
W54LXLIFT
 62
1
 10
1212.305
 20
-8069.895
 30
-168.000
 70
    32
  0
VERTEX
  8
W54LXLIFT
 62
1
 10
1202.125
 20
-8057.081
 30
-168.000
 70
    32
  0
VERTEX
  8
W54LXLIFT
 62
1
 10
1200.404
 20
-8047.605
 30
-168.000
 70
    32
  0
VERTEX
  8
W54LXLIFT
 62
1
 10
1200.960
 20
-8041.903
 30
-168.000
 70
    32
  0
VERTEX
  8
W54LXLIFT
 62
1
 10
1199.457
 20
-8033.785
 30
-168.000
 70
    32
  0
VERTEX
  8
W54LXLIFT
 62
1
 10
1206.115
 20
-8025.430
 30
-168.000
 70
    32
  0
VERTEX
  8
W54LXLIFT
 62
1
 10
1206.528
 20
-8023.294
 30
-168.000
 70
    32
  0
VERTEX
  8
W54LXLIFT
 62
1
 10
1207.053
 20
-8020.861
 30
-168.000
 70
    32
  0
VERTEX
  8
W54LXLIFT
 62
1
 10
1209.680
 20
-8017.891
 30
-168.000
 70
    32
  0
VERTEX
  8
W54LXLIFT
 62
1
 10
1213.867
 20
-8016.939
 30
-168.000
 70
    32
  0
VERTEX
  8
W54LXLIFT
 62
1
 10
1218.723
 20
-8018.428
 30
-168.000
 70
    32
  0
VERTEX
  8
W54LXLIFT
 62
1
 10
1218.761
 20
-8020.890
 30
-168.000
 70
    32
  0
VERTEX
  8
W54LXLIFT
 62
1
 10
1223.559
 20
-8023.503
 30
-168.000
 70
    32
  0
VERTEX
  8
W54LXLIFT
 62
1
 10
1227.372
 20
-8027.906
 30
-168.000
 70
    32
  0
VERTEX
  8
W54LXLIFT
 62
1
 10
1218.420
 20
-8041.804
 30
-168.000
 70
    32
  0
VERTEX
  8
W54LXLIFT
 62
1
 10
1221.909
 20
-8047.413
 30
-168.000
 70
    32
  0
VERTEX
  8
W54LXLIFT
 62
1
 10
1227.149
 20
-8047.327
 30
-168.000
 70
    32
  0
VERTEX
  8
W54LXLIFT
 62
1
 10
1230.730
 20
-8052.763
 30
-168.000
 70
    32
  0
VERTEX
  8
W54LXLIFT
 62
1
 10
1226.223
 20
-8059.896
 30
-168.000
 70
    32
  0
VERTEX
  8
W54LXLIFT
 62
1
 10
1226.142
 20
-8063.850
 30
-168.000
 70
    32
  0
VERTEX
  8
W54LXLIFT
 62
1
 10
1224.235
 20
-8068.575
 30
-168.000
 70
    32
  0
VERTEX
  8
W54LXLIFT
 62
1
 10
1217.331
 20
-8073.427
 30
-168.000
 70
    32
  0
SEQEND
  8
W54LXLIFT
  0
POLYLINE
  8
W54LXLIFT
 62
7
 66
     1
 70
     9
  0
VERTEX
  8
W54LXLIFT
 62
7
 10
1276.279
 20
-8465.295
 30
-161.000
 70
    32
  0
VERTEX
  8
W54LXLIFT
 62
7
 10
1278.210
 20
-8465.422
 30
-161.000
 70
    32
  0
VERTEX
  8
W54LXLIFT
 62
7
 10
1292.343
 20
-8504.073
 30
-161.000
 70
    32
  0
VERTEX
  8
W54LXLIFT
 62
7
 10
1287.956
 20
-8506.251
 30
-161.000
 70
    32
  0
VERTEX
  8
W54LXLIFT
 62
7
 10
1282.840
 20
-8507.113
 30
-161.000
 70
    32
  0
VERTEX
  8
W54LXLIFT
 62
7
 10
1276.422
 20
-8506.313
 30
-161.000
 70
    32
  0
VERTEX
  8
W54LXLIFT
 62
7
 10
1271.319
 20
-8504.784
 30
-161.000
 70
    32
  0
VERTEX
  8
W54LXLIFT
 62
7
 10
1268.858
 20
-8501.358
 30
-161.000
 70
    32
  0
VERTEX
  8
W54LXLIFT
 62
7
 10
1266.287
 20
-8498.985
 30
-161.000
 70
    32
  0
VERTEX
  8
W54LXLIFT
 62
7
 10
1263.015
 20
-8493.978
 30
-161.000
 70
    32
  0
VERTEX
  8
W54LXLIFT
 62
7
 10
1262.063
 20
-8489.791
 30
-161.000
 70
    32
  0
VERTEX
  8
W54LXLIFT
 62
7
 10
1263.715
 20
-8481.246
 30
-161.000
 70
    32
  0
VERTEX
  8
W54LXLIFT
 62
7
 10
1264.992
 20
-8477.299
 30
-161.000
 70
    32
  0
VERTEX
  8
W54LXLIFT
 62
7
 10
1268.614
 20
-8472.099
 30
-161.000
 70
    32
  0
VERTEX
  8
W54LXLIFT
 62
7
 10
1270.328
 20
-8467.405
 30
-161.000
 70
    32
  0
SEQEND
  8
W54LXLIFT
  0
POLYLINE
  8
W54LXLIFT
 62
13
 66
     1
 70
     9
  0
VERTEX
  8
W54LXLIFT
 62
13
 10
1113.453
 20
-8216.512
 30
-165.000
 70
    32
  0
VERTEX
  8
W54LXLIFT
 62
13
 10
1147.248
 20
-8249.694
 30
-165.000
 70
    32
  0
VERTEX
  8
W54LXLIFT
 62
13
 10
1145.852
 20
-8258.596
 30
-165.000
 70
    32
  0
VERTEX
  8
W54LXLIFT
 62
13
 10
1151.858
 20
-8269.215
 30
-165.000
 70
    32
  0
VERTEX
  8
W54LXLIFT
 62
13
 10
1162.923
 20
-8280.852
 30
-165.000
 70
    32
  0
VERTEX
  8
W54LXLIFT
 62
13
 10
1172.665
 20
-8301.340
 30
-165.000
 70
    32
  0
VERTEX
  8
W54LXLIFT
 62
13
 10
1172.292
 20
-8310.913
 30
-165.000
 70
    32
  0
VERTEX
  8
W54LXLIFT
 62
13
 10
1182.557
 20
-8335.895
 30
-165.000
 70
    32
  0
VERTEX
  8
W54LXLIFT
 62
13
 10
1174.371
 20
-8342.425
 30
-165.000
 70
    32
  0
VERTEX
  8
W54LXLIFT
 62
13
 10
1166.572
 20
-8341.210
 30
-165.000
 70
    32
  0
VERTEX
  8
W54LXLIFT
 62
13
 10
1159.459
 20
-8340.045
 30
-165.000
 70
    32
  0
VERTEX
  8
W54LXLIFT
 62
13
 10
1155.286
 20
-8338.605
 30
-165.000
 70
    32
  0
VERTEX
  8
W54LXLIFT
 62
13
 10
1150.865
 20
-8332.151
 30
-165.000
 70
    32
  0
VERTEX
  8
W54LXLIFT
 62
13
 10
1144.368
 20
-8317.232
 30
-165.000
 70
    32
  0
VERTEX
  8
W54LXLIFT
 62
13
 10
1141.213
 20
-8303.050
 30
-165.000
 70
    32
  0
VERTEX
  8
W54LXLIFT
 62
13
 10
1146.886
 20
-8293.023
 30
-165.000
 70
    32
  0
VERTEX
  8
W54LXLIFT
 62
13
 10
1139.086
 20
-8279.906
 30
-165.000
 70
    32
  0
VERTEX
  8
W54LXLIFT
 62
13
 10
1127.684
 20
-8279.549
 30
-165.000
 70
    32
  0
VERTEX
  8
W54LXLIFT
 62
13
 10
1122.718
 20
-8294.478
 30
-165.000
 70
    32
  0
VERTEX
  8
W54LXLIFT
 62
13
 10
1119.662
 20
-8297.756
 30
-165.000
 70
    32
  0
VERTEX
  8
W54LXLIFT
 62
13
 10
1117.120
 20
-8298.284
 30
-165.000
 70
    32
  0
VERTEX
  8
W54LXLIFT
 62
13
 10
1114.612
 20
-8296.298
 30
-165.000
 70
    32
  0
VERTEX
  8
W54LXLIFT
 62
13
 10
1109.768
 20
-8295.883
 30
-165.000
 70
    32
  0
VERTEX
  8
W54LXLIFT
 62
13
 10
1106.198
 20
-8294.227
 30
-165.000
 70
    32
  0
VERTEX
  8
W54LXLIFT
 62
13
 10
1103.922
 20
-8287.746
 30
-165.000
 70
    32
  0
VERTEX
  8
W54LXLIFT
 62
13
 10
1113.180
 20
-8273.520
 30
-165.000
 70
    32
  0
VERTEX
  8
W54LXLIFT
 62
13
 10
1117.380
 20
-8262.495
 30
-165.000
 70
    32
  0
VERTEX
  8
W54LXLIFT
 62
13
 10
1116.398
 20
-8243.505
 30
-165.000
 70
    32
  0
VERTEX
  8
W54LXLIFT
 62
13
 10
1108.404
 20
-8230.420
 30
-165.000
 70
    32
  0
VERTEX
  8
W54LXLIFT
 62
13
 10
1101.539
 20
-8223.124
 30
-165.000
 70
    32
  0
SEQEND
  8
W54LXLIFT
  0
POLYLINE
  8
W54LXLIFT
 62
7
 66
     1
 70
     9
  0
VERTEX
  8
W54LXLIFT
 62
7
 10
1096.788
 20
-7700.620
 30
-102.000
 70
    32
  0
VERTEX
  8
W54LXLIFT
 62
7
 10
1109.019
 20
-7716.289
 30
-102.000
 70
    32
  0
VERTEX
  8
W54LXLIFT
 62
7
 10
1102.526
 20
-7729.394
 30
-102.000
 70
    32
  0
VERTEX
  8
W54LXLIFT
 62
7
 10
1102.639
 20
-7733.317
 30
-102.000
 70
    32
  0
VERTEX
  8
W54LXLIFT
 62
7
 10
1111.046
 20
-7747.729
 30
-102.000
 70
    32
  0
VERTEX
  8
W54LXLIFT
 62
7
 10
1109.810
 20
-7751.431
 30
-102.000
 70
    32
  0
VERTEX
  8
W54LXLIFT
 62
7
 10
1104.894
 20
-7754.530
 30
-102.000
 70
    32
  0
VERTEX
  8
W54LXLIFT
 62
7
 10
1103.351
 20
-7754.340
 30
-102.000
 70
    32
  0
VERTEX
  8
W54LXLIFT
 62
7
 10
1100.448
 20
-7750.149
 30
-102.000
 70
    32
  0
VERTEX
  8
W54LXLIFT
 62
7
 10
1092.100
 20
-7753.441
 30
-102.000
 70
    32
  0
VERTEX
  8
W54LXLIFT
 62
7
 10
1088.439
 20
-7748.496
 30
-102.000
 70
    32
  0
VERTEX
  8
W54LXLIFT
 62
7
 10
1087.319
 20
-7742.267
 30
-102.000
 70
    32
  0
VERTEX
  8
W54LXLIFT
 62
7
 10
1082.632
 20
-7735.895
 30
-102.000
 70
    32
  0
VERTEX
  8
W54LXLIFT
 62
7
 10
1074.739
 20
-7729.879
 30
-102.000
 70
    32
  0
VERTEX
  8
W54LXLIFT
 62
7
 10
1073.068
 20
-7723.937
 30
-102.000
 70
    32
  0
VERTEX
  8
W54LXLIFT
 62
7
 10
1061.895
 20
-7721.792
 30
-102.000
 70
    32
  0
VERTEX
  8
W54LXLIFT
 62
7
 10
1056.576
 20
-7715.441
 30
-102.000
 70
    32
  0
VERTEX
  8
W54LXLIFT
 62
7
 10
1055.864
 20
-7705.564
 30
-102.000
 70
    32
  0
VERTEX
  8
W54LXLIFT
 62
7
 10
1052.599
 20
-7695.898
 30
-102.000
 70
    32
  0
VERTEX
  8
W54LXLIFT
 62
7
 10
1046.588
 20
-7679.548
 30
-102.000
 70
    32
  0
VERTEX
  8
W54LXLIFT
 62
7
 10
1040.009
 20
-7668.583
 30
-102.000
 70
    32
  0
VERTEX
  8
W54LXLIFT
 62
7
 10
1028.797
 20
-7655.537
 30
-102.000
 70
    32
  0
VERTEX
  8
W54LXLIFT
 62
7
 10
1025.930
 20
-7649.589
 30
-102.000
 70
    32
  0
VERTEX
  8
W54LXLIFT
 62
7
 10
1026.310
 20
-7646.502
 30
-102.000
 70
    32
  0
VERTEX
  8
W54LXLIFT
 62
7
 10
1033.503
 20
-7639.495
 30
-102.000
 70
    32
  0
VERTEX
  8
W54LXLIFT
 62
7
 10
1038.528
 20
-7638.807
 30
-102.000
 70
    32
  0
VERTEX
  8
W54LXLIFT
 62
7
 10
1045.276
 20
-7640.668
 30
-102.000
 70
    32
  0
VERTEX
  8
W54LXLIFT
 62
7
 10
1047.782
 20
-7645.361
 30
-102.000
 70
    32
  0
VERTEX
  8
W54LXLIFT
 62
7
 10
1067.027
 20
-7670.491
 30
-102.000
 70
    32
  0
VERTEX
  8
W54LXLIFT
 62
7
 10
1069.378
 20
-7674.970
 30
-102.000
 70
    32
  0
VERTEX
  8
W54LXLIFT
 62
7
 10
1075.020
 20
-7679.358
 30
-102.000
 70
    32
  0
VERTEX
  8
W54LXLIFT
 62
7
 10
1078.993
 20
-7682.780
 30
-102.000
 70
    32
  0
VERTEX
  8
W54LXLIFT
 62
7
 10
1082.176
 20
-7688.717
 30
-102.000
 70
    32
  0
VERTEX
  8
W54LXLIFT
 62
7
 10
1086.993
 20
-7690.451
 30
-102.000
 70
    32
  0
VERTEX
  8
W54LXLIFT
 62
7
 10
1092.573
 20
-7690.987
 30
-102.000
 70
    32
  0
SEQEND
  8
W54LXLIFT
  0
POLYLINE
  8
W54LXLIFT
 62
1
 66
     1
 70
     9
  0
VERTEX
  8
W54LXLIFT
 62
1
 10
1097.788
 20
-7699.620
 30
-90.000
 70
    32
  0
VERTEX
  8
W54LXLIFT
 62
1
 10
1110.019
 20
-7715.289
 30
-90.000
 70
    32
  0
VERTEX
  8
W54LXLIFT
 62
1
 10
1103.526
 20
-7728.394
 30
-90.000
 70
    32
  0
VERTEX
  8
W54LXLIFT
 62
1
 10
1103.639
 20
-7732.317
 30
-90.000
 70
    32
  0
VERTEX
  8
W54LXLIFT
 62
1
 10
1112.046
 20
-7746.729
 30
-90.000
 70
    32
  0
VERTEX
  8
W54LXLIFT
 62
1
 10
1110.810
 20
-7750.431
 30
-90.000
 70
    32
  0
VERTEX
  8
W54LXLIFT
 62
1
 10
1105.894
 20
-7753.530
 30
-90.000
 70
    32
  0
VERTEX
  8
W54LXLIFT
 62
1
 10
1104.351
 20
-7753.340
 30
-90.000
 70
    32
  0
VERTEX
  8
W54LXLIFT
 62
1
 10
1101.448
 20
-7749.149
 30
-90.000
 70
    32
  0
VERTEX
  8
W54LXLIFT
 62
1
 10
1093.100
 20
-7752.441
 30
-90.000
 70
    32
  0
VERTEX
  8
W54LXLIFT
 62
1
 10
1089.439
 20
-7747.496
 30
-90.000
 70
    32
  0
VERTEX
  8
W54LXLIFT
 62
1
 10
1088.319
 20
-7741.267
 30
-90.000
 70
    32
  0
VERTEX
  8
W54LXLIFT
 62
1
 10
1083.632
 20
-7734.895
 30
-90.000
 70
    32
  0
VERTEX
  8
W54LXLIFT
 62
1
 10
1075.739
 20
-7728.879
 30
-90.000
 70
    32
  0
VERTEX
  8
W54LXLIFT
 62
1
 10
1074.068
 20
-7722.937
 30
-90.000
 70
    32
  0
VERTEX
  8
W54LXLIFT
 62
1
 10
1062.895
 20
-7720.792
 30
-90.000
 70
    32
  0
VERTEX
  8
W54LXLIFT
 62
1
 10
1057.576
 20
-7714.441
 30
-90.000
 70
    32
  0
VERTEX
  8
W54LXLIFT
 62
1
 10
1056.864
 20
-7704.564
 30
-90.000
 70
    32
  0
VERTEX
  8
W54LXLIFT
 62
1
 10
1053.599
 20
-7694.898
 30
-90.000
 70
    32
  0
VERTEX
  8
W54LXLIFT
 62
1
 10
1047.588
 20
-7678.548
 30
-90.000
 70
    32
  0
VERTEX
  8
W54LXLIFT
 62
1
 10
1041.009
 20
-7667.583
 30
-90.000
 70
    32
  0
VERTEX
  8
W54LXLIFT
 62
1
 10
1029.797
 20
-7654.537
 30
-90.000
 70
    32
  0
VERTEX
  8
W54LXLIFT
 62
1
 10
1026.930
 20
-7648.589
 30
-90.000
 70
    32
  0
VERTEX
  8
W54LXLIFT
 62
1
 10
1027.310
 20
-7645.502
 30
-90.000
 70
    32
  0
VERTEX
  8
W54LXLIFT
 62
1
 10
1034.503
 20
-7638.495
 30
-90.000
 70
    32
  0
VERTEX
  8
W54LXLIFT
 62
1
 10
1039.528
 20
-7637.807
 30
-90.000
 70
    32
  0
VERTEX
  8
W54LXLIFT
 62
1
 10
1046.276
 20
-7639.668
 30
-90.000
 70
    32
  0
VERTEX
  8
W54LXLIFT
 62
1
 10
1048.782
 20
-7644.361
 30
-90.000
 70
    32
  0
VERTEX
  8
W54LXLIFT
 62
1
 10
1068.027
 20
-7669.491
 30
-90.000
 70
    32
  0
VERTEX
  8
W54LXLIFT
 62
1
 10
1070.378
 20
-7673.970
 30
-90.000
 70
    32
  0
VERTEX
  8
W54LXLIFT
 62
1
 10
1076.020
 20
-7678.358
 30
-90.000
 70
    32
  0
VERTEX
  8
W54LXLIFT
 62
1
 10
1079.993
 20
-7681.780
 30
-90.000
 70
    32
  0
VERTEX
  8
W54LXLIFT
 62
1
 10
1083.176
 20
-7687.717
 30
-90.000
 70
    32
  0
VERTEX
  8
W54LXLIFT
 62
1
 10
1087.993
 20
-7689.451
 30
-90.000
 70
    32
  0
VERTEX
  8
W54LXLIFT
 62
1
 10
1093.573
 20
-7689.987
 30
-90.000
 70
    32
  0
SEQEND
  8
W54LXLIFT
  0
POLYLINE
  8
W54LXLIFT
 62
1
 66
     1
 70
     9
  0
VERTEX
  8
W54LXLIFT
 62
1
 10
1277.279
 20
-8464.295
 30
-151.000
 70
    32
  0
VERTEX
  8
W54LXLIFT
 62
1
 10
1279.210
 20
-8464.422
 30
-151.000
 70
    32
  0
VERTEX
  8
W54LXLIFT
 62
1
 10
1293.343
 20
-8503.073
 30
-151.000
 70
    32
  0
VERTEX
  8
W54LXLIFT
 62
1
 10
1288.956
 20
-8505.251
 30
-151.000
 70
    32
  0
VERTEX
  8
W54LXLIFT
 62
1
 10
1283.840
 20
-8506.113
 30
-151.000
 70
    32
  0
VERTEX
  8
W54LXLIFT
 62
1
 10
1277.422
 20
-8505.313
 30
-151.000
 70
    32
  0
VERTEX
  8
W54LXLIFT
 62
1
 10
1272.319
 20
-8503.784
 30
-151.000
 70
    32
  0
VERTEX
  8
W54LXLIFT
 62
1
 10
1269.858
 20
-8500.358
 30
-151.000
 70
    32
  0
VERTEX
  8
W54LXLIFT
 62
1
 10
1267.287
 20
-8497.985
 30
-151.000
 70
    32
  0
VERTEX
  8
W54LXLIFT
 62
1
 10
1264.015
 20
-8492.978
 30
-151.000
 70
    32
  0
VERTEX
  8
W54LXLIFT
 62
1
 10
1263.063
 20
-8488.791
 30
-151.000
 70
    32
  0
VERTEX
  8
W54LXLIFT
 62
1
 10
1264.715
 20
-8480.246
 30
-151.000
 70
    32
  0
VERTEX
  8
W54LXLIFT
 62
1
 10
1265.992
 20
-8476.299
 30
-151.000
 70
    32
  0
VERTEX
  8
W54LXLIFT
 62
1
 10
1269.614
 20
-8471.099
 30
-151.000
 70
    32
  0
VERTEX
  8
W54LXLIFT
 62
1
 10
1271.328
 20
-8466.405
 30
-151.000
 70
    32
  0
SEQEND
  8
W54LXLIFT
  0
POLYLINE
  8
W54LXLIFT
 62
1
 66
     1
 70
     9
  0
VERTEX
  8
W54LXLIFT
 62
1
 10
1200.143
 20
-7795.547
 30
-170.000
 70
    32
  0
VERTEX
  8
W54LXLIFT
 62
1
 10
1216.162
 20
-7814.230
 30
-170.000
 70
    32
  0
VERTEX
  8
W54LXLIFT
 62
1
 10
1221.292
 20
-7822.123
 30
-170.000
 70
    32
  0
VERTEX
  8
W54LXLIFT
 62
1
 10
1231.792
 20
-7839.902
 30
-170.000
 70
    32
  0
VERTEX
  8
W54LXLIFT
 62
1
 10
1237.991
 20
-7853.953
 30
-170.000
 70
    32
  0
VERTEX
  8
W54LXLIFT
 62
1
 10
1241.656
 20
-7860.410
 30
-170.000
 70
    32
  0
VERTEX
  8
W54LXLIFT
 62
1
 10
1250.156
 20
-7864.258
 30
-170.000
 70
    32
  0
VERTEX
  8
W54LXLIFT
 62
1
 10
1257.039
 20
-7870.676
 30
-170.000
 70
    32
  0
VERTEX
  8
W54LXLIFT
 62
1
 10
1266.202
 20
-7892.769
 30
-170.000
 70
    32
  0
VERTEX
  8
W54LXLIFT
 62
1
 10
1269.223
 20
-7906.614
 30
-170.000
 70
    32
  0
VERTEX
  8
W54LXLIFT
 62
1
 10
1270.930
 20
-7914.262
 30
-170.000
 70
    32
  0
VERTEX
  8
W54LXLIFT
 62
1
 10
1262.948
 20
-7928.004
 30
-170.000
 70
    32
  0
VERTEX
  8
W54LXLIFT
 62
1
 10
1257.591
 20
-7926.875
 30
-170.000
 70
    32
  0
VERTEX
  8
W54LXLIFT
 62
1
 10
1251.241
 20
-7921.048
 30
-170.000
 70
    32
  0
VERTEX
  8
W54LXLIFT
 62
1
 10
1249.478
 20
-7915.281
 30
-170.000
 70
    32
  0
VERTEX
  8
W54LXLIFT
 62
1
 10
1245.596
 20
-7904.002
 30
-170.000
 70
    32
  0
VERTEX
  8
W54LXLIFT
 62
1
 10
1240.488
 20
-7885.596
 30
-170.000
 70
    32
  0
VERTEX
  8
W54LXLIFT
 62
1
 10
1231.005
 20
-7869.685
 30
-170.000
 70
    32
  0
VERTEX
  8
W54LXLIFT
 62
1
 10
1226.528
 20
-7865.110
 30
-170.000
 70
    32
  0
VERTEX
  8
W54LXLIFT
 62
1
 10
1223.146
 20
-7857.692
 30
-170.000
 70
    32
  0
VERTEX
  8
W54LXLIFT
 62
1
 10
1214.217
 20
-7846.468
 30
-170.000
 70
    32
  0
VERTEX
  8
W54LXLIFT
 62
1
 10
1202.130
 20
-7834.916
 30
-170.000
 70
    32
  0
VERTEX
  8
W54LXLIFT
 62
1
 10
1195.671
 20
-7830.142
 30
-170.000
 70
    32
  0
VERTEX
  8
W54LXLIFT
 62
1
 10
1199.728
 20
-7826.902
 30
-170.000
 70
    32
  0
VERTEX
  8
W54LXLIFT
 62
1
 10
1183.312
 20
-7805.258
 30
-170.000
 70
    32
  0
SEQEND
  8
W54LXLIFT
  0
POLYLINE
  8
W54LXLIFT
 62
2
 66
     1
 70
     9
  0
VERTEX
  8
W54LXLIFT
 62
2
 10
1140.845
 20
-7281.978
 30
-205.000
 70
    32
  0
VERTEX
  8
W54LXLIFT
 62
2
 10
1148.384
 20
-7290.632
 30
-205.000
 70
    32
  0
VERTEX
  8
W54LXLIFT
 62
2
 10
1155.449
 20
-7296.375
 30
-205.000
 70
    32
  0
VERTEX
  8
W54LXLIFT
 62
2
 10
1158.862
 20
-7305.619
 30
-205.000
 70
    32
  0
VERTEX
  8
W54LXLIFT
 62
2
 10
1160.236
 20
-7309.179
 30
-205.000
 70
    32
  0
VERTEX
  8
W54LXLIFT
 62
2
 10
1155.669
 20
-7311.713
 30
-205.000
 70
    32
  0
VERTEX
  8
W54LXLIFT
 62
2
 10
1150.976
 20
-7313.471
 30
-205.000
 70
    32
  0
VERTEX
  8
W54LXLIFT
 62
2
 10
1148.853
 20
-7318.794
 30
-205.000
 70
    32
  0
VERTEX
  8
W54LXLIFT
 62
2
 10
1144.991
 20
-7321.253
 30
-205.000
 70
    32
  0
VERTEX
  8
W54LXLIFT
 62
2
 10
1138.485
 20
-7322.150
 30
-205.000
 70
    32
  0
VERTEX
  8
W54LXLIFT
 62
2
 10
1133.439
 20
-7320.261
 30
-205.000
 70
    32
  0
VERTEX
  8
W54LXLIFT
 62
2
 10
1127.545
 20
-7313.889
 30
-205.000
 70
    32
  0
VERTEX
  8
W54LXLIFT
 62
2
 10
1129.761
 20
-7306.440
 30
-205.000
 70
    32
  0
VERTEX
  8
W54LXLIFT
 62
2
 10
1128.190
 20
-7297.495
 30
-205.000
 70
    32
  0
VERTEX
  8
W54LXLIFT
 62
2
 10
1129.565
 20
-7291.735
 30
-205.000
 70
    32
  0
VERTEX
  8
W54LXLIFT
 62
2
 10
1127.633
 20
-7286.951
 30
-205.000
 70
    32
  0
SEQEND
  8
W54LXLIFT
  0
POLYLINE
  8
W54LXLIFT
 62
3
 66
     1
 70
     9
  0
VERTEX
  8
W54LXLIFT
 62
3
 10
1119.100
 20
-7275.801
 30
-185.000
 70
    32
  0
VERTEX
  8
W54LXLIFT
 62
3
 10
1115.007
 20
-7272.581
 30
-185.000
 70
    32
  0
VERTEX
  8
W54LXLIFT
 62
3
 10
1108.983
 20
-7270.444
 30
-185.000
 70
    32
  0
VERTEX
  8
W54LXLIFT
 62
3
 10
1101.756
 20
-7268.750
 30
-185.000
 70
    32
  0
VERTEX
  8
W54LXLIFT
 62
3
 10
1094.994
 20
-7262.469
 30
-185.000
 70
    32
  0
VERTEX
  8
W54LXLIFT
 62
3
 10
1093.290
 20
-7256.853
 30
-185.000
 70
    32
  0
VERTEX
  8
W54LXLIFT
 62
3
 10
1090.156
 20
-7243.459
 30
-185.000
 70
    32
  0
VERTEX
  8
W54LXLIFT
 62
3
 10
1089.615
 20
-7229.589
 30
-185.000
 70
    32
  0
VERTEX
  8
W54LXLIFT
 62
3
 10
1100.196
 20
-7234.388
 30
-185.000
 70
    32
  0
VERTEX
  8
W54LXLIFT
 62
3
 10
1103.936
 20
-7243.092
 30
-185.000
 70
    32
  0
VERTEX
  8
W54LXLIFT
 62
3
 10
1109.091
 20
-7247.170
 30
-185.000
 70
    32
  0
VERTEX
  8
W54LXLIFT
 62
3
 10
1115.074
 20
-7255.217
 30
-185.000
 70
    32
  0
VERTEX
  8
W54LXLIFT
 62
3
 10
1117.396
 20
-7259.294
 30
-185.000
 70
    32
  0
VERTEX
  8
W54LXLIFT
 62
3
 10
1122.624
 20
-7264.516
 30
-185.000
 70
    32
  0
VERTEX
  8
W54LXLIFT
 62
3
 10
1124.996
 20
-7271.496
 30
-185.000
 70
    32
  0
SEQEND
  8
W54LXLIFT
  0
POLYLINE
  8
W54LXLIFT
 62
1
 66
     1
 70
     9
  0
VERTEX
  8
W54LXLIFT
 62
1
 10
1125.996
 20
-7270.496
 30
-175.000
 70
    32
  0
VERTEX
  8
W54LXLIFT
 62
1
 10
1123.624
 20
-7263.516
 30
-175.000
 70
    32
  0
VERTEX
  8
W54LXLIFT
 62
1
 10
1118.396
 20
-7258.294
 30
-175.000
 70
    32
  0
VERTEX
  8
W54LXLIFT
 62
1
 10
1116.074
 20
-7254.217
 30
-175.000
 70
    32
  0
VERTEX
  8
W54LXLIFT
 62
1
 10
1110.091
 20
-7246.170
 30
-175.000
 70
    32
  0
VERTEX
  8
W54LXLIFT
 62
1
 10
1104.936
 20
-7242.092
 30
-175.000
 70
    32
  0
VERTEX
  8
W54LXLIFT
 62
1
 10
1101.196
 20
-7233.388
 30
-175.000
 70
    32
  0
VERTEX
  8
W54LXLIFT
 62
1
 10
1090.615
 20
-7228.589
 30
-175.000
 70
    32
  0
VERTEX
  8
W54LXLIFT
 62
1
 10
1091.156
 20
-7242.459
 30
-175.000
 70
    32
  0
VERTEX
  8
W54LXLIFT
 62
1
 10
1094.290
 20
-7255.853
 30
-175.000
 70
    32
  0
VERTEX
  8
W54LXLIFT
 62
1
 10
1095.994
 20
-7261.469
 30
-175.000
 70
    32
  0
VERTEX
  8
W54LXLIFT
 62
1
 10
1102.756
 20
-7267.750
 30
-175.000
 70
    32
  0
VERTEX
  8
W54LXLIFT
 62
1
 10
1109.983
 20
-7269.444
 30
-175.000
 70
    32
  0
VERTEX
  8
W54LXLIFT
 62
1
 10
1116.007
 20
-7271.581
 30
-175.000
 70
    32
  0
VERTEX
  8
W54LXLIFT
 62
1
 10
1120.100
 20
-7274.801
 30
-175.000
 70
    32
  0
SEQEND
  8
W54LXLIFT
  0
POLYLINE
  8
W54LXLIFT
 62
1
 66
     1
 70
     9
  0
VERTEX
  8
W54LXLIFT
 62
1
 10
891.404
 20
-6836.920
 30
-122.000
 70
    32
  0
VERTEX
  8
W54LXLIFT
 62
1
 10
886.640
 20
-6842.031
 30
-122.000
 70
    32
  0
VERTEX
  8
W54LXLIFT
 62
1
 10
882.800
 20
-6842.438
 30
-122.000
 70
    32
  0
VERTEX
  8
W54LXLIFT
 62
1
 10
879.319
 20
-6844.980
 30
-122.000
 70
    32
  0
VERTEX
  8
W54LXLIFT
 62
1
 10
872.885
 20
-6856.754
 30
-122.000
 70
    32
  0
VERTEX
  8
W54LXLIFT
 62
1
 10
872.114
 20
-6863.306
 30
-122.000
 70
    32
  0
VERTEX
  8
W54LXLIFT
 62
1
 10
869.874
 20
-6869.188
 30
-122.000
 70
    32
  0
VERTEX
  8
W54LXLIFT
 62
1
 10
881.030
 20
-6888.052
 30
-122.000
 70
    32
  0
VERTEX
  8
W54LXLIFT
 62
1
 10
882.313
 20
-6893.540
 30
-122.000
 70
    32
  0
VERTEX
  8
W54LXLIFT
 62
1
 10
886.060
 20
-6898.972
 30
-122.000
 70
    32
  0
VERTEX
  8
W54LXLIFT
 62
1
 10
894.755
 20
-6912.226
 30
-122.000
 70
    32
  0
VERTEX
  8
W54LXLIFT
 62
1
 10
900.835
 20
-6923.688
 30
-122.000
 70
    32
  0
VERTEX
  8
W54LXLIFT
 62
1
 10
902.800
 20
-6930.856
 30
-122.000
 70
    32
  0
VERTEX
  8
W54LXLIFT
 62
1
 10
902.463
 20
-6937.854
 30
-122.000
 70
    32
  0
VERTEX
  8
W54LXLIFT
 62
1
 10
907.575
 20
-6950.675
 30
-122.000
 70
    32
  0
VERTEX
  8
W54LXLIFT
 62
1
 10
912.880
 20
-6959.434
 30
-122.000
 70
    32
  0
VERTEX
  8
W54LXLIFT
 62
1
 10
922.460
 20
-6961.371
 30
-122.000
 70
    32
  0
VERTEX
  8
W54LXLIFT
 62
1
 10
938.842
 20
-6984.260
 30
-122.000
 70
    32
  0
VERTEX
  8
W54LXLIFT
 62
1
 10
949.314
 20
-6978.467
 30
-122.000
 70
    32
  0
VERTEX
  8
W54LXLIFT
 62
1
 10
947.250
 20
-6966.689
 30
-122.000
 70
    32
  0
VERTEX
  8
W54LXLIFT
 62
1
 10
936.040
 20
-6953.419
 30
-122.000
 70
    32
  0
VERTEX
  8
W54LXLIFT
 62
1
 10
928.373
 20
-6943.661
 30
-122.000
 70
    32
  0
VERTEX
  8
W54LXLIFT
 62
1
 10
921.729
 20
-6935.007
 30
-122.000
 70
    32
  0
VERTEX
  8
W54LXLIFT
 62
1
 10
917.767
 20
-6928.534
 30
-122.000
 70
    32
  0
VERTEX
  8
W54LXLIFT
 62
1
 10
926.578
 20
-6923.300
 30
-122.000
 70
    32
  0
VERTEX
  8
W54LXLIFT
 62
1
 10
925.005
 20
-6903.541
 30
-122.000
 70
    32
  0
VERTEX
  8
W54LXLIFT
 62
1
 10
923.841
 20
-6899.708
 30
-122.000
 70
    32
  0
VERTEX
  8
W54LXLIFT
 62
1
 10
921.522
 20
-6898.024
 30
-122.000
 70
    32
  0
VERTEX
  8
W54LXLIFT
 62
1
 10
916.382
 20
-6898.292
 30
-122.000
 70
    32
  0
VERTEX
  8
W54LXLIFT
 62
1
 10
909.632
 20
-6895.161
 30
-122.000
 70
    32
  0
VERTEX
  8
W54LXLIFT
 62
1
 10
905.322
 20
-6889.704
 30
-122.000
 70
    32
  0
VERTEX
  8
W54LXLIFT
 62
1
 10
905.501
 20
-6881.297
 30
-122.000
 70
    32
  0
VERTEX
  8
W54LXLIFT
 62
1
 10
914.013
 20
-6878.786
 30
-122.000
 70
    32
  0
VERTEX
  8
W54LXLIFT
 62
1
 10
918.374
 20
-6876.256
 30
-122.000
 70
    32
  0
VERTEX
  8
W54LXLIFT
 62
1
 10
917.400
 20
-6869.998
 30
-122.000
 70
    32
  0
VERTEX
  8
W54LXLIFT
 62
1
 10
914.774
 20
-6866.252
 30
-122.000
 70
    32
  0
VERTEX
  8
W54LXLIFT
 62
1
 10
914.537
 20
-6860.109
 30
-122.000
 70
    32
  0
VERTEX
  8
W54LXLIFT
 62
1
 10
911.873
 20
-6856.608
 30
-122.000
 70
    32
  0
VERTEX
  8
W54LXLIFT
 62
1
 10
902.838
 20
-6856.016
 30
-122.000
 70
    32
  0
VERTEX
  8
W54LXLIFT
 62
1
 10
901.407
 20
-6836.153
 30
-122.000
 70
    32
  0
SEQEND
  8
W54LXLIFT
  0
POLYLINE
  8
W54LXLIFT
 62
7
 66
     1
 70
     9
  0
VERTEX
  8
W54LXLIFT
 62
7
 10
773.070
 20
-6318.082
 30
-127.000
 70
    32
  0
VERTEX
  8
W54LXLIFT
 62
7
 10
775.241
 20
-6301.713
 30
-127.000
 70
    32
  0
VERTEX
  8
W54LXLIFT
 62
7
 10
778.996
 20
-6278.974
 30
-127.000
 70
    32
  0
VERTEX
  8
W54LXLIFT
 62
7
 10
769.807
 20
-6266.596
 30
-127.000
 70
    32
  0
VERTEX
  8
W54LXLIFT
 62
7
 10
771.124
 20
-6264.662
 30
-127.000
 70
    32
  0
VERTEX
  8
W54LXLIFT
 62
7
 10
756.232
 20
-6239.010
 30
-127.000
 70
    32
  0
VERTEX
  8
W54LXLIFT
 62
7
 10
757.623
 20
-6235.826
 30
-127.000
 70
    32
  0
VERTEX
  8
W54LXLIFT
 62
7
 10
734.915
 20
-6205.395
 30
-127.000
 70
    32
  0
VERTEX
  8
W54LXLIFT
 62
7
 10
744.201
 20
-6202.146
 30
-127.000
 70
    32
  0
VERTEX
  8
W54LXLIFT
 62
7
 10
775.970
 20
-6244.178
 30
-127.000
 70
    32
  0
VERTEX
  8
W54LXLIFT
 62
7
 10
781.611
 20
-6244.006
 30
-127.000
 70
    32
  0
VERTEX
  8
W54LXLIFT
 62
7
 10
786.612
 20
-6254.960
 30
-127.000
 70
    32
  0
VERTEX
  8
W54LXLIFT
 62
7
 10
791.229
 20
-6263.581
 30
-127.000
 70
    32
  0
VERTEX
  8
W54LXLIFT
 62
7
 10
793.048
 20
-6271.945
 30
-127.000
 70
    32
  0
VERTEX
  8
W54LXLIFT
 62
7
 10
795.787
 20
-6280.077
 30
-127.000
 70
    32
  0
VERTEX
  8
W54LXLIFT
 62
7
 10
792.995
 20
-6288.084
 30
-127.000
 70
    32
  0
VERTEX
  8
W54LXLIFT
 62
7
 10
797.000
 20
-6298.562
 30
-127.000
 70
    32
  0
VERTEX
  8
W54LXLIFT
 62
7
 10
797.339
 20
-6304.735
 30
-127.000
 70
    32
  0
VERTEX
  8
W54LXLIFT
 62
7
 10
781.417
 20
-6322.694
 30
-127.000
 70
    32
  0
SEQEND
  8
W54LXLIFT
  0
POLYLINE
  8
W54LXLIFT
 62
3
 66
     1
 70
     9
  0
VERTEX
  8
W54LXLIFT
 62
3
 10
707.600
 20
-6237.186
 30
-211.000
 70
    32
  0
VERTEX
  8
W54LXLIFT
 62
3
 10
710.245
 20
-6230.936
 30
-211.000
 70
    32
  0
VERTEX
  8
W54LXLIFT
 62
3
 10
706.822
 20
-6225.598
 30
-211.000
 70
    32
  0
VERTEX
  8
W54LXLIFT
 62
3
 10
691.465
 20
-6209.898
 30
-211.000
 70
    32
  0
VERTEX
  8
W54LXLIFT
 62
3
 10
693.526
 20
-6197.886
 30
-211.000
 70
    32
  0
VERTEX
  8
W54LXLIFT
 62
3
 10
694.181
 20
-6184.829
 30
-211.000
 70
    32
  0
VERTEX
  8
W54LXLIFT
 62
3
 10
689.958
 20
-6177.032
 30
-211.000
 70
    32
  0
VERTEX
  8
W54LXLIFT
 62
3
 10
683.526
 20
-6172.784
 30
-211.000
 70
    32
  0
VERTEX
  8
W54LXLIFT
 62
3
 10
679.228
 20
-6170.139
 30
-211.000
 70
    32
  0
VERTEX
  8
W54LXLIFT
 62
3
 10
676.198
 20
-6165.494
 30
-211.000
 70
    32
  0
VERTEX
  8
W54LXLIFT
 62
3
 10
676.988
 20
-6158.631
 30
-211.000
 70
    32
  0
VERTEX
  8
W54LXLIFT
 62
3
 10
680.417
 20
-6153.767
 30
-211.000
 70
    32
  0
VERTEX
  8
W54LXLIFT
 62
3
 10
685.867
 20
-6153.952
 30
-211.000
 70
    32
  0
VERTEX
  8
W54LXLIFT
 62
3
 10
681.634
 20
-6138.785
 30
-211.000
 70
    32
  0
VERTEX
  8
W54LXLIFT
 62
3
 10
674.866
 20
-6115.903
 30
-211.000
 70
    32
  0
VERTEX
  8
W54LXLIFT
 62
3
 10
668.190
 20
-6102.609
 30
-211.000
 70
    32
  0
VERTEX
  8
W54LXLIFT
 62
3
 10
661.955
 20
-6091.276
 30
-211.000
 70
    32
  0
VERTEX
  8
W54LXLIFT
 62
3
 10
656.436
 20
-6078.232
 30
-211.000
 70
    32
  0
VERTEX
  8
W54LXLIFT
 62
3
 10
655.896
 20
-6071.028
 30
-211.000
 70
    32
  0
VERTEX
  8
W54LXLIFT
 62
3
 10
651.358
 20
-6052.284
 30
-211.000
 70
    32
  0
VERTEX
  8
W54LXLIFT
 62
3
 10
643.522
 20
-6041.890
 30
-211.000
 70
    32
  0
VERTEX
  8
W54LXLIFT
 62
3
 10
641.948
 20
-6028.599
 30
-211.000
 70
    32
  0
VERTEX
  8
W54LXLIFT
 62
3
 10
639.344
 20
-6019.741
 30
-211.000
 70
    32
  0
VERTEX
  8
W54LXLIFT
 62
3
 10
643.480
 20
-6005.796
 30
-211.000
 70
    32
  0
VERTEX
  8
W54LXLIFT
 62
3
 10
661.083
 20
-6000.129
 30
-211.000
 70
    32
  0
VERTEX
  8
W54LXLIFT
 62
3
 10
662.295
 20
-6003.159
 30
-211.000
 70
    32
  0
VERTEX
  8
W54LXLIFT
 62
3
 10
660.763
 20
-6007.194
 30
-211.000
 70
    32
  0
VERTEX
  8
W54LXLIFT
 62
3
 10
664.436
 20
-6015.281
 30
-211.000
 70
    32
  0
VERTEX
  8
W54LXLIFT
 62
3
 10
665.483
 20
-6025.589
 30
-211.000
 70
    32
  0
VERTEX
  8
W54LXLIFT
 62
3
 10
669.573
 20
-6038.907
 30
-211.000
 70
    32
  0
VERTEX
  8
W54LXLIFT
 62
3
 10
678.154
 20
-6054.838
 30
-211.000
 70
    32
  0
VERTEX
  8
W54LXLIFT
 62
3
 10
678.973
 20
-6072.038
 30
-211.000
 70
    32
  0
VERTEX
  8
W54LXLIFT
 62
3
 10
681.094
 20
-6086.235
 30
-211.000
 70
    32
  0
VERTEX
  8
W54LXLIFT
 62
3
 10
686.489
 20
-6093.402
 30
-211.000
 70
    32
  0
VERTEX
  8
W54LXLIFT
 62
3
 10
697.980
 20
-6104.952
 30
-211.000
 70
    32
  0
VERTEX
  8
W54LXLIFT
 62
3
 10
702.219
 20
-6111.870
 30
-211.000
 70
    32
  0
VERTEX
  8
W54LXLIFT
 62
3
 10
702.670
 20
-6130.963
 30
-211.000
 70
    32
  0
VERTEX
  8
W54LXLIFT
 62
3
 10
706.027
 20
-6144.919
 30
-211.000
 70
    32
  0
VERTEX
  8
W54LXLIFT
 62
3
 10
705.570
 20
-6156.748
 30
-211.000
 70
    32
  0
VERTEX
  8
W54LXLIFT
 62
3
 10
708.040
 20
-6175.033
 30
-211.000
 70
    32
  0
VERTEX
  8
W54LXLIFT
 62
3
 10
712.391
 20
-6187.511
 30
-211.000
 70
    32
  0
VERTEX
  8
W54LXLIFT
 62
3
 10
719.185
 20
-6198.115
 30
-211.000
 70
    32
  0
VERTEX
  8
W54LXLIFT
 62
3
 10
725.947
 20
-6208.526
 30
-211.000
 70
    32
  0
VERTEX
  8
W54LXLIFT
 62
3
 10
727.258
 20
-6227.757
 30
-211.000
 70
    32
  0
VERTEX
  8
W54LXLIFT
 62
3
 10
728.930
 20
-6232.624
 30
-211.000
 70
    32
  0
VERTEX
  8
W54LXLIFT
 62
3
 10
737.550
 20
-6248.309
 30
-211.000
 70
    32
  0
VERTEX
  8
W54LXLIFT
 62
3
 10
730.347
 20
-6252.754
 30
-211.000
 70
    32
  0
VERTEX
  8
W54LXLIFT
 62
3
 10
718.572
 20
-6245.315
 30
-211.000
 70
    32
  0
SEQEND
  8
W54LXLIFT
  0
POLYLINE
  8
W54LXLIFT
 62
2
 66
     1
 70
     9
  0
VERTEX
  8
W54LXLIFT
 62
2
 10
504.540
 20
-6032.411
 30
-154.000
 70
    32
  0
VERTEX
  8
W54LXLIFT
 62
2
 10
502.116
 20
-6030.257
 30
-154.000
 70
    32
  0
VERTEX
  8
W54LXLIFT
 62
2
 10
499.494
 20
-6025.425
 30
-154.000
 70
    32
  0
VERTEX
  8
W54LXLIFT
 62
2
 10
493.884
 20
-6016.460
 30
-154.000
 70
    32
  0
VERTEX
  8
W54LXLIFT
 62
2
 10
490.073
 20
-6007.281
 30
-154.000
 70
    32
  0
VERTEX
  8
W54LXLIFT
 62
2
 10
483.203
 20
-5994.019
 30
-154.000
 70
    32
  0
VERTEX
  8
W54LXLIFT
 62
2
 10
480.635
 20
-5986.111
 30
-154.000
 70
    32
  0
VERTEX
  8
W54LXLIFT
 62
2
 10
477.121
 20
-5977.042
 30
-154.000
 70
    32
  0
VERTEX
  8
W54LXLIFT
 62
2
 10
477.671
 20
-5972.848
 30
-154.000
 70
    32
  0
VERTEX
  8
W54LXLIFT
 62
2
 10
478.742
 20
-5965.022
 30
-154.000
 70
    32
  0
VERTEX
  8
W54LXLIFT
 62
2
 10
478.261
 20
-5951.593
 30
-154.000
 70
    32
  0
VERTEX
  8
W54LXLIFT
 62
2
 10
479.349
 20
-5944.840
 30
-154.000
 70
    32
  0
VERTEX
  8
W54LXLIFT
 62
2
 10
477.249
 20
-5938.330
 30
-154.000
 70
    32
  0
VERTEX
  8
W54LXLIFT
 62
2
 10
469.146
 20
-5918.256
 30
-154.000
 70
    32
  0
VERTEX
  8
W54LXLIFT
 62
2
 10
469.778
 20
-5908.470
 30
-154.000
 70
    32
  0
VERTEX
  8
W54LXLIFT
 62
2
 10
469.720
 20
-5895.928
 30
-154.000
 70
    32
  0
VERTEX
  8
W54LXLIFT
 62
2
 10
486.567
 20
-5892.218
 30
-154.000
 70
    32
  0
VERTEX
  8
W54LXLIFT
 62
2
 10
492.161
 20
-5905.967
 30
-154.000
 70
    32
  0
VERTEX
  8
W54LXLIFT
 62
2
 10
495.918
 20
-5918.224
 30
-154.000
 70
    32
  0
VERTEX
  8
W54LXLIFT
 62
2
 10
492.070
 20
-5928.814
 30
-154.000
 70
    32
  0
VERTEX
  8
W54LXLIFT
 62
2
 10
492.654
 20
-5934.577
 30
-154.000
 70
    32
  0
VERTEX
  8
W54LXLIFT
 62
2
 10
495.079
 20
-5942.588
 30
-154.000
 70
    32
  0
VERTEX
  8
W54LXLIFT
 62
2
 10
499.357
 20
-5949.260
 30
-154.000
 70
    32
  0
VERTEX
  8
W54LXLIFT
 62
2
 10
504.879
 20
-5953.299
 30
-154.000
 70
    32
  0
VERTEX
  8
W54LXLIFT
 62
2
 10
510.201
 20
-5954.660
 30
-154.000
 70
    32
  0
VERTEX
  8
W54LXLIFT
 62
2
 10
523.806
 20
-5956.222
 30
-154.000
 70
    32
  0
VERTEX
  8
W54LXLIFT
 62
2
 10
529.743
 20
-5961.587
 30
-154.000
 70
    32
  0
VERTEX
  8
W54LXLIFT
 62
2
 10
533.780
 20
-5970.929
 30
-154.000
 70
    32
  0
VERTEX
  8
W54LXLIFT
 62
2
 10
534.043
 20
-5975.947
 30
-154.000
 70
    32
  0
VERTEX
  8
W54LXLIFT
 62
2
 10
528.844
 20
-5984.367
 30
-154.000
 70
    32
  0
VERTEX
  8
W54LXLIFT
 62
2
 10
525.682
 20
-5995.005
 30
-154.000
 70
    32
  0
VERTEX
  8
W54LXLIFT
 62
2
 10
523.287
 20
-6004.004
 30
-154.000
 70
    32
  0
VERTEX
  8
W54LXLIFT
 62
2
 10
523.019
 20
-6011.140
 30
-154.000
 70
    32
  0
VERTEX
  8
W54LXLIFT
 62
2
 10
515.101
 20
-6021.201
 30
-154.000
 70
    32
  0
VERTEX
  8
W54LXLIFT
 62
2
 10
514.377
 20
-6027.256
 30
-154.000
 70
    32
  0
SEQEND
  8
W54LXLIFT
  0
POLYLINE
  8
W54LXLIFT
 62
1
 66
     1
 70
     9
  0
VERTEX
  8
W54LXLIFT
 62
1
 10
505.540
 20
-6031.411
 30
-143.000
 70
    32
  0
VERTEX
  8
W54LXLIFT
 62
1
 10
503.116
 20
-6029.257
 30
-143.000
 70
    32
  0
VERTEX
  8
W54LXLIFT
 62
1
 10
500.494
 20
-6024.425
 30
-143.000
 70
    32
  0
VERTEX
  8
W54LXLIFT
 62
1
 10
494.884
 20
-6015.460
 30
-143.000
 70
    32
  0
VERTEX
  8
W54LXLIFT
 62
1
 10
491.073
 20
-6006.281
 30
-143.000
 70
    32
  0
VERTEX
  8
W54LXLIFT
 62
1
 10
484.203
 20
-5993.019
 30
-143.000
 70
    32
  0
VERTEX
  8
W54LXLIFT
 62
1
 10
481.635
 20
-5985.111
 30
-143.000
 70
    32
  0
VERTEX
  8
W54LXLIFT
 62
1
 10
478.121
 20
-5976.042
 30
-143.000
 70
    32
  0
VERTEX
  8
W54LXLIFT
 62
1
 10
478.671
 20
-5971.848
 30
-143.000
 70
    32
  0
VERTEX
  8
W54LXLIFT
 62
1
 10
479.742
 20
-5964.022
 30
-143.000
 70
    32
  0
VERTEX
  8
W54LXLIFT
 62
1
 10
479.261
 20
-5950.593
 30
-143.000
 70
    32
  0
VERTEX
  8
W54LXLIFT
 62
1
 10
480.349
 20
-5943.840
 30
-143.000
 70
    32
  0
VERTEX
  8
W54LXLIFT
 62
1
 10
478.249
 20
-5937.330
 30
-143.000
 70
    32
  0
VERTEX
  8
W54LXLIFT
 62
1
 10
470.146
 20
-5917.256
 30
-143.000
 70
    32
  0
VERTEX
  8
W54LXLIFT
 62
1
 10
470.778
 20
-5907.470
 30
-143.000
 70
    32
  0
VERTEX
  8
W54LXLIFT
 62
1
 10
470.720
 20
-5894.928
 30
-143.000
 70
    32
  0
VERTEX
  8
W54LXLIFT
 62
1
 10
487.567
 20
-5891.218
 30
-143.000
 70
    32
  0
VERTEX
  8
W54LXLIFT
 62
1
 10
493.161
 20
-5904.967
 30
-143.000
 70
    32
  0
VERTEX
  8
W54LXLIFT
 62
1
 10
496.918
 20
-5917.224
 30
-143.000
 70
    32
  0
VERTEX
  8
W54LXLIFT
 62
1
 10
493.070
 20
-5927.814
 30
-143.000
 70
    32
  0
VERTEX
  8
W54LXLIFT
 62
1
 10
493.654
 20
-5933.577
 30
-143.000
 70
    32
  0
VERTEX
  8
W54LXLIFT
 62
1
 10
496.079
 20
-5941.588
 30
-143.000
 70
    32
  0
VERTEX
  8
W54LXLIFT
 62
1
 10
500.357
 20
-5948.260
 30
-143.000
 70
    32
  0
VERTEX
  8
W54LXLIFT
 62
1
 10
505.879
 20
-5952.299
 30
-143.000
 70
    32
  0
VERTEX
  8
W54LXLIFT
 62
1
 10
511.201
 20
-5953.660
 30
-143.000
 70
    32
  0
VERTEX
  8
W54LXLIFT
 62
1
 10
524.806
 20
-5955.222
 30
-143.000
 70
    32
  0
VERTEX
  8
W54LXLIFT
 62
1
 10
530.743
 20
-5960.587
 30
-143.000
 70
    32
  0
VERTEX
  8
W54LXLIFT
 62
1
 10
534.780
 20
-5969.929
 30
-143.000
 70
    32
  0
VERTEX
  8
W54LXLIFT
 62
1
 10
535.043
 20
-5974.947
 30
-143.000
 70
    32
  0
VERTEX
  8
W54LXLIFT
 62
1
 10
529.844
 20
-5983.367
 30
-143.000
 70
    32
  0
VERTEX
  8
W54LXLIFT
 62
1
 10
526.682
 20
-5994.005
 30
-143.000
 70
    32
  0
VERTEX
  8
W54LXLIFT
 62
1
 10
524.287
 20
-6003.004
 30
-143.000
 70
    32
  0
VERTEX
  8
W54LXLIFT
 62
1
 10
524.019
 20
-6010.140
 30
-143.000
 70
    32
  0
VERTEX
  8
W54LXLIFT
 62
1
 10
516.101
 20
-6020.201
 30
-143.000
 70
    32
  0
VERTEX
  8
W54LXLIFT
 62
1
 10
515.377
 20
-6026.256
 30
-143.000
 70
    32
  0
SEQEND
  8
W54LXLIFT
  0
POLYLINE
  8
W54LXLIFT
 62
1
 66
     1
 70
     9
  0
VERTEX
  8
W54LXLIFT
 62
1
 10
634.262
 20
-6264.076
 30
-140.000
 70
    32
  0
VERTEX
  8
W54LXLIFT
 62
1
 10
638.678
 20
-6267.937
 30
-140.000
 70
    32
  0
VERTEX
  8
W54LXLIFT
 62
1
 10
639.887
 20
-6272.162
 30
-140.000
 70
    32
  0
VERTEX
  8
W54LXLIFT
 62
1
 10
644.422
 20
-6275.286
 30
-140.000
 70
    32
  0
VERTEX
  8
W54LXLIFT
 62
1
 10
648.969
 20
-6278.727
 30
-140.000
 70
    32
  0
VERTEX
  8
W54LXLIFT
 62
1
 10
651.386
 20
-6285.225
 30
-140.000
 70
    32
  0
VERTEX
  8
W54LXLIFT
 62
1
 10
651.933
 20
-6288.085
 30
-140.000
 70
    32
  0
VERTEX
  8
W54LXLIFT
 62
1
 10
656.560
 20
-6292.987
 30
-140.000
 70
    32
  0
VERTEX
  8
W54LXLIFT
 62
1
 10
660.740
 20
-6302.226
 30
-140.000
 70
    32
  0
VERTEX
  8
W54LXLIFT
 62
1
 10
669.746
 20
-6302.228
 30
-140.000
 70
    32
  0
VERTEX
  8
W54LXLIFT
 62
1
 10
672.268
 20
-6299.863
 30
-140.000
 70
    32
  0
VERTEX
  8
W54LXLIFT
 62
1
 10
673.214
 20
-6295.166
 30
-140.000
 70
    32
  0
VERTEX
  8
W54LXLIFT
 62
1
 10
672.939
 20
-6289.831
 30
-140.000
 70
    32
  0
VERTEX
  8
W54LXLIFT
 62
1
 10
678.620
 20
-6276.072
 30
-140.000
 70
    32
  0
VERTEX
  8
W54LXLIFT
 62
1
 10
677.364
 20
-6272.532
 30
-140.000
 70
    32
  0
VERTEX
  8
W54LXLIFT
 62
1
 10
672.709
 20
-6266.240
 30
-140.000
 70
    32
  0
VERTEX
  8
W54LXLIFT
 62
1
 10
670.043
 20
-6260.898
 30
-140.000
 70
    32
  0
VERTEX
  8
W54LXLIFT
 62
1
 10
669.729
 20
-6255.809
 30
-140.000
 70
    32
  0
VERTEX
  8
W54LXLIFT
 62
1
 10
669.388
 20
-6251.282
 30
-140.000
 70
    32
  0
VERTEX
  8
W54LXLIFT
 62
1
 10
665.869
 20
-6241.457
 30
-140.000
 70
    32
  0
VERTEX
  8
W54LXLIFT
 62
1
 10
664.058
 20
-6235.497
 30
-140.000
 70
    32
  0
VERTEX
  8
W54LXLIFT
 62
1
 10
662.830
 20
-6229.442
 30
-140.000
 70
    32
  0
VERTEX
  8
W54LXLIFT
 62
1
 10
654.779
 20
-6213.345
 30
-140.000
 70
    32
  0
VERTEX
  8
W54LXLIFT
 62
1
 10
657.649
 20
-6207.257
 30
-140.000
 70
    32
  0
VERTEX
  8
W54LXLIFT
 62
1
 10
655.197
 20
-6201.761
 30
-140.000
 70
    32
  0
VERTEX
  8
W54LXLIFT
 62
1
 10
651.853
 20
-6195.932
 30
-140.000
 70
    32
  0
VERTEX
  8
W54LXLIFT
 62
1
 10
654.085
 20
-6187.159
 30
-140.000
 70
    32
  0
VERTEX
  8
W54LXLIFT
 62
1
 10
661.751
 20
-6181.403
 30
-140.000
 70
    32
  0
VERTEX
  8
W54LXLIFT
 62
1
 10
659.781
 20
-6168.616
 30
-140.000
 70
    32
  0
VERTEX
  8
W54LXLIFT
 62
1
 10
654.589
 20
-6166.835
 30
-140.000
 70
    32
  0
VERTEX
  8
W54LXLIFT
 62
1
 10
654.392
 20
-6151.247
 30
-140.000
 70
    32
  0
VERTEX
  8
W54LXLIFT
 62
1
 10
654.211
 20
-6140.637
 30
-140.000
 70
    32
  0
VERTEX
  8
W54LXLIFT
 62
1
 10
646.271
 20
-6139.106
 30
-140.000
 70
    32
  0
VERTEX
  8
W54LXLIFT
 62
1
 10
639.421
 20
-6148.394
 30
-140.000
 70
    32
  0
VERTEX
  8
W54LXLIFT
 62
1
 10
639.166
 20
-6163.657
 30
-140.000
 70
    32
  0
VERTEX
  8
W54LXLIFT
 62
1
 10
629.465
 20
-6171.101
 30
-140.000
 70
    32
  0
VERTEX
  8
W54LXLIFT
 62
1
 10
632.418
 20
-6187.951
 30
-140.000
 70
    32
  0
VERTEX
  8
W54LXLIFT
 62
1
 10
636.158
 20
-6191.325
 30
-140.000
 70
    32
  0
VERTEX
  8
W54LXLIFT
 62
1
 10
634.924
 20
-6201.329
 30
-140.000
 70
    32
  0
VERTEX
  8
W54LXLIFT
 62
1
 10
639.457
 20
-6217.363
 30
-140.000
 70
    32
  0
VERTEX
  8
W54LXLIFT
 62
1
 10
646.910
 20
-6232.483
 30
-140.000
 70
    32
  0
VERTEX
  8
W54LXLIFT
 62
1
 10
650.238
 20
-6243.096
 30
-140.000
 70
    32
  0
VERTEX
  8
W54LXLIFT
 62
1
 10
650.980
 20
-6247.876
 30
-140.000
 70
    32
  0
VERTEX
  8
W54LXLIFT
 62
1
 10
647.939
 20
-6250.724
 30
-140.000
 70
    32
  0
VERTEX
  8
W54LXLIFT
 62
1
 10
636.042
 20
-6253.027
 30
-140.000
 70
    32
  0
SEQEND
  8
W54LXLIFT
  0
POLYLINE
  8
W54LXLIFT
 62
5
 66
     1
 70
     9
  0
VERTEX
  8
W54LXLIFT
 62
5
 10
1032.807
 20
-8012.615
 30
-178.309
 70
    32
  0
VERTEX
  8
W54LXLIFT
 62
5
 10
1028.995
 20
-8032.782
 30
-176.462
 70
    32
  0
VERTEX
  8
W54LXLIFT
 62
5
 10
1047.853
 20
-8052.869
 30
-173.684
 70
    32
  0
VERTEX
  8
W54LXLIFT
 62
5
 10
1051.480
 20
-8054.115
 30
-173.306
 70
    32
  0
VERTEX
  8
W54LXLIFT
 62
5
 10
1053.600
 20
-8052.173
 30
-173.212
 70
    32
  0
VERTEX
  8
W54LXLIFT
 62
5
 10
1049.807
 20
-8041.373
 30
-173.819
 70
    32
  0
VERTEX
  8
W54LXLIFT
 62
5
 10
1064.527
 20
-8033.332
 30
-172.358
 70
    32
  0
VERTEX
  8
W54LXLIFT
 62
5
 10
1069.803
 20
-8048.571
 30
-171.530
 70
    32
  0
VERTEX
  8
W54LXLIFT
 62
5
 10
1076.849
 20
-8058.496
 30
-171.100
 70
    32
  0
VERTEX
  8
W54LXLIFT
 62
5
 10
1082.551
 20
-8059.434
 30
-171.100
 70
    32
  0
VERTEX
  8
W54LXLIFT
 62
5
 10
1091.110
 20
-8059.474
 30
-171.100
 70
    32
  0
VERTEX
  8
W54LXLIFT
 62
5
 10
1098.976
 20
-8062.324
 30
-171.100
 70
    32
  0
VERTEX
  8
W54LXLIFT
 62
5
 10
1101.489
 20
-8066.767
 30
-171.100
 70
    32
  0
VERTEX
  8
W54LXLIFT
 62
5
 10
1101.034
 20
-8073.906
 30
-171.100
 70
    32
  0
VERTEX
  8
W54LXLIFT
 62
5
 10
1098.687
 20
-8079.347
 30
-171.100
 70
    32
  0
VERTEX
  8
W54LXLIFT
 62
5
 10
1087.372
 20
-8079.259
 30
-171.100
 70
    32
  0
VERTEX
  8
W54LXLIFT
 62
5
 10
1088.894
 20
-8087.451
 30
-171.100
 70
    32
  0
VERTEX
  8
W54LXLIFT
 62
5
 10
1082.883
 20
-8093.054
 30
-171.100
 70
    32
  0
VERTEX
  8
W54LXLIFT
 62
5
 10
1074.355
 20
-8096.087
 30
-171.100
 70
    32
  0
VERTEX
  8
W54LXLIFT
 62
5
 10
1069.070
 20
-8086.846
 30
-171.100
 70
    32
  0
VERTEX
  8
W54LXLIFT
 62
5
 10
1062.836
 20
-8070.119
 30
-171.717
 70
    32
  0
VERTEX
  8
W54LXLIFT
 62
5
 10
1045.679
 20
-8062.568
 30
-173.386
 70
    32
  0
VERTEX
  8
W54LXLIFT
 62
5
 10
1037.699
 20
-8063.865
 30
-174.005
 70
    32
  0
VERTEX
  8
W54LXLIFT
 62
5
 10
1028.709
 20
-8053.730
 30
-175.062
 70
    32
  0
VERTEX
  8
W54LXLIFT
 62
5
 10
1021.062
 20
-8058.279
 30
-175.126
 70
    32
  0
VERTEX
  8
W54LXLIFT
 62
5
 10
1016.975
 20
-8059.269
 30
-175.244
 70
    32
  0
VERTEX
  8
W54LXLIFT
 62
5
 10
1009.105
 20
-8058.942
 30
-175.597
 70
    32
  0
VERTEX
  8
W54LXLIFT
 62
5
 10
1005.051
 20
-8056.781
 30
-175.863
 70
    32
  0
VERTEX
  8
W54LXLIFT
 62
5
 10
1007.459
 20
-8040.589
 30
-176.584
 70
    32
  0
VERTEX
  8
W54LXLIFT
 62
5
 10
1008.800
 20
-8024.012
 30
-177.665
 70
    32
  0
VERTEX
  8
W54LXLIFT
 62
5
 10
1018.757
 20
-8003.793
 30
-178.673
 70
    32
  0
SEQEND
  8
W54LXLIFT
  0
POLYLINE
  8
W54LXLIFT
 62
8
 66
     1
 70
     9
  0
VERTEX
  8
W54LXLIFT
 62
8
 10
1259.748
 20
-8385.803
 30
-213.140
 70
    32
  0
VERTEX
  8
W54LXLIFT
 62
8
 10
1265.264
 20
-8370.821
 30
-213.282
 70
    32
  0
VERTEX
  8
W54LXLIFT
 62
8
 10
1265.305
 20
-8366.034
 30
-213.299
 70
    32
  0
VERTEX
  8
W54LXLIFT
 62
8
 10
1257.764
 20
-8337.545
 30
-213.263
 70
    32
  0
VERTEX
  8
W54LXLIFT
 62
8
 10
1264.032
 20
-8336.470
 30
-213.373
 70
    32
  0
VERTEX
  8
W54LXLIFT
 62
8
 10
1268.433
 20
-8352.285
 30
-213.397
 70
    32
  0
VERTEX
  8
W54LXLIFT
 62
8
 10
1274.319
 20
-8361.120
 30
-213.468
 70
    32
  0
VERTEX
  8
W54LXLIFT
 62
8
 10
1278.597
 20
-8372.197
 30
-213.505
 70
    32
  0
VERTEX
  8
W54LXLIFT
 62
8
 10
1282.786
 20
-8378.514
 30
-213.556
 70
    32
  0
VERTEX
  8
W54LXLIFT
 62
8
 10
1292.747
 20
-8421.658
 30
-213.586
 70
    32
  0
VERTEX
  8
W54LXLIFT
 62
8
 10
1293.627
 20
-8456.275
 30
-213.493
 70
    32
  0
VERTEX
  8
W54LXLIFT
 62
8
 10
1297.936
 20
-8477.690
 30
-213.499
 70
    32
  0
VERTEX
  8
W54LXLIFT
 62
8
 10
1295.609
 20
-8479.886
 30
-213.453
 70
    32
  0
VERTEX
  8
W54LXLIFT
 62
8
 10
1290.144
 20
-8476.596
 30
-213.371
 70
    32
  0
VERTEX
  8
W54LXLIFT
 62
8
 10
1292.773
 20
-8497.396
 30
-213.350
 70
    32
  0
VERTEX
  8
W54LXLIFT
 62
8
 10
1286.529
 20
-8500.997
 30
-213.233
 70
    32
  0
VERTEX
  8
W54LXLIFT
 62
8
 10
1279.578
 20
-8489.869
 30
-213.150
 70
    32
  0
VERTEX
  8
W54LXLIFT
 62
8
 10
1274.155
 20
-8475.045
 30
-213.104
 70
    32
  0
VERTEX
  8
W54LXLIFT
 62
8
 10
1274.379
 20
-8458.177
 30
-213.160
 70
    32
  0
VERTEX
  8
W54LXLIFT
 62
8
 10
1280.662
 20
-8441.717
 30
-213.318
 70
    32
  0
VERTEX
  8
W54LXLIFT
 62
8
 10
1281.125
 20
-8436.170
 30
-213.344
 70
    32
  0
VERTEX
  8
W54LXLIFT
 62
8
 10
1279.433
 20
-8408.691
 30
-213.401
 70
    32
  0
VERTEX
  8
W54LXLIFT
 62
8
 10
1262.935
 20
-8393.700
 30
-213.168
 70
    32
  0
SEQEND
  8
W54LXLIFT
  0
POLYLINE
  8
W54LXLIFT
 62
1
 66
     1
 70
     9
  0
VERTEX
  8
W54LXLIFT
 62
1
 10
1260.748
 20
-8384.803
 30
-203.140
 70
    32
  0
VERTEX
  8
W54LXLIFT
 62
1
 10
1266.264
 20
-8369.821
 30
-203.282
 70
    32
  0
VERTEX
  8
W54LXLIFT
 62
1
 10
1266.305
 20
-8365.034
 30
-203.299
 70
    32
  0
VERTEX
  8
W54LXLIFT
 62
1
 10
1258.764
 20
-8336.545
 30
-203.263
 70
    32
  0
VERTEX
  8
W54LXLIFT
 62
1
 10
1265.032
 20
-8335.470
 30
-203.373
 70
    32
  0
VERTEX
  8
W54LXLIFT
 62
1
 10
1269.433
 20
-8351.285
 30
-203.397
 70
    32
  0
VERTEX
  8
W54LXLIFT
 62
1
 10
1275.319
 20
-8360.120
 30
-203.468
 70
    32
  0
VERTEX
  8
W54LXLIFT
 62
1
 10
1279.597
 20
-8371.197
 30
-203.505
 70
    32
  0
VERTEX
  8
W54LXLIFT
 62
1
 10
1283.786
 20
-8377.514
 30
-203.556
 70
    32
  0
VERTEX
  8
W54LXLIFT
 62
1
 10
1293.747
 20
-8420.658
 30
-203.586
 70
    32
  0
VERTEX
  8
W54LXLIFT
 62
1
 10
1294.627
 20
-8455.275
 30
-203.493
 70
    32
  0
VERTEX
  8
W54LXLIFT
 62
1
 10
1298.936
 20
-8476.690
 30
-203.499
 70
    32
  0
VERTEX
  8
W54LXLIFT
 62
1
 10
1296.609
 20
-8478.886
 30
-203.453
 70
    32
  0
VERTEX
  8
W54LXLIFT
 62
1
 10
1291.144
 20
-8475.596
 30
-203.371
 70
    32
  0
VERTEX
  8
W54LXLIFT
 62
1
 10
1293.773
 20
-8496.396
 30
-203.350
 70
    32
  0
VERTEX
  8
W54LXLIFT
 62
1
 10
1287.529
 20
-8499.997
 30
-203.233
 70
    32
  0
VERTEX
  8
W54LXLIFT
 62
1
 10
1280.578
 20
-8488.869
 30
-203.150
 70
    32
  0
VERTEX
  8
W54LXLIFT
 62
1
 10
1275.155
 20
-8474.045
 30
-203.104
 70
    32
  0
VERTEX
  8
W54LXLIFT
 62
1
 10
1275.379
 20
-8457.177
 30
-203.160
 70
    32
  0
VERTEX
  8
W54LXLIFT
 62
1
 10
1281.662
 20
-8440.717
 30
-203.318
 70
    32
  0
VERTEX
  8
W54LXLIFT
 62
1
 10
1282.125
 20
-8435.170
 30
-203.344
 70
    32
  0
VERTEX
  8
W54LXLIFT
 62
1
 10
1280.433
 20
-8407.691
 30
-203.401
 70
    32
  0
VERTEX
  8
W54LXLIFT
 62
1
 10
1263.935
 20
-8392.700
 30
-203.168
 70
    32
  0
SEQEND
  8
W54LXLIFT
  0
POLYLINE
  8
W54LXLIFT
 62
11
 66
     1
 70
     9
  0
VERTEX
  8
W54LXLIFT
 62
11
 10
1239.681
 20
-7851.088
 30
-207.394
 70
    32
  0
VERTEX
  8
W54LXLIFT
 62
11
 10
1251.726
 20
-7854.172
 30
-207.573
 70
    32
  0
VERTEX
  8
W54LXLIFT
 62
11
 10
1258.786
 20
-7870.594
 30
-207.649
 70
    32
  0
VERTEX
  8
W54LXLIFT
 62
11
 10
1263.516
 20
-7897.405
 30
-207.724
 70
    32
  0
VERTEX
  8
W54LXLIFT
 62
11
 10
1268.958
 20
-7912.824
 30
-207.783
 70
    32
  0
VERTEX
  8
W54LXLIFT
 62
11
 10
1273.777
 20
-7937.374
 30
-207.854
 70
    32
  0
VERTEX
  8
W54LXLIFT
 62
11
 10
1262.792
 20
-7947.985
 30
-207.805
 70
    32
  0
VERTEX
  8
W54LXLIFT
 62
11
 10
1255.024
 20
-7952.610
 30
-207.766
 70
    32
  0
VERTEX
  8
W54LXLIFT
 62
11
 10
1239.621
 20
-7902.071
 30
-207.586
 70
    32
  0
VERTEX
  8
W54LXLIFT
 62
11
 10
1233.954
 20
-7873.096
 30
-207.427
 70
    32
  0
VERTEX
  8
W54LXLIFT
 62
11
 10
1229.187
 20
-7859.485
 30
-207.294
 70
    32
  0
SEQEND
  8
W54LXLIFT
  0
POINT
  8
W54LXLIFT
 62
4
 10
1087.863
 20
-7658.864
 30
-186.000
  0
POINT
  8
W54LXLIFT
 62
4
 10
1074.209
 20
-7697.471
 30
-102.000
  0
LINE
  8
W54LXLIFT
 62
7
 10
1074.209
 20
-7697.471
 30
-102.000
 11
1087.863
 21
-7658.864
 31
-186.000
  0
POLYLINE
  8
W54LXLIFT
 62
8
 66
     1
 70
     9
  0
VERTEX
  8
W54LXLIFT
 62
8
 10
1246.368
 20
-7428.463
 30
-88.000
 70
    32
  0
VERTEX
  8
W54LXLIFT
 62
8
 10
1245.456
 20
-7420.329
 30
-88.000
 70
    32
  0
VERTEX
  8
W54LXLIFT
 62
8
 10
1242.967
 20
-7413.014
 30
-88.000
 70
    32
  0
VERTEX
  8
W54LXLIFT
 62
8
 10
1235.765
 20
-7401.304
 30
-88.000
 70
    32
  0
VERTEX
  8
W54LXLIFT
 62
8
 10
1229.407
 20
-7391.803
 30
-88.000
 70
    32
  0
VERTEX
  8
W54LXLIFT
 62
8
 10
1240.619
 20
-7386.158
 30
-88.000
 70
    32
  0
VERTEX
  8
W54LXLIFT
 62
8
 10
1246.028
 20
-7382.989
 30
-88.000
 70
    32
  0
VERTEX
  8
W54LXLIFT
 62
8
 10
1255.185
 20
-7400.231
 30
-88.000
 70
    32
  0
VERTEX
  8
W54LXLIFT
 62
8
 10
1262.149
 20
-7399.951
 30
-88.000
 70
    32
  0
VERTEX
  8
W54LXLIFT
 62
8
 10
1263.811
 20
-7386.689
 30
-88.000
 70
    32
  0
VERTEX
  8
W54LXLIFT
 62
8
 10
1266.423
 20
-7383.706
 30
-88.000
 70
    32
  0
VERTEX
  8
W54LXLIFT
 62
8
 10
1285.675
 20
-7383.298
 30
-88.000
 70
    32
  0
VERTEX
  8
W54LXLIFT
 62
8
 10
1289.695
 20
-7391.673
 30
-88.000
 70
    32
  0
VERTEX
  8
W54LXLIFT
 62
8
 10
1286.662
 20
-7406.039
 30
-88.000
 70
    32
  0
VERTEX
  8
W54LXLIFT
 62
8
 10
1275.527
 20
-7412.389
 30
-88.000
 70
    32
  0
VERTEX
  8
W54LXLIFT
 62
8
 10
1270.757
 20
-7416.288
 30
-88.000
 70
    32
  0
VERTEX
  8
W54LXLIFT
 62
8
 10
1270.599
 20
-7422.050
 30
-88.000
 70
    32
  0
VERTEX
  8
W54LXLIFT
 62
8
 10
1276.765
 20
-7426.802
 30
-88.000
 70
    32
  0
VERTEX
  8
W54LXLIFT
 62
8
 10
1286.316
 20
-7422.906
 30
-88.000
 70
    32
  0
VERTEX
  8
W54LXLIFT
 62
8
 10
1292.277
 20
-7426.179
 30
-88.000
 70
    32
  0
VERTEX
  8
W54LXLIFT
 62
8
 10
1298.594
 20
-7437.120
 30
-88.000
 70
    32
  0
VERTEX
  8
W54LXLIFT
 62
8
 10
1299.088
 20
-7442.734
 30
-88.000
 70
    32
  0
VERTEX
  8
W54LXLIFT
 62
8
 10
1296.256
 20
-7447.507
 30
-88.000
 70
    32
  0
VERTEX
  8
W54LXLIFT
 62
8
 10
1299.139
 20
-7455.513
 30
-88.000
 70
    32
  0
VERTEX
  8
W54LXLIFT
 62
8
 10
1304.518
 20
-7458.882
 30
-88.000
 70
    32
  0
VERTEX
  8
W54LXLIFT
 62
8
 10
1309.939
 20
-7468.737
 30
-88.000
 70
    32
  0
VERTEX
  8
W54LXLIFT
 62
8
 10
1311.405
 20
-7479.727
 30
-88.000
 70
    32
  0
VERTEX
  8
W54LXLIFT
 62
8
 10
1308.690
 20
-7481.373
 30
-88.000
 70
    32
  0
VERTEX
  8
W54LXLIFT
 62
8
 10
1301.346
 20
-7500.717
 30
-88.000
 70
    32
  0
VERTEX
  8
W54LXLIFT
 62
8
 10
1294.037
 20
-7483.327
 30
-88.000
 70
    32
  0
VERTEX
  8
W54LXLIFT
 62
8
 10
1291.068
 20
-7469.520
 30
-88.000
 70
    32
  0
VERTEX
  8
W54LXLIFT
 62
8
 10
1286.158
 20
-7458.425
 30
-88.000
 70
    32
  0
VERTEX
  8
W54LXLIFT
 62
8
 10
1269.289
 20
-7439.834
 30
-88.000
 70
    32
  0
VERTEX
  8
W54LXLIFT
 62
8
 10
1258.289
 20
-7446.520
 30
-88.000
 70
    32
  0
SEQEND
  8
W54LXLIFT
  0
POLYLINE
  8
W54LXLIFT
 62
8
 66
     1
 70
     9
  0
VERTEX
  8
W54LXLIFT
 62
8
 10
1291.158
 20
-7374.223
 30
-205.925
 70
    32
  0
VERTEX
  8
W54LXLIFT
 62
8
 10
1289.644
 20
-7371.277
 30
-205.914
 70
    32
  0
VERTEX
  8
W54LXLIFT
 62
8
 10
1294.832
 20
-7367.891
 30
-205.982
 70
    32
  0
VERTEX
  8
W54LXLIFT
 62
8
 10
1301.343
 20
-7360.345
 30
-206.074
 70
    32
  0
VERTEX
  8
W54LXLIFT
 62
8
 10
1300.404
 20
-7351.925
 30
-206.081
 70
    32
  0
VERTEX
  8
W54LXLIFT
 62
8
 10
1307.830
 20
-7347.108
 30
-206.178
 70
    32
  0
VERTEX
  8
W54LXLIFT
 62
8
 10
1321.790
 20
-7364.699
 30
-206.304
 70
    32
  0
VERTEX
  8
W54LXLIFT
 62
8
 10
1323.898
 20
-7366.218
 30
-206.326
 70
    32
  0
VERTEX
  8
W54LXLIFT
 62
8
 10
1328.675
 20
-7365.550
 30
-206.383
 70
    32
  0
VERTEX
  8
W54LXLIFT
 62
8
 10
1340.240
 20
-7377.660
 30
-206.502
 70
    32
  0
VERTEX
  8
W54LXLIFT
 62
8
 10
1344.694
 20
-7375.364
 30
-206.556
 70
    32
  0
VERTEX
  8
W54LXLIFT
 62
8
 10
1350.290
 20
-7382.655
 30
-206.618
 70
    32
  0
VERTEX
  8
W54LXLIFT
 62
8
 10
1342.820
 20
-7388.603
 30
-206.525
 70
    32
  0
VERTEX
  8
W54LXLIFT
 62
8
 10
1344.028
 20
-7396.494
 30
-206.535
 70
    32
  0
VERTEX
  8
W54LXLIFT
 62
8
 10
1348.336
 20
-7403.527
 30
-206.629
 70
    32
  0
VERTEX
  8
W54LXLIFT
 62
8
 10
1344.759
 20
-7408.800
 30
-206.607
 70
    32
  0
VERTEX
  8
W54LXLIFT
 62
8
 10
1345.596
 20
-7414.550
 30
-206.647
 70
    32
  0
VERTEX
  8
W54LXLIFT
 62
8
 10
1351.624
 20
-7427.340
 30
-206.793
 70
    32
  0
VERTEX
  8
W54LXLIFT
 62
8
 10
1342.121
 20
-7433.360
 30
-206.694
 70
    32
  0
VERTEX
  8
W54LXLIFT
 62
8
 10
1329.034
 20
-7438.838
 30
-206.544
 70
    32
  0
VERTEX
  8
W54LXLIFT
 62
8
 10
1324.603
 20
-7431.786
 30
-206.449
 70
    32
  0
VERTEX
  8
W54LXLIFT
 62
8
 10
1316.433
 20
-7417.282
 30
-206.265
 70
    32
  0
VERTEX
  8
W54LXLIFT
 62
8
 10
1311.070
 20
-7413.881
 30
-206.175
 70
    32
  0
VERTEX
  8
W54LXLIFT
 62
8
 10
1305.545
 20
-7406.538
 30
-206.072
 70
    32
  0
VERTEX
  8
W54LXLIFT
 62
8
 10
1303.673
 20
-7395.513
 30
-206.056
 70
    32
  0
VERTEX
  8
W54LXLIFT
 62
8
 10
1300.398
 20
-7387.499
 30
-206.023
 70
    32
  0
SEQEND
  8
W54LXLIFT
  0
POLYLINE
  8
W54LXLIFT
 62
1
 66
     1
 70
     9
  0
VERTEX
  8
W54LXLIFT
 62
1
 10
1292.158
 20
-7373.223
 30
-195.925
 70
    32
  0
VERTEX
  8
W54LXLIFT
 62
1
 10
1290.644
 20
-7370.277
 30
-195.914
 70
    32
  0
VERTEX
  8
W54LXLIFT
 62
1
 10
1295.832
 20
-7366.891
 30
-195.982
 70
    32
  0
VERTEX
  8
W54LXLIFT
 62
1
 10
1302.343
 20
-7359.345
 30
-196.074
 70
    32
  0
VERTEX
  8
W54LXLIFT
 62
1
 10
1301.404
 20
-7350.925
 30
-196.081
 70
    32
  0
VERTEX
  8
W54LXLIFT
 62
1
 10
1308.830
 20
-7346.108
 30
-196.178
 70
    32
  0
VERTEX
  8
W54LXLIFT
 62
1
 10
1322.790
 20
-7363.699
 30
-196.304
 70
    32
  0
VERTEX
  8
W54LXLIFT
 62
1
 10
1324.898
 20
-7365.218
 30
-196.326
 70
    32
  0
VERTEX
  8
W54LXLIFT
 62
1
 10
1329.675
 20
-7364.550
 30
-196.383
 70
    32
  0
VERTEX
  8
W54LXLIFT
 62
1
 10
1341.240
 20
-7376.660
 30
-196.502
 70
    32
  0
VERTEX
  8
W54LXLIFT
 62
1
 10
1345.694
 20
-7374.364
 30
-196.556
 70
    32
  0
VERTEX
  8
W54LXLIFT
 62
1
 10
1351.290
 20
-7381.655
 30
-196.618
 70
    32
  0
VERTEX
  8
W54LXLIFT
 62
1
 10
1343.820
 20
-7387.603
 30
-196.525
 70
    32
  0
VERTEX
  8
W54LXLIFT
 62
1
 10
1345.028
 20
-7395.494
 30
-196.535
 70
    32
  0
VERTEX
  8
W54LXLIFT
 62
1
 10
1349.336
 20
-7402.527
 30
-196.629
 70
    32
  0
VERTEX
  8
W54LXLIFT
 62
1
 10
1345.759
 20
-7407.800
 30
-196.607
 70
    32
  0
VERTEX
  8
W54LXLIFT
 62
1
 10
1346.596
 20
-7413.550
 30
-196.647
 70
    32
  0
VERTEX
  8
W54LXLIFT
 62
1
 10
1352.624
 20
-7426.340
 30
-196.793
 70
    32
  0
VERTEX
  8
W54LXLIFT
 62
1
 10
1343.121
 20
-7432.360
 30
-196.694
 70
    32
  0
VERTEX
  8
W54LXLIFT
 62
1
 10
1330.034
 20
-7437.838
 30
-196.544
 70
    32
  0
VERTEX
  8
W54LXLIFT
 62
1
 10
1325.603
 20
-7430.786
 30
-196.449
 70
    32
  0
VERTEX
  8
W54LXLIFT
 62
1
 10
1317.433
 20
-7416.282
 30
-196.265
 70
    32
  0
VERTEX
  8
W54LXLIFT
 62
1
 10
1312.070
 20
-7412.881
 30
-196.175
 70
    32
  0
VERTEX
  8
W54LXLIFT
 62
1
 10
1306.545
 20
-7405.538
 30
-196.072
 70
    32
  0
VERTEX
  8
W54LXLIFT
 62
1
 10
1304.673
 20
-7394.513
 30
-196.056
 70
    32
  0
VERTEX
  8
W54LXLIFT
 62
1
 10
1301.398
 20
-7386.499
 30
-196.023
 70
    32
  0
SEQEND
  8
W54LXLIFT
  0
POLYLINE
  8
W54LXLIFT
 62
1
 66
     1
 70
     9
  0
VERTEX
  8
W54LXLIFT
 62
1
 10
1247.368
 20
-7427.463
 30
-78.000
 70
    32
  0
VERTEX
  8
W54LXLIFT
 62
1
 10
1246.456
 20
-7419.329
 30
-78.000
 70
    32
  0
VERTEX
  8
W54LXLIFT
 62
1
 10
1243.967
 20
-7412.014
 30
-78.000
 70
    32
  0
VERTEX
  8
W54LXLIFT
 62
1
 10
1236.765
 20
-7400.304
 30
-78.000
 70
    32
  0
VERTEX
  8
W54LXLIFT
 62
1
 10
1230.407
 20
-7390.803
 30
-78.000
 70
    32
  0
VERTEX
  8
W54LXLIFT
 62
1
 10
1241.619
 20
-7385.158
 30
-78.000
 70
    32
  0
VERTEX
  8
W54LXLIFT
 62
1
 10
1247.028
 20
-7381.989
 30
-78.000
 70
    32
  0
VERTEX
  8
W54LXLIFT
 62
1
 10
1256.185
 20
-7399.231
 30
-78.000
 70
    32
  0
VERTEX
  8
W54LXLIFT
 62
1
 10
1263.149
 20
-7398.951
 30
-78.000
 70
    32
  0
VERTEX
  8
W54LXLIFT
 62
1
 10
1264.811
 20
-7385.689
 30
-78.000
 70
    32
  0
VERTEX
  8
W54LXLIFT
 62
1
 10
1267.423
 20
-7382.706
 30
-78.000
 70
    32
  0
VERTEX
  8
W54LXLIFT
 62
1
 10
1286.675
 20
-7382.298
 30
-78.000
 70
    32
  0
VERTEX
  8
W54LXLIFT
 62
1
 10
1290.695
 20
-7390.673
 30
-78.000
 70
    32
  0
VERTEX
  8
W54LXLIFT
 62
1
 10
1287.662
 20
-7405.039
 30
-78.000
 70
    32
  0
VERTEX
  8
W54LXLIFT
 62
1
 10
1276.527
 20
-7411.389
 30
-78.000
 70
    32
  0
VERTEX
  8
W54LXLIFT
 62
1
 10
1271.757
 20
-7415.288
 30
-78.000
 70
    32
  0
VERTEX
  8
W54LXLIFT
 62
1
 10
1271.599
 20
-7421.050
 30
-78.000
 70
    32
  0
VERTEX
  8
W54LXLIFT
 62
1
 10
1277.765
 20
-7425.802
 30
-78.000
 70
    32
  0
VERTEX
  8
W54LXLIFT
 62
1
 10
1287.316
 20
-7421.906
 30
-78.000
 70
    32
  0
VERTEX
  8
W54LXLIFT
 62
1
 10
1293.277
 20
-7425.179
 30
-78.000
 70
    32
  0
VERTEX
  8
W54LXLIFT
 62
1
 10
1299.594
 20
-7436.120
 30
-78.000
 70
    32
  0
VERTEX
  8
W54LXLIFT
 62
1
 10
1300.088
 20
-7441.734
 30
-78.000
 70
    32
  0
VERTEX
  8
W54LXLIFT
 62
1
 10
1297.256
 20
-7446.507
 30
-78.000
 70
    32
  0
VERTEX
  8
W54LXLIFT
 62
1
 10
1300.139
 20
-7454.513
 30
-78.000
 70
    32
  0
VERTEX
  8
W54LXLIFT
 62
1
 10
1305.518
 20
-7457.882
 30
-78.000
 70
    32
  0
VERTEX
  8
W54LXLIFT
 62
1
 10
1310.939
 20
-7467.737
 30
-78.000
 70
    32
  0
VERTEX
  8
W54LXLIFT
 62
1
 10
1312.405
 20
-7478.727
 30
-78.000
 70
    32
  0
VERTEX
  8
W54LXLIFT
 62
1
 10
1309.690
 20
-7480.373
 30
-78.000
 70
    32
  0
VERTEX
  8
W54LXLIFT
 62
1
 10
1302.346
 20
-7499.717
 30
-78.000
 70
    32
  0
VERTEX
  8
W54LXLIFT
 62
1
 10
1295.037
 20
-7482.327
 30
-78.000
 70
    32
  0
VERTEX
  8
W54LXLIFT
 62
1
 10
1292.068
 20
-7468.520
 30
-78.000
 70
    32
  0
VERTEX
  8
W54LXLIFT
 62
1
 10
1287.158
 20
-7457.425
 30
-78.000
 70
    32
  0
VERTEX
  8
W54LXLIFT
 62
1
 10
1270.289
 20
-7438.834
 30
-78.000
 70
    32
  0
VERTEX
  8
W54LXLIFT
 62
1
 10
1259.289
 20
-7445.520
 30
-78.000
 70
    32
  0
SEQEND
  8
W54LXLIFT
  0
POINT
  8
W54LXLIFT
 62
8
 10
1323.129
 20
-7391.764
 30
-196.175
  0
POINT
  8
W54LXLIFT
 62
8
 10
1282.702
 20
-7434.538
 30
-88.000
  0
LINE
  8
W54LXLIFT
 62
8
 10
1282.702
 20
-7434.538
 30
-88.000
 11
1323.129
 21
-7391.764
 31
-196.175
  0
POLYLINE
  8
W54LXLIFT
 62
1
 66
     1
 70
     9
  0
VERTEX
  8
W54LXLIFT
 62
1
 10
1141.845
 20
-7280.978
 30
-195.000
 70
    32
  0
VERTEX
  8
W54LXLIFT
 62
1
 10
1149.384
 20
-7289.632
 30
-195.000
 70
    32
  0
VERTEX
  8
W54LXLIFT
 62
1
 10
1156.449
 20
-7295.375
 30
-195.000
 70
    32
  0
VERTEX
  8
W54LXLIFT
 62
1
 10
1159.862
 20
-7304.619
 30
-195.000
 70
    32
  0
VERTEX
  8
W54LXLIFT
 62
1
 10
1161.236
 20
-7308.179
 30
-195.000
 70
    32
  0
VERTEX
  8
W54LXLIFT
 62
1
 10
1156.669
 20
-7310.713
 30
-195.000
 70
    32
  0
VERTEX
  8
W54LXLIFT
 62
1
 10
1151.976
 20
-7312.471
 30
-195.000
 70
    32
  0
VERTEX
  8
W54LXLIFT
 62
1
 10
1149.853
 20
-7317.794
 30
-195.000
 70
    32
  0
VERTEX
  8
W54LXLIFT
 62
1
 10
1145.991
 20
-7320.253
 30
-195.000
 70
    32
  0
VERTEX
  8
W54LXLIFT
 62
1
 10
1139.485
 20
-7321.150
 30
-195.000
 70
    32
  0
VERTEX
  8
W54LXLIFT
 62
1
 10
1134.439
 20
-7319.261
 30
-195.000
 70
    32
  0
VERTEX
  8
W54LXLIFT
 62
1
 10
1128.545
 20
-7312.889
 30
-195.000
 70
    32
  0
VERTEX
  8
W54LXLIFT
 62
1
 10
1130.761
 20
-7305.440
 30
-195.000
 70
    32
  0
VERTEX
  8
W54LXLIFT
 62
1
 10
1129.190
 20
-7296.495
 30
-195.000
 70
    32
  0
VERTEX
  8
W54LXLIFT
 62
1
 10
1130.565
 20
-7290.735
 30
-195.000
 70
    32
  0
VERTEX
  8
W54LXLIFT
 62
1
 10
1128.633
 20
-7285.951
 30
-195.000
 70
    32
  0
SEQEND
  8
W54LXLIFT
  0
POINT
  8
W54LXLIFT
 62
2
 10
1143.336
 20
-7301.047
 30
-195.000
  0
POINT
  8
W54LXLIFT
 62
2
 10
1119.812
 20
-7285.201
 30
-60.727
  0
LINE
  8
W54LXLIFT
 62
2
 10
1119.812
 20
-7285.201
 30
-60.727
 11
1143.336
 21
-7301.047
 31
-195.000
  0
POLYLINE
  8
W54LXLIFT
 62
3
 66
     1
 70
     9
  0
VERTEX
  8
W54LXLIFT
 62
3
 10
1124.996
 20
-7271.496
 30
-129.000
 70
    32
  0
VERTEX
  8
W54LXLIFT
 62
3
 10
1122.624
 20
-7264.516
 30
-129.000
 70
    32
  0
VERTEX
  8
W54LXLIFT
 62
3
 10
1117.396
 20
-7259.294
 30
-129.000
 70
    32
  0
VERTEX
  8
W54LXLIFT
 62
3
 10
1115.074
 20
-7255.217
 30
-129.000
 70
    32
  0
VERTEX
  8
W54LXLIFT
 62
3
 10
1109.091
 20
-7247.170
 30
-129.000
 70
    32
  0
VERTEX
  8
W54LXLIFT
 62
3
 10
1103.936
 20
-7243.092
 30
-129.000
 70
    32
  0
VERTEX
  8
W54LXLIFT
 62
3
 10
1100.196
 20
-7234.388
 30
-129.000
 70
    32
  0
VERTEX
  8
W54LXLIFT
 62
3
 10
1089.615
 20
-7229.589
 30
-129.000
 70
    32
  0
VERTEX
  8
W54LXLIFT
 62
3
 10
1090.156
 20
-7243.459
 30
-129.000
 70
    32
  0
VERTEX
  8
W54LXLIFT
 62
3
 10
1093.290
 20
-7256.853
 30
-129.000
 70
    32
  0
VERTEX
  8
W54LXLIFT
 62
3
 10
1094.994
 20
-7262.469
 30
-129.000
 70
    32
  0
VERTEX
  8
W54LXLIFT
 62
3
 10
1101.756
 20
-7268.750
 30
-129.000
 70
    32
  0
VERTEX
  8
W54LXLIFT
 62
3
 10
1108.983
 20
-7270.444
 30
-129.000
 70
    32
  0
VERTEX
  8
W54LXLIFT
 62
3
 10
1115.007
 20
-7272.581
 30
-129.000
 70
    32
  0
VERTEX
  8
W54LXLIFT
 62
3
 10
1119.100
 20
-7275.801
 30
-129.000
 70
    32
  0
SEQEND
  8
W54LXLIFT
  0
POINT
  8
W54LXLIFT
 62
3
 10
1108.983
 20
-7258.674
 30
-174.000
  0
POINT
  8
W54LXLIFT
 62
3
 10
1106.594
 20
-7255.595
 30
-130.000
  0
LINE
  8
W54LXLIFT
 62
3
 10
1106.594
 20
-7255.595
 30
-130.000
 11
1108.983
 21
-7258.674
 31
-174.000
  0
POLYLINE
  8
W54LXLIFT
 62
6
 66
     1
 70
     9
  0
VERTEX
  8
W54LXLIFT
 62
6
 10
1035.707
 20
-7093.669
 30
-203.309
 70
    32
  0
VERTEX
  8
W54LXLIFT
 62
6
 10
1075.035
 20
-7137.035
 30
-203.641
 70
    32
  0
VERTEX
  8
W54LXLIFT
 62
6
 10
1082.515
 20
-7146.646
 30
-203.697
 70
    32
  0
VERTEX
  8
W54LXLIFT
 62
6
 10
1095.752
 20
-7169.371
 30
-203.767
 70
    32
  0
VERTEX
  8
W54LXLIFT
 62
6
 10
1089.675
 20
-7185.843
 30
-203.682
 70
    32
  0
VERTEX
  8
W54LXLIFT
 62
6
 10
1092.048
 20
-7197.078
 30
-203.710
 70
    32
  0
VERTEX
  8
W54LXLIFT
 62
6
 10
1104.176
 20
-7214.542
 30
-203.851
 70
    32
  0
VERTEX
  8
W54LXLIFT
 62
6
 10
1107.164
 20
-7222.424
 30
-203.886
 70
    32
  0
VERTEX
  8
W54LXLIFT
 62
6
 10
1104.671
 20
-7228.767
 30
-203.858
 70
    32
  0
VERTEX
  8
W54LXLIFT
 62
6
 10
1108.575
 20
-7241.514
 30
-203.905
 70
    32
  0
VERTEX
  8
W54LXLIFT
 62
6
 10
1120.257
 20
-7248.862
 30
-204.039
 70
    32
  0
VERTEX
  8
W54LXLIFT
 62
6
 10
1124.928
 20
-7259.164
 30
-204.094
 70
    32
  0
VERTEX
  8
W54LXLIFT
 62
6
 10
1130.099
 20
-7265.481
 30
-204.154
 70
    32
  0
VERTEX
  8
W54LXLIFT
 62
6
 10
1133.772
 20
-7277.357
 30
-204.197
 70
    32
  0
VERTEX
  8
W54LXLIFT
 62
6
 10
1122.847
 20
-7286.368
 30
-204.073
 70
    32
  0
VERTEX
  8
W54LXLIFT
 62
6
 10
1114.127
 20
-7279.040
 30
-203.972
 70
    32
  0
VERTEX
  8
W54LXLIFT
 62
6
 10
1088.366
 20
-7244.853
 30
-203.674
 70
    32
  0
VERTEX
  8
W54LXLIFT
 62
6
 10
1082.013
 20
-7243.743
 30
-203.601
 70
    32
  0
VERTEX
  8
W54LXLIFT
 62
6
 10
1073.270
 20
-7233.965
 30
-203.500
 70
    32
  0
VERTEX
  8
W54LXLIFT
 62
6
 10
1069.130
 20
-7215.331
 30
-203.450
 70
    32
  0
VERTEX
  8
W54LXLIFT
 62
6
 10
1072.097
 20
-7208.952
 30
-203.483
 70
    32
  0
VERTEX
  8
W54LXLIFT
 62
6
 10
1072.214
 20
-7203.382
 30
-203.484
 70
    32
  0
VERTEX
  8
W54LXLIFT
 62
6
 10
1068.331
 20
-7187.673
 30
-203.438
 70
    32
  0
VERTEX
  8
W54LXLIFT
 62
6
 10
1046.465
 20
-7179.031
 30
-203.186
 70
    32
  0
VERTEX
  8
W54LXLIFT
 62
6
 10
1046.024
 20
-7174.130
 30
-203.181
 70
    32
  0
VERTEX
  8
W54LXLIFT
 62
6
 10
1032.245
 20
-7161.316
 30
-203.022
 70
    32
  0
VERTEX
  8
W54LXLIFT
 62
6
 10
1026.899
 20
-7151.640
 30
-202.959
 70
    32
  0
VERTEX
  8
W54LXLIFT
 62
6
 10
1023.033
 20
-7139.170
 30
-202.913
 70
    32
  0
VERTEX
  8
W54LXLIFT
 62
6
 10
1022.454
 20
-7131.384
 30
-202.934
 70
    32
  0
VERTEX
  8
W54LXLIFT
 62
6
 10
1030.661
 20
-7127.055
 30
-203.070
 70
    32
  0
VERTEX
  8
W54LXLIFT
 62
6
 10
1036.409
 20
-7135.746
 30
-203.107
 70
    32
  0
VERTEX
  8
W54LXLIFT
 62
6
 10
1042.111
 20
-7151.151
 30
-203.133
 70
    32
  0
VERTEX
  8
W54LXLIFT
 62
6
 10
1053.371
 20
-7162.644
 30
-203.263
 70
    32
  0
VERTEX
  8
W54LXLIFT
 62
6
 10
1057.752
 20
-7163.148
 30
-203.314
 70
    32
  0
VERTEX
  8
W54LXLIFT
 62
6
 10
1066.823
 20
-7159.575
 30
-203.417
 70
    32
  0
VERTEX
  8
W54LXLIFT
 62
6
 10
1046.951
 20
-7130.761
 30
-203.279
 70
    32
  0
VERTEX
  8
W54LXLIFT
 62
6
 10
1027.537
 20
-7115.894
 30
-203.083
 70
    32
  0
VERTEX
  8
W54LXLIFT
 62
6
 10
1021.785
 20
-7107.796
 30
-203.043
 70
    32
  0
SEQEND
  8
W54LXLIFT
  0
POLYLINE
  8
W54LXLIFT
 62
1
 66
     1
 70
     9
  0
VERTEX
  8
W54LXLIFT
 62
1
 10
1036.707
 20
-7092.669
 30
-193.309
 70
    32
  0
VERTEX
  8
W54LXLIFT
 62
1
 10
1076.035
 20
-7136.035
 30
-193.641
 70
    32
  0
VERTEX
  8
W54LXLIFT
 62
1
 10
1083.515
 20
-7145.646
 30
-193.697
 70
    32
  0
VERTEX
  8
W54LXLIFT
 62
1
 10
1096.752
 20
-7168.371
 30
-193.767
 70
    32
  0
VERTEX
  8
W54LXLIFT
 62
1
 10
1090.675
 20
-7184.843
 30
-193.682
 70
    32
  0
VERTEX
  8
W54LXLIFT
 62
1
 10
1093.048
 20
-7196.078
 30
-193.710
 70
    32
  0
VERTEX
  8
W54LXLIFT
 62
1
 10
1105.176
 20
-7213.542
 30
-193.851
 70
    32
  0
VERTEX
  8
W54LXLIFT
 62
1
 10
1108.164
 20
-7221.424
 30
-193.886
 70
    32
  0
VERTEX
  8
W54LXLIFT
 62
1
 10
1105.671
 20
-7227.767
 30
-193.858
 70
    32
  0
VERTEX
  8
W54LXLIFT
 62
1
 10
1109.575
 20
-7240.514
 30
-193.905
 70
    32
  0
VERTEX
  8
W54LXLIFT
 62
1
 10
1121.257
 20
-7247.862
 30
-194.039
 70
    32
  0
VERTEX
  8
W54LXLIFT
 62
1
 10
1125.928
 20
-7258.164
 30
-194.094
 70
    32
  0
VERTEX
  8
W54LXLIFT
 62
1
 10
1131.099
 20
-7264.481
 30
-194.154
 70
    32
  0
VERTEX
  8
W54LXLIFT
 62
1
 10
1134.772
 20
-7276.357
 30
-194.197
 70
    32
  0
VERTEX
  8
W54LXLIFT
 62
1
 10
1123.847
 20
-7285.368
 30
-194.073
 70
    32
  0
VERTEX
  8
W54LXLIFT
 62
1
 10
1115.127
 20
-7278.040
 30
-193.972
 70
    32
  0
VERTEX
  8
W54LXLIFT
 62
1
 10
1089.366
 20
-7243.853
 30
-193.674
 70
    32
  0
VERTEX
  8
W54LXLIFT
 62
1
 10
1083.013
 20
-7242.743
 30
-193.601
 70
    32
  0
VERTEX
  8
W54LXLIFT
 62
1
 10
1074.270
 20
-7232.965
 30
-193.500
 70
    32
  0
VERTEX
  8
W54LXLIFT
 62
1
 10
1070.130
 20
-7214.331
 30
-193.450
 70
    32
  0
VERTEX
  8
W54LXLIFT
 62
1
 10
1073.097
 20
-7207.952
 30
-193.483
 70
    32
  0
VERTEX
  8
W54LXLIFT
 62
1
 10
1073.214
 20
-7202.382
 30
-193.484
 70
    32
  0
VERTEX
  8
W54LXLIFT
 62
1
 10
1069.331
 20
-7186.673
 30
-193.438
 70
    32
  0
VERTEX
  8
W54LXLIFT
 62
1
 10
1047.465
 20
-7178.031
 30
-193.186
 70
    32
  0
VERTEX
  8
W54LXLIFT
 62
1
 10
1047.024
 20
-7173.130
 30
-193.181
 70
    32
  0
VERTEX
  8
W54LXLIFT
 62
1
 10
1033.245
 20
-7160.316
 30
-193.022
 70
    32
  0
VERTEX
  8
W54LXLIFT
 62
1
 10
1027.899
 20
-7150.640
 30
-192.959
 70
    32
  0
VERTEX
  8
W54LXLIFT
 62
1
 10
1024.033
 20
-7138.170
 30
-192.913
 70
    32
  0
VERTEX
  8
W54LXLIFT
 62
1
 10
1023.454
 20
-7130.384
 30
-192.934
 70
    32
  0
VERTEX
  8
W54LXLIFT
 62
1
 10
1031.661
 20
-7126.055
 30
-193.070
 70
    32
  0
VERTEX
  8
W54LXLIFT
 62
1
 10
1037.409
 20
-7134.746
 30
-193.107
 70
    32
  0
VERTEX
  8
W54LXLIFT
 62
1
 10
1043.111
 20
-7150.151
 30
-193.133
 70
    32
  0
VERTEX
  8
W54LXLIFT
 62
1
 10
1054.371
 20
-7161.644
 30
-193.263
 70
    32
  0
VERTEX
  8
W54LXLIFT
 62
1
 10
1058.752
 20
-7162.148
 30
-193.314
 70
    32
  0
VERTEX
  8
W54LXLIFT
 62
1
 10
1067.823
 20
-7158.575
 30
-193.417
 70
    32
  0
VERTEX
  8
W54LXLIFT
 62
1
 10
1047.951
 20
-7129.761
 30
-193.279
 70
    32
  0
VERTEX
  8
W54LXLIFT
 62
1
 10
1028.537
 20
-7114.894
 30
-193.083
 70
    32
  0
VERTEX
  8
W54LXLIFT
 62
1
 10
1022.785
 20
-7106.796
 30
-193.043
 70
    32
  0
SEQEND
  8
W54LXLIFT
  0
POLYLINE
  8
W54LXLIFT
 62
4
 66
     1
 70
     9
  0
VERTEX
  8
W54LXLIFT
 62
4
 10
900.407
 20
-6837.153
 30
-136.000
 70
    32
  0
VERTEX
  8
W54LXLIFT
 62
4
 10
901.838
 20
-6857.016
 30
-136.000
 70
    32
  0
VERTEX
  8
W54LXLIFT
 62
4
 10
910.873
 20
-6857.608
 30
-136.000
 70
    32
  0
VERTEX
  8
W54LXLIFT
 62
4
 10
913.537
 20
-6861.109
 30
-136.000
 70
    32
  0
VERTEX
  8
W54LXLIFT
 62
4
 10
913.774
 20
-6867.252
 30
-136.000
 70
    32
  0
VERTEX
  8
W54LXLIFT
 62
4
 10
916.400
 20
-6870.998
 30
-136.000
 70
    32
  0
VERTEX
  8
W54LXLIFT
 62
4
 10
917.374
 20
-6877.256
 30
-136.000
 70
    32
  0
VERTEX
  8
W54LXLIFT
 62
4
 10
913.013
 20
-6879.786
 30
-136.000
 70
    32
  0
VERTEX
  8
W54LXLIFT
 62
4
 10
904.501
 20
-6882.297
 30
-136.000
 70
    32
  0
VERTEX
  8
W54LXLIFT
 62
4
 10
904.322
 20
-6890.704
 30
-136.000
 70
    32
  0
VERTEX
  8
W54LXLIFT
 62
4
 10
908.632
 20
-6896.161
 30
-136.000
 70
    32
  0
VERTEX
  8
W54LXLIFT
 62
4
 10
915.382
 20
-6899.292
 30
-136.000
 70
    32
  0
VERTEX
  8
W54LXLIFT
 62
4
 10
920.522
 20
-6899.024
 30
-136.000
 70
    32
  0
VERTEX
  8
W54LXLIFT
 62
4
 10
922.841
 20
-6900.708
 30
-136.000
 70
    32
  0
VERTEX
  8
W54LXLIFT
 62
4
 10
924.005
 20
-6904.541
 30
-136.000
 70
    32
  0
VERTEX
  8
W54LXLIFT
 62
4
 10
925.578
 20
-6924.300
 30
-136.000
 70
    32
  0
VERTEX
  8
W54LXLIFT
 62
4
 10
916.767
 20
-6929.534
 30
-136.000
 70
    32
  0
VERTEX
  8
W54LXLIFT
 62
4
 10
920.729
 20
-6936.007
 30
-136.000
 70
    32
  0
VERTEX
  8
W54LXLIFT
 62
4
 10
927.373
 20
-6944.661
 30
-136.000
 70
    32
  0
VERTEX
  8
W54LXLIFT
 62
4
 10
935.040
 20
-6954.419
 30
-136.000
 70
    32
  0
VERTEX
  8
W54LXLIFT
 62
4
 10
946.250
 20
-6967.689
 30
-136.000
 70
    32
  0
VERTEX
  8
W54LXLIFT
 62
4
 10
948.314
 20
-6979.467
 30
-136.000
 70
    32
  0
VERTEX
  8
W54LXLIFT
 62
4
 10
937.842
 20
-6985.260
 30
-136.000
 70
    32
  0
VERTEX
  8
W54LXLIFT
 62
4
 10
921.460
 20
-6962.371
 30
-136.000
 70
    32
  0
VERTEX
  8
W54LXLIFT
 62
4
 10
911.880
 20
-6960.434
 30
-136.000
 70
    32
  0
VERTEX
  8
W54LXLIFT
 62
4
 10
906.575
 20
-6951.675
 30
-136.000
 70
    32
  0
VERTEX
  8
W54LXLIFT
 62
4
 10
901.463
 20
-6938.854
 30
-136.000
 70
    32
  0
VERTEX
  8
W54LXLIFT
 62
4
 10
901.800
 20
-6931.856
 30
-136.000
 70
    32
  0
VERTEX
  8
W54LXLIFT
 62
4
 10
899.835
 20
-6924.688
 30
-136.000
 70
    32
  0
VERTEX
  8
W54LXLIFT
 62
4
 10
893.755
 20
-6913.226
 30
-136.000
 70
    32
  0
VERTEX
  8
W54LXLIFT
 62
4
 10
885.060
 20
-6899.972
 30
-136.000
 70
    32
  0
VERTEX
  8
W54LXLIFT
 62
4
 10
881.313
 20
-6894.540
 30
-136.000
 70
    32
  0
VERTEX
  8
W54LXLIFT
 62
4
 10
880.030
 20
-6889.052
 30
-136.000
 70
    32
  0
VERTEX
  8
W54LXLIFT
 62
4
 10
868.874
 20
-6870.188
 30
-136.000
 70
    32
  0
VERTEX
  8
W54LXLIFT
 62
4
 10
871.114
 20
-6864.306
 30
-136.000
 70
    32
  0
VERTEX
  8
W54LXLIFT
 62
4
 10
871.885
 20
-6857.754
 30
-136.000
 70
    32
  0
VERTEX
  8
W54LXLIFT
 62
4
 10
878.319
 20
-6845.980
 30
-136.000
 70
    32
  0
VERTEX
  8
W54LXLIFT
 62
4
 10
881.800
 20
-6843.438
 30
-136.000
 70
    32
  0
VERTEX
  8
W54LXLIFT
 62
4
 10
885.640
 20
-6843.031
 30
-136.000
 70
    32
  0
VERTEX
  8
W54LXLIFT
 62
4
 10
890.404
 20
-6837.920
 30
-136.000
 70
    32
  0
SEQEND
  8
W54LXLIFT
  0
POINT
  8
W54LXLIFT
 62
4
 10
959.608
 20
-6920.952
 30
-192.000
  0
POINT
  8
W54LXLIFT
 62
4
 10
895.391
 20
-6882.701
 30
-122.000
  0
POINT
  8
W54LXLIFT
 62
4
 10
914.941
 20
-6938.507
 30
-136.000
  0
LINE
  8
W54LXLIFT
 62
4
 10
914.941
 20
-6938.507
 30
-136.000
 11
959.608
 21
-6920.952
 31
-192.000
  0
POINT
  8
W54LXLIFT
 62
4
 10
841.163
 20
-6916.711
 30
-58.791
  0
LINE
  8
W54LXLIFT
 62
4
 10
841.163
 20
-6916.711
 30
-58.791
 11
895.391
 21
-6882.701
 31
-122.000
  0
POLYLINE
  8
W54LXLIFT
 62
1
 66
     1
 70
     9
  0
VERTEX
  8
W54LXLIFT
 62
1
 10
782.417
 20
-6321.694
 30
-117.000
 70
    32
  0
VERTEX
  8
W54LXLIFT
 62
1
 10
798.339
 20
-6303.735
 30
-117.000
 70
    32
  0
VERTEX
  8
W54LXLIFT
 62
1
 10
798.000
 20
-6297.562
 30
-117.000
 70
    32
  0
VERTEX
  8
W54LXLIFT
 62
1
 10
793.995
 20
-6287.084
 30
-117.000
 70
    32
  0
VERTEX
  8
W54LXLIFT
 62
1
 10
796.787
 20
-6279.077
 30
-117.000
 70
    32
  0
VERTEX
  8
W54LXLIFT
 62
1
 10
794.048
 20
-6270.945
 30
-117.000
 70
    32
  0
VERTEX
  8
W54LXLIFT
 62
1
 10
792.229
 20
-6262.581
 30
-117.000
 70
    32
  0
VERTEX
  8
W54LXLIFT
 62
1
 10
787.612
 20
-6253.960
 30
-117.000
 70
    32
  0
VERTEX
  8
W54LXLIFT
 62
1
 10
782.611
 20
-6243.006
 30
-117.000
 70
    32
  0
VERTEX
  8
W54LXLIFT
 62
1
 10
776.970
 20
-6243.178
 30
-117.000
 70
    32
  0
VERTEX
  8
W54LXLIFT
 62
1
 10
745.201
 20
-6201.146
 30
-117.000
 70
    32
  0
VERTEX
  8
W54LXLIFT
 62
1
 10
735.915
 20
-6204.395
 30
-117.000
 70
    32
  0
VERTEX
  8
W54LXLIFT
 62
1
 10
758.623
 20
-6234.826
 30
-117.000
 70
    32
  0
VERTEX
  8
W54LXLIFT
 62
1
 10
757.232
 20
-6238.010
 30
-117.000
 70
    32
  0
VERTEX
  8
W54LXLIFT
 62
1
 10
772.124
 20
-6263.662
 30
-117.000
 70
    32
  0
VERTEX
  8
W54LXLIFT
 62
1
 10
770.807
 20
-6265.596
 30
-117.000
 70
    32
  0
VERTEX
  8
W54LXLIFT
 62
1
 10
779.996
 20
-6277.974
 30
-117.000
 70
    32
  0
VERTEX
  8
W54LXLIFT
 62
1
 10
776.241
 20
-6300.713
 30
-117.000
 70
    32
  0
VERTEX
  8
W54LXLIFT
 62
1
 10
774.070
 20
-6317.082
 30
-117.000
 70
    32
  0
SEQEND
  8
W54LXLIFT
  0
POLYLINE
  8
W54LXLIFT
 62
1
 66
     1
 70
     9
  0
VERTEX
  8
W54LXLIFT
 62
1
 10
702.193
 20
-6353.775
 30
-59.000
 70
    32
  0
VERTEX
  8
W54LXLIFT
 62
1
 10
690.764
 20
-6356.020
 30
-59.000
 70
    32
  0
VERTEX
  8
W54LXLIFT
 62
1
 10
680.816
 20
-6366.112
 30
-59.000
 70
    32
  0
VERTEX
  8
W54LXLIFT
 62
1
 10
676.553
 20
-6365.195
 30
-59.000
 70
    32
  0
VERTEX
  8
W54LXLIFT
 62
1
 10
672.082
 20
-6359.965
 30
-59.000
 70
    32
  0
VERTEX
  8
W54LXLIFT
 62
1
 10
671.855
 20
-6355.775
 30
-59.000
 70
    32
  0
VERTEX
  8
W54LXLIFT
 62
1
 10
679.096
 20
-6350.925
 30
-59.000
 70
    32
  0
VERTEX
  8
W54LXLIFT
 62
1
 10
683.300
 20
-6344.153
 30
-59.000
 70
    32
  0
VERTEX
  8
W54LXLIFT
 62
1
 10
691.147
 20
-6345.504
 30
-59.000
 70
    32
  0
VERTEX
  8
W54LXLIFT
 62
1
 10
694.685
 20
-6342.594
 30
-59.000
 70
    32
  0
VERTEX
  8
W54LXLIFT
 62
1
 10
702.976
 20
-6346.344
 30
-59.000
 70
    32
  0
SEQEND
  8
W54LXLIFT
  0
POLYLINE
  8
W54LXLIFT
 62
1
 66
     1
 70
     9
  0
VERTEX
  8
W54LXLIFT
 62
1
 10
735.604
 20
-6363.146
 30
-59.000
 70
    32
  0
VERTEX
  8
W54LXLIFT
 62
1
 10
736.350
 20
-6342.237
 30
-59.000
 70
    32
  0
VERTEX
  8
W54LXLIFT
 62
1
 10
739.794
 20
-6318.162
 30
-59.000
 70
    32
  0
VERTEX
  8
W54LXLIFT
 62
1
 10
738.479
 20
-6309.648
 30
-59.000
 70
    32
  0
VERTEX
  8
W54LXLIFT
 62
1
 10
736.157
 20
-6305.571
 30
-59.000
 70
    32
  0
VERTEX
  8
W54LXLIFT
 62
1
 10
734.238
 20
-6302.943
 30
-59.000
 70
    32
  0
VERTEX
  8
W54LXLIFT
 62
1
 10
737.223
 20
-6293.903
 30
-59.000
 70
    32
  0
VERTEX
  8
W54LXLIFT
 62
1
 10
736.550
 20
-6286.118
 30
-59.000
 70
    32
  0
VERTEX
  8
W54LXLIFT
 62
1
 10
731.353
 20
-6279.894
 30
-59.000
 70
    32
  0
VERTEX
  8
W54LXLIFT
 62
1
 10
725.782
 20
-6278.080
 30
-59.000
 70
    32
  0
VERTEX
  8
W54LXLIFT
 62
1
 10
722.695
 20
-6273.254
 30
-59.000
 70
    32
  0
VERTEX
  8
W54LXLIFT
 62
1
 10
722.170
 20
-6264.926
 30
-59.000
 70
    32
  0
VERTEX
  8
W54LXLIFT
 62
1
 10
723.932
 20
-6259.284
 30
-59.000
 70
    32
  0
VERTEX
  8
W54LXLIFT
 62
1
 10
713.020
 20
-6239.262
 30
-59.000
 70
    32
  0
VERTEX
  8
W54LXLIFT
 62
1
 10
710.144
 20
-6229.056
 30
-59.000
 70
    32
  0
VERTEX
  8
W54LXLIFT
 62
1
 10
706.940
 20
-6219.743
 30
-59.000
 70
    32
  0
VERTEX
  8
W54LXLIFT
 62
1
 10
707.947
 20
-6215.305
 30
-59.000
 70
    32
  0
VERTEX
  8
W54LXLIFT
 62
1
 10
713.393
 20
-6211.875
 30
-59.000
 70
    32
  0
VERTEX
  8
W54LXLIFT
 62
1
 10
713.252
 20
-6205.118
 30
-59.000
 70
    32
  0
VERTEX
  8
W54LXLIFT
 62
1
 10
722.454
 20
-6205.043
 30
-59.000
 70
    32
  0
VERTEX
  8
W54LXLIFT
 62
1
 10
731.443
 20
-6209.154
 30
-59.000
 70
    32
  0
VERTEX
  8
W54LXLIFT
 62
1
 10
732.491
 20
-6220.585
 30
-59.000
 70
    32
  0
VERTEX
  8
W54LXLIFT
 62
1
 10
736.838
 20
-6232.657
 30
-59.000
 70
    32
  0
VERTEX
  8
W54LXLIFT
 62
1
 10
744.271
 20
-6241.497
 30
-59.000
 70
    32
  0
VERTEX
  8
W54LXLIFT
 62
1
 10
748.190
 20
-6263.574
 30
-59.000
 70
    32
  0
VERTEX
  8
W54LXLIFT
 62
1
 10
751.009
 20
-6278.178
 30
-59.000
 70
    32
  0
VERTEX
  8
W54LXLIFT
 62
1
 10
755.484
 20
-6285.801
 30
-59.000
 70
    32
  0
VERTEX
  8
W54LXLIFT
 62
1
 10
761.846
 20
-6288.997
 30
-59.000
 70
    32
  0
VERTEX
  8
W54LXLIFT
 62
1
 10
765.617
 20
-6296.699
 30
-59.000
 70
    32
  0
VERTEX
  8
W54LXLIFT
 62
1
 10
765.041
 20
-6311.276
 30
-59.000
 70
    32
  0
VERTEX
  8
W54LXLIFT
 62
1
 10
760.717
 20
-6327.283
 30
-59.000
 70
    32
  0
VERTEX
  8
W54LXLIFT
 62
1
 10
759.163
 20
-6337.238
 30
-59.000
 70
    32
  0
VERTEX
  8
W54LXLIFT
 62
1
 10
769.504
 20
-6341.559
 30
-59.000
 70
    32
  0
VERTEX
  8
W54LXLIFT
 62
1
 10
766.907
 20
-6350.533
 30
-59.000
 70
    32
  0
VERTEX
  8
W54LXLIFT
 62
1
 10
764.605
 20
-6354.391
 30
-59.000
 70
    32
  0
VERTEX
  8
W54LXLIFT
 62
1
 10
760.321
 20
-6352.400
 30
-59.000
 70
    32
  0
VERTEX
  8
W54LXLIFT
 62
1
 10
755.870
 20
-6355.105
 30
-59.000
 70
    32
  0
VERTEX
  8
W54LXLIFT
 62
1
 10
750.885
 20
-6359.614
 30
-59.000
 70
    32
  0
VERTEX
  8
W54LXLIFT
 62
1
 10
747.498
 20
-6364.373
 30
-59.000
 70
    32
  0
VERTEX
  8
W54LXLIFT
 62
1
 10
745.869
 20
-6367.958
 30
-59.000
 70
    32
  0
SEQEND
  8
W54LXLIFT
  0
POLYLINE
  8
W54LXLIFT
 62
6
 66
     1
 70
     9
  0
VERTEX
  8
W54LXLIFT
 62
6
 10
701.193
 20
-6354.775
 30
-72.000
 70
    32
  0
VERTEX
  8
W54LXLIFT
 62
6
 10
689.764
 20
-6357.020
 30
-72.000
 70
    32
  0
VERTEX
  8
W54LXLIFT
 62
6
 10
679.816
 20
-6367.112
 30
-72.000
 70
    32
  0
VERTEX
  8
W54LXLIFT
 62
6
 10
675.553
 20
-6366.195
 30
-72.000
 70
    32
  0
VERTEX
  8
W54LXLIFT
 62
6
 10
671.082
 20
-6360.965
 30
-72.000
 70
    32
  0
VERTEX
  8
W54LXLIFT
 62
6
 10
670.855
 20
-6356.775
 30
-72.000
 70
    32
  0
VERTEX
  8
W54LXLIFT
 62
6
 10
678.096
 20
-6351.925
 30
-72.000
 70
    32
  0
VERTEX
  8
W54LXLIFT
 62
6
 10
682.300
 20
-6345.153
 30
-72.000
 70
    32
  0
VERTEX
  8
W54LXLIFT
 62
6
 10
690.147
 20
-6346.504
 30
-72.000
 70
    32
  0
VERTEX
  8
W54LXLIFT
 62
6
 10
693.685
 20
-6343.594
 30
-72.000
 70
    32
  0
VERTEX
  8
W54LXLIFT
 62
6
 10
701.976
 20
-6347.344
 30
-72.000
 70
    32
  0
SEQEND
  8
W54LXLIFT
  0
POLYLINE
  8
W54LXLIFT
 62
7
 66
     1
 70
     9
  0
VERTEX
  8
W54LXLIFT
 62
7
 10
734.604
 20
-6364.146
 30
-72.000
 70
    32
  0
VERTEX
  8
W54LXLIFT
 62
7
 10
735.350
 20
-6343.237
 30
-72.000
 70
    32
  0
VERTEX
  8
W54LXLIFT
 62
7
 10
738.794
 20
-6319.162
 30
-72.000
 70
    32
  0
VERTEX
  8
W54LXLIFT
 62
7
 10
737.479
 20
-6310.648
 30
-72.000
 70
    32
  0
VERTEX
  8
W54LXLIFT
 62
7
 10
735.157
 20
-6306.571
 30
-72.000
 70
    32
  0
VERTEX
  8
W54LXLIFT
 62
7
 10
733.238
 20
-6303.943
 30
-72.000
 70
    32
  0
VERTEX
  8
W54LXLIFT
 62
7
 10
736.223
 20
-6294.903
 30
-72.000
 70
    32
  0
VERTEX
  8
W54LXLIFT
 62
7
 10
735.550
 20
-6287.118
 30
-72.000
 70
    32
  0
VERTEX
  8
W54LXLIFT
 62
7
 10
730.353
 20
-6280.894
 30
-72.000
 70
    32
  0
VERTEX
  8
W54LXLIFT
 62
7
 10
724.782
 20
-6279.080
 30
-72.000
 70
    32
  0
VERTEX
  8
W54LXLIFT
 62
7
 10
721.695
 20
-6274.254
 30
-72.000
 70
    32
  0
VERTEX
  8
W54LXLIFT
 62
7
 10
721.170
 20
-6265.926
 30
-72.000
 70
    32
  0
VERTEX
  8
W54LXLIFT
 62
7
 10
722.932
 20
-6260.284
 30
-72.000
 70
    32
  0
VERTEX
  8
W54LXLIFT
 62
7
 10
712.020
 20
-6240.262
 30
-72.000
 70
    32
  0
VERTEX
  8
W54LXLIFT
 62
7
 10
709.144
 20
-6230.056
 30
-72.000
 70
    32
  0
VERTEX
  8
W54LXLIFT
 62
7
 10
705.940
 20
-6220.743
 30
-72.000
 70
    32
  0
VERTEX
  8
W54LXLIFT
 62
7
 10
706.947
 20
-6216.305
 30
-72.000
 70
    32
  0
VERTEX
  8
W54LXLIFT
 62
7
 10
712.393
 20
-6212.875
 30
-72.000
 70
    32
  0
VERTEX
  8
W54LXLIFT
 62
7
 10
712.252
 20
-6206.118
 30
-72.000
 70
    32
  0
VERTEX
  8
W54LXLIFT
 62
7
 10
721.454
 20
-6206.043
 30
-72.000
 70
    32
  0
VERTEX
  8
W54LXLIFT
 62
7
 10
730.443
 20
-6210.154
 30
-72.000
 70
    32
  0
VERTEX
  8
W54LXLIFT
 62
7
 10
731.491
 20
-6221.585
 30
-72.000
 70
    32
  0
VERTEX
  8
W54LXLIFT
 62
7
 10
735.838
 20
-6233.657
 30
-72.000
 70
    32
  0
VERTEX
  8
W54LXLIFT
 62
7
 10
743.271
 20
-6242.497
 30
-72.000
 70
    32
  0
VERTEX
  8
W54LXLIFT
 62
7
 10
747.190
 20
-6264.574
 30
-72.000
 70
    32
  0
VERTEX
  8
W54LXLIFT
 62
7
 10
750.009
 20
-6279.178
 30
-72.000
 70
    32
  0
VERTEX
  8
W54LXLIFT
 62
7
 10
754.484
 20
-6286.801
 30
-72.000
 70
    32
  0
VERTEX
  8
W54LXLIFT
 62
7
 10
760.846
 20
-6289.997
 30
-72.000
 70
    32
  0
VERTEX
  8
W54LXLIFT
 62
7
 10
764.617
 20
-6297.699
 30
-72.000
 70
    32
  0
VERTEX
  8
W54LXLIFT
 62
7
 10
764.041
 20
-6312.276
 30
-72.000
 70
    32
  0
VERTEX
  8
W54LXLIFT
 62
7
 10
759.717
 20
-6328.283
 30
-72.000
 70
    32
  0
VERTEX
  8
W54LXLIFT
 62
7
 10
758.163
 20
-6338.238
 30
-72.000
 70
    32
  0
VERTEX
  8
W54LXLIFT
 62
7
 10
768.504
 20
-6342.559
 30
-72.000
 70
    32
  0
VERTEX
  8
W54LXLIFT
 62
7
 10
765.907
 20
-6351.533
 30
-72.000
 70
    32
  0
VERTEX
  8
W54LXLIFT
 62
7
 10
763.605
 20
-6355.391
 30
-72.000
 70
    32
  0
VERTEX
  8
W54LXLIFT
 62
7
 10
759.321
 20
-6353.400
 30
-72.000
 70
    32
  0
VERTEX
  8
W54LXLIFT
 62
7
 10
754.870
 20
-6356.105
 30
-72.000
 70
    32
  0
VERTEX
  8
W54LXLIFT
 62
7
 10
749.885
 20
-6360.614
 30
-72.000
 70
    32
  0
VERTEX
  8
W54LXLIFT
 62
7
 10
746.498
 20
-6365.373
 30
-72.000
 70
    32
  0
VERTEX
  8
W54LXLIFT
 62
7
 10
744.869
 20
-6368.958
 30
-72.000
 70
    32
  0
SEQEND
  8
W54LXLIFT
  0
POINT
  8
W54LXLIFT
 62
4
 10
774.108
 20
-6250.035
 30
-117.000
  0
POINT
  8
W54LXLIFT
 62
4
 10
746.144
 20
-6296.527
 30
-72.000
  0
POINT
  8
W54LXLIFT
 62
4
 10
786.005
 20
-6265.804
 30
-127.000
  0
LINE
  8
W54LXLIFT
 62
7
 10
746.144
 20
-6296.527
 30
-72.000
 11
774.108
 21
-6250.035
 31
-117.000
  0
LINE
  8
W54LXLIFT
 62
7
 10
786.005
 20
-6265.804
 30
-127.000
 11
813.883
 21
-6349.334
 31
-192.000
  0
POLYLINE
  8
W54LXLIFT
 62
3
 66
     1
 70
     9
  0
VERTEX
  8
W54LXLIFT
 62
3
 10
633.262
 20
-6265.076
 30
-150.000
 70
    32
  0
VERTEX
  8
W54LXLIFT
 62
3
 10
637.678
 20
-6268.937
 30
-150.000
 70
    32
  0
VERTEX
  8
W54LXLIFT
 62
3
 10
638.887
 20
-6273.162
 30
-150.000
 70
    32
  0
VERTEX
  8
W54LXLIFT
 62
3
 10
643.422
 20
-6276.286
 30
-150.000
 70
    32
  0
VERTEX
  8
W54LXLIFT
 62
3
 10
647.969
 20
-6279.727
 30
-150.000
 70
    32
  0
VERTEX
  8
W54LXLIFT
 62
3
 10
650.386
 20
-6286.225
 30
-150.000
 70
    32
  0
VERTEX
  8
W54LXLIFT
 62
3
 10
650.933
 20
-6289.085
 30
-150.000
 70
    32
  0
VERTEX
  8
W54LXLIFT
 62
3
 10
655.560
 20
-6293.987
 30
-150.000
 70
    32
  0
VERTEX
  8
W54LXLIFT
 62
3
 10
659.740
 20
-6303.226
 30
-150.000
 70
    32
  0
VERTEX
  8
W54LXLIFT
 62
3
 10
668.746
 20
-6303.228
 30
-150.000
 70
    32
  0
VERTEX
  8
W54LXLIFT
 62
3
 10
671.268
 20
-6300.863
 30
-150.000
 70
    32
  0
VERTEX
  8
W54LXLIFT
 62
3
 10
672.214
 20
-6296.166
 30
-150.000
 70
    32
  0
VERTEX
  8
W54LXLIFT
 62
3
 10
671.939
 20
-6290.831
 30
-150.000
 70
    32
  0
VERTEX
  8
W54LXLIFT
 62
3
 10
677.620
 20
-6277.072
 30
-150.000
 70
    32
  0
VERTEX
  8
W54LXLIFT
 62
3
 10
676.364
 20
-6273.532
 30
-150.000
 70
    32
  0
VERTEX
  8
W54LXLIFT
 62
3
 10
671.709
 20
-6267.240
 30
-150.000
 70
    32
  0
VERTEX
  8
W54LXLIFT
 62
3
 10
669.043
 20
-6261.898
 30
-150.000
 70
    32
  0
VERTEX
  8
W54LXLIFT
 62
3
 10
668.729
 20
-6256.809
 30
-150.000
 70
    32
  0
VERTEX
  8
W54LXLIFT
 62
3
 10
668.388
 20
-6252.282
 30
-150.000
 70
    32
  0
VERTEX
  8
W54LXLIFT
 62
3
 10
664.869
 20
-6242.457
 30
-150.000
 70
    32
  0
VERTEX
  8
W54LXLIFT
 62
3
 10
663.058
 20
-6236.497
 30
-150.000
 70
    32
  0
VERTEX
  8
W54LXLIFT
 62
3
 10
661.830
 20
-6230.442
 30
-150.000
 70
    32
  0
VERTEX
  8
W54LXLIFT
 62
3
 10
653.779
 20
-6214.345
 30
-150.000
 70
    32
  0
VERTEX
  8
W54LXLIFT
 62
3
 10
656.649
 20
-6208.257
 30
-150.000
 70
    32
  0
VERTEX
  8
W54LXLIFT
 62
3
 10
654.197
 20
-6202.761
 30
-150.000
 70
    32
  0
VERTEX
  8
W54LXLIFT
 62
3
 10
650.853
 20
-6196.932
 30
-150.000
 70
    32
  0
VERTEX
  8
W54LXLIFT
 62
3
 10
653.085
 20
-6188.159
 30
-150.000
 70
    32
  0
VERTEX
  8
W54LXLIFT
 62
3
 10
660.751
 20
-6182.403
 30
-150.000
 70
    32
  0
VERTEX
  8
W54LXLIFT
 62
3
 10
658.781
 20
-6169.616
 30
-150.000
 70
    32
  0
VERTEX
  8
W54LXLIFT
 62
3
 10
653.589
 20
-6167.835
 30
-150.000
 70
    32
  0
VERTEX
  8
W54LXLIFT
 62
3
 10
653.392
 20
-6152.247
 30
-150.000
 70
    32
  0
VERTEX
  8
W54LXLIFT
 62
3
 10
653.211
 20
-6141.637
 30
-150.000
 70
    32
  0
VERTEX
  8
W54LXLIFT
 62
3
 10
645.271
 20
-6140.106
 30
-150.000
 70
    32
  0
VERTEX
  8
W54LXLIFT
 62
3
 10
638.421
 20
-6149.394
 30
-150.000
 70
    32
  0
VERTEX
  8
W54LXLIFT
 62
3
 10
638.166
 20
-6164.657
 30
-150.000
 70
    32
  0
VERTEX
  8
W54LXLIFT
 62
3
 10
628.465
 20
-6172.101
 30
-150.000
 70
    32
  0
VERTEX
  8
W54LXLIFT
 62
3
 10
631.418
 20
-6188.951
 30
-150.000
 70
    32
  0
VERTEX
  8
W54LXLIFT
 62
3
 10
635.158
 20
-6192.325
 30
-150.000
 70
    32
  0
VERTEX
  8
W54LXLIFT
 62
3
 10
633.924
 20
-6202.329
 30
-150.000
 70
    32
  0
VERTEX
  8
W54LXLIFT
 62
3
 10
638.457
 20
-6218.363
 30
-150.000
 70
    32
  0
VERTEX
  8
W54LXLIFT
 62
3
 10
645.910
 20
-6233.483
 30
-150.000
 70
    32
  0
VERTEX
  8
W54LXLIFT
 62
3
 10
649.238
 20
-6244.096
 30
-150.000
 70
    32
  0
VERTEX
  8
W54LXLIFT
 62
3
 10
649.980
 20
-6248.876
 30
-150.000
 70
    32
  0
VERTEX
  8
W54LXLIFT
 62
3
 10
646.939
 20
-6251.724
 30
-150.000
 70
    32
  0
VERTEX
  8
W54LXLIFT
 62
3
 10
635.042
 20
-6254.027
 30
-150.000
 70
    32
  0
SEQEND
  8
W54LXLIFT
  0
POINT
  8
W54LXLIFT
 62
3
 10
648.851
 20
-6215.464
 30
-150.000
  0
POINT
  8
W54LXLIFT
 62
4
 10
813.883
 20
-6349.334
 30
-192.000
  0
POLYLINE
  8
W54LXLIFT
 62
11
 66
     1
 70
     9
  0
VERTEX
  8
W54LXLIFT
 62
11
 10
834.489
 20
-6416.214
 30
-201.439
 70
    32
  0
VERTEX
  8
W54LXLIFT
 62
11
 10
839.038
 20
-6436.910
 30
-201.506
 70
    32
  0
VERTEX
  8
W54LXLIFT
 62
11
 10
837.229
 20
-6451.870
 30
-201.511
 70
    32
  0
VERTEX
  8
W54LXLIFT
 62
11
 10
837.481
 20
-6466.015
 30
-201.533
 70
    32
  0
VERTEX
  8
W54LXLIFT
 62
11
 10
831.568
 20
-6469.606
 30
-201.488
 70
    32
  0
VERTEX
  8
W54LXLIFT
 62
11
 10
820.748
 20
-6469.013
 30
-201.397
 70
    32
  0
VERTEX
  8
W54LXLIFT
 62
11
 10
815.673
 20
-6455.267
 30
-201.336
 70
    32
  0
VERTEX
  8
W54LXLIFT
 62
11
 10
799.038
 20
-6428.793
 30
-201.160
 70
    32
  0
VERTEX
  8
W54LXLIFT
 62
11
 10
800.625
 20
-6427.229
 30
-201.171
 70
    32
  0
VERTEX
  8
W54LXLIFT
 62
11
 10
804.176
 20
-6423.731
 30
-201.196
 70
    32
  0
VERTEX
  8
W54LXLIFT
 62
11
 10
810.662
 20
-6422.202
 30
-201.248
 70
    32
  0
VERTEX
  8
W54LXLIFT
 62
11
 10
813.541
 20
-6417.443
 30
-201.265
 70
    32
  0
VERTEX
  8
W54LXLIFT
 62
11
 10
815.557
 20
-6406.514
 30
-201.267
 70
    32
  0
SEQEND
  8
W54LXLIFT
  0
POLYLINE
  8
W54LXLIFT
 62
1
 66
     1
 70
     9
  0
VERTEX
  8
W54LXLIFT
 62
1
 10
835.489
 20
-6415.214
 30
-191.439
 70
    32
  0
VERTEX
  8
W54LXLIFT
 62
1
 10
840.038
 20
-6435.910
 30
-191.506
 70
    32
  0
VERTEX
  8
W54LXLIFT
 62
1
 10
838.229
 20
-6450.870
 30
-191.511
 70
    32
  0
VERTEX
  8
W54LXLIFT
 62
1
 10
838.481
 20
-6465.015
 30
-191.533
 70
    32
  0
VERTEX
  8
W54LXLIFT
 62
1
 10
832.568
 20
-6468.606
 30
-191.488
 70
    32
  0
VERTEX
  8
W54LXLIFT
 62
1
 10
821.748
 20
-6468.013
 30
-191.397
 70
    32
  0
VERTEX
  8
W54LXLIFT
 62
1
 10
816.673
 20
-6454.267
 30
-191.336
 70
    32
  0
VERTEX
  8
W54LXLIFT
 62
1
 10
800.038
 20
-6427.793
 30
-191.160
 70
    32
  0
VERTEX
  8
W54LXLIFT
 62
1
 10
801.625
 20
-6426.229
 30
-191.171
 70
    32
  0
VERTEX
  8
W54LXLIFT
 62
1
 10
805.176
 20
-6422.731
 30
-191.196
 70
    32
  0
VERTEX
  8
W54LXLIFT
 62
1
 10
811.662
 20
-6421.202
 30
-191.248
 70
    32
  0
VERTEX
  8
W54LXLIFT
 62
1
 10
814.541
 20
-6416.443
 30
-191.265
 70
    32
  0
VERTEX
  8
W54LXLIFT
 62
1
 10
816.557
 20
-6405.514
 30
-191.267
 70
    32
  0
SEQEND
  8
W54LXLIFT
  0
POLYLINE
  8
W54LXLIFT
 62
8
 66
     1
 70
     9
  0
VERTEX
  8
W54LXLIFT
 62
8
 10
877.771
 20
-6667.466
 30
-201.972
 70
    32
  0
VERTEX
  8
W54LXLIFT
 62
8
 10
871.816
 20
-6639.605
 30
-201.979
 70
    32
  0
VERTEX
  8
W54LXLIFT
 62
8
 10
868.524
 20
-6608.563
 30
-201.990
 70
    32
  0
VERTEX
  8
W54LXLIFT
 62
8
 10
854.853
 20
-6584.012
 30
-201.842
 70
    32
  0
VERTEX
  8
W54LXLIFT
 62
8
 10
862.589
 20
-6577.347
 30
-201.897
 70
    32
  0
VERTEX
  8
W54LXLIFT
 62
8
 10
871.593
 20
-6576.452
 30
-201.971
 70
    32
  0
VERTEX
  8
W54LXLIFT
 62
8
 10
884.461
 20
-6596.578
 30
-202.107
 70
    32
  0
VERTEX
  8
W54LXLIFT
 62
8
 10
886.149
 20
-6604.995
 30
-202.132
 70
    32
  0
VERTEX
  8
W54LXLIFT
 62
8
 10
893.213
 20
-6611.943
 30
-202.201
 70
    32
  0
VERTEX
  8
W54LXLIFT
 62
8
 10
893.735
 20
-6623.787
 30
-202.222
 70
    32
  0
VERTEX
  8
W54LXLIFT
 62
8
 10
887.752
 20
-6634.606
 30
-202.187
 70
    32
  0
VERTEX
  8
W54LXLIFT
 62
8
 10
886.463
 20
-6645.769
 30
-202.164
 70
    32
  0
VERTEX
  8
W54LXLIFT
 62
8
 10
884.870
 20
-6648.128
 30
-202.134
 70
    32
  0
VERTEX
  8
W54LXLIFT
 62
8
 10
886.307
 20
-6659.030
 30
-202.119
 70
    32
  0
VERTEX
  8
W54LXLIFT
 62
8
 10
892.089
 20
-6669.168
 30
-202.167
 70
    32
  0
VERTEX
  8
W54LXLIFT
 62
8
 10
895.283
 20
-6676.449
 30
-202.189
 70
    32
  0
VERTEX
  8
W54LXLIFT
 62
8
 10
901.577
 20
-6686.826
 30
-202.243
 70
    32
  0
VERTEX
  8
W54LXLIFT
 62
8
 10
911.437
 20
-6715.026
 30
-202.290
 70
    32
  0
VERTEX
  8
W54LXLIFT
 62
8
 10
917.248
 20
-6727.019
 30
-202.333
 70
    32
  0
VERTEX
  8
W54LXLIFT
 62
8
 10
921.695
 20
-6749.622
 30
-202.322
 70
    32
  0
VERTEX
  8
W54LXLIFT
 62
8
 10
935.190
 20
-6750.253
 30
-202.510
 70
    32
  0
VERTEX
  8
W54LXLIFT
 62
8
 10
935.473
 20
-6755.820
 30
-202.496
 70
    32
  0
VERTEX
  8
W54LXLIFT
 62
8
 10
933.678
 20
-6758.967
 30
-202.460
 70
    32
  0
VERTEX
  8
W54LXLIFT
 62
8
 10
934.169
 20
-6769.548
 30
-202.436
 70
    32
  0
VERTEX
  8
W54LXLIFT
 62
8
 10
916.122
 20
-6784.638
 30
-202.369
 70
    32
  0
VERTEX
  8
W54LXLIFT
 62
8
 10
913.725
 20
-6762.600
 30
-202.276
 70
    32
  0
VERTEX
  8
W54LXLIFT
 62
8
 10
905.141
 20
-6732.000
 30
-202.147
 70
    32
  0
VERTEX
  8
W54LXLIFT
 62
8
 10
893.210
 20
-6700.197
 30
-202.082
 70
    32
  0
VERTEX
  8
W54LXLIFT
 62
8
 10
884.562
 20
-6687.437
 30
-202.002
 70
    32
  0
SEQEND
  8
W54LXLIFT
  0
POLYLINE
  8
W54LXLIFT
 62
1
 66
     1
 70
     9
  0
VERTEX
  8
W54LXLIFT
 62
1
 10
878.771
 20
-6666.466
 30
-191.972
 70
    32
  0
VERTEX
  8
W54LXLIFT
 62
1
 10
872.816
 20
-6638.605
 30
-191.979
 70
    32
  0
VERTEX
  8
W54LXLIFT
 62
1
 10
869.524
 20
-6607.563
 30
-191.990
 70
    32
  0
VERTEX
  8
W54LXLIFT
 62
1
 10
855.853
 20
-6583.012
 30
-191.842
 70
    32
  0
VERTEX
  8
W54LXLIFT
 62
1
 10
863.589
 20
-6576.347
 30
-191.897
 70
    32
  0
VERTEX
  8
W54LXLIFT
 62
1
 10
872.593
 20
-6575.452
 30
-191.971
 70
    32
  0
VERTEX
  8
W54LXLIFT
 62
1
 10
885.461
 20
-6595.578
 30
-192.107
 70
    32
  0
VERTEX
  8
W54LXLIFT
 62
1
 10
887.149
 20
-6603.995
 30
-192.132
 70
    32
  0
VERTEX
  8
W54LXLIFT
 62
1
 10
894.213
 20
-6610.943
 30
-192.201
 70
    32
  0
VERTEX
  8
W54LXLIFT
 62
1
 10
894.735
 20
-6622.787
 30
-192.222
 70
    32
  0
VERTEX
  8
W54LXLIFT
 62
1
 10
888.752
 20
-6633.606
 30
-192.187
 70
    32
  0
VERTEX
  8
W54LXLIFT
 62
1
 10
887.463
 20
-6644.769
 30
-192.164
 70
    32
  0
VERTEX
  8
W54LXLIFT
 62
1
 10
885.870
 20
-6647.128
 30
-192.134
 70
    32
  0
VERTEX
  8
W54LXLIFT
 62
1
 10
887.307
 20
-6658.030
 30
-192.119
 70
    32
  0
VERTEX
  8
W54LXLIFT
 62
1
 10
893.089
 20
-6668.168
 30
-192.167
 70
    32
  0
VERTEX
  8
W54LXLIFT
 62
1
 10
896.283
 20
-6675.449
 30
-192.189
 70
    32
  0
VERTEX
  8
W54LXLIFT
 62
1
 10
902.577
 20
-6685.826
 30
-192.243
 70
    32
  0
VERTEX
  8
W54LXLIFT
 62
1
 10
912.437
 20
-6714.026
 30
-192.290
 70
    32
  0
VERTEX
  8
W54LXLIFT
 62
1
 10
918.248
 20
-6726.019
 30
-192.333
 70
    32
  0
VERTEX
  8
W54LXLIFT
 62
1
 10
922.695
 20
-6748.622
 30
-192.322
 70
    32
  0
VERTEX
  8
W54LXLIFT
 62
1
 10
936.190
 20
-6749.253
 30
-192.510
 70
    32
  0
VERTEX
  8
W54LXLIFT
 62
1
 10
936.473
 20
-6754.820
 30
-192.496
 70
    32
  0
VERTEX
  8
W54LXLIFT
 62
1
 10
934.678
 20
-6757.967
 30
-192.460
 70
    32
  0
VERTEX
  8
W54LXLIFT
 62
1
 10
935.169
 20
-6768.548
 30
-192.436
 70
    32
  0
VERTEX
  8
W54LXLIFT
 62
1
 10
917.122
 20
-6783.638
 30
-192.369
 70
    32
  0
VERTEX
  8
W54LXLIFT
 62
1
 10
914.725
 20
-6761.600
 30
-192.276
 70
    32
  0
VERTEX
  8
W54LXLIFT
 62
1
 10
906.141
 20
-6731.000
 30
-192.147
 70
    32
  0
VERTEX
  8
W54LXLIFT
 62
1
 10
894.210
 20
-6699.197
 30
-192.082
 70
    32
  0
VERTEX
  8
W54LXLIFT
 62
1
 10
885.562
 20
-6686.437
 30
-192.002
 70
    32
  0
SEQEND
  8
W54LXLIFT
  0
LINE
  8
W54LXLIFT
 62
13
 10
1157.302
 20
-8320.668
 30
-165.000
 11
1158.373
 21
-8261.628
 31
-245.000
  0
POINT
  8
W54LXLIFT
 62
13
 10
1157.302
 20
-8320.668
 30
-165.000
  0
POINT
  8
W54LXLIFT
 62
13
 10
1158.373
 20
-8261.628
 30
-245.000
  0
POLYLINE
  8
W54LXLIFT
 62
1
 66
     1
 70
     9
  0
VERTEX
  8
W54LXLIFT
 62
1
 10
1114.453
 20
-8215.512
 30
-155.000
 70
    32
  0
VERTEX
  8
W54LXLIFT
 62
1
 10
1148.248
 20
-8248.694
 30
-155.000
 70
    32
  0
VERTEX
  8
W54LXLIFT
 62
1
 10
1146.852
 20
-8257.596
 30
-155.000
 70
    32
  0
VERTEX
  8
W54LXLIFT
 62
1
 10
1152.858
 20
-8268.215
 30
-155.000
 70
    32
  0
VERTEX
  8
W54LXLIFT
 62
1
 10
1163.923
 20
-8279.852
 30
-155.000
 70
    32
  0
VERTEX
  8
W54LXLIFT
 62
1
 10
1173.665
 20
-8300.340
 30
-155.000
 70
    32
  0
VERTEX
  8
W54LXLIFT
 62
1
 10
1173.292
 20
-8309.913
 30
-155.000
 70
    32
  0
VERTEX
  8
W54LXLIFT
 62
1
 10
1183.557
 20
-8334.895
 30
-155.000
 70
    32
  0
VERTEX
  8
W54LXLIFT
 62
1
 10
1175.371
 20
-8341.425
 30
-155.000
 70
    32
  0
VERTEX
  8
W54LXLIFT
 62
1
 10
1167.572
 20
-8340.210
 30
-155.000
 70
    32
  0
VERTEX
  8
W54LXLIFT
 62
1
 10
1160.459
 20
-8339.045
 30
-155.000
 70
    32
  0
VERTEX
  8
W54LXLIFT
 62
1
 10
1156.286
 20
-8337.605
 30
-155.000
 70
    32
  0
VERTEX
  8
W54LXLIFT
 62
1
 10
1151.865
 20
-8331.151
 30
-155.000
 70
    32
  0
VERTEX
  8
W54LXLIFT
 62
1
 10
1145.368
 20
-8316.232
 30
-155.000
 70
    32
  0
VERTEX
  8
W54LXLIFT
 62
1
 10
1142.213
 20
-8302.050
 30
-155.000
 70
    32
  0
VERTEX
  8
W54LXLIFT
 62
1
 10
1147.886
 20
-8292.023
 30
-155.000
 70
    32
  0
VERTEX
  8
W54LXLIFT
 62
1
 10
1140.086
 20
-8278.906
 30
-155.000
 70
    32
  0
VERTEX
  8
W54LXLIFT
 62
1
 10
1128.684
 20
-8278.549
 30
-155.000
 70
    32
  0
VERTEX
  8
W54LXLIFT
 62
1
 10
1123.718
 20
-8293.478
 30
-155.000
 70
    32
  0
VERTEX
  8
W54LXLIFT
 62
1
 10
1120.662
 20
-8296.756
 30
-155.000
 70
    32
  0
VERTEX
  8
W54LXLIFT
 62
1
 10
1118.120
 20
-8297.284
 30
-155.000
 70
    32
  0
VERTEX
  8
W54LXLIFT
 62
1
 10
1115.612
 20
-8295.298
 30
-155.000
 70
    32
  0
VERTEX
  8
W54LXLIFT
 62
1
 10
1110.768
 20
-8294.883
 30
-155.000
 70
    32
  0
VERTEX
  8
W54LXLIFT
 62
1
 10
1107.198
 20
-8293.227
 30
-155.000
 70
    32
  0
VERTEX
  8
W54LXLIFT
 62
1
 10
1104.922
 20
-8286.746
 30
-155.000
 70
    32
  0
VERTEX
  8
W54LXLIFT
 62
1
 10
1114.180
 20
-8272.520
 30
-155.000
 70
    32
  0
VERTEX
  8
W54LXLIFT
 62
1
 10
1118.380
 20
-8261.495
 30
-155.000
 70
    32
  0
VERTEX
  8
W54LXLIFT
 62
1
 10
1117.398
 20
-8242.505
 30
-155.000
 70
    32
  0
VERTEX
  8
W54LXLIFT
 62
1
 10
1109.404
 20
-8229.420
 30
-155.000
 70
    32
  0
VERTEX
  8
W54LXLIFT
 62
1
 10
1102.539
 20
-8222.124
 30
-155.000
 70
    32
  0
SEQEND
  8
W54LXLIFT
  0
POINT
  8
W54LXLIFT
 62
4
 10
957.874
 20
-6907.751
 30
-202.000
  0
POINT
  8
W54LXLIFT
 62
1
 10
1031.793
 20
-6886.678
 30
-351.162
  0
LINE
  8
W54LXLIFT
 62
4
 10
957.874
 20
-6907.751
 30
-202.000
 11
1031.793
 21
-6886.678
 31
-351.162
  0
POLYLINE
  8
W54LXLIFT
 62
1
 66
     1
 70
     9
  0
VERTEX
  8
W54LXLIFT
 62
1
 10
1125.996
 20
-7270.496
 30
-119.000
 70
    32
  0
VERTEX
  8
W54LXLIFT
 62
1
 10
1123.624
 20
-7263.516
 30
-119.000
 70
    32
  0
VERTEX
  8
W54LXLIFT
 62
1
 10
1118.396
 20
-7258.294
 30
-119.000
 70
    32
  0
VERTEX
  8
W54LXLIFT
 62
1
 10
1116.074
 20
-7254.217
 30
-119.000
 70
    32
  0
VERTEX
  8
W54LXLIFT
 62
1
 10
1110.091
 20
-7246.170
 30
-119.000
 70
    32
  0
VERTEX
  8
W54LXLIFT
 62
1
 10
1104.936
 20
-7242.092
 30
-119.000
 70
    32
  0
VERTEX
  8
W54LXLIFT
 62
1
 10
1101.196
 20
-7233.388
 30
-119.000
 70
    32
  0
VERTEX
  8
W54LXLIFT
 62
1
 10
1090.615
 20
-7228.589
 30
-119.000
 70
    32
  0
VERTEX
  8
W54LXLIFT
 62
1
 10
1091.156
 20
-7242.459
 30
-119.000
 70
    32
  0
VERTEX
  8
W54LXLIFT
 62
1
 10
1094.290
 20
-7255.853
 30
-119.000
 70
    32
  0
VERTEX
  8
W54LXLIFT
 62
1
 10
1095.994
 20
-7261.469
 30
-119.000
 70
    32
  0
VERTEX
  8
W54LXLIFT
 62
1
 10
1102.756
 20
-7267.750
 30
-119.000
 70
    32
  0
VERTEX
  8
W54LXLIFT
 62
1
 10
1109.983
 20
-7269.444
 30
-119.000
 70
    32
  0
VERTEX
  8
W54LXLIFT
 62
1
 10
1116.007
 20
-7271.581
 30
-119.000
 70
    32
  0
VERTEX
  8
W54LXLIFT
 62
1
 10
1120.100
 20
-7274.801
 30
-119.000
 70
    32
  0
SEQEND
  8
W54LXLIFT
  0
POLYLINE
  8
W54LXLIFT
 62
4
 66
     1
 70
     9
  0
VERTEX
  8
W54LXLIFT
 62
4
 10
1019.378
 20
-7101.499
 30
-203.041
 70
    32
  0
VERTEX
  8
W54LXLIFT
 62
4
 10
1013.274
 20
-7098.692
 30
-202.970
 70
    32
  0
VERTEX
  8
W54LXLIFT
 62
4
 10
1005.222
 20
-7091.921
 30
-202.892
 70
    32
  0
VERTEX
  8
W54LXLIFT
 62
4
 10
991.582
 20
-7070.378
 30
-202.810
 70
    32
  0
VERTEX
  8
W54LXLIFT
 62
4
 10
988.883
 20
-7060.484
 30
-202.822
 70
    32
  0
VERTEX
  8
W54LXLIFT
 62
4
 10
977.363
 20
-7058.272
 30
-202.672
 70
    32
  0
VERTEX
  8
W54LXLIFT
 62
4
 10
972.415
 20
-7048.205
 30
-202.653
 70
    32
  0
VERTEX
  8
W54LXLIFT
 62
4
 10
968.701
 20
-7025.030
 30
-202.691
 70
    32
  0
VERTEX
  8
W54LXLIFT
 62
4
 10
964.462
 20
-7021.012
 30
-202.649
 70
    32
  0
VERTEX
  8
W54LXLIFT
 62
4
 10
963.564
 20
-7013.579
 30
-202.658
 70
    32
  0
VERTEX
  8
W54LXLIFT
 62
4
 10
959.165
 20
-7009.836
 30
-202.613
 70
    32
  0
VERTEX
  8
W54LXLIFT
 62
4
 10
956.450
 20
-6989.089
 30
-202.634
 70
    32
  0
VERTEX
  8
W54LXLIFT
 62
4
 10
955.911
 20
-6966.430
 30
-202.687
 70
    32
  0
VERTEX
  8
W54LXLIFT
 62
4
 10
950.704
 20
-6952.467
 30
-202.656
 70
    32
  0
VERTEX
  8
W54LXLIFT
 62
4
 10
945.870
 20
-6935.467
 30
-202.610
 70
    32
  0
VERTEX
  8
W54LXLIFT
 62
4
 10
943.971
 20
-6909.051
 30
-202.598
 70
    32
  0
VERTEX
  8
W54LXLIFT
 62
4
 10
942.750
 20
-6901.978
 30
-202.588
 70
    32
  0
VERTEX
  8
W54LXLIFT
 62
4
 10
938.812
 20
-6893.588
 30
-202.548
 70
    32
  0
VERTEX
  8
W54LXLIFT
 62
4
 10
933.119
 20
-6868.255
 30
-202.500
 70
    32
  0
VERTEX
  8
W54LXLIFT
 62
4
 10
929.780
 20
-6858.684
 30
-202.478
 70
    32
  0
VERTEX
  8
W54LXLIFT
 62
4
 10
927.424
 20
-6843.119
 30
-202.478
 70
    32
  0
VERTEX
  8
W54LXLIFT
 62
4
 10
927.021
 20
-6842.041
 30
-202.475
 70
    32
  0
VERTEX
  8
W54LXLIFT
 62
4
 10
919.962
 20
-6823.183
 30
-202.425
 70
    32
  0
VERTEX
  8
W54LXLIFT
 62
4
 10
919.109
 20
-6800.285
 30
-202.444
 70
    32
  0
VERTEX
  8
W54LXLIFT
 62
4
 10
916.122
 20
-6784.638
 30
-202.369
 70
    32
  0
VERTEX
  8
W54LXLIFT
 62
4
 10
915.232
 20
-6776.450
 30
-202.335
 70
    32
  0
VERTEX
  8
W54LXLIFT
 62
4
 10
935.326
 20
-6774.252
 30
-202.461
 70
    32
  0
VERTEX
  8
W54LXLIFT
 62
4
 10
939.759
 20
-6792.275
 30
-202.553
 70
    32
  0
VERTEX
  8
W54LXLIFT
 62
4
 10
942.692
 20
-6823.986
 30
-202.684
 70
    32
  0
VERTEX
  8
W54LXLIFT
 62
4
 10
952.116
 20
-6852.696
 30
-202.757
 70
    32
  0
VERTEX
  8
W54LXLIFT
 62
4
 10
953.949
 20
-6863.206
 30
-202.760
 70
    32
  0
VERTEX
  8
W54LXLIFT
 62
4
 10
962.549
 20
-6897.634
 30
-202.800
 70
    32
  0
VERTEX
  8
W54LXLIFT
 62
4
 10
964.046
 20
-6918.443
 30
-202.809
 70
    32
  0
VERTEX
  8
W54LXLIFT
 62
4
 10
968.363
 20
-6929.402
 30
-202.851
 70
    32
  0
VERTEX
  8
W54LXLIFT
 62
4
 10
975.310
 20
-6936.112
 30
-202.923
 70
    32
  0
VERTEX
  8
W54LXLIFT
 62
4
 10
979.469
 20
-6947.149
 30
-202.964
 70
    32
  0
VERTEX
  8
W54LXLIFT
 62
4
 10
986.511
 20
-6957.847
 30
-203.036
 70
    32
  0
VERTEX
  8
W54LXLIFT
 62
4
 10
987.195
 20
-6962.429
 30
-203.041
 70
    32
  0
VERTEX
  8
W54LXLIFT
 62
4
 10
983.942
 20
-6972.001
 30
-203.004
 70
    32
  0
VERTEX
  8
W54LXLIFT
 62
4
 10
991.191
 20
-6999.901
 30
-203.038
 70
    32
  0
VERTEX
  8
W54LXLIFT
 62
4
 10
996.057
 20
-7004.793
 30
-203.085
 70
    32
  0
VERTEX
  8
W54LXLIFT
 62
4
 10
1001.584
 20
-7022.646
 30
-203.107
 70
    32
  0
VERTEX
  8
W54LXLIFT
 62
4
 10
1014.171
 20
-7042.247
 30
-203.212
 70
    32
  0
VERTEX
  8
W54LXLIFT
 62
4
 10
1021.439
 20
-7065.643
 30
-203.241
 70
    32
  0
VERTEX
  8
W54LXLIFT
 62
4
 10
1024.951
 20
-7071.988
 30
-203.268
 70
    32
  0
VERTEX
  8
W54LXLIFT
 62
4
 10
1032.832
 20
-7075.004
 30
-203.358
 70
    32
  0
VERTEX
  8
W54LXLIFT
 62
4
 10
1038.664
 20
-7082.865
 30
-203.405
 70
    32
  0
VERTEX
  8
W54LXLIFT
 62
4
 10
1035.515
 20
-7087.071
 30
-203.340
 70
    32
  0
VERTEX
  8
W54LXLIFT
 62
4
 10
1035.707
 20
-7093.669
 30
-203.309
 70
    32
  0
SEQEND
  8
W54LXLIFT
  0
POLYLINE
  8
W54LXLIFT
 62
1
 66
     1
 70
     9
  0
VERTEX
  8
W54LXLIFT
 62
1
 10
1036.707
 20
-7092.669
 30
-193.309
 70
    32
  0
VERTEX
  8
W54LXLIFT
 62
1
 10
1036.515
 20
-7086.071
 30
-193.340
 70
    32
  0
VERTEX
  8
W54LXLIFT
 62
1
 10
1039.664
 20
-7081.865
 30
-193.405
 70
    32
  0
VERTEX
  8
W54LXLIFT
 62
1
 10
1033.832
 20
-7074.004
 30
-193.358
 70
    32
  0
VERTEX
  8
W54LXLIFT
 62
1
 10
1025.951
 20
-7070.988
 30
-193.268
 70
    32
  0
VERTEX
  8
W54LXLIFT
 62
1
 10
1022.439
 20
-7064.643
 30
-193.241
 70
    32
  0
VERTEX
  8
W54LXLIFT
 62
1
 10
1015.171
 20
-7041.247
 30
-193.212
 70
    32
  0
VERTEX
  8
W54LXLIFT
 62
1
 10
1002.584
 20
-7021.646
 30
-193.107
 70
    32
  0
VERTEX
  8
W54LXLIFT
 62
1
 10
997.057
 20
-7003.793
 30
-193.085
 70
    32
  0
VERTEX
  8
W54LXLIFT
 62
1
 10
992.191
 20
-6998.901
 30
-193.038
 70
    32
  0
VERTEX
  8
W54LXLIFT
 62
1
 10
984.942
 20
-6971.001
 30
-193.004
 70
    32
  0
VERTEX
  8
W54LXLIFT
 62
1
 10
988.195
 20
-6961.429
 30
-193.041
 70
    32
  0
VERTEX
  8
W54LXLIFT
 62
1
 10
987.511
 20
-6956.847
 30
-193.036
 70
    32
  0
VERTEX
  8
W54LXLIFT
 62
1
 10
980.469
 20
-6946.149
 30
-192.964
 70
    32
  0
VERTEX
  8
W54LXLIFT
 62
1
 10
976.310
 20
-6935.112
 30
-192.923
 70
    32
  0
VERTEX
  8
W54LXLIFT
 62
1
 10
969.363
 20
-6928.402
 30
-192.851
 70
    32
  0
VERTEX
  8
W54LXLIFT
 62
1
 10
965.046
 20
-6917.443
 30
-192.809
 70
    32
  0
VERTEX
  8
W54LXLIFT
 62
1
 10
963.549
 20
-6896.634
 30
-192.800
 70
    32
  0
VERTEX
  8
W54LXLIFT
 62
1
 10
954.949
 20
-6862.206
 30
-192.760
 70
    32
  0
VERTEX
  8
W54LXLIFT
 62
1
 10
953.116
 20
-6851.696
 30
-192.757
 70
    32
  0
VERTEX
  8
W54LXLIFT
 62
1
 10
943.692
 20
-6822.986
 30
-192.684
 70
    32
  0
VERTEX
  8
W54LXLIFT
 62
1
 10
940.759
 20
-6791.275
 30
-192.553
 70
    32
  0
VERTEX
  8
W54LXLIFT
 62
1
 10
936.326
 20
-6773.252
 30
-192.461
 70
    32
  0
VERTEX
  8
W54LXLIFT
 62
1
 10
916.232
 20
-6775.450
 30
-192.335
 70
    32
  0
VERTEX
  8
W54LXLIFT
 62
1
 10
917.122
 20
-6783.638
 30
-192.369
 70
    32
  0
VERTEX
  8
W54LXLIFT
 62
1
 10
920.109
 20
-6799.285
 30
-192.444
 70
    32
  0
VERTEX
  8
W54LXLIFT
 62
1
 10
920.962
 20
-6822.183
 30
-192.425
 70
    32
  0
VERTEX
  8
W54LXLIFT
 62
1
 10
928.021
 20
-6841.041
 30
-192.475
 70
    32
  0
VERTEX
  8
W54LXLIFT
 62
1
 10
928.424
 20
-6842.119
 30
-192.478
 70
    32
  0
VERTEX
  8
W54LXLIFT
 62
1
 10
930.780
 20
-6857.684
 30
-192.478
 70
    32
  0
VERTEX
  8
W54LXLIFT
 62
1
 10
934.119
 20
-6867.255
 30
-192.500
 70
    32
  0
VERTEX
  8
W54LXLIFT
 62
1
 10
939.812
 20
-6892.588
 30
-192.548
 70
    32
  0
VERTEX
  8
W54LXLIFT
 62
1
 10
943.750
 20
-6900.978
 30
-192.588
 70
    32
  0
VERTEX
  8
W54LXLIFT
 62
1
 10
944.971
 20
-6908.051
 30
-192.598
 70
    32
  0
VERTEX
  8
W54LXLIFT
 62
1
 10
946.870
 20
-6934.467
 30
-192.610
 70
    32
  0
VERTEX
  8
W54LXLIFT
 62
1
 10
951.704
 20
-6951.467
 30
-192.656
 70
    32
  0
VERTEX
  8
W54LXLIFT
 62
1
 10
956.911
 20
-6965.430
 30
-192.687
 70
    32
  0
VERTEX
  8
W54LXLIFT
 62
1
 10
957.450
 20
-6988.089
 30
-192.634
 70
    32
  0
VERTEX
  8
W54LXLIFT
 62
1
 10
960.165
 20
-7008.836
 30
-192.613
 70
    32
  0
VERTEX
  8
W54LXLIFT
 62
1
 10
964.564
 20
-7012.579
 30
-192.658
 70
    32
  0
VERTEX
  8
W54LXLIFT
 62
1
 10
965.462
 20
-7020.012
 30
-192.649
 70
    32
  0
VERTEX
  8
W54LXLIFT
 62
1
 10
969.701
 20
-7024.030
 30
-192.691
 70
    32
  0
VERTEX
  8
W54LXLIFT
 62
1
 10
973.415
 20
-7047.205
 30
-192.653
 70
    32
  0
VERTEX
  8
W54LXLIFT
 62
1
 10
978.363
 20
-7057.272
 30
-192.672
 70
    32
  0
VERTEX
  8
W54LXLIFT
 62
1
 10
989.883
 20
-7059.484
 30
-192.822
 70
    32
  0
VERTEX
  8
W54LXLIFT
 62
1
 10
992.582
 20
-7069.378
 30
-192.810
 70
    32
  0
VERTEX
  8
W54LXLIFT
 62
1
 10
1006.222
 20
-7090.921
 30
-192.892
 70
    32
  0
VERTEX
  8
W54LXLIFT
 62
1
 10
1014.274
 20
-7097.692
 30
-192.970
 70
    32
  0
VERTEX
  8
W54LXLIFT
 62
1
 10
1020.378
 20
-7100.499
 30
-193.041
 70
    32
  0
SEQEND
  8
W54LXLIFT
  0
POLYLINE
  8
W54LXLIFT
 62
7
 66
     1
 70
     9
  0
VERTEX
  8
W54LXLIFT
 62
7
 10
781.890
 20
-6386.039
 30
-200.957
 70
    32
  0
VERTEX
  8
W54LXLIFT
 62
7
 10
783.881
 20
-6378.469
 30
-200.963
 70
    32
  0
VERTEX
  8
W54LXLIFT
 62
7
 10
784.733
 20
-6337.901
 30
-200.914
 70
    32
  0
VERTEX
  8
W54LXLIFT
 62
7
 10
784.119
 20
-6324.623
 30
-200.891
 70
    32
  0
VERTEX
  8
W54LXLIFT
 62
7
 10
799.966
 20
-6313.203
 30
-201.008
 70
    32
  0
VERTEX
  8
W54LXLIFT
 62
7
 10
800.970
 20
-6311.037
 30
-201.013
 70
    32
  0
VERTEX
  8
W54LXLIFT
 62
7
 10
786.914
 20
-6283.003
 30
-200.857
 70
    32
  0
VERTEX
  8
W54LXLIFT
 62
7
 10
790.018
 20
-6279.905
 30
-200.878
 70
    32
  0
VERTEX
  8
W54LXLIFT
 62
7
 10
797.226
 20
-6277.548
 30
-200.935
 70
    32
  0
VERTEX
  8
W54LXLIFT
 62
7
 10
803.900
 20
-6277.913
 30
-200.992
 70
    32
  0
VERTEX
  8
W54LXLIFT
 62
7
 10
815.527
 20
-6286.966
 30
-201.102
 70
    32
  0
VERTEX
  8
W54LXLIFT
 62
7
 10
810.897
 20
-6298.784
 30
-201.079
 70
    32
  0
VERTEX
  8
W54LXLIFT
 62
7
 10
816.163
 20
-6313.322
 30
-201.143
 70
    32
  0
VERTEX
  8
W54LXLIFT
 62
7
 10
820.154
 20
-6318.645
 30
-201.184
 70
    32
  0
VERTEX
  8
W54LXLIFT
 62
7
 10
835.489
 20
-6376.952
 30
-201.393
 70
    32
  0
VERTEX
  8
W54LXLIFT
 62
7
 10
840.810
 20
-6378.571
 30
-201.440
 70
    32
  0
VERTEX
  8
W54LXLIFT
 62
7
 10
839.366
 20
-6392.269
 30
-201.447
 70
    32
  0
VERTEX
  8
W54LXLIFT
 62
7
 10
845.442
 20
-6393.420
 30
-201.499
 70
    32
  0
VERTEX
  8
W54LXLIFT
 62
7
 10
844.279
 20
-6406.488
 30
-201.508
 70
    32
  0
VERTEX
  8
W54LXLIFT
 62
7
 10
838.017
 20
-6414.581
 30
-201.466
 70
    32
  0
VERTEX
  8
W54LXLIFT
 62
7
 10
834.489
 20
-6416.214
 30
-201.439
 70
    32
  0
VERTEX
  8
W54LXLIFT
 62
7
 10
815.557
 20
-6406.514
 30
-201.267
 70
    32
  0
VERTEX
  8
W54LXLIFT
 62
7
 10
797.696
 20
-6390.975
 30
-201.096
 70
    32
  0
VERTEX
  8
W54LXLIFT
 62
7
 10
792.514
 20
-6391.846
 30
-201.054
 70
    32
  0
SEQEND
  8
W54LXLIFT
  0
POLYLINE
  8
W54LXLIFT
 62
1
 66
     1
 70
     9
  0
VERTEX
  8
W54LXLIFT
 62
1
 10
793.514
 20
-6390.846
 30
-191.054
 70
    32
  0
VERTEX
  8
W54LXLIFT
 62
1
 10
798.696
 20
-6389.975
 30
-191.096
 70
    32
  0
VERTEX
  8
W54LXLIFT
 62
1
 10
816.557
 20
-6405.514
 30
-191.267
 70
    32
  0
VERTEX
  8
W54LXLIFT
 62
1
 10
835.489
 20
-6415.214
 30
-191.439
 70
    32
  0
VERTEX
  8
W54LXLIFT
 62
1
 10
839.017
 20
-6413.581
 30
-191.466
 70
    32
  0
VERTEX
  8
W54LXLIFT
 62
1
 10
845.279
 20
-6405.488
 30
-191.508
 70
    32
  0
VERTEX
  8
W54LXLIFT
 62
1
 10
846.442
 20
-6392.420
 30
-191.499
 70
    32
  0
VERTEX
  8
W54LXLIFT
 62
1
 10
840.366
 20
-6391.269
 30
-191.447
 70
    32
  0
VERTEX
  8
W54LXLIFT
 62
1
 10
841.810
 20
-6377.571
 30
-191.440
 70
    32
  0
VERTEX
  8
W54LXLIFT
 62
1
 10
836.489
 20
-6375.952
 30
-191.393
 70
    32
  0
VERTEX
  8
W54LXLIFT
 62
1
 10
821.154
 20
-6317.645
 30
-191.184
 70
    32
  0
VERTEX
  8
W54LXLIFT
 62
1
 10
817.163
 20
-6312.322
 30
-191.143
 70
    32
  0
VERTEX
  8
W54LXLIFT
 62
1
 10
811.897
 20
-6297.784
 30
-191.079
 70
    32
  0
VERTEX
  8
W54LXLIFT
 62
1
 10
816.527
 20
-6285.966
 30
-191.102
 70
    32
  0
VERTEX
  8
W54LXLIFT
 62
1
 10
804.900
 20
-6276.913
 30
-190.992
 70
    32
  0
VERTEX
  8
W54LXLIFT
 62
1
 10
798.226
 20
-6276.548
 30
-190.935
 70
    32
  0
VERTEX
  8
W54LXLIFT
 62
1
 10
791.018
 20
-6278.905
 30
-190.878
 70
    32
  0
VERTEX
  8
W54LXLIFT
 62
1
 10
787.914
 20
-6282.003
 30
-190.857
 70
    32
  0
VERTEX
  8
W54LXLIFT
 62
1
 10
801.970
 20
-6310.037
 30
-191.013
 70
    32
  0
VERTEX
  8
W54LXLIFT
 62
1
 10
800.966
 20
-6312.203
 30
-191.008
 70
    32
  0
VERTEX
  8
W54LXLIFT
 62
1
 10
785.119
 20
-6323.623
 30
-190.891
 70
    32
  0
VERTEX
  8
W54LXLIFT
 62
1
 10
785.733
 20
-6336.901
 30
-190.914
 70
    32
  0
VERTEX
  8
W54LXLIFT
 62
1
 10
784.881
 20
-6377.469
 30
-190.963
 70
    32
  0
VERTEX
  8
W54LXLIFT
 62
1
 10
782.890
 20
-6385.039
 30
-190.957
 70
    32
  0
SEQEND
  8
W54LXLIFT
  0
POLYLINE
  8
W54LXLIFT
 62
3
 66
     1
 70
     9
  0
VERTEX
  8
W54LXLIFT
 62
3
 10
704.142
 20
-6240.675
 30
-200.642
 70
    32
  0
VERTEX
  8
W54LXLIFT
 62
3
 10
701.576
 20
-6229.634
 30
-200.624
 70
    32
  0
VERTEX
  8
W54LXLIFT
 62
3
 10
698.615
 20
-6224.002
 30
-200.621
 70
    32
  0
VERTEX
  8
W54LXLIFT
 62
3
 10
697.401
 20
-6223.014
 30
-200.623
 70
    32
  0
VERTEX
  8
W54LXLIFT
 62
3
 10
690.093
 20
-6217.065
 30
-200.631
 70
    32
  0
VERTEX
  8
W54LXLIFT
 62
3
 10
671.495
 20
-6156.523
 30
-200.473
 70
    32
  0
VERTEX
  8
W54LXLIFT
 62
3
 10
664.982
 20
-6145.057
 30
-200.442
 70
    32
  0
VERTEX
  8
W54LXLIFT
 62
3
 10
659.381
 20
-6127.633
 30
-200.396
 70
    32
  0
VERTEX
  8
W54LXLIFT
 62
3
 10
657.002
 20
-6096.523
 30
-200.317
 70
    32
  0
VERTEX
  8
W54LXLIFT
 62
3
 10
661.289
 20
-6090.320
 30
-200.302
 70
    32
  0
VERTEX
  8
W54LXLIFT
 62
3
 10
655.563
 20
-6071.152
 30
-200.251
 70
    32
  0
VERTEX
  8
W54LXLIFT
 62
3
 10
671.664
 20
-6065.252
 30
-200.240
 70
    32
  0
VERTEX
  8
W54LXLIFT
 62
3
 10
675.719
 20
-6064.382
 30
-200.239
 70
    32
  0
VERTEX
  8
W54LXLIFT
 62
3
 10
677.999
 20
-6066.324
 30
-200.244
 70
    32
  0
VERTEX
  8
W54LXLIFT
 62
3
 10
684.601
 20
-6098.820
 30
-200.328
 70
    32
  0
VERTEX
  8
W54LXLIFT
 62
3
 10
685.666
 20
-6115.223
 30
-200.370
 70
    32
  0
VERTEX
  8
W54LXLIFT
 62
3
 10
690.562
 20
-6142.440
 30
-200.441
 70
    32
  0
VERTEX
  8
W54LXLIFT
 62
3
 10
708.684
 20
-6192.392
 30
-200.497
 70
    32
  0
VERTEX
  8
W54LXLIFT
 62
3
 10
722.494
 20
-6210.903
 30
-200.488
 70
    32
  0
VERTEX
  8
W54LXLIFT
 62
3
 10
734.125
 20
-6246.426
 30
-200.534
 70
    32
  0
VERTEX
  8
W54LXLIFT
 62
3
 10
748.769
 20
-6280.471
 30
-200.562
 70
    32
  0
VERTEX
  8
W54LXLIFT
 62
3
 10
743.284
 20
-6284.934
 30
-200.597
 70
    32
  0
VERTEX
  8
W54LXLIFT
 62
3
 10
735.693
 20
-6285.708
 30
-200.630
 70
    32
  0
VERTEX
  8
W54LXLIFT
 62
3
 10
729.200
 20
-6271.477
 30
-200.620
 70
    32
  0
VERTEX
  8
W54LXLIFT
 62
3
 10
721.037
 20
-6258.656
 30
-200.620
 70
    32
  0
VERTEX
  8
W54LXLIFT
 62
3
 10
706.200
 20
-6256.296
 30
-200.675
 70
    32
  0
SEQEND
  8
W54LXLIFT
  0
POLYLINE
  8
W54LXLIFT
 62
1
 66
     1
 70
     9
  0
VERTEX
  8
W54LXLIFT
 62
1
 10
707.200
 20
-6255.296
 30
-190.675
 70
    32
  0
VERTEX
  8
W54LXLIFT
 62
1
 10
722.037
 20
-6257.656
 30
-190.620
 70
    32
  0
VERTEX
  8
W54LXLIFT
 62
1
 10
730.200
 20
-6270.477
 30
-190.620
 70
    32
  0
VERTEX
  8
W54LXLIFT
 62
1
 10
736.693
 20
-6284.708
 30
-190.630
 70
    32
  0
VERTEX
  8
W54LXLIFT
 62
1
 10
744.284
 20
-6283.934
 30
-190.597
 70
    32
  0
VERTEX
  8
W54LXLIFT
 62
1
 10
749.769
 20
-6279.471
 30
-190.562
 70
    32
  0
VERTEX
  8
W54LXLIFT
 62
1
 10
735.125
 20
-6245.426
 30
-190.534
 70
    32
  0
VERTEX
  8
W54LXLIFT
 62
1
 10
723.494
 20
-6209.903
 30
-190.488
 70
    32
  0
VERTEX
  8
W54LXLIFT
 62
1
 10
709.684
 20
-6191.392
 30
-190.497
 70
    32
  0
VERTEX
  8
W54LXLIFT
 62
1
 10
691.562
 20
-6141.440
 30
-190.441
 70
    32
  0
VERTEX
  8
W54LXLIFT
 62
1
 10
686.666
 20
-6114.223
 30
-190.370
 70
    32
  0
VERTEX
  8
W54LXLIFT
 62
1
 10
685.601
 20
-6097.820
 30
-190.328
 70
    32
  0
VERTEX
  8
W54LXLIFT
 62
1
 10
678.999
 20
-6065.324
 30
-190.244
 70
    32
  0
VERTEX
  8
W54LXLIFT
 62
1
 10
676.719
 20
-6063.382
 30
-190.239
 70
    32
  0
VERTEX
  8
W54LXLIFT
 62
1
 10
672.664
 20
-6064.252
 30
-190.240
 70
    32
  0
VERTEX
  8
W54LXLIFT
 62
1
 10
656.563
 20
-6070.152
 30
-190.251
 70
    32
  0
VERTEX
  8
W54LXLIFT
 62
1
 10
662.289
 20
-6089.320
 30
-190.302
 70
    32
  0
VERTEX
  8
W54LXLIFT
 62
1
 10
658.002
 20
-6095.523
 30
-190.317
 70
    32
  0
VERTEX
  8
W54LXLIFT
 62
1
 10
660.381
 20
-6126.633
 30
-190.396
 70
    32
  0
VERTEX
  8
W54LXLIFT
 62
1
 10
665.982
 20
-6144.057
 30
-190.442
 70
    32
  0
VERTEX
  8
W54LXLIFT
 62
1
 10
672.495
 20
-6155.523
 30
-190.473
 70
    32
  0
VERTEX
  8
W54LXLIFT
 62
1
 10
691.093
 20
-6216.065
 30
-190.631
 70
    32
  0
VERTEX
  8
W54LXLIFT
 62
1
 10
698.401
 20
-6222.014
 30
-190.623
 70
    32
  0
VERTEX
  8
W54LXLIFT
 62
1
 10
699.615
 20
-6223.002
 30
-190.621
 70
    32
  0
VERTEX
  8
W54LXLIFT
 62
1
 10
702.576
 20
-6228.634
 30
-190.624
 70
    32
  0
VERTEX
  8
W54LXLIFT
 62
1
 10
705.142
 20
-6239.675
 30
-190.642
 70
    32
  0
SEQEND
  8
W54LXLIFT
  0
POINT
  8
W54LXLIFT
 62
1
 10
692.306
 20
-6179.702
 30
-190.529
  0
LINE
  8
W54LXLIFT
 62
3
 10
648.851
 20
-6215.464
 30
-150.000
 11
692.306
 21
-6179.702
 31
-190.529
  0
POLYLINE
  8
W54LXLIFT
 62
8
 66
     1
 70
     9
  0
VERTEX
  8
W54LXLIFT
 62
8
 10
607.894
 20
-6005.566
 30
-200.192
 70
    32
  0
VERTEX
  8
W54LXLIFT
 62
8
 10
587.335
 20
-6003.364
 30
-199.641
 70
    32
  0
VERTEX
  8
W54LXLIFT
 62
8
 10
580.150
 20
-6006.831
 30
-199.489
 70
    32
  0
VERTEX
  8
W54LXLIFT
 62
8
 10
580.050
 20
-6008.647
 30
-199.482
 70
    32
  0
VERTEX
  8
W54LXLIFT
 62
8
 10
581.969
 20
-6023.167
 30
-199.475
 70
    32
  0
VERTEX
  8
W54LXLIFT
 62
8
 10
597.243
 20
-6024.842
 30
-199.741
 70
    32
  0
VERTEX
  8
W54LXLIFT
 62
8
 10
607.189
 20
-6023.078
 30
-200.035
 70
    32
  0
VERTEX
  8
W54LXLIFT
 62
8
 10
612.824
 20
-6038.063
 30
-200.066
 70
    32
  0
VERTEX
  8
W54LXLIFT
 62
8
 10
609.618
 20
-6048.671
 30
-199.892
 70
    32
  0
VERTEX
  8
W54LXLIFT
 62
8
 10
591.467
 20
-6050.390
 30
-199.566
 70
    32
  0
VERTEX
  8
W54LXLIFT
 62
8
 10
589.665
 20
-6053.767
 30
-199.522
 70
    32
  0
VERTEX
  8
W54LXLIFT
 62
8
 10
558.166
 20
-6044.895
 30
-199.080
 70
    32
  0
VERTEX
  8
W54LXLIFT
 62
8
 10
551.449
 20
-6047.805
 30
-199.232
 70
    32
  0
VERTEX
  8
W54LXLIFT
 62
8
 10
532.949
 20
-6067.211
 30
-199.751
 70
    32
  0
VERTEX
  8
W54LXLIFT
 62
8
 10
521.559
 20
-6057.383
 30
-199.804
 70
    32
  0
VERTEX
  8
W54LXLIFT
 62
8
 10
515.592
 20
-6043.293
 30
-199.757
 70
    32
  0
VERTEX
  8
W54LXLIFT
 62
8
 10
527.241
 20
-6024.297
 30
-199.357
 70
    32
  0
VERTEX
  8
W54LXLIFT
 62
8
 10
526.778
 20
-6013.411
 30
-199.230
 70
    32
  0
VERTEX
  8
W54LXLIFT
 62
8
 10
520.744
 20
-5999.452
 30
-199.160
 70
    32
  0
VERTEX
  8
W54LXLIFT
 62
8
 10
515.003
 20
-5991.083
 30
-199.155
 70
    32
  0
VERTEX
  8
W54LXLIFT
 62
8
 10
508.402
 20
-5978.142
 30
-199.108
 70
    32
  0
VERTEX
  8
W54LXLIFT
 62
8
 10
498.396
 20
-5958.522
 30
-199.037
 70
    32
  0
VERTEX
  8
W54LXLIFT
 62
8
 10
492.842
 20
-5949.786
 30
-199.024
 70
    32
  0
VERTEX
  8
W54LXLIFT
 62
8
 10
481.534
 20
-5929.149
 30
-198.963
 70
    32
  0
VERTEX
  8
W54LXLIFT
 62
8
 10
487.737
 20
-5923.125
 30
-198.781
 70
    32
  0
VERTEX
  8
W54LXLIFT
 62
8
 10
498.412
 20
-5919.962
 30
-198.558
 70
    32
  0
VERTEX
  8
W54LXLIFT
 62
8
 10
508.185
 20
-5939.902
 30
-198.638
 70
    32
  0
VERTEX
  8
W54LXLIFT
 62
8
 10
512.814
 20
-5946.135
 30
-198.635
 70
    32
  0
VERTEX
  8
W54LXLIFT
 62
8
 10
517.434
 20
-5949.651
 30
-198.599
 70
    32
  0
VERTEX
  8
W54LXLIFT
 62
8
 10
522.277
 20
-5947.011
 30
-198.483
 70
    32
  0
VERTEX
  8
W54LXLIFT
 62
8
 10
523.281
 20
-5919.691
 30
-198.717
 70
    32
  0
VERTEX
  8
W54LXLIFT
 62
8
 10
521.210
 20
-5906.917
 30
-198.729
 70
    32
  0
VERTEX
  8
W54LXLIFT
 62
8
 10
540.973
 20
-5908.170
 30
-199.142
 70
    32
  0
VERTEX
  8
W54LXLIFT
 62
8
 10
541.411
 20
-5933.572
 30
-199.011
 70
    32
  0
VERTEX
  8
W54LXLIFT
 62
8
 10
546.951
 20
-5941.627
 30
-199.086
 70
    32
  0
VERTEX
  8
W54LXLIFT
 62
8
 10
551.151
 20
-5940.240
 30
-199.164
 70
    32
  0
VERTEX
  8
W54LXLIFT
 62
8
 10
554.131
 20
-5923.911
 30
-199.380
 70
    32
  0
VERTEX
  8
W54LXLIFT
 62
8
 10
544.183
 20
-5889.604
 30
-199.321
 70
    32
  0
VERTEX
  8
W54LXLIFT
 62
8
 10
547.688
 20
-5883.466
 30
-199.371
 70
    32
  0
VERTEX
  8
W54LXLIFT
 62
8
 10
558.811
 20
-5884.228
 30
-199.460
 70
    32
  0
VERTEX
  8
W54LXLIFT
 62
8
 10
574.033
 20
-5927.461
 30
-199.732
 70
    32
  0
VERTEX
  8
W54LXLIFT
 62
8
 10
575.140
 20
-5947.473
 30
-199.744
 70
    32
  0
VERTEX
  8
W54LXLIFT
 62
8
 10
572.684
 20
-5950.999
 30
-199.674
 70
    32
  0
VERTEX
  8
W54LXLIFT
 62
8
 10
571.127
 20
-5959.974
 30
-199.553
 70
    32
  0
VERTEX
  8
W54LXLIFT
 62
8
 10
569.826
 20
-5962.988
 30
-199.490
 70
    32
  0
VERTEX
  8
W54LXLIFT
 62
8
 10
562.144
 20
-5964.417
 30
-199.290
 70
    32
  0
VERTEX
  8
W54LXLIFT
 62
8
 10
560.691
 20
-5964.529
 30
-199.264
 70
    32
  0
VERTEX
  8
W54LXLIFT
 62
8
 10
588.228
 20
-5967.625
 30
-199.924
 70
    32
  0
VERTEX
  8
W54LXLIFT
 62
8
 10
592.815
 20
-5962.229
 30
-199.989
 70
    32
  0
SEQEND
  8
W54LXLIFT
  0
POLYLINE
  8
W54LXLIFT
 62
8
 66
     1
 70
     9
  0
VERTEX
  8
W54LXLIFT
 62
8
 10
552.305
 20
-5963.924
 30
-199.118
 70
    32
  0
VERTEX
  8
W54LXLIFT
 62
8
 10
556.616
 20
-5964.209
 30
-199.193
 70
    32
  0
VERTEX
  8
W54LXLIFT
 62
8
 10
545.386
 20
-5971.665
 30
-198.918
 70
    32
  0
VERTEX
  8
W54LXLIFT
 62
8
 10
546.182
 20
-5982.531
 30
-198.842
 70
    32
  0
VERTEX
  8
W54LXLIFT
 62
8
 10
556.046
 20
-5997.937
 30
-199.004
 70
    32
  0
VERTEX
  8
W54LXLIFT
 62
8
 10
561.728
 20
-5997.958
 30
-199.178
 70
    32
  0
VERTEX
  8
W54LXLIFT
 62
8
 10
568.299
 20
-6006.447
 30
-199.280
 70
    32
  0
VERTEX
  8
W54LXLIFT
 62
8
 10
560.074
 20
-6030.544
 30
-198.870
 70
    32
  0
VERTEX
  8
W54LXLIFT
 62
8
 10
553.041
 20
-6036.625
 30
-199.066
 70
    32
  0
VERTEX
  8
W54LXLIFT
 62
8
 10
547.239
 20
-6038.543
 30
-199.190
 70
    32
  0
VERTEX
  8
W54LXLIFT
 62
8
 10
540.725
 20
-6035.421
 30
-199.263
 70
    32
  0
VERTEX
  8
W54LXLIFT
 62
8
 10
553.455
 20
-6018.561
 30
-198.835
 70
    32
  0
VERTEX
  8
W54LXLIFT
 62
8
 10
548.203
 20
-6012.670
 30
-198.852
 70
    32
  0
VERTEX
  8
W54LXLIFT
 62
8
 10
533.928
 20
-5982.916
 30
-198.728
 70
    32
  0
VERTEX
  8
W54LXLIFT
 62
8
 10
532.302
 20
-5972.108
 30
-198.622
 70
    32
  0
VERTEX
  8
W54LXLIFT
 62
8
 10
536.283
 20
-5963.772
 30
-198.711
 70
    32
  0
VERTEX
  8
W54LXLIFT
 62
8
 10
546.276
 20
-5961.321
 30
-199.018
 70
    32
  0
VERTEX
  8
W54LXLIFT
 62
8
 10
552.305
 20
-5963.924
 30
-199.118
 70
    32
  0
SEQEND
  8
W54LXLIFT
  0
POLYLINE
  8
W54LXLIFT
 62
1
 66
     1
 70
     9
  0
VERTEX
  8
W54LXLIFT
 62
1
 10
553.305
 20
-5962.924
 30
-189.118
 70
    32
  0
VERTEX
  8
W54LXLIFT
 62
1
 10
557.616
 20
-5963.209
 30
-189.193
 70
    32
  0
VERTEX
  8
W54LXLIFT
 62
1
 10
546.386
 20
-5970.665
 30
-188.918
 70
    32
  0
VERTEX
  8
W54LXLIFT
 62
1
 10
547.182
 20
-5981.531
 30
-188.842
 70
    32
  0
VERTEX
  8
W54LXLIFT
 62
1
 10
557.046
 20
-5996.937
 30
-189.004
 70
    32
  0
VERTEX
  8
W54LXLIFT
 62
1
 10
562.728
 20
-5996.958
 30
-189.178
 70
    32
  0
VERTEX
  8
W54LXLIFT
 62
1
 10
569.299
 20
-6005.447
 30
-189.280
 70
    32
  0
VERTEX
  8
W54LXLIFT
 62
1
 10
561.074
 20
-6029.544
 30
-188.870
 70
    32
  0
VERTEX
  8
W54LXLIFT
 62
1
 10
554.041
 20
-6035.625
 30
-189.066
 70
    32
  0
VERTEX
  8
W54LXLIFT
 62
1
 10
548.239
 20
-6037.543
 30
-189.190
 70
    32
  0
VERTEX
  8
W54LXLIFT
 62
1
 10
541.725
 20
-6034.421
 30
-189.263
 70
    32
  0
VERTEX
  8
W54LXLIFT
 62
1
 10
554.455
 20
-6017.561
 30
-188.835
 70
    32
  0
VERTEX
  8
W54LXLIFT
 62
1
 10
549.203
 20
-6011.670
 30
-188.852
 70
    32
  0
VERTEX
  8
W54LXLIFT
 62
1
 10
534.928
 20
-5981.916
 30
-188.728
 70
    32
  0
VERTEX
  8
W54LXLIFT
 62
1
 10
533.302
 20
-5971.108
 30
-188.622
 70
    32
  0
VERTEX
  8
W54LXLIFT
 62
1
 10
537.283
 20
-5962.772
 30
-188.711
 70
    32
  0
VERTEX
  8
W54LXLIFT
 62
1
 10
547.276
 20
-5960.321
 30
-189.018
 70
    32
  0
VERTEX
  8
W54LXLIFT
 62
1
 10
553.305
 20
-5962.924
 30
-189.118
 70
    32
  0
SEQEND
  8
W54LXLIFT
  0
POLYLINE
  8
W54LXLIFT
 62
1
 66
     1
 70
     9
  0
VERTEX
  8
W54LXLIFT
 62
1
 10
608.894
 20
-6004.566
 30
-190.192
 70
    32
  0
VERTEX
  8
W54LXLIFT
 62
1
 10
588.335
 20
-6002.364
 30
-189.641
 70
    32
  0
VERTEX
  8
W54LXLIFT
 62
1
 10
581.150
 20
-6005.831
 30
-189.489
 70
    32
  0
VERTEX
  8
W54LXLIFT
 62
1
 10
581.050
 20
-6007.647
 30
-189.482
 70
    32
  0
VERTEX
  8
W54LXLIFT
 62
1
 10
582.969
 20
-6022.167
 30
-189.475
 70
    32
  0
VERTEX
  8
W54LXLIFT
 62
1
 10
598.243
 20
-6023.842
 30
-189.741
 70
    32
  0
VERTEX
  8
W54LXLIFT
 62
1
 10
608.189
 20
-6022.078
 30
-190.035
 70
    32
  0
VERTEX
  8
W54LXLIFT
 62
1
 10
613.824
 20
-6037.063
 30
-190.066
 70
    32
  0
VERTEX
  8
W54LXLIFT
 62
1
 10
610.618
 20
-6047.671
 30
-189.892
 70
    32
  0
VERTEX
  8
W54LXLIFT
 62
1
 10
592.467
 20
-6049.390
 30
-189.566
 70
    32
  0
VERTEX
  8
W54LXLIFT
 62
1
 10
590.665
 20
-6052.767
 30
-189.522
 70
    32
  0
VERTEX
  8
W54LXLIFT
 62
1
 10
559.166
 20
-6043.895
 30
-189.080
 70
    32
  0
VERTEX
  8
W54LXLIFT
 62
1
 10
552.449
 20
-6046.805
 30
-189.232
 70
    32
  0
VERTEX
  8
W54LXLIFT
 62
1
 10
533.949
 20
-6066.211
 30
-189.751
 70
    32
  0
VERTEX
  8
W54LXLIFT
 62
1
 10
522.559
 20
-6056.383
 30
-189.804
 70
    32
  0
VERTEX
  8
W54LXLIFT
 62
1
 10
516.592
 20
-6042.293
 30
-189.757
 70
    32
  0
VERTEX
  8
W54LXLIFT
 62
1
 10
528.241
 20
-6023.297
 30
-189.357
 70
    32
  0
VERTEX
  8
W54LXLIFT
 62
1
 10
527.778
 20
-6012.411
 30
-189.230
 70
    32
  0
VERTEX
  8
W54LXLIFT
 62
1
 10
521.744
 20
-5998.452
 30
-189.160
 70
    32
  0
VERTEX
  8
W54LXLIFT
 62
1
 10
516.003
 20
-5990.083
 30
-189.155
 70
    32
  0
VERTEX
  8
W54LXLIFT
 62
1
 10
509.402
 20
-5977.142
 30
-189.108
 70
    32
  0
VERTEX
  8
W54LXLIFT
 62
1
 10
499.396
 20
-5957.522
 30
-189.037
 70
    32
  0
VERTEX
  8
W54LXLIFT
 62
1
 10
493.842
 20
-5948.786
 30
-189.024
 70
    32
  0
VERTEX
  8
W54LXLIFT
 62
1
 10
482.534
 20
-5928.149
 30
-188.963
 70
    32
  0
VERTEX
  8
W54LXLIFT
 62
1
 10
488.737
 20
-5922.125
 30
-188.781
 70
    32
  0
VERTEX
  8
W54LXLIFT
 62
1
 10
499.412
 20
-5918.962
 30
-188.558
 70
    32
  0
VERTEX
  8
W54LXLIFT
 62
1
 10
509.185
 20
-5938.902
 30
-188.638
 70
    32
  0
VERTEX
  8
W54LXLIFT
 62
1
 10
513.814
 20
-5945.135
 30
-188.635
 70
    32
  0
VERTEX
  8
W54LXLIFT
 62
1
 10
518.434
 20
-5948.651
 30
-188.599
 70
    32
  0
VERTEX
  8
W54LXLIFT
 62
1
 10
523.277
 20
-5946.011
 30
-188.483
 70
    32
  0
VERTEX
  8
W54LXLIFT
 62
1
 10
524.281
 20
-5918.691
 30
-188.717
 70
    32
  0
VERTEX
  8
W54LXLIFT
 62
1
 10
522.210
 20
-5905.917
 30
-188.729
 70
    32
  0
VERTEX
  8
W54LXLIFT
 62
1
 10
541.973
 20
-5907.170
 30
-189.142
 70
    32
  0
VERTEX
  8
W54LXLIFT
 62
1
 10
542.411
 20
-5932.572
 30
-189.011
 70
    32
  0
VERTEX
  8
W54LXLIFT
 62
1
 10
547.951
 20
-5940.627
 30
-189.086
 70
    32
  0
VERTEX
  8
W54LXLIFT
 62
1
 10
552.151
 20
-5939.240
 30
-189.164
 70
    32
  0
VERTEX
  8
W54LXLIFT
 62
1
 10
555.131
 20
-5922.911
 30
-189.380
 70
    32
  0
VERTEX
  8
W54LXLIFT
 62
1
 10
545.183
 20
-5888.604
 30
-189.321
 70
    32
  0
VERTEX
  8
W54LXLIFT
 62
1
 10
548.688
 20
-5882.466
 30
-189.371
 70
    32
  0
VERTEX
  8
W54LXLIFT
 62
1
 10
559.811
 20
-5883.228
 30
-189.460
 70
    32
  0
VERTEX
  8
W54LXLIFT
 62
1
 10
575.033
 20
-5926.461
 30
-189.732
 70
    32
  0
VERTEX
  8
W54LXLIFT
 62
1
 10
576.140
 20
-5946.473
 30
-189.744
 70
    32
  0
VERTEX
  8
W54LXLIFT
 62
1
 10
573.684
 20
-5949.999
 30
-189.674
 70
    32
  0
VERTEX
  8
W54LXLIFT
 62
1
 10
572.127
 20
-5958.974
 30
-189.553
 70
    32
  0
VERTEX
  8
W54LXLIFT
 62
1
 10
570.826
 20
-5961.988
 30
-189.490
 70
    32
  0
VERTEX
  8
W54LXLIFT
 62
1
 10
563.144
 20
-5963.417
 30
-189.290
 70
    32
  0
VERTEX
  8
W54LXLIFT
 62
1
 10
561.691
 20
-5963.529
 30
-189.264
 70
    32
  0
VERTEX
  8
W54LXLIFT
 62
1
 10
589.228
 20
-5966.625
 30
-189.924
 70
    32
  0
VERTEX
  8
W54LXLIFT
 62
1
 10
593.815
 20
-5961.229
 30
-189.989
 70
    32
  0
SEQEND
  8
W54LXLIFT
  0
POLYLINE
  8
W54LXLIFT
 62
13
 66
     1
 70
     9
  0
VERTEX
  8
W54LXLIFT
 62
13
 10
1251.936
 20
-7933.489
 30
-120.000
 70
    32
  0
VERTEX
  8
W54LXLIFT
 62
13
 10
1260.431
 20
-7945.327
 30
-120.000
 70
    32
  0
VERTEX
  8
W54LXLIFT
 62
13
 10
1281.089
 20
-7974.111
 30
-120.000
 70
    32
  0
VERTEX
  8
W54LXLIFT
 62
13
 10
1270.177
 20
-7981.941
 30
-120.000
 70
    32
  0
VERTEX
  8
W54LXLIFT
 62
13
 10
1265.909
 20
-7985.005
 30
-120.000
 70
    32
  0
VERTEX
  8
W54LXLIFT
 62
13
 10
1257.760
 20
-7973.650
 30
-120.000
 70
    32
  0
VERTEX
  8
W54LXLIFT
 62
13
 10
1236.756
 20
-7944.383
 30
-120.000
 70
    32
  0
VERTEX
  8
W54LXLIFT
 62
13
 10
1241.024
 20
-7941.320
 30
-120.000
 70
    32
  0
SEQEND
  8
W54LXLIFT
  0
POLYLINE
  8
W54LXLIFT
 62
13
 66
     1
 70
     9
  0
VERTEX
  8
W54LXLIFT
 62
13
 10
1236.148
 20
-7883.276
 30
-160.000
 70
    32
  0
VERTEX
  8
W54LXLIFT
 62
13
 10
1254.284
 20
-7908.546
 30
-160.000
 70
    32
  0
VERTEX
  8
W54LXLIFT
 62
13
 10
1265.301
 20
-7923.897
 30
-160.000
 70
    32
  0
VERTEX
  8
W54LXLIFT
 62
13
 10
1264.297
 20
-7924.618
 30
-160.000
 70
    32
  0
VERTEX
  8
W54LXLIFT
 62
13
 10
1240.804
 20
-7941.478
 30
-160.000
 70
    32
  0
VERTEX
  8
W54LXLIFT
 62
13
 10
1237.909
 20
-7943.555
 30
-160.000
 70
    32
  0
VERTEX
  8
W54LXLIFT
 62
13
 10
1235.974
 20
-7944.944
 30
-160.000
 70
    32
  0
VERTEX
  8
W54LXLIFT
 62
13
 10
1210.694
 20
-7909.719
 30
-160.000
 70
    32
  0
VERTEX
  8
W54LXLIFT
 62
13
 10
1206.821
 20
-7904.323
 30
-160.000
 70
    32
  0
VERTEX
  8
W54LXLIFT
 62
13
 10
1208.756
 20
-7902.934
 30
-160.000
 70
    32
  0
VERTEX
  8
W54LXLIFT
 62
13
 10
1211.651
 20
-7900.857
 30
-160.000
 70
    32
  0
VERTEX
  8
W54LXLIFT
 62
13
 10
1235.144
 20
-7883.996
 30
-160.000
 70
    32
  0
SEQEND
  8
W54LXLIFT
  0
POLYLINE
  8
W54LXLIFT
 62
13
 66
     1
 70
     9
  0
VERTEX
  8
W54LXLIFT
 62
13
 10
1261.309
 20
-7926.762
 30
-170.000
 70
    32
  0
VERTEX
  8
W54LXLIFT
 62
13
 10
1273.263
 20
-7918.183
 30
-170.000
 70
    32
  0
VERTEX
  8
W54LXLIFT
 62
13
 10
1275.183
 20
-7916.805
 30
-170.000
 70
    32
  0
VERTEX
  8
W54LXLIFT
 62
13
 10
1269.592
 20
-7909.015
 30
-170.000
 70
    32
  0
VERTEX
  8
W54LXLIFT
 62
13
 10
1246.030
 20
-7876.184
 30
-170.000
 70
    32
  0
VERTEX
  8
W54LXLIFT
 62
13
 10
1244.110
 20
-7877.562
 30
-170.000
 70
    32
  0
VERTEX
  8
W54LXLIFT
 62
13
 10
1232.156
 20
-7886.140
 30
-170.000
 70
    32
  0
VERTEX
  8
W54LXLIFT
 62
13
 10
1231.672
 20
-7886.488
 30
-170.000
 70
    32
  0
VERTEX
  8
W54LXLIFT
 62
13
 10
1229.026
 20
-7888.387
 30
-170.000
 70
    32
  0
VERTEX
  8
W54LXLIFT
 62
13
 10
1215.892
 20
-7897.813
 30
-170.000
 70
    32
  0
VERTEX
  8
W54LXLIFT
 62
13
 10
1207.111
 20
-7904.114
 30
-170.000
 70
    32
  0
VERTEX
  8
W54LXLIFT
 62
13
 10
1224.683
 20
-7928.599
 30
-170.000
 70
    32
  0
VERTEX
  8
W54LXLIFT
 62
13
 10
1236.264
 20
-7944.736
 30
-170.000
 70
    32
  0
VERTEX
  8
W54LXLIFT
 62
13
 10
1245.045
 20
-7938.434
 30
-170.000
 70
    32
  0
VERTEX
  8
W54LXLIFT
 62
13
 10
1258.179
 20
-7929.009
 30
-170.000
 70
    32
  0
VERTEX
  8
W54LXLIFT
 62
13
 10
1260.825
 20
-7927.109
 30
-170.000
 70
    32
  0
SEQEND
  8
W54LXLIFT
  0
POLYLINE
  8
W54LXLIFT
 62
13
 66
     1
 70
     9
  0
VERTEX
  8
W54LXLIFT
 62
13
 10
1256.056
 20
-7930.532
 30
-190.000
 70
    32
  0
VERTEX
  8
W54LXLIFT
 62
13
 10
1258.258
 20
-7928.952
 30
-190.000
 70
    32
  0
VERTEX
  8
W54LXLIFT
 62
13
 10
1260.406
 20
-7927.410
 30
-190.000
 70
    32
  0
VERTEX
  8
W54LXLIFT
 62
13
 10
1237.761
 20
-7895.857
 30
-190.000
 70
    32
  0
VERTEX
  8
W54LXLIFT
 62
13
 10
1231.253
 20
-7886.788
 30
-190.000
 70
    32
  0
VERTEX
  8
W54LXLIFT
 62
13
 10
1229.105
 20
-7888.330
 30
-190.000
 70
    32
  0
VERTEX
  8
W54LXLIFT
 62
13
 10
1226.903
 20
-7889.911
 30
-190.000
 70
    32
  0
VERTEX
  8
W54LXLIFT
 62
13
 10
1240.765
 20
-7909.227
 30
-190.000
 70
    32
  0
SEQEND
  8
W54LXLIFT
  0
POLYLINE
  8
W54LXLIFT
 62
13
 66
     1
 70
     9
  0
VERTEX
  8
W54LXLIFT
 62
13
 10
1252.273
 20
-7933.247
 30
-180.000
 70
    32
  0
VERTEX
  8
W54LXLIFT
 62
13
 10
1257.791
 20
-7929.287
 30
-180.000
 70
    32
  0
VERTEX
  8
W54LXLIFT
 62
13
 10
1260.395
 20
-7927.418
 30
-180.000
 70
    32
  0
VERTEX
  8
W54LXLIFT
 62
13
 10
1249.840
 20
-7912.711
 30
-180.000
 70
    32
  0
VERTEX
  8
W54LXLIFT
 62
13
 10
1231.242
 20
-7886.797
 30
-180.000
 70
    32
  0
VERTEX
  8
W54LXLIFT
 62
13
 10
1228.638
 20
-7888.666
 30
-180.000
 70
    32
  0
VERTEX
  8
W54LXLIFT
 62
13
 10
1223.120
 20
-7892.626
 30
-180.000
 70
    32
  0
VERTEX
  8
W54LXLIFT
 62
13
 10
1222.173
 20
-7893.305
 30
-180.000
 70
    32
  0
VERTEX
  8
W54LXLIFT
 62
13
 10
1245.896
 20
-7926.361
 30
-180.000
 70
    32
  0
VERTEX
  8
W54LXLIFT
 62
13
 10
1251.326
 20
-7933.927
 30
-180.000
 70
    32
  0
SEQEND
  8
W54LXLIFT
  0
POLYLINE
  8
W54LXLIFT
 62
13
 66
     1
 70
     9
  0
VERTEX
  8
W54LXLIFT
 62
13
 10
1180.299
 20
-7923.357
 30
-70.000
 70
    32
  0
VERTEX
  8
W54LXLIFT
 62
13
 10
1183.561
 20
-7921.016
 30
-70.000
 70
    32
  0
VERTEX
  8
W54LXLIFT
 62
13
 10
1192.530
 20
-7914.579
 30
-70.000
 70
    32
  0
VERTEX
  8
W54LXLIFT
 62
13
 10
1205.299
 20
-7905.415
 30
-70.000
 70
    32
  0
VERTEX
  8
W54LXLIFT
 62
13
 10
1194.726
 20
-7890.684
 30
-70.000
 70
    32
  0
VERTEX
  8
W54LXLIFT
 62
13
 10
1176.146
 20
-7864.794
 30
-70.000
 70
    32
  0
VERTEX
  8
W54LXLIFT
 62
13
 10
1163.377
 20
-7873.958
 30
-70.000
 70
    32
  0
VERTEX
  8
W54LXLIFT
 62
13
 10
1154.408
 20
-7880.394
 30
-70.000
 70
    32
  0
VERTEX
  8
W54LXLIFT
 62
13
 10
1151.146
 20
-7882.736
 30
-70.000
 70
    32
  0
VERTEX
  8
W54LXLIFT
 62
13
 10
1169.898
 20
-7908.864
 30
-70.000
 70
    32
  0
SEQEND
  8
W54LXLIFT
  0
POLYLINE
  8
W54LXLIFT
 62
13
 66
     1
 70
     9
  0
VERTEX
  8
W54LXLIFT
 62
13
 10
1208.247
 20
-7903.300
 30
-80.000
 70
    32
  0
VERTEX
  8
W54LXLIFT
 62
13
 10
1205.301
 20
-7905.413
 30
-80.000
 70
    32
  0
VERTEX
  8
W54LXLIFT
 62
13
 10
1199.986
 20
-7909.228
 30
-80.000
 70
    32
  0
VERTEX
  8
W54LXLIFT
 62
13
 10
1190.968
 20
-7915.700
 30
-80.000
 70
    32
  0
VERTEX
  8
W54LXLIFT
 62
13
 10
1185.279
 20
-7919.783
 30
-80.000
 70
    32
  0
VERTEX
  8
W54LXLIFT
 62
13
 10
1172.102
 20
-7901.422
 30
-80.000
 70
    32
  0
VERTEX
  8
W54LXLIFT
 62
13
 10
1156.126
 20
-7879.161
 30
-80.000
 70
    32
  0
VERTEX
  8
W54LXLIFT
 62
13
 10
1161.815
 20
-7875.079
 30
-80.000
 70
    32
  0
VERTEX
  8
W54LXLIFT
 62
13
 10
1170.833
 20
-7868.607
 30
-80.000
 70
    32
  0
VERTEX
  8
W54LXLIFT
 62
13
 10
1176.148
 20
-7864.792
 30
-80.000
 70
    32
  0
VERTEX
  8
W54LXLIFT
 62
13
 10
1179.094
 20
-7862.678
 30
-80.000
 70
    32
  0
VERTEX
  8
W54LXLIFT
 62
13
 10
1181.596
 20
-7860.882
 30
-80.000
 70
    32
  0
VERTEX
  8
W54LXLIFT
 62
13
 10
1197.794
 20
-7883.452
 30
-80.000
 70
    32
  0
VERTEX
  8
W54LXLIFT
 62
13
 10
1210.749
 20
-7901.504
 30
-80.000
 70
    32
  0
SEQEND
  8
W54LXLIFT
  0
POLYLINE
  8
W54LXLIFT
 62
13
 66
     1
 70
     9
  0
VERTEX
  8
W54LXLIFT
 62
13
 10
1220.116
 20
-7894.782
 30
-90.000
 70
    32
  0
VERTEX
  8
W54LXLIFT
 62
13
 10
1216.236
 20
-7897.566
 30
-90.000
 70
    32
  0
VERTEX
  8
W54LXLIFT
 62
13
 10
1214.012
 20
-7899.162
 30
-90.000
 70
    32
  0
VERTEX
  8
W54LXLIFT
 62
13
 10
1206.450
 20
-7904.589
 30
-90.000
 70
    32
  0
VERTEX
  8
W54LXLIFT
 62
13
 10
1205.231
 20
-7905.464
 30
-90.000
 70
    32
  0
VERTEX
  8
W54LXLIFT
 62
13
 10
1203.011
 20
-7907.057
 30
-90.000
 70
    32
  0
VERTEX
  8
W54LXLIFT
 62
13
 10
1195.408
 20
-7912.514
 30
-90.000
 70
    32
  0
VERTEX
  8
W54LXLIFT
 62
13
 10
1171.976
 20
-7879.863
 30
-90.000
 70
    32
  0
VERTEX
  8
W54LXLIFT
 62
13
 10
1166.255
 20
-7871.892
 30
-90.000
 70
    32
  0
VERTEX
  8
W54LXLIFT
 62
13
 10
1173.858
 20
-7866.436
 30
-90.000
 70
    32
  0
VERTEX
  8
W54LXLIFT
 62
13
 10
1176.078
 20
-7864.842
 30
-90.000
 70
    32
  0
VERTEX
  8
W54LXLIFT
 62
13
 10
1177.297
 20
-7863.968
 30
-90.000
 70
    32
  0
VERTEX
  8
W54LXLIFT
 62
13
 10
1184.859
 20
-7858.541
 30
-90.000
 70
    32
  0
VERTEX
  8
W54LXLIFT
 62
13
 10
1187.083
 20
-7856.945
 30
-90.000
 70
    32
  0
VERTEX
  8
W54LXLIFT
 62
13
 10
1190.963
 20
-7854.160
 30
-90.000
 70
    32
  0
VERTEX
  8
W54LXLIFT
 62
13
 10
1196.642
 20
-7862.073
 30
-90.000
 70
    32
  0
SEQEND
  8
W54LXLIFT
  0
POLYLINE
  8
W54LXLIFT
 62
13
 66
     1
 70
     9
  0
VERTEX
  8
W54LXLIFT
 62
13
 10
1204.393
 20
-7844.522
 30
-130.000
 70
    32
  0
VERTEX
  8
W54LXLIFT
 62
13
 10
1232.813
 20
-7884.122
 30
-130.000
 70
    32
  0
VERTEX
  8
W54LXLIFT
 62
13
 10
1233.546
 20
-7885.143
 30
-130.000
 70
    32
  0
VERTEX
  8
W54LXLIFT
 62
13
 10
1216.668
 20
-7897.256
 30
-130.000
 70
    32
  0
VERTEX
  8
W54LXLIFT
 62
13
 10
1216.267
 20
-7897.544
 30
-130.000
 70
    32
  0
VERTEX
  8
W54LXLIFT
 62
13
 10
1215.932
 20
-7897.784
 30
-130.000
 70
    32
  0
VERTEX
  8
W54LXLIFT
 62
13
 10
1211.213
 20
-7901.171
 30
-130.000
 70
    32
  0
VERTEX
  8
W54LXLIFT
 62
13
 10
1210.031
 20
-7902.019
 30
-130.000
 70
    32
  0
VERTEX
  8
W54LXLIFT
 62
13
 10
1196.658
 20
-7883.386
 30
-130.000
 70
    32
  0
VERTEX
  8
W54LXLIFT
 62
13
 10
1180.878
 20
-7861.398
 30
-130.000
 70
    32
  0
VERTEX
  8
W54LXLIFT
 62
13
 10
1182.060
 20
-7860.549
 30
-130.000
 70
    32
  0
VERTEX
  8
W54LXLIFT
 62
13
 10
1186.779
 20
-7857.163
 30
-130.000
 70
    32
  0
VERTEX
  8
W54LXLIFT
 62
13
 10
1187.114
 20
-7856.922
 30
-130.000
 70
    32
  0
VERTEX
  8
W54LXLIFT
 62
13
 10
1187.515
 20
-7856.635
 30
-130.000
 70
    32
  0
SEQEND
  8
W54LXLIFT
  0
POLYLINE
  8
W54LXLIFT
 62
13
 66
     1
 70
     9
  0
VERTEX
  8
W54LXLIFT
 62
13
 10
1216.825
 20
-7835.599
 30
-160.000
 70
    32
  0
VERTEX
  8
W54LXLIFT
 62
13
 10
1227.620
 20
-7850.641
 30
-160.000
 70
    32
  0
VERTEX
  8
W54LXLIFT
 62
13
 10
1245.978
 20
-7876.221
 30
-160.000
 70
    32
  0
VERTEX
  8
W54LXLIFT
 62
13
 10
1243.455
 20
-7878.032
 30
-160.000
 70
    32
  0
VERTEX
  8
W54LXLIFT
 62
13
 10
1230.820
 20
-7887.099
 30
-160.000
 70
    32
  0
VERTEX
  8
W54LXLIFT
 62
13
 10
1230.082
 20
-7887.629
 30
-160.000
 70
    32
  0
VERTEX
  8
W54LXLIFT
 62
13
 10
1226.191
 20
-7890.422
 30
-160.000
 70
    32
  0
VERTEX
  8
W54LXLIFT
 62
13
 10
1225.082
 20
-7888.877
 30
-160.000
 70
    32
  0
VERTEX
  8
W54LXLIFT
 62
13
 10
1197.038
 20
-7849.800
 30
-160.000
 70
    32
  0
VERTEX
  8
W54LXLIFT
 62
13
 10
1200.929
 20
-7847.007
 30
-160.000
 70
    32
  0
VERTEX
  8
W54LXLIFT
 62
13
 10
1201.667
 20
-7846.478
 30
-160.000
 70
    32
  0
VERTEX
  8
W54LXLIFT
 62
13
 10
1214.302
 20
-7837.410
 30
-160.000
 70
    32
  0
SEQEND
  8
W54LXLIFT
  0
POLYLINE
  8
W54LXLIFT
 62
13
 66
     1
 70
     9
  0
VERTEX
  8
W54LXLIFT
 62
13
 10
1216.675
 20
-7835.707
 30
-150.000
 70
    32
  0
VERTEX
  8
W54LXLIFT
 62
13
 10
1241.127
 20
-7869.779
 30
-150.000
 70
    32
  0
VERTEX
  8
W54LXLIFT
 62
13
 10
1245.828
 20
-7876.329
 30
-150.000
 70
    32
  0
VERTEX
  8
W54LXLIFT
 62
13
 10
1240.112
 20
-7880.431
 30
-150.000
 70
    32
  0
VERTEX
  8
W54LXLIFT
 62
13
 10
1236.951
 20
-7882.700
 30
-150.000
 70
    32
  0
VERTEX
  8
W54LXLIFT
 62
13
 10
1227.301
 20
-7889.625
 30
-150.000
 70
    32
  0
VERTEX
  8
W54LXLIFT
 62
13
 10
1226.564
 20
-7890.154
 30
-150.000
 70
    32
  0
VERTEX
  8
W54LXLIFT
 62
13
 10
1202.727
 20
-7856.941
 30
-150.000
 70
    32
  0
VERTEX
  8
W54LXLIFT
 62
13
 10
1197.411
 20
-7849.533
 30
-150.000
 70
    32
  0
VERTEX
  8
W54LXLIFT
 62
13
 10
1198.148
 20
-7849.003
 30
-150.000
 70
    32
  0
VERTEX
  8
W54LXLIFT
 62
13
 10
1207.798
 20
-7842.078
 30
-150.000
 70
    32
  0
VERTEX
  8
W54LXLIFT
 62
13
 10
1210.959
 20
-7839.810
 30
-150.000
 70
    32
  0
SEQEND
  8
W54LXLIFT
  0
POLYLINE
  8
W54LXLIFT
 62
13
 66
     1
 70
     9
  0
VERTEX
  8
W54LXLIFT
 62
13
 10
1231.842
 20
-7886.366
 30
-140.000
 70
    32
  0
VERTEX
  8
W54LXLIFT
 62
13
 10
1235.149
 20
-7883.992
 30
-140.000
 70
    32
  0
VERTEX
  8
W54LXLIFT
 62
13
 10
1239.085
 20
-7881.168
 30
-140.000
 70
    32
  0
VERTEX
  8
W54LXLIFT
 62
13
 10
1218.612
 20
-7852.640
 30
-140.000
 70
    32
  0
VERTEX
  8
W54LXLIFT
 62
13
 10
1209.932
 20
-7840.546
 30
-140.000
 70
    32
  0
VERTEX
  8
W54LXLIFT
 62
13
 10
1205.996
 20
-7843.371
 30
-140.000
 70
    32
  0
VERTEX
  8
W54LXLIFT
 62
13
 10
1202.689
 20
-7845.744
 30
-140.000
 70
    32
  0
VERTEX
  8
W54LXLIFT
 62
13
 10
1192.994
 20
-7852.703
 30
-140.000
 70
    32
  0
VERTEX
  8
W54LXLIFT
 62
13
 10
1189.784
 20
-7855.006
 30
-140.000
 70
    32
  0
VERTEX
  8
W54LXLIFT
 62
13
 10
1183.534
 20
-7859.491
 30
-140.000
 70
    32
  0
VERTEX
  8
W54LXLIFT
 62
13
 10
1198.914
 20
-7880.921
 30
-140.000
 70
    32
  0
VERTEX
  8
W54LXLIFT
 62
13
 10
1212.687
 20
-7900.113
 30
-140.000
 70
    32
  0
VERTEX
  8
W54LXLIFT
 62
13
 10
1218.937
 20
-7895.627
 30
-140.000
 70
    32
  0
VERTEX
  8
W54LXLIFT
 62
13
 10
1222.147
 20
-7893.324
 30
-140.000
 70
    32
  0
SEQEND
  8
W54LXLIFT
  0
POLYLINE
  8
W54LXLIFT
 62
13
 66
     1
 70
     9
  0
VERTEX
  8
W54LXLIFT
 62
13
 10
1167.085
 20
-7871.297
 30
-70.000
 70
    32
  0
VERTEX
  8
W54LXLIFT
 62
13
 10
1162.041
 20
-7874.916
 30
-70.000
 70
    32
  0
VERTEX
  8
W54LXLIFT
 62
13
 10
1160.906
 20
-7875.731
 30
-70.000
 70
    32
  0
VERTEX
  8
W54LXLIFT
 62
13
 10
1155.870
 20
-7879.345
 30
-70.000
 70
    32
  0
VERTEX
  8
W54LXLIFT
 62
13
 10
1152.495
 20
-7874.642
 30
-70.000
 70
    32
  0
VERTEX
  8
W54LXLIFT
 62
13
 10
1126.717
 20
-7838.724
 30
-70.000
 70
    32
  0
VERTEX
  8
W54LXLIFT
 62
13
 10
1131.753
 20
-7835.110
 30
-70.000
 70
    32
  0
VERTEX
  8
W54LXLIFT
 62
13
 10
1132.888
 20
-7834.295
 30
-70.000
 70
    32
  0
VERTEX
  8
W54LXLIFT
 62
13
 10
1137.932
 20
-7830.675
 30
-70.000
 70
    32
  0
VERTEX
  8
W54LXLIFT
 62
13
 10
1164.139
 20
-7867.193
 30
-70.000
 70
    32
  0
SEQEND
  8
W54LXLIFT
  0
POLYLINE
  8
W54LXLIFT
 62
13
 66
     1
 70
     9
  0
VERTEX
  8
W54LXLIFT
 62
13
 10
1166.952
 20
-7871.392
 30
-80.000
 70
    32
  0
VERTEX
  8
W54LXLIFT
 62
13
 10
1165.290
 20
-7872.585
 30
-80.000
 70
    32
  0
VERTEX
  8
W54LXLIFT
 62
13
 10
1157.533
 20
-7878.152
 30
-80.000
 70
    32
  0
VERTEX
  8
W54LXLIFT
 62
13
 10
1155.911
 20
-7879.316
 30
-80.000
 70
    32
  0
VERTEX
  8
W54LXLIFT
 62
13
 10
1135.060
 20
-7850.262
 30
-80.000
 70
    32
  0
VERTEX
  8
W54LXLIFT
 62
13
 10
1126.758
 20
-7838.695
 30
-80.000
 70
    32
  0
VERTEX
  8
W54LXLIFT
 62
13
 10
1128.380
 20
-7837.531
 30
-80.000
 70
    32
  0
VERTEX
  8
W54LXLIFT
 62
13
 10
1136.137
 20
-7831.963
 30
-80.000
 70
    32
  0
VERTEX
  8
W54LXLIFT
 62
13
 10
1137.799
 20
-7830.771
 30
-80.000
 70
    32
  0
VERTEX
  8
W54LXLIFT
 62
13
 10
1146.435
 20
-7842.804
 30
-80.000
 70
    32
  0
SEQEND
  8
W54LXLIFT
  0
POLYLINE
  8
W54LXLIFT
 62
13
 66
     1
 70
     9
  0
VERTEX
  8
W54LXLIFT
 62
13
 10
1164.815
 20
-7872.926
 30
-100.000
 70
    32
  0
VERTEX
  8
W54LXLIFT
 62
13
 10
1168.441
 20
-7870.324
 30
-100.000
 70
    32
  0
VERTEX
  8
W54LXLIFT
 62
13
 10
1171.784
 20
-7867.924
 30
-100.000
 70
    32
  0
VERTEX
  8
W54LXLIFT
 62
13
 10
1161.024
 20
-7852.930
 30
-100.000
 70
    32
  0
VERTEX
  8
W54LXLIFT
 62
13
 10
1142.631
 20
-7827.303
 30
-100.000
 70
    32
  0
VERTEX
  8
W54LXLIFT
 62
13
 10
1139.288
 20
-7829.702
 30
-100.000
 70
    32
  0
VERTEX
  8
W54LXLIFT
 62
13
 10
1135.662
 20
-7832.304
 30
-100.000
 70
    32
  0
VERTEX
  8
W54LXLIFT
 62
13
 10
1132.558
 20
-7834.532
 30
-100.000
 70
    32
  0
VERTEX
  8
W54LXLIFT
 62
13
 10
1143.762
 20
-7850.144
 30
-100.000
 70
    32
  0
VERTEX
  8
W54LXLIFT
 62
13
 10
1161.711
 20
-7875.154
 30
-100.000
 70
    32
  0
SEQEND
  8
W54LXLIFT
  0
POLYLINE
  8
W54LXLIFT
 62
13
 66
     1
 70
     9
  0
VERTEX
  8
W54LXLIFT
 62
13
 10
1179.930
 20
-7862.078
 30
-110.000
 70
    32
  0
VERTEX
  8
W54LXLIFT
 62
13
 10
1182.757
 20
-7860.049
 30
-110.000
 70
    32
  0
VERTEX
  8
W54LXLIFT
 62
13
 10
1175.056
 20
-7849.319
 30
-110.000
 70
    32
  0
VERTEX
  8
W54LXLIFT
 62
13
 10
1153.604
 20
-7819.428
 30
-110.000
 70
    32
  0
VERTEX
  8
W54LXLIFT
 62
13
 10
1150.777
 20
-7821.457
 30
-110.000
 70
    32
  0
VERTEX
  8
W54LXLIFT
 62
13
 10
1142.613
 20
-7827.316
 30
-110.000
 70
    32
  0
VERTEX
  8
W54LXLIFT
 62
13
 10
1141.179
 20
-7828.345
 30
-110.000
 70
    32
  0
VERTEX
  8
W54LXLIFT
 62
13
 10
1137.331
 20
-7831.106
 30
-110.000
 70
    32
  0
VERTEX
  8
W54LXLIFT
 62
13
 10
1144.890
 20
-7841.639
 30
-110.000
 70
    32
  0
VERTEX
  8
W54LXLIFT
 62
13
 10
1166.484
 20
-7871.728
 30
-110.000
 70
    32
  0
VERTEX
  8
W54LXLIFT
 62
13
 10
1170.332
 20
-7868.966
 30
-110.000
 70
    32
  0
VERTEX
  8
W54LXLIFT
 62
13
 10
1171.766
 20
-7867.937
 30
-110.000
 70
    32
  0
SEQEND
  8
W54LXLIFT
  0
POLYLINE
  8
W54LXLIFT
 62
13
 66
     1
 70
     9
  0
VERTEX
  8
W54LXLIFT
 62
13
 10
1174.579
 20
-7865.919
 30
-120.000
 70
    32
  0
VERTEX
  8
W54LXLIFT
 62
13
 10
1183.794
 20
-7859.305
 30
-120.000
 70
    32
  0
VERTEX
  8
W54LXLIFT
 62
13
 10
1185.502
 20
-7858.079
 30
-120.000
 70
    32
  0
VERTEX
  8
W54LXLIFT
 62
13
 10
1189.329
 20
-7855.333
 30
-120.000
 70
    32
  0
VERTEX
  8
W54LXLIFT
 62
13
 10
1182.551
 20
-7845.889
 30
-120.000
 70
    32
  0
VERTEX
  8
W54LXLIFT
 62
13
 10
1160.176
 20
-7814.711
 30
-120.000
 70
    32
  0
VERTEX
  8
W54LXLIFT
 62
13
 10
1156.349
 20
-7817.458
 30
-120.000
 70
    32
  0
VERTEX
  8
W54LXLIFT
 62
13
 10
1154.641
 20
-7818.684
 30
-120.000
 70
    32
  0
VERTEX
  8
W54LXLIFT
 62
13
 10
1145.426
 20
-7825.297
 30
-120.000
 70
    32
  0
VERTEX
  8
W54LXLIFT
 62
13
 10
1142.601
 20
-7827.324
 30
-120.000
 70
    32
  0
VERTEX
  8
W54LXLIFT
 62
13
 10
1150.142
 20
-7837.832
 30
-120.000
 70
    32
  0
VERTEX
  8
W54LXLIFT
 62
13
 10
1171.754
 20
-7867.946
 30
-120.000
 70
    32
  0
SEQEND
  8
W54LXLIFT
  0
POLYLINE
  8
W54LXLIFT
 62
13
 66
     1
 70
     9
  0
VERTEX
  8
W54LXLIFT
 62
13
 10
1167.821
 20
-7809.225
 30
-130.000
 70
    32
  0
VERTEX
  8
W54LXLIFT
 62
13
 10
1174.181
 20
-7818.087
 30
-130.000
 70
    32
  0
VERTEX
  8
W54LXLIFT
 62
13
 10
1196.974
 20
-7849.846
 30
-130.000
 70
    32
  0
VERTEX
  8
W54LXLIFT
 62
13
 10
1195.174
 20
-7851.138
 30
-130.000
 70
    32
  0
VERTEX
  8
W54LXLIFT
 62
13
 10
1186.823
 20
-7857.131
 30
-130.000
 70
    32
  0
VERTEX
  8
W54LXLIFT
 62
13
 10
1181.032
 20
-7861.287
 30
-130.000
 70
    32
  0
VERTEX
  8
W54LXLIFT
 62
13
 10
1169.461
 20
-7869.592
 30
-130.000
 70
    32
  0
VERTEX
  8
W54LXLIFT
 62
13
 10
1163.052
 20
-7860.661
 30
-130.000
 70
    32
  0
VERTEX
  8
W54LXLIFT
 62
13
 10
1140.308
 20
-7828.970
 30
-130.000
 70
    32
  0
VERTEX
  8
W54LXLIFT
 62
13
 10
1151.879
 20
-7820.665
 30
-130.000
 70
    32
  0
VERTEX
  8
W54LXLIFT
 62
13
 10
1157.670
 20
-7816.510
 30
-130.000
 70
    32
  0
VERTEX
  8
W54LXLIFT
 62
13
 10
1166.021
 20
-7810.516
 30
-130.000
 70
    32
  0
SEQEND
  8
W54LXLIFT
  0
POLYLINE
  8
W54LXLIFT
 62
13
 66
     1
 70
     9
  0
VERTEX
  8
W54LXLIFT
 62
13
 10
1149.411
 20
-7883.981
 30
-60.000
 70
    32
  0
VERTEX
  8
W54LXLIFT
 62
13
 10
1150.029
 20
-7883.537
 30
-60.000
 70
    32
  0
VERTEX
  8
W54LXLIFT
 62
13
 10
1160.768
 20
-7875.830
 30
-60.000
 70
    32
  0
VERTEX
  8
W54LXLIFT
 62
13
 10
1161.041
 20
-7875.634
 30
-60.000
 70
    32
  0
VERTEX
  8
W54LXLIFT
 62
13
 10
1133.276
 20
-7836.945
 30
-60.000
 70
    32
  0
VERTEX
  8
W54LXLIFT
 62
13
 10
1131.888
 20
-7835.013
 30
-60.000
 70
    32
  0
VERTEX
  8
W54LXLIFT
 62
13
 10
1131.615
 20
-7835.209
 30
-60.000
 70
    32
  0
VERTEX
  8
W54LXLIFT
 62
13
 10
1120.876
 20
-7842.916
 30
-60.000
 70
    32
  0
VERTEX
  8
W54LXLIFT
 62
13
 10
1120.258
 20
-7843.359
 30
-60.000
 70
    32
  0
VERTEX
  8
W54LXLIFT
 62
13
 10
1123.020
 20
-7847.208
 30
-60.000
 70
    32
  0
SEQEND
  8
W54LXLIFT
  0
POLYLINE
  8
W54LXLIFT
 62
13
 66
     1
 70
     9
  0
VERTEX
  8
W54LXLIFT
 62
13
 10
1209.361
 20
-7779.413
 30
-200.000
 70
    32
  0
VERTEX
  8
W54LXLIFT
 62
13
 10
1201.117
 20
-7785.329
 30
-200.000
 70
    32
  0
VERTEX
  8
W54LXLIFT
 62
13
 10
1190.025
 20
-7793.289
 30
-200.000
 70
    32
  0
VERTEX
  8
W54LXLIFT
 62
13
 10
1174.168
 20
-7771.194
 30
-200.000
 70
    32
  0
VERTEX
  8
W54LXLIFT
 62
13
 10
1160.872
 20
-7752.668
 30
-200.000
 70
    32
  0
VERTEX
  8
W54LXLIFT
 62
13
 10
1171.964
 20
-7744.708
 30
-200.000
 70
    32
  0
VERTEX
  8
W54LXLIFT
 62
13
 10
1180.208
 20
-7738.791
 30
-200.000
 70
    32
  0
VERTEX
  8
W54LXLIFT
 62
13
 10
1183.589
 20
-7743.502
 30
-200.000
 70
    32
  0
SEQEND
  8
W54LXLIFT
  0
POLYLINE
  8
W54LXLIFT
 62
13
 66
     1
 70
     9
  0
VERTEX
  8
W54LXLIFT
 62
13
 10
1209.474
 20
-7779.331
 30
-190.000
 70
    32
  0
VERTEX
  8
W54LXLIFT
 62
13
 10
1196.795
 20
-7788.431
 30
-190.000
 70
    32
  0
VERTEX
  8
W54LXLIFT
 62
13
 10
1187.615
 20
-7795.019
 30
-190.000
 70
    32
  0
VERTEX
  8
W54LXLIFT
 62
13
 10
1185.592
 20
-7796.470
 30
-190.000
 70
    32
  0
VERTEX
  8
W54LXLIFT
 62
13
 10
1180.769
 20
-7799.932
 30
-190.000
 70
    32
  0
VERTEX
  8
W54LXLIFT
 62
13
 10
1177.483
 20
-7802.290
 30
-190.000
 70
    32
  0
VERTEX
  8
W54LXLIFT
 62
13
 10
1159.802
 20
-7777.654
 30
-190.000
 70
    32
  0
VERTEX
  8
W54LXLIFT
 62
13
 10
1148.330
 20
-7761.669
 30
-190.000
 70
    32
  0
VERTEX
  8
W54LXLIFT
 62
13
 10
1151.616
 20
-7759.310
 30
-190.000
 70
    32
  0
VERTEX
  8
W54LXLIFT
 62
13
 10
1156.439
 20
-7755.849
 30
-190.000
 70
    32
  0
VERTEX
  8
W54LXLIFT
 62
13
 10
1158.462
 20
-7754.397
 30
-190.000
 70
    32
  0
VERTEX
  8
W54LXLIFT
 62
13
 10
1167.642
 20
-7747.809
 30
-190.000
 70
    32
  0
VERTEX
  8
W54LXLIFT
 62
13
 10
1180.321
 20
-7738.710
 30
-190.000
 70
    32
  0
VERTEX
  8
W54LXLIFT
 62
13
 10
1195.552
 20
-7759.932
 30
-190.000
 70
    32
  0
SEQEND
  8
W54LXLIFT
  0
POLYLINE
  8
W54LXLIFT
 62
13
 66
     1
 70
     9
  0
VERTEX
  8
W54LXLIFT
 62
13
 10
1209.588
 20
-7779.249
 30
-180.000
 70
    32
  0
VERTEX
  8
W54LXLIFT
 62
13
 10
1207.701
 20
-7780.604
 30
-180.000
 70
    32
  0
VERTEX
  8
W54LXLIFT
 62
13
 10
1183.625
 20
-7797.882
 30
-180.000
 70
    32
  0
VERTEX
  8
W54LXLIFT
 62
13
 10
1182.897
 20
-7798.405
 30
-180.000
 70
    32
  0
VERTEX
  8
W54LXLIFT
 62
13
 10
1160.338
 20
-7766.972
 30
-180.000
 70
    32
  0
VERTEX
  8
W54LXLIFT
 62
13
 10
1153.744
 20
-7757.784
 30
-180.000
 70
    32
  0
VERTEX
  8
W54LXLIFT
 62
13
 10
1154.472
 20
-7757.261
 30
-180.000
 70
    32
  0
VERTEX
  8
W54LXLIFT
 62
13
 10
1178.548
 20
-7739.982
 30
-180.000
 70
    32
  0
VERTEX
  8
W54LXLIFT
 62
13
 10
1180.435
 20
-7738.628
 30
-180.000
 70
    32
  0
VERTEX
  8
W54LXLIFT
 62
13
 10
1207.516
 20
-7776.362
 30
-180.000
 70
    32
  0
SEQEND
  8
W54LXLIFT
  0
POLYLINE
  8
W54LXLIFT
 62
13
 66
     1
 70
     9
  0
VERTEX
  8
W54LXLIFT
 62
13
 10
1151.359
 20
-7821.039
 30
-130.000
 70
    32
  0
VERTEX
  8
W54LXLIFT
 62
13
 10
1152.596
 20
-7820.151
 30
-130.000
 70
    32
  0
VERTEX
  8
W54LXLIFT
 62
13
 10
1174.358
 20
-7804.533
 30
-130.000
 70
    32
  0
VERTEX
  8
W54LXLIFT
 62
13
 10
1183.310
 20
-7798.108
 30
-130.000
 70
    32
  0
VERTEX
  8
W54LXLIFT
 62
13
 10
1185.483
 20
-7796.549
 30
-130.000
 70
    32
  0
VERTEX
  8
W54LXLIFT
 62
13
 10
1163.670
 20
-7766.155
 30
-130.000
 70
    32
  0
VERTEX
  8
W54LXLIFT
 62
13
 10
1156.330
 20
-7755.927
 30
-130.000
 70
    32
  0
VERTEX
  8
W54LXLIFT
 62
13
 10
1154.157
 20
-7757.487
 30
-130.000
 70
    32
  0
VERTEX
  8
W54LXLIFT
 62
13
 10
1145.205
 20
-7763.912
 30
-130.000
 70
    32
  0
VERTEX
  8
W54LXLIFT
 62
13
 10
1123.443
 20
-7779.530
 30
-130.000
 70
    32
  0
VERTEX
  8
W54LXLIFT
 62
13
 10
1122.206
 20
-7780.418
 30
-130.000
 70
    32
  0
VERTEX
  8
W54LXLIFT
 62
13
 10
1130.158
 20
-7791.498
 30
-130.000
 70
    32
  0
SEQEND
  8
W54LXLIFT
  0
POLYLINE
  8
W54LXLIFT
 62
13
 66
     1
 70
     9
  0
VERTEX
  8
W54LXLIFT
 62
13
 10
1182.890
 20
-7798.410
 30
-120.000
 70
    32
  0
VERTEX
  8
W54LXLIFT
 62
13
 10
1178.626
 20
-7801.470
 30
-120.000
 70
    32
  0
VERTEX
  8
W54LXLIFT
 62
13
 10
1177.373
 20
-7802.369
 30
-120.000
 70
    32
  0
VERTEX
  8
W54LXLIFT
 62
13
 10
1154.808
 20
-7818.564
 30
-120.000
 70
    32
  0
VERTEX
  8
W54LXLIFT
 62
13
 10
1153.163
 20
-7819.744
 30
-120.000
 70
    32
  0
VERTEX
  8
W54LXLIFT
 62
13
 10
1152.188
 20
-7818.385
 30
-120.000
 70
    32
  0
VERTEX
  8
W54LXLIFT
 62
13
 10
1124.010
 20
-7779.123
 30
-120.000
 70
    32
  0
VERTEX
  8
W54LXLIFT
 62
13
 10
1125.655
 20
-7777.942
 30
-120.000
 70
    32
  0
VERTEX
  8
W54LXLIFT
 62
13
 10
1148.220
 20
-7761.748
 30
-120.000
 70
    32
  0
VERTEX
  8
W54LXLIFT
 62
13
 10
1149.473
 20
-7760.849
 30
-120.000
 70
    32
  0
VERTEX
  8
W54LXLIFT
 62
13
 10
1153.737
 20
-7757.789
 30
-120.000
 70
    32
  0
VERTEX
  8
W54LXLIFT
 62
13
 10
1154.267
 20
-7758.527
 30
-120.000
 70
    32
  0
SEQEND
  8
W54LXLIFT
  0
POLYLINE
  8
W54LXLIFT
 62
13
 66
     1
 70
     9
  0
VERTEX
  8
W54LXLIFT
 62
13
 10
1125.686
 20
-7777.920
 30
-110.000
 70
    32
  0
VERTEX
  8
W54LXLIFT
 62
13
 10
1126.590
 20
-7779.179
 30
-110.000
 70
    32
  0
VERTEX
  8
W54LXLIFT
 62
13
 10
1154.839
 20
-7818.541
 30
-110.000
 70
    32
  0
VERTEX
  8
W54LXLIFT
 62
13
 10
1164.942
 20
-7811.291
 30
-110.000
 70
    32
  0
VERTEX
  8
W54LXLIFT
 62
13
 10
1174.871
 20
-7804.165
 30
-110.000
 70
    32
  0
VERTEX
  8
W54LXLIFT
 62
13
 10
1178.479
 20
-7801.575
 30
-110.000
 70
    32
  0
VERTEX
  8
W54LXLIFT
 62
13
 10
1161.668
 20
-7778.151
 30
-110.000
 70
    32
  0
VERTEX
  8
W54LXLIFT
 62
13
 10
1149.326
 20
-7760.954
 30
-110.000
 70
    32
  0
VERTEX
  8
W54LXLIFT
 62
13
 10
1145.718
 20
-7763.543
 30
-110.000
 70
    32
  0
VERTEX
  8
W54LXLIFT
 62
13
 10
1135.789
 20
-7770.669
 30
-110.000
 70
    32
  0
SEQEND
  8
W54LXLIFT
  0
POLYLINE
  8
W54LXLIFT
 62
13
 66
     1
 70
     9
  0
VERTEX
  8
W54LXLIFT
 62
13
 10
1172.273
 20
-7806.030
 30
-100.000
 70
    32
  0
VERTEX
  8
W54LXLIFT
 62
13
 10
1165.846
 20
-7810.642
 30
-100.000
 70
    32
  0
VERTEX
  8
W54LXLIFT
 62
13
 10
1150.440
 20
-7821.698
 30
-100.000
 70
    32
  0
VERTEX
  8
W54LXLIFT
 62
13
 10
1138.750
 20
-7830.088
 30
-100.000
 70
    32
  0
VERTEX
  8
W54LXLIFT
 62
13
 10
1135.301
 20
-7832.564
 30
-100.000
 70
    32
  0
VERTEX
  8
W54LXLIFT
 62
13
 10
1115.575
 20
-7805.079
 30
-100.000
 70
    32
  0
VERTEX
  8
W54LXLIFT
 62
13
 10
1106.148
 20
-7791.942
 30
-100.000
 70
    32
  0
VERTEX
  8
W54LXLIFT
 62
13
 10
1109.597
 20
-7789.466
 30
-100.000
 70
    32
  0
VERTEX
  8
W54LXLIFT
 62
13
 10
1121.287
 20
-7781.077
 30
-100.000
 70
    32
  0
VERTEX
  8
W54LXLIFT
 62
13
 10
1136.692
 20
-7770.021
 30
-100.000
 70
    32
  0
VERTEX
  8
W54LXLIFT
 62
13
 10
1143.119
 20
-7765.408
 30
-100.000
 70
    32
  0
VERTEX
  8
W54LXLIFT
 62
13
 10
1153.140
 20
-7779.371
 30
-100.000
 70
    32
  0
SEQEND
  8
W54LXLIFT
  0
POLYLINE
  8
W54LXLIFT
 62
13
 66
     1
 70
     9
  0
VERTEX
  8
W54LXLIFT
 62
13
 10
1155.301
 20
-7818.210
 30
-80.000
 70
    32
  0
VERTEX
  8
W54LXLIFT
 62
13
 10
1153.981
 20
-7819.157
 30
-80.000
 70
    32
  0
VERTEX
  8
W54LXLIFT
 62
13
 10
1139.991
 20
-7829.198
 30
-80.000
 70
    32
  0
VERTEX
  8
W54LXLIFT
 62
13
 10
1139.378
 20
-7829.638
 30
-80.000
 70
    32
  0
VERTEX
  8
W54LXLIFT
 62
13
 10
1136.014
 20
-7824.951
 30
-80.000
 70
    32
  0
VERTEX
  8
W54LXLIFT
 62
13
 10
1110.225
 20
-7789.016
 30
-80.000
 70
    32
  0
VERTEX
  8
W54LXLIFT
 62
13
 10
1110.838
 20
-7788.576
 30
-80.000
 70
    32
  0
VERTEX
  8
W54LXLIFT
 62
13
 10
1124.828
 20
-7778.536
 30
-80.000
 70
    32
  0
VERTEX
  8
W54LXLIFT
 62
13
 10
1126.148
 20
-7777.588
 30
-80.000
 70
    32
  0
VERTEX
  8
W54LXLIFT
 62
13
 10
1129.786
 20
-7782.658
 30
-80.000
 70
    32
  0
SEQEND
  8
W54LXLIFT
  0
POLYLINE
  8
W54LXLIFT
 62
13
 66
     1
 70
     9
  0
VERTEX
  8
W54LXLIFT
 62
13
 10
1155.481
 20
-7818.080
 30
-70.000
 70
    32
  0
VERTEX
  8
W54LXLIFT
 62
13
 10
1146.569
 20
-7824.477
 30
-70.000
 70
    32
  0
VERTEX
  8
W54LXLIFT
 62
13
 10
1143.931
 20
-7826.370
 30
-70.000
 70
    32
  0
VERTEX
  8
W54LXLIFT
 62
13
 10
1139.456
 20
-7829.581
 30
-70.000
 70
    32
  0
VERTEX
  8
W54LXLIFT
 62
13
 10
1114.900
 20
-7795.365
 30
-70.000
 70
    32
  0
VERTEX
  8
W54LXLIFT
 62
13
 10
1110.303
 20
-7788.960
 30
-70.000
 70
    32
  0
VERTEX
  8
W54LXLIFT
 62
13
 10
1114.778
 20
-7785.748
 30
-70.000
 70
    32
  0
VERTEX
  8
W54LXLIFT
 62
13
 10
1117.416
 20
-7783.855
 30
-70.000
 70
    32
  0
VERTEX
  8
W54LXLIFT
 62
13
 10
1126.328
 20
-7777.459
 30
-70.000
 70
    32
  0
VERTEX
  8
W54LXLIFT
 62
13
 10
1150.892
 20
-7811.685
 30
-70.000
 70
    32
  0
SEQEND
  8
W54LXLIFT
  0
POLYLINE
  8
W54LXLIFT
 62
13
 66
     1
 70
     9
  0
VERTEX
  8
W54LXLIFT
 62
13
 10
1134.373
 20
-7833.230
 30
-60.000
 70
    32
  0
VERTEX
  8
W54LXLIFT
 62
13
 10
1136.840
 20
-7831.459
 30
-60.000
 70
    32
  0
VERTEX
  8
W54LXLIFT
 62
13
 10
1142.380
 20
-7827.483
 30
-60.000
 70
    32
  0
VERTEX
  8
W54LXLIFT
 62
13
 10
1144.941
 20
-7825.645
 30
-60.000
 70
    32
  0
VERTEX
  8
W54LXLIFT
 62
13
 10
1129.835
 20
-7804.597
 30
-60.000
 70
    32
  0
VERTEX
  8
W54LXLIFT
 62
13
 10
1115.788
 20
-7785.023
 30
-60.000
 70
    32
  0
VERTEX
  8
W54LXLIFT
 62
13
 10
1113.227
 20
-7786.862
 30
-60.000
 70
    32
  0
VERTEX
  8
W54LXLIFT
 62
13
 10
1107.687
 20
-7790.837
 30
-60.000
 70
    32
  0
VERTEX
  8
W54LXLIFT
 62
13
 10
1105.220
 20
-7792.608
 30
-60.000
 70
    32
  0
VERTEX
  8
W54LXLIFT
 62
13
 10
1119.183
 20
-7812.065
 30
-60.000
 70
    32
  0
SEQEND
  8
W54LXLIFT
  0
POLYLINE
  8
W54LXLIFT
 62
6
 66
     1
 70
     9
  0
VERTEX
  8
W54LXLIFT
 62
6
 10
157.808
 20
-5634.445
 30
-171.000
 70
    32
  0
VERTEX
  8
W54LXLIFT
 62
6
 10
155.908
 20
-5660.943
 30
-171.000
 70
    32
  0
VERTEX
  8
W54LXLIFT
 62
6
 10
145.160
 20
-5686.941
 30
-171.000
 70
    32
  0
VERTEX
  8
W54LXLIFT
 62
6
 10
140.966
 20
-5695.142
 30
-171.000
 70
    32
  0
VERTEX
  8
W54LXLIFT
 62
6
 10
133.224
 20
-5702.781
 30
-171.000
 70
    32
  0
VERTEX
  8
W54LXLIFT
 62
6
 10
135.366
 20
-5720.478
 30
-171.000
 70
    32
  0
VERTEX
  8
W54LXLIFT
 62
6
 10
144.351
 20
-5721.000
 30
-171.000
 70
    32
  0
VERTEX
  8
W54LXLIFT
 62
6
 10
148.673
 20
-5732.139
 30
-171.000
 70
    32
  0
VERTEX
  8
W54LXLIFT
 62
6
 10
153.666
 20
-5732.393
 30
-171.000
 70
    32
  0
VERTEX
  8
W54LXLIFT
 62
6
 10
157.472
 20
-5732.406
 30
-171.000
 70
    32
  0
VERTEX
  8
W54LXLIFT
 62
6
 10
163.559
 20
-5728.593
 30
-171.000
 70
    32
  0
VERTEX
  8
W54LXLIFT
 62
6
 10
161.903
 20
-5721.526
 30
-171.000
 70
    32
  0
VERTEX
  8
W54LXLIFT
 62
6
 10
161.510
 20
-5709.971
 30
-171.000
 70
    32
  0
VERTEX
  8
W54LXLIFT
 62
6
 10
163.550
 20
-5697.388
 30
-171.000
 70
    32
  0
VERTEX
  8
W54LXLIFT
 62
6
 10
169.337
 20
-5690.454
 30
-171.000
 70
    32
  0
VERTEX
  8
W54LXLIFT
 62
6
 10
171.655
 20
-5678.454
 30
-171.000
 70
    32
  0
VERTEX
  8
W54LXLIFT
 62
6
 10
168.766
 20
-5653.856
 30
-171.000
 70
    32
  0
VERTEX
  8
W54LXLIFT
 62
6
 10
167.820
 20
-5634.886
 30
-171.000
 70
    32
  0
SEQEND
  8
W54LXLIFT
  0
POLYLINE
  8
W54LXLIFT
 62
6
 66
     1
 70
     9
  0
VERTEX
  8
W54LXLIFT
 62
6
 10
211.922
 20
-5438.463
 30
-88.000
 70
    32
  0
VERTEX
  8
W54LXLIFT
 62
6
 10
206.976
 20
-5441.530
 30
-88.000
 70
    32
  0
VERTEX
  8
W54LXLIFT
 62
6
 10
206.776
 20
-5443.784
 30
-88.000
 70
    32
  0
VERTEX
  8
W54LXLIFT
 62
6
 10
212.216
 20
-5461.748
 30
-88.000
 70
    32
  0
VERTEX
  8
W54LXLIFT
 62
6
 10
219.542
 20
-5464.980
 30
-88.000
 70
    32
  0
VERTEX
  8
W54LXLIFT
 62
6
 10
223.688
 20
-5468.370
 30
-88.000
 70
    32
  0
VERTEX
  8
W54LXLIFT
 62
6
 10
232.847
 20
-5472.489
 30
-88.000
 70
    32
  0
VERTEX
  8
W54LXLIFT
 62
6
 10
241.956
 20
-5481.211
 30
-88.000
 70
    32
  0
VERTEX
  8
W54LXLIFT
 62
6
 10
249.131
 20
-5496.761
 30
-88.000
 70
    32
  0
VERTEX
  8
W54LXLIFT
 62
6
 10
250.729
 20
-5502.119
 30
-88.000
 70
    32
  0
VERTEX
  8
W54LXLIFT
 62
6
 10
261.522
 20
-5508.758
 30
-88.000
 70
    32
  0
VERTEX
  8
W54LXLIFT
 62
6
 10
271.022
 20
-5499.689
 30
-88.000
 70
    32
  0
VERTEX
  8
W54LXLIFT
 62
6
 10
278.616
 20
-5492.484
 30
-88.000
 70
    32
  0
VERTEX
  8
W54LXLIFT
 62
6
 10
277.489
 20
-5479.977
 30
-88.000
 70
    32
  0
VERTEX
  8
W54LXLIFT
 62
6
 10
263.760
 20
-5463.898
 30
-88.000
 70
    32
  0
VERTEX
  8
W54LXLIFT
 62
6
 10
252.470
 20
-5454.942
 30
-88.000
 70
    32
  0
VERTEX
  8
W54LXLIFT
 62
6
 10
244.903
 20
-5448.145
 30
-88.000
 70
    32
  0
VERTEX
  8
W54LXLIFT
 62
6
 10
231.431
 20
-5442.003
 30
-88.000
 70
    32
  0
VERTEX
  8
W54LXLIFT
 62
6
 10
217.669
 20
-5438.503
 30
-88.000
 70
    32
  0
SEQEND
  8
W54LXLIFT
  0
POLYLINE
  8
W54LXLIFT
 62
2
 66
     1
 70
     9
  0
VERTEX
  8
W54LXLIFT
 62
2
 10
207.344
 20
-5437.986
 30
-75.000
 70
    32
  0
VERTEX
  8
W54LXLIFT
 62
2
 10
204.018
 20
-5441.550
 30
-75.000
 70
    32
  0
VERTEX
  8
W54LXLIFT
 62
2
 10
203.364
 20
-5444.291
 30
-75.000
 70
    32
  0
VERTEX
  8
W54LXLIFT
 62
2
 10
206.006
 20
-5453.030
 30
-75.000
 70
    32
  0
VERTEX
  8
W54LXLIFT
 62
2
 10
210.884
 20
-5461.935
 30
-75.000
 70
    32
  0
VERTEX
  8
W54LXLIFT
 62
2
 10
215.517
 20
-5463.462
 30
-75.000
 70
    32
  0
VERTEX
  8
W54LXLIFT
 62
2
 10
226.678
 20
-5471.855
 30
-75.000
 70
    32
  0
VERTEX
  8
W54LXLIFT
 62
2
 10
227.740
 20
-5475.612
 30
-75.000
 70
    32
  0
VERTEX
  8
W54LXLIFT
 62
2
 10
238.030
 20
-5482.559
 30
-75.000
 70
    32
  0
VERTEX
  8
W54LXLIFT
 62
2
 10
242.692
 20
-5489.943
 30
-75.000
 70
    32
  0
VERTEX
  8
W54LXLIFT
 62
2
 10
245.677
 20
-5499.350
 30
-75.000
 70
    32
  0
VERTEX
  8
W54LXLIFT
 62
2
 10
252.155
 20
-5505.403
 30
-75.000
 70
    32
  0
VERTEX
  8
W54LXLIFT
 62
2
 10
255.788
 20
-5510.767
 30
-75.000
 70
    32
  0
VERTEX
  8
W54LXLIFT
 62
2
 10
258.304
 20
-5510.519
 30
-75.000
 70
    32
  0
VERTEX
  8
W54LXLIFT
 62
2
 10
263.859
 20
-5506.259
 30
-75.000
 70
    32
  0
VERTEX
  8
W54LXLIFT
 62
2
 10
265.144
 20
-5495.946
 30
-75.000
 70
    32
  0
VERTEX
  8
W54LXLIFT
 62
2
 10
261.654
 20
-5490.080
 30
-75.000
 70
    32
  0
VERTEX
  8
W54LXLIFT
 62
2
 10
259.308
 20
-5473.069
 30
-75.000
 70
    32
  0
VERTEX
  8
W54LXLIFT
 62
2
 10
255.882
 20
-5465.402
 30
-75.000
 70
    32
  0
VERTEX
  8
W54LXLIFT
 62
2
 10
248.942
 20
-5456.856
 30
-75.000
 70
    32
  0
VERTEX
  8
W54LXLIFT
 62
2
 10
239.486
 20
-5446.749
 30
-75.000
 70
    32
  0
VERTEX
  8
W54LXLIFT
 62
2
 10
231.254
 20
-5444.823
 30
-75.000
 70
    32
  0
VERTEX
  8
W54LXLIFT
 62
2
 10
223.338
 20
-5441.935
 30
-75.000
 70
    32
  0
VERTEX
  8
W54LXLIFT
 62
2
 10
216.565
 20
-5439.697
 30
-75.000
 70
    32
  0
SEQEND
  8
W54LXLIFT
  0
POLYLINE
  8
W54LXLIFT
 62
3
 66
     1
 70
     9
  0
VERTEX
  8
W54LXLIFT
 62
3
 10
206.387
 20
-5438.082
 30
-63.000
 70
    32
  0
VERTEX
  8
W54LXLIFT
 62
3
 10
198.332
 20
-5440.541
 30
-63.000
 70
    32
  0
VERTEX
  8
W54LXLIFT
 62
3
 10
196.757
 20
-5442.828
 30
-63.000
 70
    32
  0
VERTEX
  8
W54LXLIFT
 62
3
 10
197.696
 20
-5447.176
 30
-63.000
 70
    32
  0
VERTEX
  8
W54LXLIFT
 62
3
 10
208.696
 20
-5462.481
 30
-63.000
 70
    32
  0
VERTEX
  8
W54LXLIFT
 62
3
 10
236.941
 20
-5490.061
 30
-63.000
 70
    32
  0
VERTEX
  8
W54LXLIFT
 62
3
 10
238.827
 20
-5495.942
 30
-63.000
 70
    32
  0
VERTEX
  8
W54LXLIFT
 62
3
 10
238.307
 20
-5498.462
 30
-63.000
 70
    32
  0
VERTEX
  8
W54LXLIFT
 62
3
 10
245.512
 20
-5507.303
 30
-63.000
 70
    32
  0
VERTEX
  8
W54LXLIFT
 62
3
 10
253.344
 20
-5515.147
 30
-63.000
 70
    32
  0
VERTEX
  8
W54LXLIFT
 62
3
 10
258.464
 20
-5510.582
 30
-63.000
 70
    32
  0
VERTEX
  8
W54LXLIFT
 62
3
 10
259.167
 20
-5501.426
 30
-63.000
 70
    32
  0
VERTEX
  8
W54LXLIFT
 62
3
 10
255.316
 20
-5490.963
 30
-63.000
 70
    32
  0
VERTEX
  8
W54LXLIFT
 62
3
 10
251.282
 20
-5472.390
 30
-63.000
 70
    32
  0
VERTEX
  8
W54LXLIFT
 62
3
 10
247.214
 20
-5465.435
 30
-63.000
 70
    32
  0
VERTEX
  8
W54LXLIFT
 62
3
 10
243.898
 20
-5463.334
 30
-63.000
 70
    32
  0
VERTEX
  8
W54LXLIFT
 62
3
 10
233.055
 20
-5452.104
 30
-63.000
 70
    32
  0
VERTEX
  8
W54LXLIFT
 62
3
 10
230.937
 20
-5451.628
 30
-63.000
 70
    32
  0
VERTEX
  8
W54LXLIFT
 62
3
 10
219.907
 20
-5443.763
 30
-63.000
 70
    32
  0
VERTEX
  8
W54LXLIFT
 62
3
 10
212.082
 20
-5440.770
 30
-63.000
 70
    32
  0
SEQEND
  8
W54LXLIFT
  0
POLYLINE
  8
W54LXLIFT
 62
4
 66
     1
 70
     9
  0
VERTEX
  8
W54LXLIFT
 62
4
 10
294.813
 20
-5498.224
 30
-90.000
 70
    32
  0
VERTEX
  8
W54LXLIFT
 62
4
 10
294.402
 20
-5499.481
 30
-90.000
 70
    32
  0
VERTEX
  8
W54LXLIFT
 62
4
 10
290.079
 20
-5499.889
 30
-90.000
 70
    32
  0
VERTEX
  8
W54LXLIFT
 62
4
 10
284.179
 20
-5498.901
 30
-90.000
 70
    32
  0
VERTEX
  8
W54LXLIFT
 62
4
 10
278.396
 20
-5496.654
 30
-90.000
 70
    32
  0
VERTEX
  8
W54LXLIFT
 62
4
 10
265.589
 20
-5498.991
 30
-90.000
 70
    32
  0
VERTEX
  8
W54LXLIFT
 62
4
 10
261.273
 20
-5496.424
 30
-90.000
 70
    32
  0
VERTEX
  8
W54LXLIFT
 62
4
 10
250.120
 20
-5488.155
 30
-90.000
 70
    32
  0
VERTEX
  8
W54LXLIFT
 62
4
 10
236.486
 20
-5470.230
 30
-90.000
 70
    32
  0
VERTEX
  8
W54LXLIFT
 62
4
 10
219.622
 20
-5465.116
 30
-90.000
 70
    32
  0
VERTEX
  8
W54LXLIFT
 62
4
 10
210.846
 20
-5463.347
 30
-90.000
 70
    32
  0
VERTEX
  8
W54LXLIFT
 62
4
 10
207.137
 20
-5460.432
 30
-90.000
 70
    32
  0
VERTEX
  8
W54LXLIFT
 62
4
 10
203.839
 20
-5454.745
 30
-90.000
 70
    32
  0
VERTEX
  8
W54LXLIFT
 62
4
 10
203.979
 20
-5447.968
 30
-90.000
 70
    32
  0
VERTEX
  8
W54LXLIFT
 62
4
 10
206.259
 20
-5442.910
 30
-90.000
 70
    32
  0
VERTEX
  8
W54LXLIFT
 62
4
 10
210.179
 20
-5438.789
 30
-90.000
 70
    32
  0
VERTEX
  8
W54LXLIFT
 62
4
 10
217.243
 20
-5433.236
 30
-90.000
 70
    32
  0
VERTEX
  8
W54LXLIFT
 62
4
 10
224.521
 20
-5440.180
 30
-90.000
 70
    32
  0
VERTEX
  8
W54LXLIFT
 62
4
 10
231.164
 20
-5449.417
 30
-90.000
 70
    32
  0
VERTEX
  8
W54LXLIFT
 62
4
 10
239.347
 20
-5452.781
 30
-90.000
 70
    32
  0
VERTEX
  8
W54LXLIFT
 62
4
 10
248.134
 20
-5452.164
 30
-90.000
 70
    32
  0
VERTEX
  8
W54LXLIFT
 62
4
 10
254.424
 20
-5452.352
 30
-90.000
 70
    32
  0
VERTEX
  8
W54LXLIFT
 62
4
 10
264.802
 20
-5459.119
 30
-90.000
 70
    32
  0
VERTEX
  8
W54LXLIFT
 62
4
 10
273.819
 20
-5473.233
 30
-90.000
 70
    32
  0
VERTEX
  8
W54LXLIFT
 62
4
 10
277.400
 20
-5477.061
 30
-90.000
 70
    32
  0
VERTEX
  8
W54LXLIFT
 62
4
 10
286.982
 20
-5485.763
 30
-90.000
 70
    32
  0
VERTEX
  8
W54LXLIFT
 62
4
 10
293.909
 20
-5493.866
 30
-90.000
 70
    32
  0
VERTEX
  8
W54LXLIFT
 62
4
 10
294.912
 20
-5495.650
 30
-90.000
 70
    32
  0
SEQEND
  8
W54LXLIFT
  0
POLYLINE
  8
W54LXLIFT
 62
7
 66
     1
 70
     9
  0
VERTEX
  8
W54LXLIFT
 62
7
 10
308.106
 20
-5506.750
 30
-98.000
 70
    32
  0
VERTEX
  8
W54LXLIFT
 62
7
 10
299.125
 20
-5514.431
 30
-98.000
 70
    32
  0
VERTEX
  8
W54LXLIFT
 62
7
 10
298.619
 20
-5513.608
 30
-98.000
 70
    32
  0
VERTEX
  8
W54LXLIFT
 62
7
 10
290.728
 20
-5509.555
 30
-98.000
 70
    32
  0
VERTEX
  8
W54LXLIFT
 62
7
 10
282.144
 20
-5506.530
 30
-98.000
 70
    32
  0
VERTEX
  8
W54LXLIFT
 62
7
 10
258.417
 20
-5509.240
 30
-98.000
 70
    32
  0
VERTEX
  8
W54LXLIFT
 62
7
 10
250.541
 20
-5515.259
 30
-98.000
 70
    32
  0
VERTEX
  8
W54LXLIFT
 62
7
 10
241.033
 20
-5514.625
 30
-98.000
 70
    32
  0
VERTEX
  8
W54LXLIFT
 62
7
 10
235.662
 20
-5499.949
 30
-98.000
 70
    32
  0
VERTEX
  8
W54LXLIFT
 62
7
 10
245.056
 20
-5483.834
 30
-98.000
 70
    32
  0
VERTEX
  8
W54LXLIFT
 62
7
 10
242.212
 20
-5478.805
 30
-98.000
 70
    32
  0
VERTEX
  8
W54LXLIFT
 62
7
 10
237.499
 20
-5475.676
 30
-98.000
 70
    32
  0
VERTEX
  8
W54LXLIFT
 62
7
 10
234.512
 20
-5469.055
 30
-98.000
 70
    32
  0
VERTEX
  8
W54LXLIFT
 62
7
 10
226.907
 20
-5464.694
 30
-98.000
 70
    32
  0
VERTEX
  8
W54LXLIFT
 62
7
 10
217.578
 20
-5467.776
 30
-98.000
 70
    32
  0
VERTEX
  8
W54LXLIFT
 62
7
 10
207.588
 20
-5462.892
 30
-98.000
 70
    32
  0
VERTEX
  8
W54LXLIFT
 62
7
 10
205.270
 20
-5450.241
 30
-98.000
 70
    32
  0
VERTEX
  8
W54LXLIFT
 62
7
 10
210.466
 20
-5443.074
 30
-98.000
 70
    32
  0
VERTEX
  8
W54LXLIFT
 62
7
 10
218.570
 20
-5436.220
 30
-98.000
 70
    32
  0
VERTEX
  8
W54LXLIFT
 62
7
 10
228.093
 20
-5437.803
 30
-98.000
 70
    32
  0
VERTEX
  8
W54LXLIFT
 62
7
 10
234.144
 20
-5445.429
 30
-98.000
 70
    32
  0
VERTEX
  8
W54LXLIFT
 62
7
 10
240.154
 20
-5448.566
 30
-98.000
 70
    32
  0
VERTEX
  8
W54LXLIFT
 62
7
 10
248.822
 20
-5442.871
 30
-98.000
 70
    32
  0
VERTEX
  8
W54LXLIFT
 62
7
 10
252.918
 20
-5444.668
 30
-98.000
 70
    32
  0
VERTEX
  8
W54LXLIFT
 62
7
 10
256.651
 20
-5444.232
 30
-98.000
 70
    32
  0
VERTEX
  8
W54LXLIFT
 62
7
 10
257.208
 20
-5444.852
 30
-98.000
 70
    32
  0
VERTEX
  8
W54LXLIFT
 62
7
 10
263.745
 20
-5451.596
 30
-98.000
 70
    32
  0
VERTEX
  8
W54LXLIFT
 62
7
 10
270.927
 20
-5459.236
 30
-98.000
 70
    32
  0
VERTEX
  8
W54LXLIFT
 62
7
 10
295.165
 20
-5484.386
 30
-98.000
 70
    32
  0
VERTEX
  8
W54LXLIFT
 62
7
 10
301.572
 20
-5495.366
 30
-98.000
 70
    32
  0
VERTEX
  8
W54LXLIFT
 62
7
 10
301.737
 20
-5495.972
 30
-98.000
 70
    32
  0
VERTEX
  8
W54LXLIFT
 62
7
 10
304.305
 20
-5498.492
 30
-98.000
 70
    32
  0
VERTEX
  8
W54LXLIFT
 62
7
 10
307.924
 20
-5501.370
 30
-98.000
 70
    32
  0
SEQEND
  8
W54LXLIFT
  0
ENDSEC
  0
EOF
