999
********************************
999
*   DXF File - Entities Only   *
999
*        3D Data Format        *
999
*     Output from ENVISAGE     *
999
*     31-Dec-2007 15:53:43     *
999
********************************
  0
SECTION 
  2
HEADER
  9
$ACADVER
  1
AC1009
  9
$EXTMIN
 10
-290000.000
 20
-250000.000
 30
-4000.000
  9
$EXTMAX
 10
320000.000
 20
160000.000
 30
6000.000
  0
ENDSEC
  0
SECTION
  2
ENTITIES
  0
POLYLINE
  8
W56LXLIFT
 62
8
 66
     1
 70
     9
  0
VERTEX
  8
W56LXLIFT
 62
8
 10
1325.713
 20
-8340.872
 30
-355.000
 70
    32
  0
VERTEX
  8
W56LXLIFT
 62
8
 10
1313.881
 20
-8340.008
 30
-355.000
 70
    32
  0
VERTEX
  8
W56LXLIFT
 62
8
 10
1302.436
 20
-8334.985
 30
-355.000
 70
    32
  0
VERTEX
  8
W56LXLIFT
 62
8
 10
1294.664
 20
-8332.852
 30
-355.000
 70
    32
  0
VERTEX
  8
W56LXLIFT
 62
8
 10
1288.774
 20
-8325.174
 30
-355.000
 70
    32
  0
VERTEX
  8
W56LXLIFT
 62
8
 10
1277.802
 20
-8309.892
 30
-355.000
 70
    32
  0
VERTEX
  8
W56LXLIFT
 62
8
 10
1269.877
 20
-8302.690
 30
-355.000
 70
    32
  0
VERTEX
  8
W56LXLIFT
 62
8
 10
1253.562
 20
-8281.714
 30
-355.000
 70
    32
  0
VERTEX
  8
W56LXLIFT
 62
8
 10
1246.342
 20
-8270.344
 30
-355.000
 70
    32
  0
VERTEX
  8
W56LXLIFT
 62
8
 10
1241.638
 20
-8276.169
 30
-355.000
 70
    32
  0
VERTEX
  8
W56LXLIFT
 62
8
 10
1241.340
 20
-8281.666
 30
-355.000
 70
    32
  0
VERTEX
  8
W56LXLIFT
 62
8
 10
1238.148
 20
-8292.349
 30
-355.000
 70
    32
  0
VERTEX
  8
W56LXLIFT
 62
8
 10
1236.005
 20
-8304.659
 30
-355.000
 70
    32
  0
VERTEX
  8
W56LXLIFT
 62
8
 10
1248.188
 20
-8318.002
 30
-355.000
 70
    32
  0
VERTEX
  8
W56LXLIFT
 62
8
 10
1252.020
 20
-8331.888
 30
-355.000
 70
    32
  0
VERTEX
  8
W56LXLIFT
 62
8
 10
1254.655
 20
-8332.712
 30
-355.000
 70
    32
  0
VERTEX
  8
W56LXLIFT
 62
8
 10
1266.209
 20
-8352.758
 30
-355.000
 70
    32
  0
VERTEX
  8
W56LXLIFT
 62
8
 10
1267.165
 20
-8359.413
 30
-355.000
 70
    32
  0
VERTEX
  8
W56LXLIFT
 62
8
 10
1272.278
 20
-8367.211
 30
-355.000
 70
    32
  0
VERTEX
  8
W56LXLIFT
 62
8
 10
1277.828
 20
-8366.825
 30
-355.000
 70
    32
  0
VERTEX
  8
W56LXLIFT
 62
8
 10
1296.446
 20
-8376.779
 30
-355.000
 70
    32
  0
VERTEX
  8
W56LXLIFT
 62
8
 10
1304.948
 20
-8377.207
 30
-355.000
 70
    32
  0
VERTEX
  8
W56LXLIFT
 62
8
 10
1312.947
 20
-8373.893
 30
-355.000
 70
    32
  0
VERTEX
  8
W56LXLIFT
 62
8
 10
1315.788
 20
-8369.393
 30
-355.000
 70
    32
  0
VERTEX
  8
W56LXLIFT
 62
8
 10
1315.867
 20
-8361.463
 30
-355.000
 70
    32
  0
VERTEX
  8
W56LXLIFT
 62
8
 10
1322.765
 20
-8352.352
 30
-355.000
 70
    32
  0
VERTEX
  8
W56LXLIFT
 62
8
 10
1326.332
 20
-8347.659
 30
-355.000
 70
    32
  0
SEQEND
  8
W56LXLIFT
  0
POLYLINE
  8
W56LXLIFT
 62
2
 66
     1
 70
     9
  0
VERTEX
  8
W56LXLIFT
 62
2
 10
1210.312
 20
-8126.506
 30
-349.000
 70
    32
  0
VERTEX
  8
W56LXLIFT
 62
2
 10
1204.850
 20
-8124.133
 30
-349.000
 70
    32
  0
VERTEX
  8
W56LXLIFT
 62
2
 10
1191.621
 20
-8121.457
 30
-349.000
 70
    32
  0
VERTEX
  8
W56LXLIFT
 62
2
 10
1164.446
 20
-8117.370
 30
-349.000
 70
    32
  0
VERTEX
  8
W56LXLIFT
 62
2
 10
1149.974
 20
-8136.611
 30
-349.000
 70
    32
  0
VERTEX
  8
W56LXLIFT
 62
2
 10
1149.818
 20
-8155.813
 30
-349.000
 70
    32
  0
VERTEX
  8
W56LXLIFT
 62
2
 10
1168.387
 20
-8169.794
 30
-349.000
 70
    32
  0
VERTEX
  8
W56LXLIFT
 62
2
 10
1178.714
 20
-8176.583
 30
-349.000
 70
    32
  0
VERTEX
  8
W56LXLIFT
 62
2
 10
1213.753
 20
-8196.435
 30
-349.000
 70
    32
  0
VERTEX
  8
W56LXLIFT
 62
2
 10
1227.777
 20
-8190.672
 30
-349.000
 70
    32
  0
VERTEX
  8
W56LXLIFT
 62
2
 10
1230.963
 20
-8164.354
 30
-349.000
 70
    32
  0
VERTEX
  8
W56LXLIFT
 62
2
 10
1230.905
 20
-8158.355
 30
-349.000
 70
    32
  0
VERTEX
  8
W56LXLIFT
 62
2
 10
1221.102
 20
-8145.477
 30
-349.000
 70
    32
  0
VERTEX
  8
W56LXLIFT
 62
2
 10
1220.157
 20
-8129.430
 30
-349.000
 70
    32
  0
SEQEND
  8
W56LXLIFT
  0
POLYLINE
  8
W56LXLIFT
 62
4
 66
     1
 70
     9
  0
VERTEX
  8
W56LXLIFT
 62
4
 10
1371.262
 20
-7927.625
 30
-355.000
 70
    32
  0
VERTEX
  8
W56LXLIFT
 62
4
 10
1373.925
 20
-7906.640
 30
-355.000
 70
    32
  0
VERTEX
  8
W56LXLIFT
 62
4
 10
1374.085
 20
-7894.877
 30
-355.000
 70
    32
  0
VERTEX
  8
W56LXLIFT
 62
4
 10
1369.253
 20
-7889.144
 30
-355.000
 70
    32
  0
VERTEX
  8
W56LXLIFT
 62
4
 10
1361.487
 20
-7888.840
 30
-355.000
 70
    32
  0
VERTEX
  8
W56LXLIFT
 62
4
 10
1358.081
 20
-7889.967
 30
-355.000
 70
    32
  0
VERTEX
  8
W56LXLIFT
 62
4
 10
1351.005
 20
-7873.641
 30
-355.000
 70
    32
  0
VERTEX
  8
W56LXLIFT
 62
4
 10
1350.642
 20
-7871.310
 30
-355.000
 70
    32
  0
VERTEX
  8
W56LXLIFT
 62
4
 10
1347.675
 20
-7868.350
 30
-355.000
 70
    32
  0
VERTEX
  8
W56LXLIFT
 62
4
 10
1341.334
 20
-7857.003
 30
-355.000
 70
    32
  0
VERTEX
  8
W56LXLIFT
 62
4
 10
1337.178
 20
-7855.103
 30
-355.000
 70
    32
  0
VERTEX
  8
W56LXLIFT
 62
4
 10
1325.492
 20
-7862.332
 30
-355.000
 70
    32
  0
VERTEX
  8
W56LXLIFT
 62
4
 10
1336.410
 20
-7888.008
 30
-355.000
 70
    32
  0
VERTEX
  8
W56LXLIFT
 62
4
 10
1342.658
 20
-7900.285
 30
-355.000
 70
    32
  0
VERTEX
  8
W56LXLIFT
 62
4
 10
1351.830
 20
-7911.670
 30
-355.000
 70
    32
  0
VERTEX
  8
W56LXLIFT
 62
4
 10
1356.955
 20
-7923.127
 30
-355.000
 70
    32
  0
SEQEND
  8
W56LXLIFT
  0
POLYLINE
  8
W56LXLIFT
 62
4
 66
     1
 70
     9
  0
VERTEX
  8
W56LXLIFT
 62
4
 10
1368.001
 20
-7919.413
 30
-346.000
 70
    32
  0
VERTEX
  8
W56LXLIFT
 62
4
 10
1367.957
 20
-7910.463
 30
-346.000
 70
    32
  0
VERTEX
  8
W56LXLIFT
 62
4
 10
1363.730
 20
-7899.758
 30
-346.000
 70
    32
  0
VERTEX
  8
W56LXLIFT
 62
4
 10
1357.543
 20
-7889.486
 30
-346.000
 70
    32
  0
VERTEX
  8
W56LXLIFT
 62
4
 10
1349.106
 20
-7878.342
 30
-346.000
 70
    32
  0
VERTEX
  8
W56LXLIFT
 62
4
 10
1339.355
 20
-7872.902
 30
-346.000
 70
    32
  0
VERTEX
  8
W56LXLIFT
 62
4
 10
1335.814
 20
-7874.147
 30
-346.000
 70
    32
  0
VERTEX
  8
W56LXLIFT
 62
4
 10
1325.181
 20
-7859.494
 30
-346.000
 70
    32
  0
VERTEX
  8
W56LXLIFT
 62
4
 10
1325.288
 20
-7853.467
 30
-346.000
 70
    32
  0
VERTEX
  8
W56LXLIFT
 62
4
 10
1313.566
 20
-7836.242
 30
-346.000
 70
    32
  0
VERTEX
  8
W56LXLIFT
 62
4
 10
1304.573
 20
-7839.239
 30
-346.000
 70
    32
  0
VERTEX
  8
W56LXLIFT
 62
4
 10
1299.381
 20
-7842.102
 30
-346.000
 70
    32
  0
VERTEX
  8
W56LXLIFT
 62
4
 10
1295.369
 20
-7847.364
 30
-346.000
 70
    32
  0
VERTEX
  8
W56LXLIFT
 62
4
 10
1294.708
 20
-7852.167
 30
-346.000
 70
    32
  0
VERTEX
  8
W56LXLIFT
 62
4
 10
1303.743
 20
-7861.584
 30
-346.000
 70
    32
  0
VERTEX
  8
W56LXLIFT
 62
4
 10
1313.018
 20
-7868.772
 30
-346.000
 70
    32
  0
VERTEX
  8
W56LXLIFT
 62
4
 10
1320.180
 20
-7876.936
 30
-346.000
 70
    32
  0
VERTEX
  8
W56LXLIFT
 62
4
 10
1324.013
 20
-7897.338
 30
-346.000
 70
    32
  0
VERTEX
  8
W56LXLIFT
 62
4
 10
1335.835
 20
-7917.413
 30
-346.000
 70
    32
  0
VERTEX
  8
W56LXLIFT
 62
4
 10
1339.891
 20
-7917.637
 30
-346.000
 70
    32
  0
VERTEX
  8
W56LXLIFT
 62
4
 10
1354.175
 20
-7922.309
 30
-346.000
 70
    32
  0
VERTEX
  8
W56LXLIFT
 62
4
 10
1356.177
 20
-7925.849
 30
-346.000
 70
    32
  0
SEQEND
  8
W56LXLIFT
  0
POLYLINE
  8
W56LXLIFT
 62
2
 66
     1
 70
     9
  0
VERTEX
  8
W56LXLIFT
 62
2
 10
1234.052
 20
-8179.438
 30
-344.000
 70
    32
  0
VERTEX
  8
W56LXLIFT
 62
2
 10
1233.532
 20
-8168.017
 30
-344.000
 70
    32
  0
VERTEX
  8
W56LXLIFT
 62
2
 10
1224.389
 20
-8152.727
 30
-344.000
 70
    32
  0
VERTEX
  8
W56LXLIFT
 62
2
 10
1222.083
 20
-8146.052
 30
-344.000
 70
    32
  0
VERTEX
  8
W56LXLIFT
 62
2
 10
1203.681
 20
-8133.085
 30
-344.000
 70
    32
  0
VERTEX
  8
W56LXLIFT
 62
2
 10
1195.915
 20
-8128.600
 30
-344.000
 70
    32
  0
VERTEX
  8
W56LXLIFT
 62
2
 10
1186.717
 20
-8123.628
 30
-344.000
 70
    32
  0
VERTEX
  8
W56LXLIFT
 62
2
 10
1156.613
 20
-8140.165
 30
-344.000
 70
    32
  0
VERTEX
  8
W56LXLIFT
 62
2
 10
1151.843
 20
-8160.038
 30
-344.000
 70
    32
  0
VERTEX
  8
W56LXLIFT
 62
2
 10
1153.721
 20
-8163.557
 30
-344.000
 70
    32
  0
VERTEX
  8
W56LXLIFT
 62
2
 10
1169.061
 20
-8180.997
 30
-344.000
 70
    32
  0
VERTEX
  8
W56LXLIFT
 62
2
 10
1173.897
 20
-8182.609
 30
-344.000
 70
    32
  0
VERTEX
  8
W56LXLIFT
 62
2
 10
1189.208
 20
-8185.245
 30
-344.000
 70
    32
  0
VERTEX
  8
W56LXLIFT
 62
2
 10
1200.532
 20
-8186.850
 30
-344.000
 70
    32
  0
VERTEX
  8
W56LXLIFT
 62
2
 10
1213.271
 20
-8182.894
 30
-344.000
 70
    32
  0
VERTEX
  8
W56LXLIFT
 62
2
 10
1223.525
 20
-8181.805
 30
-344.000
 70
    32
  0
SEQEND
  8
W56LXLIFT
  0
POLYLINE
  8
W56LXLIFT
 62
8
 66
     1
 70
     9
  0
VERTEX
  8
W56LXLIFT
 62
8
 10
1294.383
 20
-8403.688
 30
-347.000
 70
    32
  0
VERTEX
  8
W56LXLIFT
 62
8
 10
1307.767
 20
-8404.246
 30
-347.000
 70
    32
  0
VERTEX
  8
W56LXLIFT
 62
8
 10
1309.643
 20
-8402.790
 30
-347.000
 70
    32
  0
VERTEX
  8
W56LXLIFT
 62
8
 10
1311.424
 20
-8399.997
 30
-347.000
 70
    32
  0
VERTEX
  8
W56LXLIFT
 62
8
 10
1316.269
 20
-8381.585
 30
-347.000
 70
    32
  0
VERTEX
  8
W56LXLIFT
 62
8
 10
1314.639
 20
-8367.715
 30
-347.000
 70
    32
  0
VERTEX
  8
W56LXLIFT
 62
8
 10
1315.346
 20
-8348.814
 30
-347.000
 70
    32
  0
VERTEX
  8
W56LXLIFT
 62
8
 10
1320.902
 20
-8344.498
 30
-347.000
 70
    32
  0
VERTEX
  8
W56LXLIFT
 62
8
 10
1317.006
 20
-8339.073
 30
-347.000
 70
    32
  0
VERTEX
  8
W56LXLIFT
 62
8
 10
1316.280
 20
-8335.050
 30
-347.000
 70
    32
  0
VERTEX
  8
W56LXLIFT
 62
8
 10
1311.137
 20
-8337.229
 30
-347.000
 70
    32
  0
VERTEX
  8
W56LXLIFT
 62
8
 10
1307.580
 20
-8336.646
 30
-347.000
 70
    32
  0
VERTEX
  8
W56LXLIFT
 62
8
 10
1298.840
 20
-8330.805
 30
-347.000
 70
    32
  0
VERTEX
  8
W56LXLIFT
 62
8
 10
1290.390
 20
-8326.270
 30
-347.000
 70
    32
  0
VERTEX
  8
W56LXLIFT
 62
8
 10
1283.201
 20
-8323.643
 30
-347.000
 70
    32
  0
VERTEX
  8
W56LXLIFT
 62
8
 10
1272.584
 20
-8315.038
 30
-347.000
 70
    32
  0
VERTEX
  8
W56LXLIFT
 62
8
 10
1265.483
 20
-8310.725
 30
-347.000
 70
    32
  0
VERTEX
  8
W56LXLIFT
 62
8
 10
1259.458
 20
-8307.911
 30
-347.000
 70
    32
  0
VERTEX
  8
W56LXLIFT
 62
8
 10
1257.504
 20
-8302.931
 30
-347.000
 70
    32
  0
VERTEX
  8
W56LXLIFT
 62
8
 10
1251.525
 20
-8290.238
 30
-347.000
 70
    32
  0
VERTEX
  8
W56LXLIFT
 62
8
 10
1246.352
 20
-8281.077
 30
-347.000
 70
    32
  0
VERTEX
  8
W56LXLIFT
 62
8
 10
1236.186
 20
-8292.382
 30
-347.000
 70
    32
  0
VERTEX
  8
W56LXLIFT
 62
8
 10
1240.431
 20
-8309.892
 30
-347.000
 70
    32
  0
VERTEX
  8
W56LXLIFT
 62
8
 10
1256.306
 20
-8317.533
 30
-347.000
 70
    32
  0
VERTEX
  8
W56LXLIFT
 62
8
 10
1265.631
 20
-8335.938
 30
-347.000
 70
    32
  0
VERTEX
  8
W56LXLIFT
 62
8
 10
1268.389
 20
-8343.696
 30
-347.000
 70
    32
  0
VERTEX
  8
W56LXLIFT
 62
8
 10
1267.511
 20
-8347.897
 30
-347.000
 70
    32
  0
VERTEX
  8
W56LXLIFT
 62
8
 10
1259.889
 20
-8347.528
 30
-347.000
 70
    32
  0
VERTEX
  8
W56LXLIFT
 62
8
 10
1247.621
 20
-8348.225
 30
-347.000
 70
    32
  0
VERTEX
  8
W56LXLIFT
 62
8
 10
1247.801
 20
-8362.486
 30
-347.000
 70
    32
  0
VERTEX
  8
W56LXLIFT
 62
8
 10
1268.777
 20
-8382.802
 30
-347.000
 70
    32
  0
VERTEX
  8
W56LXLIFT
 62
8
 10
1279.017
 20
-8384.103
 30
-347.000
 70
    32
  0
VERTEX
  8
W56LXLIFT
 62
8
 10
1287.295
 20
-8396.985
 30
-347.000
 70
    32
  0
SEQEND
  8
W56LXLIFT
  0
POLYLINE
  8
W56LXLIFT
 62
4
 66
     1
 70
     9
  0
VERTEX
  8
W56LXLIFT
 62
4
 10
1313.338
 20
-7830.488
 30
-336.000
 70
    32
  0
VERTEX
  8
W56LXLIFT
 62
4
 10
1304.425
 20
-7837.209
 30
-336.000
 70
    32
  0
VERTEX
  8
W56LXLIFT
 62
4
 10
1300.375
 20
-7848.444
 30
-336.000
 70
    32
  0
VERTEX
  8
W56LXLIFT
 62
4
 10
1307.381
 20
-7874.781
 30
-336.000
 70
    32
  0
VERTEX
  8
W56LXLIFT
 62
4
 10
1315.493
 20
-7880.206
 30
-336.000
 70
    32
  0
VERTEX
  8
W56LXLIFT
 62
4
 10
1317.226
 20
-7883.073
 30
-336.000
 70
    32
  0
VERTEX
  8
W56LXLIFT
 62
4
 10
1320.444
 20
-7892.228
 30
-336.000
 70
    32
  0
VERTEX
  8
W56LXLIFT
 62
4
 10
1323.347
 20
-7897.931
 30
-336.000
 70
    32
  0
VERTEX
  8
W56LXLIFT
 62
4
 10
1331.470
 20
-7907.892
 30
-336.000
 70
    32
  0
VERTEX
  8
W56LXLIFT
 62
4
 10
1341.783
 20
-7919.850
 30
-336.000
 70
    32
  0
VERTEX
  8
W56LXLIFT
 62
4
 10
1347.509
 20
-7922.554
 30
-336.000
 70
    32
  0
VERTEX
  8
W56LXLIFT
 62
4
 10
1360.371
 20
-7923.597
 30
-336.000
 70
    32
  0
VERTEX
  8
W56LXLIFT
 62
4
 10
1362.857
 20
-7920.731
 30
-336.000
 70
    32
  0
VERTEX
  8
W56LXLIFT
 62
4
 10
1365.806
 20
-7915.046
 30
-336.000
 70
    32
  0
VERTEX
  8
W56LXLIFT
 62
4
 10
1363.936
 20
-7910.331
 30
-336.000
 70
    32
  0
VERTEX
  8
W56LXLIFT
 62
4
 10
1353.671
 20
-7896.932
 30
-336.000
 70
    32
  0
VERTEX
  8
W56LXLIFT
 62
4
 10
1342.689
 20
-7878.316
 30
-336.000
 70
    32
  0
VERTEX
  8
W56LXLIFT
 62
4
 10
1329.883
 20
-7870.419
 30
-336.000
 70
    32
  0
VERTEX
  8
W56LXLIFT
 62
4
 10
1325.122
 20
-7865.292
 30
-336.000
 70
    32
  0
VERTEX
  8
W56LXLIFT
 62
4
 10
1322.985
 20
-7859.904
 30
-336.000
 70
    32
  0
VERTEX
  8
W56LXLIFT
 62
4
 10
1320.389
 20
-7845.436
 30
-336.000
 70
    32
  0
VERTEX
  8
W56LXLIFT
 62
4
 10
1318.031
 20
-7837.178
 30
-336.000
 70
    32
  0
SEQEND
  8
W56LXLIFT
  0
POLYLINE
  8
W56LXLIFT
 62
2
 66
     1
 70
     9
  0
VERTEX
  8
W56LXLIFT
 62
2
 10
1206.650
 20
-8119.151
 30
-335.000
 70
    32
  0
VERTEX
  8
W56LXLIFT
 62
2
 10
1200.493
 20
-8111.024
 30
-335.000
 70
    32
  0
VERTEX
  8
W56LXLIFT
 62
2
 10
1184.908
 20
-8103.174
 30
-335.000
 70
    32
  0
VERTEX
  8
W56LXLIFT
 62
2
 10
1177.861
 20
-8098.931
 30
-335.000
 70
    32
  0
VERTEX
  8
W56LXLIFT
 62
2
 10
1172.574
 20
-8096.236
 30
-335.000
 70
    32
  0
VERTEX
  8
W56LXLIFT
 62
2
 10
1162.271
 20
-8083.839
 30
-335.000
 70
    32
  0
VERTEX
  8
W56LXLIFT
 62
2
 10
1157.479
 20
-8083.492
 30
-335.000
 70
    32
  0
VERTEX
  8
W56LXLIFT
 62
2
 10
1153.994
 20
-8087.075
 30
-335.000
 70
    32
  0
VERTEX
  8
W56LXLIFT
 62
2
 10
1158.131
 20
-8096.003
 30
-335.000
 70
    32
  0
VERTEX
  8
W56LXLIFT
 62
2
 10
1169.439
 20
-8109.951
 30
-335.000
 70
    32
  0
VERTEX
  8
W56LXLIFT
 62
2
 10
1172.007
 20
-8116.543
 30
-335.000
 70
    32
  0
VERTEX
  8
W56LXLIFT
 62
2
 10
1172.060
 20
-8121.589
 30
-335.000
 70
    32
  0
VERTEX
  8
W56LXLIFT
 62
2
 10
1154.335
 20
-8129.443
 30
-335.000
 70
    32
  0
VERTEX
  8
W56LXLIFT
 62
2
 10
1148.522
 20
-8133.399
 30
-335.000
 70
    32
  0
VERTEX
  8
W56LXLIFT
 62
2
 10
1148.545
 20
-8139.007
 30
-335.000
 70
    32
  0
VERTEX
  8
W56LXLIFT
 62
2
 10
1152.843
 20
-8146.954
 30
-335.000
 70
    32
  0
VERTEX
  8
W56LXLIFT
 62
2
 10
1160.216
 20
-8159.940
 30
-335.000
 70
    32
  0
VERTEX
  8
W56LXLIFT
 62
2
 10
1176.606
 20
-8171.322
 30
-335.000
 70
    32
  0
VERTEX
  8
W56LXLIFT
 62
2
 10
1182.707
 20
-8186.303
 30
-335.000
 70
    32
  0
VERTEX
  8
W56LXLIFT
 62
2
 10
1191.910
 20
-8190.838
 30
-335.000
 70
    32
  0
VERTEX
  8
W56LXLIFT
 62
2
 10
1213.393
 20
-8196.509
 30
-335.000
 70
    32
  0
VERTEX
  8
W56LXLIFT
 62
2
 10
1217.045
 20
-8194.213
 30
-335.000
 70
    32
  0
VERTEX
  8
W56LXLIFT
 62
2
 10
1226.563
 20
-8184.569
 30
-335.000
 70
    32
  0
VERTEX
  8
W56LXLIFT
 62
2
 10
1229.315
 20
-8177.403
 30
-335.000
 70
    32
  0
VERTEX
  8
W56LXLIFT
 62
2
 10
1226.342
 20
-8168.288
 30
-335.000
 70
    32
  0
VERTEX
  8
W56LXLIFT
 62
2
 10
1221.273
 20
-8157.759
 30
-335.000
 70
    32
  0
VERTEX
  8
W56LXLIFT
 62
2
 10
1215.112
 20
-8148.120
 30
-335.000
 70
    32
  0
VERTEX
  8
W56LXLIFT
 62
2
 10
1208.805
 20
-8137.072
 30
-335.000
 70
    32
  0
VERTEX
  8
W56LXLIFT
 62
2
 10
1204.841
 20
-8127.480
 30
-335.000
 70
    32
  0
SEQEND
  8
W56LXLIFT
  0
POLYLINE
  8
W56LXLIFT
 62
8
 66
     1
 70
     9
  0
VERTEX
  8
W56LXLIFT
 62
8
 10
1233.023
 20
-8303.878
 30
-339.000
 70
    32
  0
VERTEX
  8
W56LXLIFT
 62
8
 10
1235.557
 20
-8308.765
 30
-339.000
 70
    32
  0
VERTEX
  8
W56LXLIFT
 62
8
 10
1247.682
 20
-8313.150
 30
-339.000
 70
    32
  0
VERTEX
  8
W56LXLIFT
 62
8
 10
1253.570
 20
-8319.847
 30
-339.000
 70
    32
  0
VERTEX
  8
W56LXLIFT
 62
8
 10
1256.168
 20
-8325.878
 30
-339.000
 70
    32
  0
VERTEX
  8
W56LXLIFT
 62
8
 10
1249.564
 20
-8341.542
 30
-339.000
 70
    32
  0
VERTEX
  8
W56LXLIFT
 62
8
 10
1251.887
 20
-8352.312
 30
-339.000
 70
    32
  0
VERTEX
  8
W56LXLIFT
 62
8
 10
1258.088
 20
-8361.706
 30
-339.000
 70
    32
  0
VERTEX
  8
W56LXLIFT
 62
8
 10
1279.900
 20
-8395.261
 30
-339.000
 70
    32
  0
VERTEX
  8
W56LXLIFT
 62
8
 10
1284.151
 20
-8405.405
 30
-339.000
 70
    32
  0
VERTEX
  8
W56LXLIFT
 62
8
 10
1290.507
 20
-8433.398
 30
-339.000
 70
    32
  0
VERTEX
  8
W56LXLIFT
 62
8
 10
1292.060
 20
-8438.123
 30
-339.000
 70
    32
  0
VERTEX
  8
W56LXLIFT
 62
8
 10
1296.342
 20
-8439.268
 30
-339.000
 70
    32
  0
VERTEX
  8
W56LXLIFT
 62
8
 10
1299.123
 20
-8426.565
 30
-339.000
 70
    32
  0
VERTEX
  8
W56LXLIFT
 62
8
 10
1300.128
 20
-8419.679
 30
-339.000
 70
    32
  0
VERTEX
  8
W56LXLIFT
 62
8
 10
1302.998
 20
-8410.265
 30
-339.000
 70
    32
  0
VERTEX
  8
W56LXLIFT
 62
8
 10
1307.718
 20
-8393.033
 30
-339.000
 70
    32
  0
VERTEX
  8
W56LXLIFT
 62
8
 10
1309.316
 20
-8385.613
 30
-339.000
 70
    32
  0
VERTEX
  8
W56LXLIFT
 62
8
 10
1310.098
 20
-8370.127
 30
-339.000
 70
    32
  0
VERTEX
  8
W56LXLIFT
 62
8
 10
1311.930
 20
-8358.213
 30
-339.000
 70
    32
  0
VERTEX
  8
W56LXLIFT
 62
8
 10
1313.573
 20
-8348.597
 30
-339.000
 70
    32
  0
VERTEX
  8
W56LXLIFT
 62
8
 10
1311.223
 20
-8344.119
 30
-339.000
 70
    32
  0
VERTEX
  8
W56LXLIFT
 62
8
 10
1302.758
 20
-8336.242
 30
-339.000
 70
    32
  0
VERTEX
  8
W56LXLIFT
 62
8
 10
1292.999
 20
-8329.727
 30
-339.000
 70
    32
  0
VERTEX
  8
W56LXLIFT
 62
8
 10
1284.075
 20
-8321.964
 30
-339.000
 70
    32
  0
VERTEX
  8
W56LXLIFT
 62
8
 10
1277.663
 20
-8314.236
 30
-339.000
 70
    32
  0
VERTEX
  8
W56LXLIFT
 62
8
 10
1268.741
 20
-8303.011
 30
-339.000
 70
    32
  0
VERTEX
  8
W56LXLIFT
 62
8
 10
1256.192
 20
-8287.033
 30
-339.000
 70
    32
  0
VERTEX
  8
W56LXLIFT
 62
8
 10
1248.451
 20
-8283.180
 30
-339.000
 70
    32
  0
VERTEX
  8
W56LXLIFT
 62
8
 10
1238.528
 20
-8294.519
 30
-339.000
 70
    32
  0
VERTEX
  8
W56LXLIFT
 62
8
 10
1235.572
 20
-8297.182
 30
-339.000
 70
    32
  0
SEQEND
  8
W56LXLIFT
  0
POLYLINE
  8
W56LXLIFT
 62
4
 66
     1
 70
     9
  0
VERTEX
  8
W56LXLIFT
 62
4
 10
1355.841
 20
-7920.148
 30
-328.000
 70
    32
  0
VERTEX
  8
W56LXLIFT
 62
4
 10
1343.285
 20
-7891.612
 30
-328.000
 70
    32
  0
VERTEX
  8
W56LXLIFT
 62
4
 10
1341.184
 20
-7888.582
 30
-328.000
 70
    32
  0
VERTEX
  8
W56LXLIFT
 62
4
 10
1331.044
 20
-7881.530
 30
-328.000
 70
    32
  0
VERTEX
  8
W56LXLIFT
 62
4
 10
1328.541
 20
-7877.056
 30
-328.000
 70
    32
  0
VERTEX
  8
W56LXLIFT
 62
4
 10
1324.040
 20
-7864.479
 30
-328.000
 70
    32
  0
VERTEX
  8
W56LXLIFT
 62
4
 10
1320.127
 20
-7857.774
 30
-328.000
 70
    32
  0
VERTEX
  8
W56LXLIFT
 62
4
 10
1317.178
 20
-7847.325
 30
-328.000
 70
    32
  0
VERTEX
  8
W56LXLIFT
 62
4
 10
1314.378
 20
-7842.741
 30
-328.000
 70
    32
  0
VERTEX
  8
W56LXLIFT
 62
4
 10
1311.678
 20
-7841.125
 30
-328.000
 70
    32
  0
VERTEX
  8
W56LXLIFT
 62
4
 10
1307.979
 20
-7844.691
 30
-328.000
 70
    32
  0
VERTEX
  8
W56LXLIFT
 62
4
 10
1306.013
 20
-7851.230
 30
-328.000
 70
    32
  0
VERTEX
  8
W56LXLIFT
 62
4
 10
1309.752
 20
-7872.293
 30
-328.000
 70
    32
  0
VERTEX
  8
W56LXLIFT
 62
4
 10
1314.367
 20
-7888.153
 30
-328.000
 70
    32
  0
VERTEX
  8
W56LXLIFT
 62
4
 10
1329.202
 20
-7912.963
 30
-328.000
 70
    32
  0
VERTEX
  8
W56LXLIFT
 62
4
 10
1333.631
 20
-7924.397
 30
-328.000
 70
    32
  0
VERTEX
  8
W56LXLIFT
 62
4
 10
1339.316
 20
-7929.810
 30
-328.000
 70
    32
  0
VERTEX
  8
W56LXLIFT
 62
4
 10
1345.842
 20
-7931.460
 30
-328.000
 70
    32
  0
VERTEX
  8
W56LXLIFT
 62
4
 10
1350.142
 20
-7928.866
 30
-328.000
 70
    32
  0
SEQEND
  8
W56LXLIFT
  0
POLYLINE
  8
W56LXLIFT
 62
1
 66
     1
 70
     9
  0
VERTEX
  8
W56LXLIFT
 62
1
 10
1351.142
 20
-7927.866
 30
-318.000
 70
    32
  0
VERTEX
  8
W56LXLIFT
 62
1
 10
1346.842
 20
-7930.460
 30
-318.000
 70
    32
  0
VERTEX
  8
W56LXLIFT
 62
1
 10
1340.316
 20
-7928.810
 30
-318.000
 70
    32
  0
VERTEX
  8
W56LXLIFT
 62
1
 10
1334.631
 20
-7923.397
 30
-318.000
 70
    32
  0
VERTEX
  8
W56LXLIFT
 62
1
 10
1330.202
 20
-7911.963
 30
-318.000
 70
    32
  0
VERTEX
  8
W56LXLIFT
 62
1
 10
1315.367
 20
-7887.153
 30
-318.000
 70
    32
  0
VERTEX
  8
W56LXLIFT
 62
1
 10
1310.752
 20
-7871.293
 30
-318.000
 70
    32
  0
VERTEX
  8
W56LXLIFT
 62
1
 10
1307.013
 20
-7850.230
 30
-318.000
 70
    32
  0
VERTEX
  8
W56LXLIFT
 62
1
 10
1308.979
 20
-7843.691
 30
-318.000
 70
    32
  0
VERTEX
  8
W56LXLIFT
 62
1
 10
1312.678
 20
-7840.125
 30
-318.000
 70
    32
  0
VERTEX
  8
W56LXLIFT
 62
1
 10
1315.378
 20
-7841.741
 30
-318.000
 70
    32
  0
VERTEX
  8
W56LXLIFT
 62
1
 10
1318.178
 20
-7846.325
 30
-318.000
 70
    32
  0
VERTEX
  8
W56LXLIFT
 62
1
 10
1321.127
 20
-7856.774
 30
-318.000
 70
    32
  0
VERTEX
  8
W56LXLIFT
 62
1
 10
1325.040
 20
-7863.479
 30
-318.000
 70
    32
  0
VERTEX
  8
W56LXLIFT
 62
1
 10
1329.541
 20
-7876.056
 30
-318.000
 70
    32
  0
VERTEX
  8
W56LXLIFT
 62
1
 10
1332.044
 20
-7880.530
 30
-318.000
 70
    32
  0
VERTEX
  8
W56LXLIFT
 62
1
 10
1342.184
 20
-7887.582
 30
-318.000
 70
    32
  0
VERTEX
  8
W56LXLIFT
 62
1
 10
1344.285
 20
-7890.612
 30
-318.000
 70
    32
  0
VERTEX
  8
W56LXLIFT
 62
1
 10
1356.841
 20
-7919.148
 30
-318.000
 70
    32
  0
SEQEND
  8
W56LXLIFT
  0
POLYLINE
  8
W56LXLIFT
 62
2
 66
     1
 70
     9
  0
VERTEX
  8
W56LXLIFT
 62
2
 10
1174.217
 20
-8120.173
 30
-324.000
 70
    32
  0
VERTEX
  8
W56LXLIFT
 62
2
 10
1154.220
 20
-8134.756
 30
-324.000
 70
    32
  0
VERTEX
  8
W56LXLIFT
 62
2
 10
1142.859
 20
-8150.754
 30
-324.000
 70
    32
  0
VERTEX
  8
W56LXLIFT
 62
2
 10
1146.891
 20
-8155.091
 30
-324.000
 70
    32
  0
VERTEX
  8
W56LXLIFT
 62
2
 10
1167.436
 20
-8159.878
 30
-324.000
 70
    32
  0
VERTEX
  8
W56LXLIFT
 62
2
 10
1179.279
 20
-8166.882
 30
-324.000
 70
    32
  0
VERTEX
  8
W56LXLIFT
 62
2
 10
1195.226
 20
-8178.172
 30
-324.000
 70
    32
  0
VERTEX
  8
W56LXLIFT
 62
2
 10
1206.750
 20
-8182.803
 30
-324.000
 70
    32
  0
VERTEX
  8
W56LXLIFT
 62
2
 10
1219.102
 20
-8184.548
 30
-324.000
 70
    32
  0
VERTEX
  8
W56LXLIFT
 62
2
 10
1224.907
 20
-8182.379
 30
-324.000
 70
    32
  0
VERTEX
  8
W56LXLIFT
 62
2
 10
1225.593
 20
-8174.383
 30
-324.000
 70
    32
  0
VERTEX
  8
W56LXLIFT
 62
2
 10
1217.487
 20
-8163.566
 30
-324.000
 70
    32
  0
VERTEX
  8
W56LXLIFT
 62
2
 10
1213.221
 20
-8158.313
 30
-324.000
 70
    32
  0
VERTEX
  8
W56LXLIFT
 62
2
 10
1196.983
 20
-8121.601
 30
-324.000
 70
    32
  0
VERTEX
  8
W56LXLIFT
 62
2
 10
1193.898
 20
-8116.030
 30
-324.000
 70
    32
  0
VERTEX
  8
W56LXLIFT
 62
2
 10
1183.629
 20
-8104.184
 30
-324.000
 70
    32
  0
VERTEX
  8
W56LXLIFT
 62
2
 10
1176.171
 20
-8100.064
 30
-324.000
 70
    32
  0
VERTEX
  8
W56LXLIFT
 62
2
 10
1166.952
 20
-8096.360
 30
-324.000
 70
    32
  0
VERTEX
  8
W56LXLIFT
 62
2
 10
1163.897
 20
-8099.022
 30
-324.000
 70
    32
  0
VERTEX
  8
W56LXLIFT
 62
2
 10
1167.842
 20
-8111.135
 30
-324.000
 70
    32
  0
SEQEND
  8
W56LXLIFT
  0
POLYLINE
  8
W56LXLIFT
 62
8
 66
     1
 70
     9
  0
VERTEX
  8
W56LXLIFT
 62
8
 10
1295.014
 20
-8367.725
 30
-328.000
 70
    32
  0
VERTEX
  8
W56LXLIFT
 62
8
 10
1306.670
 20
-8359.876
 30
-328.000
 70
    32
  0
VERTEX
  8
W56LXLIFT
 62
8
 10
1303.210
 20
-8358.706
 30
-328.000
 70
    32
  0
VERTEX
  8
W56LXLIFT
 62
8
 10
1292.997
 20
-8340.085
 30
-328.000
 70
    32
  0
VERTEX
  8
W56LXLIFT
 62
8
 10
1285.874
 20
-8335.829
 30
-328.000
 70
    32
  0
VERTEX
  8
W56LXLIFT
 62
8
 10
1282.120
 20
-8331.724
 30
-328.000
 70
    32
  0
VERTEX
  8
W56LXLIFT
 62
8
 10
1277.740
 20
-8323.186
 30
-328.000
 70
    32
  0
VERTEX
  8
W56LXLIFT
 62
8
 10
1274.304
 20
-8316.242
 30
-328.000
 70
    32
  0
VERTEX
  8
W56LXLIFT
 62
8
 10
1264.659
 20
-8307.634
 30
-328.000
 70
    32
  0
VERTEX
  8
W56LXLIFT
 62
8
 10
1257.274
 20
-8304.656
 30
-328.000
 70
    32
  0
VERTEX
  8
W56LXLIFT
 62
8
 10
1251.380
 20
-8302.980
 30
-328.000
 70
    32
  0
VERTEX
  8
W56LXLIFT
 62
8
 10
1247.231
 20
-8298.185
 30
-328.000
 70
    32
  0
VERTEX
  8
W56LXLIFT
 62
8
 10
1243.837
 20
-8293.382
 30
-328.000
 70
    32
  0
VERTEX
  8
W56LXLIFT
 62
8
 10
1237.664
 20
-8294.300
 30
-328.000
 70
    32
  0
VERTEX
  8
W56LXLIFT
 62
8
 10
1235.637
 20
-8298.820
 30
-328.000
 70
    32
  0
VERTEX
  8
W56LXLIFT
 62
8
 10
1238.690
 20
-8304.197
 30
-328.000
 70
    32
  0
VERTEX
  8
W56LXLIFT
 62
8
 10
1237.401
 20
-8310.025
 30
-328.000
 70
    32
  0
VERTEX
  8
W56LXLIFT
 62
8
 10
1238.945
 20
-8316.611
 30
-328.000
 70
    32
  0
VERTEX
  8
W56LXLIFT
 62
8
 10
1244.215
 20
-8320.263
 30
-328.000
 70
    32
  0
VERTEX
  8
W56LXLIFT
 62
8
 10
1250.259
 20
-8323.784
 30
-328.000
 70
    32
  0
VERTEX
  8
W56LXLIFT
 62
8
 10
1256.233
 20
-8332.571
 30
-328.000
 70
    32
  0
VERTEX
  8
W56LXLIFT
 62
8
 10
1254.259
 20
-8342.375
 30
-328.000
 70
    32
  0
VERTEX
  8
W56LXLIFT
 62
8
 10
1250.625
 20
-8351.543
 30
-328.000
 70
    32
  0
VERTEX
  8
W56LXLIFT
 62
8
 10
1252.053
 20
-8357.671
 30
-328.000
 70
    32
  0
VERTEX
  8
W56LXLIFT
 62
8
 10
1253.920
 20
-8369.018
 30
-328.000
 70
    32
  0
VERTEX
  8
W56LXLIFT
 62
8
 10
1260.712
 20
-8376.991
 30
-328.000
 70
    32
  0
VERTEX
  8
W56LXLIFT
 62
8
 10
1269.610
 20
-8391.575
 30
-328.000
 70
    32
  0
VERTEX
  8
W56LXLIFT
 62
8
 10
1277.135
 20
-8411.722
 30
-328.000
 70
    32
  0
VERTEX
  8
W56LXLIFT
 62
8
 10
1285.803
 20
-8427.778
 30
-328.000
 70
    32
  0
VERTEX
  8
W56LXLIFT
 62
8
 10
1289.501
 20
-8433.445
 30
-328.000
 70
    32
  0
VERTEX
  8
W56LXLIFT
 62
8
 10
1292.928
 20
-8438.441
 30
-328.000
 70
    32
  0
VERTEX
  8
W56LXLIFT
 62
8
 10
1291.903
 20
-8444.185
 30
-328.000
 70
    32
  0
VERTEX
  8
W56LXLIFT
 62
8
 10
1292.545
 20
-8451.320
 30
-328.000
 70
    32
  0
VERTEX
  8
W56LXLIFT
 62
8
 10
1296.749
 20
-8454.554
 30
-328.000
 70
    32
  0
VERTEX
  8
W56LXLIFT
 62
8
 10
1301.630
 20
-8451.863
 30
-328.000
 70
    32
  0
VERTEX
  8
W56LXLIFT
 62
8
 10
1304.513
 20
-8441.071
 30
-328.000
 70
    32
  0
VERTEX
  8
W56LXLIFT
 62
8
 10
1307.749
 20
-8423.612
 30
-328.000
 70
    32
  0
VERTEX
  8
W56LXLIFT
 62
8
 10
1306.943
 20
-8414.315
 30
-328.000
 70
    32
  0
VERTEX
  8
W56LXLIFT
 62
8
 10
1298.357
 20
-8392.117
 30
-328.000
 70
    32
  0
VERTEX
  8
W56LXLIFT
 62
8
 10
1294.954
 20
-8380.152
 30
-328.000
 70
    32
  0
SEQEND
  8
W56LXLIFT
  0
POLYLINE
  8
W56LXLIFT
 62
2
 66
     1
 70
     9
  0
VERTEX
  8
W56LXLIFT
 62
2
 10
1196.671
 20
-8137.325
 30
-318.000
 70
    32
  0
VERTEX
  8
W56LXLIFT
 62
2
 10
1184.990
 20
-8129.477
 30
-318.000
 70
    32
  0
VERTEX
  8
W56LXLIFT
 62
2
 10
1178.032
 20
-8128.177
 30
-318.000
 70
    32
  0
VERTEX
  8
W56LXLIFT
 62
2
 10
1170.805
 20
-8129.912
 30
-318.000
 70
    32
  0
VERTEX
  8
W56LXLIFT
 62
2
 10
1169.112
 20
-8137.814
 30
-318.000
 70
    32
  0
VERTEX
  8
W56LXLIFT
 62
2
 10
1157.760
 20
-8146.520
 30
-318.000
 70
    32
  0
VERTEX
  8
W56LXLIFT
 62
2
 10
1151.582
 20
-8144.208
 30
-318.000
 70
    32
  0
VERTEX
  8
W56LXLIFT
 62
2
 10
1140.153
 20
-8140.101
 30
-318.000
 70
    32
  0
VERTEX
  8
W56LXLIFT
 62
2
 10
1133.503
 20
-8142.173
 30
-318.000
 70
    32
  0
VERTEX
  8
W56LXLIFT
 62
2
 10
1127.481
 20
-8149.235
 30
-318.000
 70
    32
  0
VERTEX
  8
W56LXLIFT
 62
2
 10
1130.523
 20
-8155.278
 30
-318.000
 70
    32
  0
VERTEX
  8
W56LXLIFT
 62
2
 10
1140.964
 20
-8160.115
 30
-318.000
 70
    32
  0
VERTEX
  8
W56LXLIFT
 62
2
 10
1158.637
 20
-8160.269
 30
-318.000
 70
    32
  0
VERTEX
  8
W56LXLIFT
 62
2
 10
1177.727
 20
-8156.432
 30
-318.000
 70
    32
  0
VERTEX
  8
W56LXLIFT
 62
2
 10
1181.218
 20
-8161.162
 30
-318.000
 70
    32
  0
VERTEX
  8
W56LXLIFT
 62
2
 10
1192.937
 20
-8155.022
 30
-318.000
 70
    32
  0
VERTEX
  8
W56LXLIFT
 62
2
 10
1195.473
 20
-8151.514
 30
-318.000
 70
    32
  0
VERTEX
  8
W56LXLIFT
 62
2
 10
1198.925
 20
-8143.186
 30
-318.000
 70
    32
  0
SEQEND
  8
W56LXLIFT
  0
POLYLINE
  8
W56LXLIFT
 62
8
 66
     1
 70
     9
  0
VERTEX
  8
W56LXLIFT
 62
8
 10
1309.441
 20
-8453.268
 30
-317.000
 70
    32
  0
VERTEX
  8
W56LXLIFT
 62
8
 10
1309.194
 20
-8437.417
 30
-317.000
 70
    32
  0
VERTEX
  8
W56LXLIFT
 62
8
 10
1310.120
 20
-8422.120
 30
-317.000
 70
    32
  0
VERTEX
  8
W56LXLIFT
 62
8
 10
1299.647
 20
-8410.000
 30
-317.000
 70
    32
  0
VERTEX
  8
W56LXLIFT
 62
8
 10
1297.141
 20
-8404.978
 30
-317.000
 70
    32
  0
VERTEX
  8
W56LXLIFT
 62
8
 10
1295.397
 20
-8394.487
 30
-317.000
 70
    32
  0
VERTEX
  8
W56LXLIFT
 62
8
 10
1296.231
 20
-8381.874
 30
-317.000
 70
    32
  0
VERTEX
  8
W56LXLIFT
 62
8
 10
1300.784
 20
-8369.571
 30
-317.000
 70
    32
  0
VERTEX
  8
W56LXLIFT
 62
8
 10
1302.595
 20
-8360.055
 30
-317.000
 70
    32
  0
VERTEX
  8
W56LXLIFT
 62
8
 10
1301.882
 20
-8356.873
 30
-317.000
 70
    32
  0
VERTEX
  8
W56LXLIFT
 62
8
 10
1281.076
 20
-8323.804
 30
-317.000
 70
    32
  0
VERTEX
  8
W56LXLIFT
 62
8
 10
1273.925
 20
-8317.957
 30
-317.000
 70
    32
  0
VERTEX
  8
W56LXLIFT
 62
8
 10
1256.612
 20
-8307.504
 30
-317.000
 70
    32
  0
VERTEX
  8
W56LXLIFT
 62
8
 10
1241.393
 20
-8291.907
 30
-317.000
 70
    32
  0
VERTEX
  8
W56LXLIFT
 62
8
 10
1231.700
 20
-8306.259
 30
-317.000
 70
    32
  0
VERTEX
  8
W56LXLIFT
 62
8
 10
1237.047
 20
-8311.583
 30
-317.000
 70
    32
  0
VERTEX
  8
W56LXLIFT
 62
8
 10
1248.908
 20
-8316.571
 30
-317.000
 70
    32
  0
VERTEX
  8
W56LXLIFT
 62
8
 10
1251.510
 20
-8320.540
 30
-317.000
 70
    32
  0
VERTEX
  8
W56LXLIFT
 62
8
 10
1247.602
 20
-8344.800
 30
-317.000
 70
    32
  0
VERTEX
  8
W56LXLIFT
 62
8
 10
1253.373
 20
-8358.973
 30
-317.000
 70
    32
  0
VERTEX
  8
W56LXLIFT
 62
8
 10
1266.746
 20
-8368.080
 30
-317.000
 70
    32
  0
VERTEX
  8
W56LXLIFT
 62
8
 10
1271.609
 20
-8386.195
 30
-317.000
 70
    32
  0
VERTEX
  8
W56LXLIFT
 62
8
 10
1271.379
 20
-8411.449
 30
-317.000
 70
    32
  0
VERTEX
  8
W56LXLIFT
 62
8
 10
1274.661
 20
-8429.640
 30
-317.000
 70
    32
  0
VERTEX
  8
W56LXLIFT
 62
8
 10
1281.044
 20
-8441.834
 30
-317.000
 70
    32
  0
VERTEX
  8
W56LXLIFT
 62
8
 10
1293.584
 20
-8454.392
 30
-317.000
 70
    32
  0
SEQEND
  8
W56LXLIFT
  0
POLYLINE
  8
W56LXLIFT
 62
2
 66
     1
 70
     9
  0
VERTEX
  8
W56LXLIFT
 62
2
 10
1132.259
 20
-8148.634
 30
-309.000
 70
    32
  0
VERTEX
  8
W56LXLIFT
 62
2
 10
1153.386
 20
-8152.113
 30
-309.000
 70
    32
  0
VERTEX
  8
W56LXLIFT
 62
2
 10
1166.181
 20
-8154.245
 30
-309.000
 70
    32
  0
VERTEX
  8
W56LXLIFT
 62
2
 10
1171.077
 20
-8160.129
 30
-309.000
 70
    32
  0
VERTEX
  8
W56LXLIFT
 62
2
 10
1177.211
 20
-8162.630
 30
-309.000
 70
    32
  0
VERTEX
  8
W56LXLIFT
 62
2
 10
1173.401
 20
-8170.249
 30
-309.000
 70
    32
  0
VERTEX
  8
W56LXLIFT
 62
2
 10
1181.408
 20
-8175.945
 30
-309.000
 70
    32
  0
VERTEX
  8
W56LXLIFT
 62
2
 10
1200.935
 20
-8156.658
 30
-309.000
 70
    32
  0
VERTEX
  8
W56LXLIFT
 62
2
 10
1200.285
 20
-8142.407
 30
-309.000
 70
    32
  0
VERTEX
  8
W56LXLIFT
 62
2
 10
1194.501
 20
-8134.242
 30
-309.000
 70
    32
  0
VERTEX
  8
W56LXLIFT
 62
2
 10
1189.158
 20
-8128.789
 30
-309.000
 70
    32
  0
VERTEX
  8
W56LXLIFT
 62
2
 10
1181.053
 20
-8132.256
 30
-309.000
 70
    32
  0
VERTEX
  8
W56LXLIFT
 62
2
 10
1172.637
 20
-8132.593
 30
-309.000
 70
    32
  0
VERTEX
  8
W56LXLIFT
 62
2
 10
1172.138
 20
-8136.850
 30
-309.000
 70
    32
  0
VERTEX
  8
W56LXLIFT
 62
2
 10
1170.363
 20
-8145.491
 30
-309.000
 70
    32
  0
VERTEX
  8
W56LXLIFT
 62
2
 10
1160.164
 20
-8146.356
 30
-309.000
 70
    32
  0
VERTEX
  8
W56LXLIFT
 62
2
 10
1149.578
 20
-8145.336
 30
-309.000
 70
    32
  0
VERTEX
  8
W56LXLIFT
 62
2
 10
1146.789
 20
-8142.370
 30
-309.000
 70
    32
  0
VERTEX
  8
W56LXLIFT
 62
2
 10
1143.822
 20
-8138.558
 30
-309.000
 70
    32
  0
VERTEX
  8
W56LXLIFT
 62
2
 10
1136.318
 20
-8141.809
 30
-309.000
 70
    32
  0
SEQEND
  8
W56LXLIFT
  0
POLYLINE
  8
W56LXLIFT
 62
13
 66
     1
 70
     9
  0
VERTEX
  8
W56LXLIFT
 62
13
 10
1215.086
 20
-8249.164
 30
-299.000
 70
    32
  0
VERTEX
  8
W56LXLIFT
 62
13
 10
1209.131
 20
-8252.162
 30
-299.000
 70
    32
  0
VERTEX
  8
W56LXLIFT
 62
13
 10
1206.849
 20
-8254.999
 30
-299.000
 70
    32
  0
VERTEX
  8
W56LXLIFT
 62
13
 10
1204.098
 20
-8264.236
 30
-299.000
 70
    32
  0
VERTEX
  8
W56LXLIFT
 62
13
 10
1192.069
 20
-8264.366
 30
-299.000
 70
    32
  0
VERTEX
  8
W56LXLIFT
 62
13
 10
1181.821
 20
-8269.813
 30
-299.000
 70
    32
  0
VERTEX
  8
W56LXLIFT
 62
13
 10
1174.547
 20
-8259.584
 30
-299.000
 70
    32
  0
VERTEX
  8
W56LXLIFT
 62
13
 10
1175.179
 20
-8251.010
 30
-299.000
 70
    32
  0
VERTEX
  8
W56LXLIFT
 62
13
 10
1178.572
 20
-8239.362
 30
-299.000
 70
    32
  0
VERTEX
  8
W56LXLIFT
 62
13
 10
1175.424
 20
-8232.000
 30
-299.000
 70
    32
  0
VERTEX
  8
W56LXLIFT
 62
13
 10
1177.795
 20
-8224.336
 30
-299.000
 70
    32
  0
VERTEX
  8
W56LXLIFT
 62
13
 10
1175.656
 20
-8216.571
 30
-299.000
 70
    32
  0
VERTEX
  8
W56LXLIFT
 62
13
 10
1187.159
 20
-8215.414
 30
-299.000
 70
    32
  0
VERTEX
  8
W56LXLIFT
 62
13
 10
1191.104
 20
-8225.231
 30
-299.000
 70
    32
  0
VERTEX
  8
W56LXLIFT
 62
13
 10
1197.872
 20
-8234.310
 30
-299.000
 70
    32
  0
VERTEX
  8
W56LXLIFT
 62
13
 10
1201.982
 20
-8238.055
 30
-299.000
 70
    32
  0
VERTEX
  8
W56LXLIFT
 62
13
 10
1202.392
 20
-8240.573
 30
-299.000
 70
    32
  0
VERTEX
  8
W56LXLIFT
 62
13
 10
1203.075
 20
-8242.569
 30
-299.000
 70
    32
  0
VERTEX
  8
W56LXLIFT
 62
13
 10
1210.954
 20
-8240.889
 30
-299.000
 70
    32
  0
SEQEND
  8
W56LXLIFT
  0
POLYLINE
  8
W56LXLIFT
 62
8
 66
     1
 70
     9
  0
VERTEX
  8
W56LXLIFT
 62
8
 10
1291.813
 20
-8417.738
 30
-307.000
 70
    32
  0
VERTEX
  8
W56LXLIFT
 62
8
 10
1293.922
 20
-8402.362
 30
-307.000
 70
    32
  0
VERTEX
  8
W56LXLIFT
 62
8
 10
1292.439
 20
-8393.258
 30
-307.000
 70
    32
  0
VERTEX
  8
W56LXLIFT
 62
8
 10
1293.851
 20
-8383.364
 30
-307.000
 70
    32
  0
VERTEX
  8
W56LXLIFT
 62
8
 10
1295.308
 20
-8376.684
 30
-307.000
 70
    32
  0
VERTEX
  8
W56LXLIFT
 62
8
 10
1295.022
 20
-8370.288
 30
-307.000
 70
    32
  0
VERTEX
  8
W56LXLIFT
 62
8
 10
1296.785
 20
-8361.331
 30
-307.000
 70
    32
  0
VERTEX
  8
W56LXLIFT
 62
8
 10
1282.272
 20
-8343.770
 30
-307.000
 70
    32
  0
VERTEX
  8
W56LXLIFT
 62
8
 10
1276.445
 20
-8335.095
 30
-307.000
 70
    32
  0
VERTEX
  8
W56LXLIFT
 62
8
 10
1272.346
 20
-8325.064
 30
-307.000
 70
    32
  0
VERTEX
  8
W56LXLIFT
 62
8
 10
1272.020
 20
-8318.913
 30
-307.000
 70
    32
  0
VERTEX
  8
W56LXLIFT
 62
8
 10
1268.004
 20
-8319.647
 30
-307.000
 70
    32
  0
VERTEX
  8
W56LXLIFT
 62
8
 10
1259.166
 20
-8325.699
 30
-307.000
 70
    32
  0
VERTEX
  8
W56LXLIFT
 62
8
 10
1257.503
 20
-8334.044
 30
-307.000
 70
    32
  0
VERTEX
  8
W56LXLIFT
 62
8
 10
1251.685
 20
-8350.581
 30
-307.000
 70
    32
  0
VERTEX
  8
W56LXLIFT
 62
8
 10
1251.857
 20
-8356.518
 30
-307.000
 70
    32
  0
VERTEX
  8
W56LXLIFT
 62
8
 10
1260.887
 20
-8371.432
 30
-307.000
 70
    32
  0
VERTEX
  8
W56LXLIFT
 62
8
 10
1268.822
 20
-8379.128
 30
-307.000
 70
    32
  0
VERTEX
  8
W56LXLIFT
 62
8
 10
1270.758
 20
-8382.710
 30
-307.000
 70
    32
  0
VERTEX
  8
W56LXLIFT
 62
8
 10
1272.534
 20
-8399.721
 30
-307.000
 70
    32
  0
VERTEX
  8
W56LXLIFT
 62
8
 10
1288.294
 20
-8420.061
 30
-307.000
 70
    32
  0
SEQEND
  8
W56LXLIFT
  0
POLYLINE
  8
W56LXLIFT
 62
2
 66
     1
 70
     9
  0
VERTEX
  8
W56LXLIFT
 62
2
 10
1214.697
 20
-8193.296
 30
-300.000
 70
    32
  0
VERTEX
  8
W56LXLIFT
 62
2
 10
1209.909
 20
-8183.014
 30
-300.000
 70
    32
  0
VERTEX
  8
W56LXLIFT
 62
2
 10
1207.083
 20
-8174.563
 30
-300.000
 70
    32
  0
VERTEX
  8
W56LXLIFT
 62
2
 10
1203.002
 20
-8165.718
 30
-300.000
 70
    32
  0
VERTEX
  8
W56LXLIFT
 62
2
 10
1199.930
 20
-8160.685
 30
-300.000
 70
    32
  0
VERTEX
  8
W56LXLIFT
 62
2
 10
1198.324
 20
-8154.384
 30
-300.000
 70
    32
  0
VERTEX
  8
W56LXLIFT
 62
2
 10
1197.588
 20
-8145.082
 30
-300.000
 70
    32
  0
VERTEX
  8
W56LXLIFT
 62
2
 10
1192.880
 20
-8138.524
 30
-300.000
 70
    32
  0
VERTEX
  8
W56LXLIFT
 62
2
 10
1184.668
 20
-8134.156
 30
-300.000
 70
    32
  0
VERTEX
  8
W56LXLIFT
 62
2
 10
1176.925
 20
-8134.205
 30
-300.000
 70
    32
  0
VERTEX
  8
W56LXLIFT
 62
2
 10
1166.573
 20
-8144.013
 30
-300.000
 70
    32
  0
VERTEX
  8
W56LXLIFT
 62
2
 10
1158.068
 20
-8145.257
 30
-300.000
 70
    32
  0
VERTEX
  8
W56LXLIFT
 62
2
 10
1152.145
 20
-8143.026
 30
-300.000
 70
    32
  0
VERTEX
  8
W56LXLIFT
 62
2
 10
1149.168
 20
-8139.330
 30
-300.000
 70
    32
  0
VERTEX
  8
W56LXLIFT
 62
2
 10
1148.311
 20
-8134.976
 30
-300.000
 70
    32
  0
VERTEX
  8
W56LXLIFT
 62
2
 10
1145.825
 20
-8132.115
 30
-300.000
 70
    32
  0
VERTEX
  8
W56LXLIFT
 62
2
 10
1125.291
 20
-8128.491
 30
-300.000
 70
    32
  0
VERTEX
  8
W56LXLIFT
 62
2
 10
1120.657
 20
-8136.030
 30
-300.000
 70
    32
  0
VERTEX
  8
W56LXLIFT
 62
2
 10
1120.280
 20
-8144.835
 30
-300.000
 70
    32
  0
VERTEX
  8
W56LXLIFT
 62
2
 10
1127.201
 20
-8155.531
 30
-300.000
 70
    32
  0
VERTEX
  8
W56LXLIFT
 62
2
 10
1141.616
 20
-8155.446
 30
-300.000
 70
    32
  0
VERTEX
  8
W56LXLIFT
 62
2
 10
1146.708
 20
-8156.219
 30
-300.000
 70
    32
  0
VERTEX
  8
W56LXLIFT
 62
2
 10
1157.701
 20
-8162.804
 30
-300.000
 70
    32
  0
VERTEX
  8
W56LXLIFT
 62
2
 10
1174.398
 20
-8161.837
 30
-300.000
 70
    32
  0
VERTEX
  8
W56LXLIFT
 62
2
 10
1187.342
 20
-8182.577
 30
-300.000
 70
    32
  0
VERTEX
  8
W56LXLIFT
 62
2
 10
1185.504
 20
-8190.702
 30
-300.000
 70
    32
  0
VERTEX
  8
W56LXLIFT
 62
2
 10
1193.826
 20
-8194.018
 30
-300.000
 70
    32
  0
VERTEX
  8
W56LXLIFT
 62
2
 10
1200.600
 20
-8194.125
 30
-300.000
 70
    32
  0
VERTEX
  8
W56LXLIFT
 62
2
 10
1207.747
 20
-8196.556
 30
-300.000
 70
    32
  0
SEQEND
  8
W56LXLIFT
  0
POLYLINE
  8
W56LXLIFT
 62
13
 66
     1
 70
     9
  0
VERTEX
  8
W56LXLIFT
 62
13
 10
1190.194
 20
-8215.746
 30
-287.000
 70
    32
  0
VERTEX
  8
W56LXLIFT
 62
13
 10
1182.777
 20
-8215.345
 30
-287.000
 70
    32
  0
VERTEX
  8
W56LXLIFT
 62
13
 10
1178.174
 20
-8218.865
 30
-287.000
 70
    32
  0
VERTEX
  8
W56LXLIFT
 62
13
 10
1178.733
 20
-8226.566
 30
-287.000
 70
    32
  0
VERTEX
  8
W56LXLIFT
 62
13
 10
1175.479
 20
-8231.062
 30
-287.000
 70
    32
  0
VERTEX
  8
W56LXLIFT
 62
13
 10
1174.941
 20
-8236.634
 30
-287.000
 70
    32
  0
VERTEX
  8
W56LXLIFT
 62
13
 10
1175.039
 20
-8243.693
 30
-287.000
 70
    32
  0
VERTEX
  8
W56LXLIFT
 62
13
 10
1173.105
 20
-8249.726
 30
-287.000
 70
    32
  0
VERTEX
  8
W56LXLIFT
 62
13
 10
1175.710
 20
-8268.705
 30
-287.000
 70
    32
  0
VERTEX
  8
W56LXLIFT
 62
13
 10
1180.442
 20
-8268.225
 30
-287.000
 70
    32
  0
VERTEX
  8
W56LXLIFT
 62
13
 10
1186.096
 20
-8269.028
 30
-287.000
 70
    32
  0
VERTEX
  8
W56LXLIFT
 62
13
 10
1208.428
 20
-8260.559
 30
-287.000
 70
    32
  0
VERTEX
  8
W56LXLIFT
 62
13
 10
1213.634
 20
-8249.152
 30
-287.000
 70
    32
  0
VERTEX
  8
W56LXLIFT
 62
13
 10
1211.158
 20
-8241.639
 30
-287.000
 70
    32
  0
VERTEX
  8
W56LXLIFT
 62
13
 10
1202.317
 20
-8238.803
 30
-287.000
 70
    32
  0
VERTEX
  8
W56LXLIFT
 62
13
 10
1196.412
 20
-8230.727
 30
-287.000
 70
    32
  0
VERTEX
  8
W56LXLIFT
 62
13
 10
1192.243
 20
-8223.565
 30
-287.000
 70
    32
  0
SEQEND
  8
W56LXLIFT
  0
POLYLINE
  8
W56LXLIFT
 62
8
 66
     1
 70
     9
  0
VERTEX
  8
W56LXLIFT
 62
8
 10
1280.781
 20
-8427.267
 30
-297.000
 70
    32
  0
VERTEX
  8
W56LXLIFT
 62
8
 10
1284.799
 20
-8422.330
 30
-297.000
 70
    32
  0
VERTEX
  8
W56LXLIFT
 62
8
 10
1286.445
 20
-8406.565
 30
-297.000
 70
    32
  0
VERTEX
  8
W56LXLIFT
 62
8
 10
1287.285
 20
-8399.157
 30
-297.000
 70
    32
  0
VERTEX
  8
W56LXLIFT
 62
8
 10
1291.194
 20
-8378.418
 30
-297.000
 70
    32
  0
VERTEX
  8
W56LXLIFT
 62
8
 10
1293.243
 20
-8364.416
 30
-297.000
 70
    32
  0
VERTEX
  8
W56LXLIFT
 62
8
 10
1282.590
 20
-8354.995
 30
-297.000
 70
    32
  0
VERTEX
  8
W56LXLIFT
 62
8
 10
1280.021
 20
-8351.114
 30
-297.000
 70
    32
  0
VERTEX
  8
W56LXLIFT
 62
8
 10
1276.160
 20
-8335.953
 30
-297.000
 70
    32
  0
VERTEX
  8
W56LXLIFT
 62
8
 10
1271.686
 20
-8324.905
 30
-297.000
 70
    32
  0
VERTEX
  8
W56LXLIFT
 62
8
 10
1267.044
 20
-8329.425
 30
-297.000
 70
    32
  0
VERTEX
  8
W56LXLIFT
 62
8
 10
1267.094
 20
-8332.955
 30
-297.000
 70
    32
  0
VERTEX
  8
W56LXLIFT
 62
8
 10
1264.788
 20
-8337.418
 30
-297.000
 70
    32
  0
VERTEX
  8
W56LXLIFT
 62
8
 10
1264.552
 20
-8341.153
 30
-297.000
 70
    32
  0
VERTEX
  8
W56LXLIFT
 62
8
 10
1258.841
 20
-8350.654
 30
-297.000
 70
    32
  0
VERTEX
  8
W56LXLIFT
 62
8
 10
1250.933
 20
-8358.599
 30
-297.000
 70
    32
  0
VERTEX
  8
W56LXLIFT
 62
8
 10
1252.744
 20
-8365.185
 30
-297.000
 70
    32
  0
VERTEX
  8
W56LXLIFT
 62
8
 10
1259.982
 20
-8375.869
 30
-297.000
 70
    32
  0
VERTEX
  8
W56LXLIFT
 62
8
 10
1269.949
 20
-8380.273
 30
-297.000
 70
    32
  0
VERTEX
  8
W56LXLIFT
 62
8
 10
1270.947
 20
-8383.770
 30
-297.000
 70
    32
  0
VERTEX
  8
W56LXLIFT
 62
8
 10
1272.426
 20
-8396.967
 30
-297.000
 70
    32
  0
VERTEX
  8
W56LXLIFT
 62
8
 10
1265.479
 20
-8410.164
 30
-297.000
 70
    32
  0
VERTEX
  8
W56LXLIFT
 62
8
 10
1273.481
 20
-8420.408
 30
-297.000
 70
    32
  0
SEQEND
  8
W56LXLIFT
  0
POLYLINE
  8
W56LXLIFT
 62
6
 66
     1
 70
     9
  0
VERTEX
  8
W56LXLIFT
 62
6
 10
1197.129
 20
-7783.110
 30
-294.000
 70
    32
  0
VERTEX
  8
W56LXLIFT
 62
6
 10
1200.402
 20
-7788.435
 30
-294.000
 70
    32
  0
VERTEX
  8
W56LXLIFT
 62
6
 10
1212.635
 20
-7798.578
 30
-294.000
 70
    32
  0
VERTEX
  8
W56LXLIFT
 62
6
 10
1222.169
 20
-7798.015
 30
-294.000
 70
    32
  0
VERTEX
  8
W56LXLIFT
 62
6
 10
1234.745
 20
-7805.319
 30
-294.000
 70
    32
  0
VERTEX
  8
W56LXLIFT
 62
6
 10
1256.515
 20
-7834.663
 30
-294.000
 70
    32
  0
VERTEX
  8
W56LXLIFT
 62
6
 10
1262.596
 20
-7840.137
 30
-294.000
 70
    32
  0
VERTEX
  8
W56LXLIFT
 62
6
 10
1271.709
 20
-7829.182
 30
-294.000
 70
    32
  0
VERTEX
  8
W56LXLIFT
 62
6
 10
1272.856
 20
-7824.148
 30
-294.000
 70
    32
  0
VERTEX
  8
W56LXLIFT
 62
6
 10
1268.578
 20
-7823.755
 30
-294.000
 70
    32
  0
VERTEX
  8
W56LXLIFT
 62
6
 10
1255.585
 20
-7809.081
 30
-294.000
 70
    32
  0
VERTEX
  8
W56LXLIFT
 62
6
 10
1241.047
 20
-7791.948
 30
-294.000
 70
    32
  0
VERTEX
  8
W56LXLIFT
 62
6
 10
1232.914
 20
-7786.323
 30
-294.000
 70
    32
  0
VERTEX
  8
W56LXLIFT
 62
6
 10
1219.651
 20
-7775.947
 30
-294.000
 70
    32
  0
VERTEX
  8
W56LXLIFT
 62
6
 10
1214.377
 20
-7770.543
 30
-294.000
 70
    32
  0
VERTEX
  8
W56LXLIFT
 62
6
 10
1209.260
 20
-7760.381
 30
-294.000
 70
    32
  0
VERTEX
  8
W56LXLIFT
 62
6
 10
1210.553
 20
-7749.517
 30
-294.000
 70
    32
  0
VERTEX
  8
W56LXLIFT
 62
6
 10
1205.155
 20
-7743.338
 30
-294.000
 70
    32
  0
VERTEX
  8
W56LXLIFT
 62
6
 10
1200.448
 20
-7742.496
 30
-294.000
 70
    32
  0
VERTEX
  8
W56LXLIFT
 62
6
 10
1194.537
 20
-7742.085
 30
-294.000
 70
    32
  0
VERTEX
  8
W56LXLIFT
 62
6
 10
1189.690
 20
-7743.612
 30
-294.000
 70
    32
  0
VERTEX
  8
W56LXLIFT
 62
6
 10
1186.314
 20
-7738.144
 30
-294.000
 70
    32
  0
VERTEX
  8
W56LXLIFT
 62
6
 10
1181.631
 20
-7732.208
 30
-294.000
 70
    32
  0
VERTEX
  8
W56LXLIFT
 62
6
 10
1178.609
 20
-7731.457
 30
-294.000
 70
    32
  0
VERTEX
  8
W56LXLIFT
 62
6
 10
1171.440
 20
-7737.887
 30
-294.000
 70
    32
  0
VERTEX
  8
W56LXLIFT
 62
6
 10
1183.273
 20
-7755.768
 30
-294.000
 70
    32
  0
VERTEX
  8
W56LXLIFT
 62
6
 10
1187.925
 20
-7761.510
 30
-294.000
 70
    32
  0
VERTEX
  8
W56LXLIFT
 62
6
 10
1186.445
 20
-7769.699
 30
-294.000
 70
    32
  0
SEQEND
  8
W56LXLIFT
  0
POLYLINE
  8
W56LXLIFT
 62
1
 66
     1
 70
     9
  0
VERTEX
  8
W56LXLIFT
 62
1
 10
1198.129
 20
-7782.110
 30
-282.000
 70
    32
  0
VERTEX
  8
W56LXLIFT
 62
1
 10
1201.402
 20
-7787.435
 30
-282.000
 70
    32
  0
VERTEX
  8
W56LXLIFT
 62
1
 10
1213.635
 20
-7797.578
 30
-282.000
 70
    32
  0
VERTEX
  8
W56LXLIFT
 62
1
 10
1223.169
 20
-7797.015
 30
-282.000
 70
    32
  0
VERTEX
  8
W56LXLIFT
 62
1
 10
1235.745
 20
-7804.319
 30
-282.000
 70
    32
  0
VERTEX
  8
W56LXLIFT
 62
1
 10
1257.515
 20
-7833.663
 30
-282.000
 70
    32
  0
VERTEX
  8
W56LXLIFT
 62
1
 10
1263.596
 20
-7839.137
 30
-282.000
 70
    32
  0
VERTEX
  8
W56LXLIFT
 62
1
 10
1272.709
 20
-7828.182
 30
-282.000
 70
    32
  0
VERTEX
  8
W56LXLIFT
 62
1
 10
1273.856
 20
-7823.148
 30
-282.000
 70
    32
  0
VERTEX
  8
W56LXLIFT
 62
1
 10
1269.578
 20
-7822.755
 30
-282.000
 70
    32
  0
VERTEX
  8
W56LXLIFT
 62
1
 10
1256.585
 20
-7808.081
 30
-282.000
 70
    32
  0
VERTEX
  8
W56LXLIFT
 62
1
 10
1242.047
 20
-7790.948
 30
-282.000
 70
    32
  0
VERTEX
  8
W56LXLIFT
 62
1
 10
1233.914
 20
-7785.323
 30
-282.000
 70
    32
  0
VERTEX
  8
W56LXLIFT
 62
1
 10
1220.651
 20
-7774.947
 30
-282.000
 70
    32
  0
VERTEX
  8
W56LXLIFT
 62
1
 10
1215.377
 20
-7769.543
 30
-282.000
 70
    32
  0
VERTEX
  8
W56LXLIFT
 62
1
 10
1210.260
 20
-7759.381
 30
-282.000
 70
    32
  0
VERTEX
  8
W56LXLIFT
 62
1
 10
1211.553
 20
-7748.517
 30
-282.000
 70
    32
  0
VERTEX
  8
W56LXLIFT
 62
1
 10
1206.155
 20
-7742.338
 30
-282.000
 70
    32
  0
VERTEX
  8
W56LXLIFT
 62
1
 10
1201.448
 20
-7741.496
 30
-282.000
 70
    32
  0
VERTEX
  8
W56LXLIFT
 62
1
 10
1195.537
 20
-7741.085
 30
-282.000
 70
    32
  0
VERTEX
  8
W56LXLIFT
 62
1
 10
1190.690
 20
-7742.612
 30
-282.000
 70
    32
  0
VERTEX
  8
W56LXLIFT
 62
1
 10
1187.314
 20
-7737.144
 30
-282.000
 70
    32
  0
VERTEX
  8
W56LXLIFT
 62
1
 10
1182.631
 20
-7731.208
 30
-282.000
 70
    32
  0
VERTEX
  8
W56LXLIFT
 62
1
 10
1179.609
 20
-7730.457
 30
-282.000
 70
    32
  0
VERTEX
  8
W56LXLIFT
 62
1
 10
1172.440
 20
-7736.887
 30
-282.000
 70
    32
  0
VERTEX
  8
W56LXLIFT
 62
1
 10
1184.273
 20
-7754.768
 30
-282.000
 70
    32
  0
VERTEX
  8
W56LXLIFT
 62
1
 10
1188.925
 20
-7760.510
 30
-282.000
 70
    32
  0
VERTEX
  8
W56LXLIFT
 62
1
 10
1187.445
 20
-7768.699
 30
-282.000
 70
    32
  0
SEQEND
  8
W56LXLIFT
  0
POLYLINE
  8
W56LXLIFT
 62
2
 66
     1
 70
     9
  0
VERTEX
  8
W56LXLIFT
 62
2
 10
1200.880
 20
-8202.978
 30
-290.000
 70
    32
  0
VERTEX
  8
W56LXLIFT
 62
2
 10
1208.087
 20
-8178.050
 30
-290.000
 70
    32
  0
VERTEX
  8
W56LXLIFT
 62
2
 10
1194.267
 20
-8146.685
 30
-290.000
 70
    32
  0
VERTEX
  8
W56LXLIFT
 62
2
 10
1183.193
 20
-8140.573
 30
-290.000
 70
    32
  0
VERTEX
  8
W56LXLIFT
 62
2
 10
1170.293
 20
-8127.236
 30
-290.000
 70
    32
  0
VERTEX
  8
W56LXLIFT
 62
2
 10
1163.032
 20
-8116.342
 30
-290.000
 70
    32
  0
VERTEX
  8
W56LXLIFT
 62
2
 10
1142.619
 20
-8120.267
 30
-290.000
 70
    32
  0
VERTEX
  8
W56LXLIFT
 62
2
 10
1138.741
 20
-8145.620
 30
-290.000
 70
    32
  0
VERTEX
  8
W56LXLIFT
 62
2
 10
1154.497
 20
-8157.667
 30
-290.000
 70
    32
  0
VERTEX
  8
W56LXLIFT
 62
2
 10
1166.652
 20
-8163.328
 30
-290.000
 70
    32
  0
VERTEX
  8
W56LXLIFT
 62
2
 10
1177.622
 20
-8159.793
 30
-290.000
 70
    32
  0
VERTEX
  8
W56LXLIFT
 62
2
 10
1190.377
 20
-8171.722
 30
-290.000
 70
    32
  0
VERTEX
  8
W56LXLIFT
 62
2
 10
1184.078
 20
-8204.856
 30
-290.000
 70
    32
  0
SEQEND
  8
W56LXLIFT
  0
POLYLINE
  8
W56LXLIFT
 62
13
 66
     1
 70
     9
  0
VERTEX
  8
W56LXLIFT
 62
13
 10
1179.748
 20
-8236.366
 30
-277.000
 70
    32
  0
VERTEX
  8
W56LXLIFT
 62
13
 10
1180.584
 20
-8243.868
 30
-277.000
 70
    32
  0
VERTEX
  8
W56LXLIFT
 62
13
 10
1175.459
 20
-8252.398
 30
-277.000
 70
    32
  0
VERTEX
  8
W56LXLIFT
 62
13
 10
1171.198
 20
-8256.855
 30
-277.000
 70
    32
  0
VERTEX
  8
W56LXLIFT
 62
13
 10
1179.357
 20
-8258.897
 30
-277.000
 70
    32
  0
VERTEX
  8
W56LXLIFT
 62
13
 10
1183.648
 20
-8261.872
 30
-277.000
 70
    32
  0
VERTEX
  8
W56LXLIFT
 62
13
 10
1190.038
 20
-8261.293
 30
-277.000
 70
    32
  0
VERTEX
  8
W56LXLIFT
 62
13
 10
1201.854
 20
-8256.827
 30
-277.000
 70
    32
  0
VERTEX
  8
W56LXLIFT
 62
13
 10
1203.544
 20
-8252.701
 30
-277.000
 70
    32
  0
VERTEX
  8
W56LXLIFT
 62
13
 10
1201.464
 20
-8246.629
 30
-277.000
 70
    32
  0
VERTEX
  8
W56LXLIFT
 62
13
 10
1192.840
 20
-8240.168
 30
-277.000
 70
    32
  0
VERTEX
  8
W56LXLIFT
 62
13
 10
1185.422
 20
-8234.787
 30
-277.000
 70
    32
  0
SEQEND
  8
W56LXLIFT
  0
POLYLINE
  8
W56LXLIFT
 62
8
 66
     1
 70
     9
  0
VERTEX
  8
W56LXLIFT
 62
8
 10
1259.267
 20
-8422.668
 30
-286.000
 70
    32
  0
VERTEX
  8
W56LXLIFT
 62
8
 10
1271.910
 20
-8410.157
 30
-286.000
 70
    32
  0
VERTEX
  8
W56LXLIFT
 62
8
 10
1276.678
 20
-8402.638
 30
-286.000
 70
    32
  0
VERTEX
  8
W56LXLIFT
 62
8
 10
1277.011
 20
-8399.483
 30
-286.000
 70
    32
  0
VERTEX
  8
W56LXLIFT
 62
8
 10
1284.980
 20
-8387.835
 30
-286.000
 70
    32
  0
VERTEX
  8
W56LXLIFT
 62
8
 10
1288.064
 20
-8371.477
 30
-286.000
 70
    32
  0
VERTEX
  8
W56LXLIFT
 62
8
 10
1285.803
 20
-8359.271
 30
-286.000
 70
    32
  0
VERTEX
  8
W56LXLIFT
 62
8
 10
1279.217
 20
-8349.621
 30
-286.000
 70
    32
  0
VERTEX
  8
W56LXLIFT
 62
8
 10
1275.778
 20
-8342.255
 30
-286.000
 70
    32
  0
VERTEX
  8
W56LXLIFT
 62
8
 10
1278.101
 20
-8330.114
 30
-286.000
 70
    32
  0
VERTEX
  8
W56LXLIFT
 62
8
 10
1273.548
 20
-8313.500
 30
-286.000
 70
    32
  0
VERTEX
  8
W56LXLIFT
 62
8
 10
1271.226
 20
-8310.409
 30
-286.000
 70
    32
  0
VERTEX
  8
W56LXLIFT
 62
8
 10
1276.169
 20
-8303.737
 30
-286.000
 70
    32
  0
VERTEX
  8
W56LXLIFT
 62
8
 10
1271.698
 20
-8304.130
 30
-286.000
 70
    32
  0
VERTEX
  8
W56LXLIFT
 62
8
 10
1263.390
 20
-8313.645
 30
-286.000
 70
    32
  0
VERTEX
  8
W56LXLIFT
 62
8
 10
1266.805
 20
-8326.105
 30
-286.000
 70
    32
  0
VERTEX
  8
W56LXLIFT
 62
8
 10
1265.027
 20
-8341.421
 30
-286.000
 70
    32
  0
VERTEX
  8
W56LXLIFT
 62
8
 10
1259.953
 20
-8350.023
 30
-286.000
 70
    32
  0
VERTEX
  8
W56LXLIFT
 62
8
 10
1256.811
 20
-8359.510
 30
-286.000
 70
    32
  0
VERTEX
  8
W56LXLIFT
 62
8
 10
1255.427
 20
-8372.058
 30
-286.000
 70
    32
  0
VERTEX
  8
W56LXLIFT
 62
8
 10
1259.141
 20
-8378.148
 30
-286.000
 70
    32
  0
VERTEX
  8
W56LXLIFT
 62
8
 10
1267.725
 20
-8376.862
 30
-286.000
 70
    32
  0
VERTEX
  8
W56LXLIFT
 62
8
 10
1272.752
 20
-8380.715
 30
-286.000
 70
    32
  0
VERTEX
  8
W56LXLIFT
 62
8
 10
1269.607
 20
-8388.691
 30
-286.000
 70
    32
  0
VERTEX
  8
W56LXLIFT
 62
8
 10
1265.046
 20
-8398.763
 30
-286.000
 70
    32
  0
VERTEX
  8
W56LXLIFT
 62
8
 10
1249.368
 20
-8417.443
 30
-286.000
 70
    32
  0
SEQEND
  8
W56LXLIFT
  0
POLYLINE
  8
W56LXLIFT
 62
11
 66
     1
 70
     9
  0
VERTEX
  8
W56LXLIFT
 62
11
 10
1279.583
 20
-7858.298
 30
-273.000
 70
    32
  0
VERTEX
  8
W56LXLIFT
 62
11
 10
1286.546
 20
-7854.602
 30
-273.000
 70
    32
  0
VERTEX
  8
W56LXLIFT
 62
11
 10
1292.997
 20
-7849.437
 30
-273.000
 70
    32
  0
VERTEX
  8
W56LXLIFT
 62
11
 10
1296.677
 20
-7847.339
 30
-273.000
 70
    32
  0
VERTEX
  8
W56LXLIFT
 62
11
 10
1309.689
 20
-7865.336
 30
-273.000
 70
    32
  0
VERTEX
  8
W56LXLIFT
 62
11
 10
1314.803
 20
-7871.715
 30
-273.000
 70
    32
  0
VERTEX
  8
W56LXLIFT
 62
11
 10
1320.490
 20
-7884.920
 30
-273.000
 70
    32
  0
VERTEX
  8
W56LXLIFT
 62
11
 10
1324.224
 20
-7895.852
 30
-273.000
 70
    32
  0
VERTEX
  8
W56LXLIFT
 62
11
 10
1330.775
 20
-7907.249
 30
-273.000
 70
    32
  0
VERTEX
  8
W56LXLIFT
 62
11
 10
1330.711
 20
-7911.076
 30
-273.000
 70
    32
  0
VERTEX
  8
W56LXLIFT
 62
11
 10
1317.208
 20
-7920.866
 30
-273.000
 70
    32
  0
VERTEX
  8
W56LXLIFT
 62
11
 10
1299.554
 20
-7932.551
 30
-273.000
 70
    32
  0
VERTEX
  8
W56LXLIFT
 62
11
 10
1297.702
 20
-7929.667
 30
-273.000
 70
    32
  0
VERTEX
  8
W56LXLIFT
 62
11
 10
1304.578
 20
-7916.960
 30
-273.000
 70
    32
  0
VERTEX
  8
W56LXLIFT
 62
11
 10
1284.617
 20
-7888.066
 30
-273.000
 70
    32
  0
VERTEX
  8
W56LXLIFT
 62
11
 10
1282.678
 20
-7882.651
 30
-273.000
 70
    32
  0
VERTEX
  8
W56LXLIFT
 62
11
 10
1272.868
 20
-7863.545
 30
-273.000
 70
    32
  0
SEQEND
  8
W56LXLIFT
  0
POLYLINE
  8
W56LXLIFT
 62
2
 66
     1
 70
     9
  0
VERTEX
  8
W56LXLIFT
 62
2
 10
1195.372
 20
-8163.115
 30
-276.000
 70
    32
  0
VERTEX
  8
W56LXLIFT
 62
2
 10
1197.010
 20
-8160.428
 30
-276.000
 70
    32
  0
VERTEX
  8
W56LXLIFT
 62
2
 10
1185.989
 20
-8148.672
 30
-276.000
 70
    32
  0
VERTEX
  8
W56LXLIFT
 62
2
 10
1180.392
 20
-8140.263
 30
-276.000
 70
    32
  0
VERTEX
  8
W56LXLIFT
 62
2
 10
1172.990
 20
-8132.501
 30
-276.000
 70
    32
  0
VERTEX
  8
W56LXLIFT
 62
2
 10
1162.900
 20
-8122.345
 30
-276.000
 70
    32
  0
VERTEX
  8
W56LXLIFT
 62
2
 10
1150.511
 20
-8121.939
 30
-276.000
 70
    32
  0
VERTEX
  8
W56LXLIFT
 62
2
 10
1143.285
 20
-8121.503
 30
-276.000
 70
    32
  0
VERTEX
  8
W56LXLIFT
 62
2
 10
1137.748
 20
-8123.421
 30
-276.000
 70
    32
  0
VERTEX
  8
W56LXLIFT
 62
2
 10
1134.458
 20
-8126.968
 30
-276.000
 70
    32
  0
VERTEX
  8
W56LXLIFT
 62
2
 10
1133.773
 20
-8137.612
 30
-276.000
 70
    32
  0
VERTEX
  8
W56LXLIFT
 62
2
 10
1135.868
 20
-8144.752
 30
-276.000
 70
    32
  0
VERTEX
  8
W56LXLIFT
 62
2
 10
1141.501
 20
-8150.650
 30
-276.000
 70
    32
  0
VERTEX
  8
W56LXLIFT
 62
2
 10
1158.874
 20
-8159.364
 30
-276.000
 70
    32
  0
VERTEX
  8
W56LXLIFT
 62
2
 10
1163.825
 20
-8165.968
 30
-276.000
 70
    32
  0
VERTEX
  8
W56LXLIFT
 62
2
 10
1187.176
 20
-8167.803
 30
-276.000
 70
    32
  0
SEQEND
  8
W56LXLIFT
  0
POLYLINE
  8
W56LXLIFT
 62
13
 66
     1
 70
     9
  0
VERTEX
  8
W56LXLIFT
 62
13
 10
1198.560
 20
-8250.266
 30
-272.000
 70
    32
  0
VERTEX
  8
W56LXLIFT
 62
13
 10
1195.540
 20
-8245.302
 30
-272.000
 70
    32
  0
VERTEX
  8
W56LXLIFT
 62
13
 10
1194.292
 20
-8232.263
 30
-272.000
 70
    32
  0
VERTEX
  8
W56LXLIFT
 62
13
 10
1192.143
 20
-8228.511
 30
-272.000
 70
    32
  0
VERTEX
  8
W56LXLIFT
 62
13
 10
1186.084
 20
-8230.155
 30
-272.000
 70
    32
  0
VERTEX
  8
W56LXLIFT
 62
13
 10
1179.220
 20
-8248.903
 30
-272.000
 70
    32
  0
VERTEX
  8
W56LXLIFT
 62
13
 10
1170.465
 20
-8255.072
 30
-272.000
 70
    32
  0
VERTEX
  8
W56LXLIFT
 62
13
 10
1167.369
 20
-8258.588
 30
-272.000
 70
    32
  0
VERTEX
  8
W56LXLIFT
 62
13
 10
1172.311
 20
-8259.905
 30
-272.000
 70
    32
  0
VERTEX
  8
W56LXLIFT
 62
13
 10
1178.042
 20
-8263.681
 30
-272.000
 70
    32
  0
VERTEX
  8
W56LXLIFT
 62
13
 10
1186.427
 20
-8261.666
 30
-272.000
 70
    32
  0
VERTEX
  8
W56LXLIFT
 62
13
 10
1192.276
 20
-8257.471
 30
-272.000
 70
    32
  0
VERTEX
  8
W56LXLIFT
 62
13
 10
1198.231
 20
-8254.930
 30
-272.000
 70
    32
  0
SEQEND
  8
W56LXLIFT
  0
POLYLINE
  8
W56LXLIFT
 62
8
 66
     1
 70
     9
  0
VERTEX
  8
W56LXLIFT
 62
8
 10
1254.945
 20
-8327.249
 30
-277.000
 70
    32
  0
VERTEX
  8
W56LXLIFT
 62
8
 10
1254.805
 20
-8351.761
 30
-277.000
 70
    32
  0
VERTEX
  8
W56LXLIFT
 62
8
 10
1254.594
 20
-8359.149
 30
-277.000
 70
    32
  0
VERTEX
  8
W56LXLIFT
 62
8
 10
1253.142
 20
-8362.999
 30
-277.000
 70
    32
  0
VERTEX
  8
W56LXLIFT
 62
8
 10
1245.324
 20
-8373.789
 30
-277.000
 70
    32
  0
VERTEX
  8
W56LXLIFT
 62
8
 10
1250.713
 20
-8391.096
 30
-277.000
 70
    32
  0
VERTEX
  8
W56LXLIFT
 62
8
 10
1255.541
 20
-8391.955
 30
-277.000
 70
    32
  0
VERTEX
  8
W56LXLIFT
 62
8
 10
1270.895
 20
-8378.570
 30
-277.000
 70
    32
  0
VERTEX
  8
W56LXLIFT
 62
8
 10
1274.255
 20
-8379.941
 30
-277.000
 70
    32
  0
VERTEX
  8
W56LXLIFT
 62
8
 10
1274.083
 20
-8386.330
 30
-277.000
 70
    32
  0
VERTEX
  8
W56LXLIFT
 62
8
 10
1269.735
 20
-8397.440
 30
-277.000
 70
    32
  0
VERTEX
  8
W56LXLIFT
 62
8
 10
1264.296
 20
-8402.960
 30
-277.000
 70
    32
  0
VERTEX
  8
W56LXLIFT
 62
8
 10
1258.711
 20
-8412.797
 30
-277.000
 70
    32
  0
VERTEX
  8
W56LXLIFT
 62
8
 10
1253.241
 20
-8429.573
 30
-277.000
 70
    32
  0
VERTEX
  8
W56LXLIFT
 62
8
 10
1247.857
 20
-8443.155
 30
-277.000
 70
    32
  0
VERTEX
  8
W56LXLIFT
 62
8
 10
1251.148
 20
-8451.812
 30
-277.000
 70
    32
  0
VERTEX
  8
W56LXLIFT
 62
8
 10
1264.144
 20
-8449.299
 30
-277.000
 70
    32
  0
VERTEX
  8
W56LXLIFT
 62
8
 10
1263.841
 20
-8439.687
 30
-277.000
 70
    32
  0
VERTEX
  8
W56LXLIFT
 62
8
 10
1261.852
 20
-8428.476
 30
-277.000
 70
    32
  0
VERTEX
  8
W56LXLIFT
 62
8
 10
1265.837
 20
-8420.325
 30
-277.000
 70
    32
  0
VERTEX
  8
W56LXLIFT
 62
8
 10
1274.422
 20
-8410.606
 30
-277.000
 70
    32
  0
VERTEX
  8
W56LXLIFT
 62
8
 10
1279.449
 20
-8403.004
 30
-277.000
 70
    32
  0
VERTEX
  8
W56LXLIFT
 62
8
 10
1285.680
 20
-8394.972
 30
-277.000
 70
    32
  0
VERTEX
  8
W56LXLIFT
 62
8
 10
1288.229
 20
-8388.284
 30
-277.000
 70
    32
  0
VERTEX
  8
W56LXLIFT
 62
8
 10
1290.114
 20
-8374.943
 30
-277.000
 70
    32
  0
VERTEX
  8
W56LXLIFT
 62
8
 10
1288.661
 20
-8367.344
 30
-277.000
 70
    32
  0
VERTEX
  8
W56LXLIFT
 62
8
 10
1275.258
 20
-8336.448
 30
-277.000
 70
    32
  0
VERTEX
  8
W56LXLIFT
 62
8
 10
1271.167
 20
-8320.046
 30
-277.000
 70
    32
  0
SEQEND
  8
W56LXLIFT
  0
POLYLINE
  8
W56LXLIFT
 62
11
 66
     1
 70
     9
  0
VERTEX
  8
W56LXLIFT
 62
11
 10
1282.674
 20
-7855.689
 30
-264.000
 70
    32
  0
VERTEX
  8
W56LXLIFT
 62
11
 10
1278.970
 20
-7859.549
 30
-264.000
 70
    32
  0
VERTEX
  8
W56LXLIFT
 62
11
 10
1277.185
 20
-7863.971
 30
-264.000
 70
    32
  0
VERTEX
  8
W56LXLIFT
 62
11
 10
1271.156
 20
-7874.804
 30
-264.000
 70
    32
  0
VERTEX
  8
W56LXLIFT
 62
11
 10
1278.022
 20
-7890.178
 30
-264.000
 70
    32
  0
VERTEX
  8
W56LXLIFT
 62
11
 10
1282.393
 20
-7896.541
 30
-264.000
 70
    32
  0
VERTEX
  8
W56LXLIFT
 62
11
 10
1293.128
 20
-7905.884
 30
-264.000
 70
    32
  0
VERTEX
  8
W56LXLIFT
 62
11
 10
1296.415
 20
-7909.244
 30
-264.000
 70
    32
  0
VERTEX
  8
W56LXLIFT
 62
11
 10
1297.253
 20
-7921.504
 30
-264.000
 70
    32
  0
VERTEX
  8
W56LXLIFT
 62
11
 10
1294.204
 20
-7930.622
 30
-264.000
 70
    32
  0
VERTEX
  8
W56LXLIFT
 62
11
 10
1297.281
 20
-7934.890
 30
-264.000
 70
    32
  0
VERTEX
  8
W56LXLIFT
 62
11
 10
1308.205
 20
-7926.799
 30
-264.000
 70
    32
  0
VERTEX
  8
W56LXLIFT
 62
11
 10
1314.085
 20
-7923.858
 30
-264.000
 70
    32
  0
VERTEX
  8
W56LXLIFT
 62
11
 10
1316.441
 20
-7917.078
 30
-264.000
 70
    32
  0
VERTEX
  8
W56LXLIFT
 62
11
 10
1317.176
 20
-7912.549
 30
-264.000
 70
    32
  0
VERTEX
  8
W56LXLIFT
 62
11
 10
1319.495
 20
-7902.119
 30
-264.000
 70
    32
  0
VERTEX
  8
W56LXLIFT
 62
11
 10
1316.743
 20
-7892.752
 30
-264.000
 70
    32
  0
VERTEX
  8
W56LXLIFT
 62
11
 10
1313.213
 20
-7882.756
 30
-264.000
 70
    32
  0
VERTEX
  8
W56LXLIFT
 62
11
 10
1304.925
 20
-7871.109
 30
-264.000
 70
    32
  0
VERTEX
  8
W56LXLIFT
 62
11
 10
1299.587
 20
-7860.255
 30
-264.000
 70
    32
  0
SEQEND
  8
W56LXLIFT
  0
POLYLINE
  8
W56LXLIFT
 62
13
 66
     1
 70
     9
  0
VERTEX
  8
W56LXLIFT
 62
13
 10
1120.946
 20
-8271.409
 30
-264.000
 70
    32
  0
VERTEX
  8
W56LXLIFT
 62
13
 10
1123.308
 20
-8284.733
 30
-264.000
 70
    32
  0
VERTEX
  8
W56LXLIFT
 62
13
 10
1126.931
 20
-8287.959
 30
-264.000
 70
    32
  0
VERTEX
  8
W56LXLIFT
 62
13
 10
1148.089
 20
-8288.816
 30
-264.000
 70
    32
  0
VERTEX
  8
W56LXLIFT
 62
13
 10
1168.496
 20
-8276.483
 30
-264.000
 70
    32
  0
VERTEX
  8
W56LXLIFT
 62
13
 10
1171.790
 20
-8272.054
 30
-264.000
 70
    32
  0
VERTEX
  8
W56LXLIFT
 62
13
 10
1173.526
 20
-8265.614
 30
-264.000
 70
    32
  0
VERTEX
  8
W56LXLIFT
 62
13
 10
1188.176
 20
-8260.891
 30
-264.000
 70
    32
  0
VERTEX
  8
W56LXLIFT
 62
13
 10
1194.861
 20
-8258.018
 30
-264.000
 70
    32
  0
VERTEX
  8
W56LXLIFT
 62
13
 10
1196.787
 20
-8255.441
 30
-264.000
 70
    32
  0
VERTEX
  8
W56LXLIFT
 62
13
 10
1195.735
 20
-8247.983
 30
-264.000
 70
    32
  0
VERTEX
  8
W56LXLIFT
 62
13
 10
1188.880
 20
-8237.573
 30
-264.000
 70
    32
  0
VERTEX
  8
W56LXLIFT
 62
13
 10
1184.507
 20
-8237.806
 30
-264.000
 70
    32
  0
VERTEX
  8
W56LXLIFT
 62
13
 10
1179.562
 20
-8246.993
 30
-264.000
 70
    32
  0
VERTEX
  8
W56LXLIFT
 62
13
 10
1176.486
 20
-8250.075
 30
-264.000
 70
    32
  0
VERTEX
  8
W56LXLIFT
 62
13
 10
1168.679
 20
-8252.892
 30
-264.000
 70
    32
  0
VERTEX
  8
W56LXLIFT
 62
13
 10
1161.080
 20
-8256.748
 30
-264.000
 70
    32
  0
VERTEX
  8
W56LXLIFT
 62
13
 10
1151.607
 20
-8258.603
 30
-264.000
 70
    32
  0
VERTEX
  8
W56LXLIFT
 62
13
 10
1137.616
 20
-8264.689
 30
-264.000
 70
    32
  0
VERTEX
  8
W56LXLIFT
 62
13
 10
1129.658
 20
-8268.047
 30
-264.000
 70
    32
  0
SEQEND
  8
W56LXLIFT
  0
POLYLINE
  8
W56LXLIFT
 62
8
 66
     1
 70
     9
  0
VERTEX
  8
W56LXLIFT
 62
8
 10
1252.904
 20
-8397.474
 30
-267.000
 70
    32
  0
VERTEX
  8
W56LXLIFT
 62
8
 10
1254.663
 20
-8391.666
 30
-267.000
 70
    32
  0
VERTEX
  8
W56LXLIFT
 62
8
 10
1266.571
 20
-8382.541
 30
-267.000
 70
    32
  0
VERTEX
  8
W56LXLIFT
 62
8
 10
1280.693
 20
-8376.037
 30
-267.000
 70
    32
  0
VERTEX
  8
W56LXLIFT
 62
8
 10
1281.292
 20
-8373.118
 30
-267.000
 70
    32
  0
VERTEX
  8
W56LXLIFT
 62
8
 10
1275.770
 20
-8359.909
 30
-267.000
 70
    32
  0
VERTEX
  8
W56LXLIFT
 62
8
 10
1266.657
 20
-8357.614
 30
-267.000
 70
    32
  0
VERTEX
  8
W56LXLIFT
 62
8
 10
1262.532
 20
-8358.642
 30
-267.000
 70
    32
  0
VERTEX
  8
W56LXLIFT
 62
8
 10
1255.689
 20
-8369.845
 30
-267.000
 70
    32
  0
VERTEX
  8
W56LXLIFT
 62
8
 10
1250.469
 20
-8376.851
 30
-267.000
 70
    32
  0
VERTEX
  8
W56LXLIFT
 62
8
 10
1248.282
 20
-8384.914
 30
-267.000
 70
    32
  0
VERTEX
  8
W56LXLIFT
 62
8
 10
1244.448
 20
-8391.894
 30
-267.000
 70
    32
  0
SEQEND
  8
W56LXLIFT
  0
POLYLINE
  8
W56LXLIFT
 62
8
 66
     1
 70
     9
  0
VERTEX
  8
W56LXLIFT
 62
8
 10
1242.506
 20
-8436.061
 30
-259.000
 70
    32
  0
VERTEX
  8
W56LXLIFT
 62
8
 10
1255.510
 20
-8413.574
 30
-259.000
 70
    32
  0
VERTEX
  8
W56LXLIFT
 62
8
 10
1257.344
 20
-8402.614
 30
-259.000
 70
    32
  0
VERTEX
  8
W56LXLIFT
 62
8
 10
1261.854
 20
-8394.162
 30
-259.000
 70
    32
  0
VERTEX
  8
W56LXLIFT
 62
8
 10
1269.651
 20
-8383.663
 30
-259.000
 70
    32
  0
VERTEX
  8
W56LXLIFT
 62
8
 10
1275.975
 20
-8376.824
 30
-259.000
 70
    32
  0
VERTEX
  8
W56LXLIFT
 62
8
 10
1273.354
 20
-8362.692
 30
-259.000
 70
    32
  0
VERTEX
  8
W56LXLIFT
 62
8
 10
1273.797
 20
-8351.004
 30
-259.000
 70
    32
  0
VERTEX
  8
W56LXLIFT
 62
8
 10
1274.341
 20
-8345.306
 30
-259.000
 70
    32
  0
VERTEX
  8
W56LXLIFT
 62
8
 10
1266.169
 20
-8341.784
 30
-259.000
 70
    32
  0
VERTEX
  8
W56LXLIFT
 62
8
 10
1262.493
 20
-8349.743
 30
-259.000
 70
    32
  0
VERTEX
  8
W56LXLIFT
 62
8
 10
1259.109
 20
-8359.006
 30
-259.000
 70
    32
  0
VERTEX
  8
W56LXLIFT
 62
8
 10
1251.085
 20
-8375.191
 30
-259.000
 70
    32
  0
VERTEX
  8
W56LXLIFT
 62
8
 10
1247.853
 20
-8381.963
 30
-259.000
 70
    32
  0
VERTEX
  8
W56LXLIFT
 62
8
 10
1245.255
 20
-8395.315
 30
-259.000
 70
    32
  0
VERTEX
  8
W56LXLIFT
 62
8
 10
1244.356
 20
-8409.822
 30
-259.000
 70
    32
  0
VERTEX
  8
W56LXLIFT
 62
8
 10
1242.958
 20
-8418.086
 30
-259.000
 70
    32
  0
VERTEX
  8
W56LXLIFT
 62
8
 10
1239.863
 20
-8427.899
 30
-259.000
 70
    32
  0
VERTEX
  8
W56LXLIFT
 62
8
 10
1238.845
 20
-8434.589
 30
-259.000
 70
    32
  0
SEQEND
  8
W56LXLIFT
  0
POLYLINE
  8
W56LXLIFT
 62
11
 66
     1
 70
     9
  0
VERTEX
  8
W56LXLIFT
 62
11
 10
1289.216
 20
-7901.776
 30
-256.000
 70
    32
  0
VERTEX
  8
W56LXLIFT
 62
11
 10
1293.462
 20
-7932.199
 30
-256.000
 70
    32
  0
VERTEX
  8
W56LXLIFT
 62
11
 10
1293.198
 20
-7940.337
 30
-256.000
 70
    32
  0
VERTEX
  8
W56LXLIFT
 62
11
 10
1315.033
 20
-7929.842
 30
-256.000
 70
    32
  0
VERTEX
  8
W56LXLIFT
 62
11
 10
1317.406
 20
-7923.103
 30
-256.000
 70
    32
  0
VERTEX
  8
W56LXLIFT
 62
11
 10
1320.598
 20
-7903.468
 30
-256.000
 70
    32
  0
VERTEX
  8
W56LXLIFT
 62
11
 10
1314.952
 20
-7886.039
 30
-256.000
 70
    32
  0
VERTEX
  8
W56LXLIFT
 62
11
 10
1307.227
 20
-7862.183
 30
-256.000
 70
    32
  0
VERTEX
  8
W56LXLIFT
 62
11
 10
1301.779
 20
-7855.166
 30
-256.000
 70
    32
  0
VERTEX
  8
W56LXLIFT
 62
11
 10
1288.371
 20
-7861.252
 30
-256.000
 70
    32
  0
VERTEX
  8
W56LXLIFT
 62
11
 10
1278.818
 20
-7868.443
 30
-256.000
 70
    32
  0
VERTEX
  8
W56LXLIFT
 62
11
 10
1276.051
 20
-7879.713
 30
-256.000
 70
    32
  0
VERTEX
  8
W56LXLIFT
 62
11
 10
1281.586
 20
-7896.244
 30
-256.000
 70
    32
  0
SEQEND
  8
W56LXLIFT
  0
POLYLINE
  8
W56LXLIFT
 62
13
 66
     1
 70
     9
  0
VERTEX
  8
W56LXLIFT
 62
13
 10
1196.488
 20
-8255.045
 30
-255.000
 70
    32
  0
VERTEX
  8
W56LXLIFT
 62
13
 10
1196.008
 20
-8250.062
 30
-255.000
 70
    32
  0
VERTEX
  8
W56LXLIFT
 62
13
 10
1191.635
 20
-8244.220
 30
-255.000
 70
    32
  0
VERTEX
  8
W56LXLIFT
 62
13
 10
1181.852
 20
-8242.001
 30
-255.000
 70
    32
  0
VERTEX
  8
W56LXLIFT
 62
13
 10
1175.749
 20
-8244.822
 30
-255.000
 70
    32
  0
VERTEX
  8
W56LXLIFT
 62
13
 10
1174.286
 20
-8247.740
 30
-255.000
 70
    32
  0
VERTEX
  8
W56LXLIFT
 62
13
 10
1174.509
 20
-8249.536
 30
-255.000
 70
    32
  0
VERTEX
  8
W56LXLIFT
 62
13
 10
1168.690
 20
-8252.151
 30
-255.000
 70
    32
  0
VERTEX
  8
W56LXLIFT
 62
13
 10
1162.128
 20
-8251.063
 30
-255.000
 70
    32
  0
VERTEX
  8
W56LXLIFT
 62
13
 10
1157.366
 20
-8252.144
 30
-255.000
 70
    32
  0
VERTEX
  8
W56LXLIFT
 62
13
 10
1151.294
 20
-8253.964
 30
-255.000
 70
    32
  0
VERTEX
  8
W56LXLIFT
 62
13
 10
1132.003
 20
-8263.473
 30
-255.000
 70
    32
  0
VERTEX
  8
W56LXLIFT
 62
13
 10
1129.712
 20
-8269.281
 30
-255.000
 70
    32
  0
VERTEX
  8
W56LXLIFT
 62
13
 10
1128.398
 20
-8275.682
 30
-255.000
 70
    32
  0
VERTEX
  8
W56LXLIFT
 62
13
 10
1129.790
 20
-8280.869
 30
-255.000
 70
    32
  0
VERTEX
  8
W56LXLIFT
 62
13
 10
1132.805
 20
-8282.913
 30
-255.000
 70
    32
  0
VERTEX
  8
W56LXLIFT
 62
13
 10
1138.258
 20
-8281.437
 30
-255.000
 70
    32
  0
VERTEX
  8
W56LXLIFT
 62
13
 10
1157.374
 20
-8279.892
 30
-255.000
 70
    32
  0
VERTEX
  8
W56LXLIFT
 62
13
 10
1162.535
 20
-8277.867
 30
-255.000
 70
    32
  0
VERTEX
  8
W56LXLIFT
 62
13
 10
1166.383
 20
-8275.385
 30
-255.000
 70
    32
  0
VERTEX
  8
W56LXLIFT
 62
13
 10
1168.600
 20
-8271.264
 30
-255.000
 70
    32
  0
VERTEX
  8
W56LXLIFT
 62
13
 10
1180.313
 20
-8264.347
 30
-255.000
 70
    32
  0
VERTEX
  8
W56LXLIFT
 62
13
 10
1190.295
 20
-8258.041
 30
-255.000
 70
    32
  0
SEQEND
  8
W56LXLIFT
  0
POLYLINE
  8
W56LXLIFT
 62
1
 66
     1
 70
     9
  0
VERTEX
  8
W56LXLIFT
 62
1
 10
1197.488
 20
-8254.045
 30
-245.000
 70
    32
  0
VERTEX
  8
W56LXLIFT
 62
1
 10
1197.008
 20
-8249.062
 30
-245.000
 70
    32
  0
VERTEX
  8
W56LXLIFT
 62
1
 10
1192.635
 20
-8243.220
 30
-245.000
 70
    32
  0
VERTEX
  8
W56LXLIFT
 62
1
 10
1182.852
 20
-8241.001
 30
-245.000
 70
    32
  0
VERTEX
  8
W56LXLIFT
 62
1
 10
1176.749
 20
-8243.822
 30
-245.000
 70
    32
  0
VERTEX
  8
W56LXLIFT
 62
1
 10
1175.286
 20
-8246.740
 30
-245.000
 70
    32
  0
VERTEX
  8
W56LXLIFT
 62
1
 10
1175.509
 20
-8248.536
 30
-245.000
 70
    32
  0
VERTEX
  8
W56LXLIFT
 62
1
 10
1169.690
 20
-8251.151
 30
-245.000
 70
    32
  0
VERTEX
  8
W56LXLIFT
 62
1
 10
1163.128
 20
-8250.063
 30
-245.000
 70
    32
  0
VERTEX
  8
W56LXLIFT
 62
1
 10
1158.366
 20
-8251.144
 30
-245.000
 70
    32
  0
VERTEX
  8
W56LXLIFT
 62
1
 10
1152.294
 20
-8252.964
 30
-245.000
 70
    32
  0
VERTEX
  8
W56LXLIFT
 62
1
 10
1133.003
 20
-8262.473
 30
-245.000
 70
    32
  0
VERTEX
  8
W56LXLIFT
 62
1
 10
1130.712
 20
-8268.281
 30
-245.000
 70
    32
  0
VERTEX
  8
W56LXLIFT
 62
1
 10
1129.398
 20
-8274.682
 30
-245.000
 70
    32
  0
VERTEX
  8
W56LXLIFT
 62
1
 10
1130.790
 20
-8279.869
 30
-245.000
 70
    32
  0
VERTEX
  8
W56LXLIFT
 62
1
 10
1133.805
 20
-8281.913
 30
-245.000
 70
    32
  0
VERTEX
  8
W56LXLIFT
 62
1
 10
1139.258
 20
-8280.437
 30
-245.000
 70
    32
  0
VERTEX
  8
W56LXLIFT
 62
1
 10
1158.374
 20
-8278.892
 30
-245.000
 70
    32
  0
VERTEX
  8
W56LXLIFT
 62
1
 10
1163.535
 20
-8276.867
 30
-245.000
 70
    32
  0
VERTEX
  8
W56LXLIFT
 62
1
 10
1167.383
 20
-8274.385
 30
-245.000
 70
    32
  0
VERTEX
  8
W56LXLIFT
 62
1
 10
1169.600
 20
-8270.264
 30
-245.000
 70
    32
  0
VERTEX
  8
W56LXLIFT
 62
1
 10
1181.313
 20
-8263.347
 30
-245.000
 70
    32
  0
VERTEX
  8
W56LXLIFT
 62
1
 10
1191.295
 20
-8257.041
 30
-245.000
 70
    32
  0
SEQEND
  8
W56LXLIFT
  0
POLYLINE
  8
W56LXLIFT
 62
8
 66
     1
 70
     9
  0
VERTEX
  8
W56LXLIFT
 62
8
 10
1252.412
 20
-8435.604
 30
-248.000
 70
    32
  0
VERTEX
  8
W56LXLIFT
 62
8
 10
1260.159
 20
-8422.657
 30
-248.000
 70
    32
  0
VERTEX
  8
W56LXLIFT
 62
8
 10
1266.942
 20
-8409.434
 30
-248.000
 70
    32
  0
VERTEX
  8
W56LXLIFT
 62
8
 10
1272.590
 20
-8401.068
 30
-248.000
 70
    32
  0
VERTEX
  8
W56LXLIFT
 62
8
 10
1280.062
 20
-8393.111
 30
-248.000
 70
    32
  0
VERTEX
  8
W56LXLIFT
 62
8
 10
1279.572
 20
-8390.204
 30
-248.000
 70
    32
  0
VERTEX
  8
W56LXLIFT
 62
8
 10
1275.394
 20
-8377.471
 30
-248.000
 70
    32
  0
VERTEX
  8
W56LXLIFT
 62
8
 10
1277.135
 20
-8351.821
 30
-248.000
 70
    32
  0
VERTEX
  8
W56LXLIFT
 62
8
 10
1273.315
 20
-8344.052
 30
-248.000
 70
    32
  0
VERTEX
  8
W56LXLIFT
 62
8
 10
1270.883
 20
-8343.106
 30
-248.000
 70
    32
  0
VERTEX
  8
W56LXLIFT
 62
8
 10
1264.865
 20
-8358.273
 30
-248.000
 70
    32
  0
VERTEX
  8
W56LXLIFT
 62
8
 10
1258.598
 20
-8375.037
 30
-248.000
 70
    32
  0
VERTEX
  8
W56LXLIFT
 62
8
 10
1257.718
 20
-8385.910
 30
-248.000
 70
    32
  0
VERTEX
  8
W56LXLIFT
 62
8
 10
1254.630
 20
-8405.687
 30
-248.000
 70
    32
  0
VERTEX
  8
W56LXLIFT
 62
8
 10
1242.945
 20
-8433.370
 30
-248.000
 70
    32
  0
SEQEND
  8
W56LXLIFT
  0
POLYLINE
  8
W56LXLIFT
 62
3
 66
     1
 70
     9
  0
VERTEX
  8
W56LXLIFT
 62
3
 10
1215.254
 20
-7854.688
 30
-246.000
 70
    32
  0
VERTEX
  8
W56LXLIFT
 62
3
 10
1221.452
 20
-7837.974
 30
-246.000
 70
    32
  0
VERTEX
  8
W56LXLIFT
 62
3
 10
1221.668
 20
-7822.399
 30
-246.000
 70
    32
  0
VERTEX
  8
W56LXLIFT
 62
3
 10
1218.420
 20
-7811.343
 30
-246.000
 70
    32
  0
VERTEX
  8
W56LXLIFT
 62
3
 10
1213.086
 20
-7806.736
 30
-246.000
 70
    32
  0
VERTEX
  8
W56LXLIFT
 62
3
 10
1203.217
 20
-7805.147
 30
-246.000
 70
    32
  0
VERTEX
  8
W56LXLIFT
 62
3
 10
1204.511
 20
-7794.410
 30
-246.000
 70
    32
  0
VERTEX
  8
W56LXLIFT
 62
3
 10
1198.600
 20
-7783.852
 30
-246.000
 70
    32
  0
VERTEX
  8
W56LXLIFT
 62
3
 10
1195.374
 20
-7744.095
 30
-246.000
 70
    32
  0
VERTEX
  8
W56LXLIFT
 62
3
 10
1199.009
 20
-7741.179
 30
-246.000
 70
    32
  0
VERTEX
  8
W56LXLIFT
 62
3
 10
1206.532
 20
-7740.235
 30
-246.000
 70
    32
  0
VERTEX
  8
W56LXLIFT
 62
3
 10
1210.736
 20
-7742.953
 30
-246.000
 70
    32
  0
VERTEX
  8
W56LXLIFT
 62
3
 10
1214.256
 20
-7784.333
 30
-246.000
 70
    32
  0
VERTEX
  8
W56LXLIFT
 62
3
 10
1229.094
 20
-7801.359
 30
-246.000
 70
    32
  0
VERTEX
  8
W56LXLIFT
 62
3
 10
1230.091
 20
-7805.177
 30
-246.000
 70
    32
  0
VERTEX
  8
W56LXLIFT
 62
3
 10
1243.562
 20
-7808.188
 30
-246.000
 70
    32
  0
VERTEX
  8
W56LXLIFT
 62
3
 10
1249.497
 20
-7828.003
 30
-246.000
 70
    32
  0
VERTEX
  8
W56LXLIFT
 62
3
 10
1248.307
 20
-7835.862
 30
-246.000
 70
    32
  0
VERTEX
  8
W56LXLIFT
 62
3
 10
1250.611
 20
-7839.395
 30
-246.000
 70
    32
  0
VERTEX
  8
W56LXLIFT
 62
3
 10
1250.843
 20
-7842.896
 30
-246.000
 70
    32
  0
VERTEX
  8
W56LXLIFT
 62
3
 10
1262.825
 20
-7843.517
 30
-246.000
 70
    32
  0
VERTEX
  8
W56LXLIFT
 62
3
 10
1264.628
 20
-7848.163
 30
-246.000
 70
    32
  0
VERTEX
  8
W56LXLIFT
 62
3
 10
1253.426
 20
-7856.044
 30
-246.000
 70
    32
  0
VERTEX
  8
W56LXLIFT
 62
3
 10
1247.130
 20
-7853.416
 30
-246.000
 70
    32
  0
VERTEX
  8
W56LXLIFT
 62
3
 10
1234.133
 20
-7859.234
 30
-246.000
 70
    32
  0
VERTEX
  8
W56LXLIFT
 62
3
 10
1224.984
 20
-7865.004
 30
-246.000
 70
    32
  0
SEQEND
  8
W56LXLIFT
  0
POLYLINE
  8
W56LXLIFT
 62
11
 66
     1
 70
     9
  0
VERTEX
  8
W56LXLIFT
 62
11
 10
1325.971
 20
-7940.834
 30
-245.000
 70
    32
  0
VERTEX
  8
W56LXLIFT
 62
11
 10
1319.237
 20
-7924.284
 30
-245.000
 70
    32
  0
VERTEX
  8
W56LXLIFT
 62
11
 10
1316.208
 20
-7907.788
 30
-245.000
 70
    32
  0
VERTEX
  8
W56LXLIFT
 62
11
 10
1312.449
 20
-7885.126
 30
-245.000
 70
    32
  0
VERTEX
  8
W56LXLIFT
 62
11
 10
1310.373
 20
-7877.225
 30
-245.000
 70
    32
  0
VERTEX
  8
W56LXLIFT
 62
11
 10
1301.688
 20
-7862.929
 30
-245.000
 70
    32
  0
VERTEX
  8
W56LXLIFT
 62
11
 10
1290.002
 20
-7861.665
 30
-245.000
 70
    32
  0
VERTEX
  8
W56LXLIFT
 62
11
 10
1285.255
 20
-7863.325
 30
-245.000
 70
    32
  0
VERTEX
  8
W56LXLIFT
 62
11
 10
1277.090
 20
-7876.373
 30
-245.000
 70
    32
  0
VERTEX
  8
W56LXLIFT
 62
11
 10
1274.715
 20
-7885.292
 30
-245.000
 70
    32
  0
VERTEX
  8
W56LXLIFT
 62
11
 10
1287.603
 20
-7902.305
 30
-245.000
 70
    32
  0
VERTEX
  8
W56LXLIFT
 62
11
 10
1296.270
 20
-7914.458
 30
-245.000
 70
    32
  0
VERTEX
  8
W56LXLIFT
 62
11
 10
1300.998
 20
-7924.566
 30
-245.000
 70
    32
  0
VERTEX
  8
W56LXLIFT
 62
11
 10
1291.625
 20
-7929.417
 30
-245.000
 70
    32
  0
VERTEX
  8
W56LXLIFT
 62
11
 10
1296.765
 20
-7934.810
 30
-245.000
 70
    32
  0
VERTEX
  8
W56LXLIFT
 62
11
 10
1300.979
 20
-7935.579
 30
-245.000
 70
    32
  0
VERTEX
  8
W56LXLIFT
 62
11
 10
1306.063
 20
-7948.453
 30
-245.000
 70
    32
  0
VERTEX
  8
W56LXLIFT
 62
11
 10
1318.115
 20
-7951.290
 30
-245.000
 70
    32
  0
SEQEND
  8
W56LXLIFT
  0
POLYLINE
  8
W56LXLIFT
 62
8
 66
     1
 70
     9
  0
VERTEX
  8
W56LXLIFT
 62
8
 10
1278.575
 20
-8342.692
 30
-239.000
 70
    32
  0
VERTEX
  8
W56LXLIFT
 62
8
 10
1270.614
 20
-8355.271
 30
-239.000
 70
    32
  0
VERTEX
  8
W56LXLIFT
 62
8
 10
1268.445
 20
-8362.965
 30
-239.000
 70
    32
  0
VERTEX
  8
W56LXLIFT
 62
8
 10
1264.880
 20
-8365.830
 30
-239.000
 70
    32
  0
VERTEX
  8
W56LXLIFT
 62
8
 10
1261.154
 20
-8367.410
 30
-239.000
 70
    32
  0
VERTEX
  8
W56LXLIFT
 62
8
 10
1256.203
 20
-8368.028
 30
-239.000
 70
    32
  0
VERTEX
  8
W56LXLIFT
 62
8
 10
1254.259
 20
-8374.376
 30
-239.000
 70
    32
  0
VERTEX
  8
W56LXLIFT
 62
8
 10
1258.785
 20
-8382.687
 30
-239.000
 70
    32
  0
VERTEX
  8
W56LXLIFT
 62
8
 10
1250.599
 20
-8409.769
 30
-239.000
 70
    32
  0
VERTEX
  8
W56LXLIFT
 62
8
 10
1245.494
 20
-8424.840
 30
-239.000
 70
    32
  0
VERTEX
  8
W56LXLIFT
 62
8
 10
1240.415
 20
-8447.659
 30
-239.000
 70
    32
  0
VERTEX
  8
W56LXLIFT
 62
8
 10
1244.557
 20
-8449.233
 30
-239.000
 70
    32
  0
VERTEX
  8
W56LXLIFT
 62
8
 10
1249.397
 20
-8446.645
 30
-239.000
 70
    32
  0
VERTEX
  8
W56LXLIFT
 62
8
 10
1254.462
 20
-8429.552
 30
-239.000
 70
    32
  0
VERTEX
  8
W56LXLIFT
 62
8
 10
1261.003
 20
-8418.310
 30
-239.000
 70
    32
  0
VERTEX
  8
W56LXLIFT
 62
8
 10
1262.881
 20
-8419.128
 30
-239.000
 70
    32
  0
VERTEX
  8
W56LXLIFT
 62
8
 10
1260.088
 20
-8441.070
 30
-239.000
 70
    32
  0
VERTEX
  8
W56LXLIFT
 62
8
 10
1254.297
 20
-8445.954
 30
-239.000
 70
    32
  0
VERTEX
  8
W56LXLIFT
 62
8
 10
1251.657
 20
-8454.955
 30
-239.000
 70
    32
  0
VERTEX
  8
W56LXLIFT
 62
8
 10
1254.376
 20
-8462.397
 30
-239.000
 70
    32
  0
VERTEX
  8
W56LXLIFT
 62
8
 10
1256.842
 20
-8467.972
 30
-239.000
 70
    32
  0
VERTEX
  8
W56LXLIFT
 62
8
 10
1262.832
 20
-8469.415
 30
-239.000
 70
    32
  0
VERTEX
  8
W56LXLIFT
 62
8
 10
1270.407
 20
-8467.033
 30
-239.000
 70
    32
  0
VERTEX
  8
W56LXLIFT
 62
8
 10
1272.625
 20
-8463.187
 30
-239.000
 70
    32
  0
VERTEX
  8
W56LXLIFT
 62
8
 10
1273.360
 20
-8450.153
 30
-239.000
 70
    32
  0
VERTEX
  8
W56LXLIFT
 62
8
 10
1276.839
 20
-8437.643
 30
-239.000
 70
    32
  0
VERTEX
  8
W56LXLIFT
 62
8
 10
1280.072
 20
-8427.357
 30
-239.000
 70
    32
  0
VERTEX
  8
W56LXLIFT
 62
8
 10
1283.082
 20
-8415.397
 30
-239.000
 70
    32
  0
VERTEX
  8
W56LXLIFT
 62
8
 10
1283.883
 20
-8409.110
 30
-239.000
 70
    32
  0
VERTEX
  8
W56LXLIFT
 62
8
 10
1286.867
 20
-8390.914
 30
-239.000
 70
    32
  0
VERTEX
  8
W56LXLIFT
 62
8
 10
1285.820
 20
-8384.759
 30
-239.000
 70
    32
  0
VERTEX
  8
W56LXLIFT
 62
8
 10
1290.408
 20
-8378.792
 30
-239.000
 70
    32
  0
VERTEX
  8
W56LXLIFT
 62
8
 10
1294.027
 20
-8369.955
 30
-239.000
 70
    32
  0
VERTEX
  8
W56LXLIFT
 62
8
 10
1295.778
 20
-8362.884
 30
-239.000
 70
    32
  0
VERTEX
  8
W56LXLIFT
 62
8
 10
1295.681
 20
-8355.943
 30
-239.000
 70
    32
  0
VERTEX
  8
W56LXLIFT
 62
8
 10
1296.554
 20
-8348.850
 30
-239.000
 70
    32
  0
SEQEND
  8
W56LXLIFT
  0
POLYLINE
  8
W56LXLIFT
 62
11
 66
     1
 70
     9
  0
VERTEX
  8
W56LXLIFT
 62
11
 10
1273.503
 20
-7892.497
 30
-237.000
 70
    32
  0
VERTEX
  8
W56LXLIFT
 62
11
 10
1277.141
 20
-7902.958
 30
-237.000
 70
    32
  0
VERTEX
  8
W56LXLIFT
 62
11
 10
1287.186
 20
-7908.774
 30
-237.000
 70
    32
  0
VERTEX
  8
W56LXLIFT
 62
11
 10
1294.552
 20
-7917.349
 30
-237.000
 70
    32
  0
VERTEX
  8
W56LXLIFT
 62
11
 10
1297.140
 20
-7924.351
 30
-237.000
 70
    32
  0
VERTEX
  8
W56LXLIFT
 62
11
 10
1292.120
 20
-7934.910
 30
-237.000
 70
    32
  0
VERTEX
  8
W56LXLIFT
 62
11
 10
1296.045
 20
-7939.996
 30
-237.000
 70
    32
  0
VERTEX
  8
W56LXLIFT
 62
11
 10
1304.595
 20
-7936.095
 30
-237.000
 70
    32
  0
VERTEX
  8
W56LXLIFT
 62
11
 10
1311.532
 20
-7934.630
 30
-237.000
 70
    32
  0
VERTEX
  8
W56LXLIFT
 62
11
 10
1313.159
 20
-7918.824
 30
-237.000
 70
    32
  0
VERTEX
  8
W56LXLIFT
 62
11
 10
1309.518
 20
-7914.291
 30
-237.000
 70
    32
  0
VERTEX
  8
W56LXLIFT
 62
11
 10
1314.051
 20
-7900.306
 30
-237.000
 70
    32
  0
VERTEX
  8
W56LXLIFT
 62
11
 10
1304.991
 20
-7886.143
 30
-237.000
 70
    32
  0
VERTEX
  8
W56LXLIFT
 62
11
 10
1297.075
 20
-7879.682
 30
-237.000
 70
    32
  0
VERTEX
  8
W56LXLIFT
 62
11
 10
1293.604
 20
-7878.585
 30
-237.000
 70
    32
  0
VERTEX
  8
W56LXLIFT
 62
11
 10
1276.682
 20
-7882.380
 30
-237.000
 70
    32
  0
SEQEND
  8
W56LXLIFT
  0
POLYLINE
  8
W56LXLIFT
 62
8
 66
     1
 70
     9
  0
VERTEX
  8
W56LXLIFT
 62
8
 10
1257.206
 20
-8459.475
 30
-227.000
 70
    32
  0
VERTEX
  8
W56LXLIFT
 62
8
 10
1258.514
 20
-8444.434
 30
-227.000
 70
    32
  0
VERTEX
  8
W56LXLIFT
 62
8
 10
1261.971
 20
-8426.039
 30
-227.000
 70
    32
  0
VERTEX
  8
W56LXLIFT
 62
8
 10
1266.037
 20
-8426.607
 30
-227.000
 70
    32
  0
VERTEX
  8
W56LXLIFT
 62
8
 10
1264.547
 20
-8443.824
 30
-227.000
 70
    32
  0
VERTEX
  8
W56LXLIFT
 62
8
 10
1262.733
 20
-8470.322
 30
-227.000
 70
    32
  0
VERTEX
  8
W56LXLIFT
 62
8
 10
1273.654
 20
-8471.746
 30
-227.000
 70
    32
  0
VERTEX
  8
W56LXLIFT
 62
8
 10
1278.842
 20
-8457.620
 30
-227.000
 70
    32
  0
VERTEX
  8
W56LXLIFT
 62
8
 10
1281.508
 20
-8437.954
 30
-227.000
 70
    32
  0
VERTEX
  8
W56LXLIFT
 62
8
 10
1285.655
 20
-8433.616
 30
-227.000
 70
    32
  0
VERTEX
  8
W56LXLIFT
 62
8
 10
1288.101
 20
-8425.204
 30
-227.000
 70
    32
  0
VERTEX
  8
W56LXLIFT
 62
8
 10
1288.944
 20
-8418.788
 30
-227.000
 70
    32
  0
VERTEX
  8
W56LXLIFT
 62
8
 10
1290.952
 20
-8402.605
 30
-227.000
 70
    32
  0
VERTEX
  8
W56LXLIFT
 62
8
 10
1289.661
 20
-8390.589
 30
-227.000
 70
    32
  0
VERTEX
  8
W56LXLIFT
 62
8
 10
1287.623
 20
-8373.715
 30
-227.000
 70
    32
  0
VERTEX
  8
W56LXLIFT
 62
8
 10
1289.239
 20
-8355.763
 30
-227.000
 70
    32
  0
VERTEX
  8
W56LXLIFT
 62
8
 10
1276.508
 20
-8334.287
 30
-227.000
 70
    32
  0
VERTEX
  8
W56LXLIFT
 62
8
 10
1267.706
 20
-8331.900
 30
-227.000
 70
    32
  0
VERTEX
  8
W56LXLIFT
 62
8
 10
1266.692
 20
-8340.053
 30
-227.000
 70
    32
  0
VERTEX
  8
W56LXLIFT
 62
8
 10
1271.875
 20
-8357.716
 30
-227.000
 70
    32
  0
VERTEX
  8
W56LXLIFT
 62
8
 10
1270.057
 20
-8362.452
 30
-227.000
 70
    32
  0
VERTEX
  8
W56LXLIFT
 62
8
 10
1243.878
 20
-8372.803
 30
-227.000
 70
    32
  0
VERTEX
  8
W56LXLIFT
 62
8
 10
1246.084
 20
-8378.352
 30
-227.000
 70
    32
  0
VERTEX
  8
W56LXLIFT
 62
8
 10
1260.297
 20
-8382.294
 30
-227.000
 70
    32
  0
VERTEX
  8
W56LXLIFT
 62
8
 10
1262.043
 20
-8385.367
 30
-227.000
 70
    32
  0
VERTEX
  8
W56LXLIFT
 62
8
 10
1262.162
 20
-8391.317
 30
-227.000
 70
    32
  0
VERTEX
  8
W56LXLIFT
 62
8
 10
1257.105
 20
-8405.780
 30
-227.000
 70
    32
  0
VERTEX
  8
W56LXLIFT
 62
8
 10
1250.969
 20
-8419.177
 30
-227.000
 70
    32
  0
VERTEX
  8
W56LXLIFT
 62
8
 10
1248.086
 20
-8439.751
 30
-227.000
 70
    32
  0
VERTEX
  8
W56LXLIFT
 62
8
 10
1248.407
 20
-8458.918
 30
-227.000
 70
    32
  0
SEQEND
  8
W56LXLIFT
  0
POLYLINE
  8
W56LXLIFT
 62
11
 66
     1
 70
     9
  0
VERTEX
  8
W56LXLIFT
 62
11
 10
1290.781
 20
-7946.632
 30
-227.000
 70
    32
  0
VERTEX
  8
W56LXLIFT
 62
11
 10
1297.592
 20
-7944.963
 30
-227.000
 70
    32
  0
VERTEX
  8
W56LXLIFT
 62
11
 10
1302.627
 20
-7933.635
 30
-227.000
 70
    32
  0
VERTEX
  8
W56LXLIFT
 62
11
 10
1308.528
 20
-7927.857
 30
-227.000
 70
    32
  0
VERTEX
  8
W56LXLIFT
 62
11
 10
1307.092
 20
-7920.769
 30
-227.000
 70
    32
  0
VERTEX
  8
W56LXLIFT
 62
11
 10
1303.706
 20
-7915.631
 30
-227.000
 70
    32
  0
VERTEX
  8
W56LXLIFT
 62
11
 10
1303.564
 20
-7898.185
 30
-227.000
 70
    32
  0
VERTEX
  8
W56LXLIFT
 62
11
 10
1286.916
 20
-7889.084
 30
-227.000
 70
    32
  0
VERTEX
  8
W56LXLIFT
 62
11
 10
1279.844
 20
-7889.641
 30
-227.000
 70
    32
  0
VERTEX
  8
W56LXLIFT
 62
11
 10
1276.272
 20
-7886.046
 30
-227.000
 70
    32
  0
VERTEX
  8
W56LXLIFT
 62
11
 10
1270.419
 20
-7893.091
 30
-227.000
 70
    32
  0
VERTEX
  8
W56LXLIFT
 62
11
 10
1272.594
 20
-7903.002
 30
-227.000
 70
    32
  0
VERTEX
  8
W56LXLIFT
 62
11
 10
1288.941
 20
-7924.887
 30
-227.000
 70
    32
  0
VERTEX
  8
W56LXLIFT
 62
11
 10
1291.623
 20
-7930.099
 30
-227.000
 70
    32
  0
VERTEX
  8
W56LXLIFT
 62
11
 10
1287.490
 20
-7942.076
 30
-227.000
 70
    32
  0
SEQEND
  8
W56LXLIFT
  0
POLYLINE
  8
W56LXLIFT
 62
8
 66
     1
 70
     9
  0
VERTEX
  8
W56LXLIFT
 62
8
 10
1281.761
 20
-8480.717
 30
-220.000
 70
    32
  0
VERTEX
  8
W56LXLIFT
 62
8
 10
1282.204
 20
-8438.582
 30
-220.000
 70
    32
  0
VERTEX
  8
W56LXLIFT
 62
8
 10
1289.746
 20
-8432.376
 30
-220.000
 70
    32
  0
VERTEX
  8
W56LXLIFT
 62
8
 10
1293.179
 20
-8421.230
 30
-220.000
 70
    32
  0
VERTEX
  8
W56LXLIFT
 62
8
 10
1290.395
 20
-8410.025
 30
-220.000
 70
    32
  0
VERTEX
  8
W56LXLIFT
 62
8
 10
1292.214
 20
-8400.694
 30
-220.000
 70
    32
  0
VERTEX
  8
W56LXLIFT
 62
8
 10
1289.746
 20
-8395.327
 30
-220.000
 70
    32
  0
VERTEX
  8
W56LXLIFT
 62
8
 10
1283.445
 20
-8367.704
 30
-220.000
 70
    32
  0
VERTEX
  8
W56LXLIFT
 62
8
 10
1281.064
 20
-8351.657
 30
-220.000
 70
    32
  0
VERTEX
  8
W56LXLIFT
 62
8
 10
1270.380
 20
-8333.266
 30
-220.000
 70
    32
  0
VERTEX
  8
W56LXLIFT
 62
8
 10
1265.199
 20
-8338.091
 30
-220.000
 70
    32
  0
VERTEX
  8
W56LXLIFT
 62
8
 10
1270.796
 20
-8352.140
 30
-220.000
 70
    32
  0
VERTEX
  8
W56LXLIFT
 62
8
 10
1261.960
 20
-8358.955
 30
-220.000
 70
    32
  0
VERTEX
  8
W56LXLIFT
 62
8
 10
1262.569
 20
-8364.148
 30
-220.000
 70
    32
  0
VERTEX
  8
W56LXLIFT
 62
8
 10
1249.311
 20
-8376.540
 30
-220.000
 70
    32
  0
VERTEX
  8
W56LXLIFT
 62
8
 10
1252.741
 20
-8382.188
 30
-220.000
 70
    32
  0
VERTEX
  8
W56LXLIFT
 62
8
 10
1265.113
 20
-8385.819
 30
-220.000
 70
    32
  0
VERTEX
  8
W56LXLIFT
 62
8
 10
1267.585
 20
-8389.992
 30
-220.000
 70
    32
  0
VERTEX
  8
W56LXLIFT
 62
8
 10
1268.388
 20
-8404.903
 30
-220.000
 70
    32
  0
VERTEX
  8
W56LXLIFT
 62
8
 10
1260.299
 20
-8418.003
 30
-220.000
 70
    32
  0
VERTEX
  8
W56LXLIFT
 62
8
 10
1256.744
 20
-8427.179
 30
-220.000
 70
    32
  0
VERTEX
  8
W56LXLIFT
 62
8
 10
1253.967
 20
-8435.034
 30
-220.000
 70
    32
  0
VERTEX
  8
W56LXLIFT
 62
8
 10
1246.884
 20
-8443.075
 30
-220.000
 70
    32
  0
VERTEX
  8
W56LXLIFT
 62
8
 10
1239.669
 20
-8457.385
 30
-220.000
 70
    32
  0
VERTEX
  8
W56LXLIFT
 62
8
 10
1235.002
 20
-8462.923
 30
-220.000
 70
    32
  0
VERTEX
  8
W56LXLIFT
 62
8
 10
1234.757
 20
-8466.783
 30
-220.000
 70
    32
  0
VERTEX
  8
W56LXLIFT
 62
8
 10
1249.739
 20
-8462.029
 30
-220.000
 70
    32
  0
VERTEX
  8
W56LXLIFT
 62
8
 10
1248.794
 20
-8458.920
 30
-220.000
 70
    32
  0
VERTEX
  8
W56LXLIFT
 62
8
 10
1249.265
 20
-8455.222
 30
-220.000
 70
    32
  0
VERTEX
  8
W56LXLIFT
 62
8
 10
1265.861
 20
-8448.652
 30
-220.000
 70
    32
  0
VERTEX
  8
W56LXLIFT
 62
8
 10
1265.086
 20
-8458.528
 30
-220.000
 70
    32
  0
VERTEX
  8
W56LXLIFT
 62
8
 10
1269.073
 20
-8471.248
 30
-220.000
 70
    32
  0
VERTEX
  8
W56LXLIFT
 62
8
 10
1272.842
 20
-8481.417
 30
-220.000
 70
    32
  0
SEQEND
  8
W56LXLIFT
  0
POLYLINE
  8
W56LXLIFT
 62
8
 66
     1
 70
     9
  0
VERTEX
  8
W56LXLIFT
 62
8
 10
1252.874
 20
-8472.350
 30
-209.000
 70
    32
  0
VERTEX
  8
W56LXLIFT
 62
8
 10
1257.757
 20
-8462.530
 30
-209.000
 70
    32
  0
VERTEX
  8
W56LXLIFT
 62
8
 10
1263.515
 20
-8463.509
 30
-209.000
 70
    32
  0
VERTEX
  8
W56LXLIFT
 62
8
 10
1267.237
 20
-8471.641
 30
-209.000
 70
    32
  0
VERTEX
  8
W56LXLIFT
 62
8
 10
1269.009
 20
-8476.417
 30
-209.000
 70
    32
  0
VERTEX
  8
W56LXLIFT
 62
8
 10
1279.197
 20
-8478.023
 30
-209.000
 70
    32
  0
VERTEX
  8
W56LXLIFT
 62
8
 10
1281.488
 20
-8473.812
 30
-209.000
 70
    32
  0
VERTEX
  8
W56LXLIFT
 62
8
 10
1277.318
 20
-8456.088
 30
-209.000
 70
    32
  0
VERTEX
  8
W56LXLIFT
 62
8
 10
1276.229
 20
-8445.441
 30
-209.000
 70
    32
  0
VERTEX
  8
W56LXLIFT
 62
8
 10
1277.015
 20
-8433.034
 30
-209.000
 70
    32
  0
VERTEX
  8
W56LXLIFT
 62
8
 10
1280.636
 20
-8415.815
 30
-209.000
 70
    32
  0
VERTEX
  8
W56LXLIFT
 62
8
 10
1283.060
 20
-8405.262
 30
-209.000
 70
    32
  0
VERTEX
  8
W56LXLIFT
 62
8
 10
1283.812
 20
-8394.172
 30
-209.000
 70
    32
  0
VERTEX
  8
W56LXLIFT
 62
8
 10
1282.647
 20
-8381.748
 30
-209.000
 70
    32
  0
VERTEX
  8
W56LXLIFT
 62
8
 10
1282.489
 20
-8364.517
 30
-209.000
 70
    32
  0
VERTEX
  8
W56LXLIFT
 62
8
 10
1278.761
 20
-8351.972
 30
-209.000
 70
    32
  0
VERTEX
  8
W56LXLIFT
 62
8
 10
1274.280
 20
-8338.669
 30
-209.000
 70
    32
  0
VERTEX
  8
W56LXLIFT
 62
8
 10
1267.637
 20
-8339.935
 30
-209.000
 70
    32
  0
VERTEX
  8
W56LXLIFT
 62
8
 10
1266.288
 20
-8346.385
 30
-209.000
 70
    32
  0
VERTEX
  8
W56LXLIFT
 62
8
 10
1267.410
 20
-8362.394
 30
-209.000
 70
    32
  0
VERTEX
  8
W56LXLIFT
 62
8
 10
1255.827
 20
-8365.655
 30
-209.000
 70
    32
  0
VERTEX
  8
W56LXLIFT
 62
8
 10
1254.335
 20
-8372.208
 30
-209.000
 70
    32
  0
VERTEX
  8
W56LXLIFT
 62
8
 10
1249.330
 20
-8375.327
 30
-209.000
 70
    32
  0
VERTEX
  8
W56LXLIFT
 62
8
 10
1253.660
 20
-8381.735
 30
-209.000
 70
    32
  0
VERTEX
  8
W56LXLIFT
 62
8
 10
1259.490
 20
-8379.323
 30
-209.000
 70
    32
  0
VERTEX
  8
W56LXLIFT
 62
8
 10
1262.848
 20
-8379.957
 30
-209.000
 70
    32
  0
VERTEX
  8
W56LXLIFT
 62
8
 10
1267.962
 20
-8387.318
 30
-209.000
 70
    32
  0
VERTEX
  8
W56LXLIFT
 62
8
 10
1267.438
 20
-8394.476
 30
-209.000
 70
    32
  0
VERTEX
  8
W56LXLIFT
 62
8
 10
1265.179
 20
-8410.729
 30
-209.000
 70
    32
  0
VERTEX
  8
W56LXLIFT
 62
8
 10
1259.943
 20
-8425.216
 30
-209.000
 70
    32
  0
VERTEX
  8
W56LXLIFT
 62
8
 10
1255.905
 20
-8435.621
 30
-209.000
 70
    32
  0
VERTEX
  8
W56LXLIFT
 62
8
 10
1251.128
 20
-8444.072
 30
-209.000
 70
    32
  0
VERTEX
  8
W56LXLIFT
 62
8
 10
1244.919
 20
-8456.125
 30
-209.000
 70
    32
  0
VERTEX
  8
W56LXLIFT
 62
8
 10
1242.018
 20
-8459.476
 30
-209.000
 70
    32
  0
VERTEX
  8
W56LXLIFT
 62
8
 10
1242.743
 20
-8471.888
 30
-209.000
 70
    32
  0
SEQEND
  8
W56LXLIFT
  0
POLYLINE
  8
W56LXLIFT
 62
1
 66
     1
 70
     9
  0
VERTEX
  8
W56LXLIFT
 62
1
 10
1216.254
 20
-7853.688
 30
-236.000
 70
    32
  0
VERTEX
  8
W56LXLIFT
 62
1
 10
1222.452
 20
-7836.974
 30
-236.000
 70
    32
  0
VERTEX
  8
W56LXLIFT
 62
1
 10
1222.668
 20
-7821.399
 30
-236.000
 70
    32
  0
VERTEX
  8
W56LXLIFT
 62
1
 10
1219.420
 20
-7810.343
 30
-236.000
 70
    32
  0
VERTEX
  8
W56LXLIFT
 62
1
 10
1214.086
 20
-7805.736
 30
-236.000
 70
    32
  0
VERTEX
  8
W56LXLIFT
 62
1
 10
1204.217
 20
-7804.147
 30
-236.000
 70
    32
  0
VERTEX
  8
W56LXLIFT
 62
1
 10
1205.511
 20
-7793.410
 30
-236.000
 70
    32
  0
VERTEX
  8
W56LXLIFT
 62
1
 10
1199.600
 20
-7782.852
 30
-236.000
 70
    32
  0
VERTEX
  8
W56LXLIFT
 62
1
 10
1196.374
 20
-7743.095
 30
-236.000
 70
    32
  0
VERTEX
  8
W56LXLIFT
 62
1
 10
1200.009
 20
-7740.179
 30
-236.000
 70
    32
  0
VERTEX
  8
W56LXLIFT
 62
1
 10
1207.532
 20
-7739.235
 30
-236.000
 70
    32
  0
VERTEX
  8
W56LXLIFT
 62
1
 10
1211.736
 20
-7741.953
 30
-236.000
 70
    32
  0
VERTEX
  8
W56LXLIFT
 62
1
 10
1215.256
 20
-7783.333
 30
-236.000
 70
    32
  0
VERTEX
  8
W56LXLIFT
 62
1
 10
1230.094
 20
-7800.359
 30
-236.000
 70
    32
  0
VERTEX
  8
W56LXLIFT
 62
1
 10
1231.091
 20
-7804.177
 30
-236.000
 70
    32
  0
VERTEX
  8
W56LXLIFT
 62
1
 10
1244.562
 20
-7807.188
 30
-236.000
 70
    32
  0
VERTEX
  8
W56LXLIFT
 62
1
 10
1250.497
 20
-7827.003
 30
-236.000
 70
    32
  0
VERTEX
  8
W56LXLIFT
 62
1
 10
1249.307
 20
-7834.862
 30
-236.000
 70
    32
  0
VERTEX
  8
W56LXLIFT
 62
1
 10
1251.611
 20
-7838.395
 30
-236.000
 70
    32
  0
VERTEX
  8
W56LXLIFT
 62
1
 10
1251.843
 20
-7841.896
 30
-236.000
 70
    32
  0
VERTEX
  8
W56LXLIFT
 62
1
 10
1263.825
 20
-7842.517
 30
-236.000
 70
    32
  0
VERTEX
  8
W56LXLIFT
 62
1
 10
1265.628
 20
-7847.163
 30
-236.000
 70
    32
  0
VERTEX
  8
W56LXLIFT
 62
1
 10
1254.426
 20
-7855.044
 30
-236.000
 70
    32
  0
VERTEX
  8
W56LXLIFT
 62
1
 10
1248.130
 20
-7852.416
 30
-236.000
 70
    32
  0
VERTEX
  8
W56LXLIFT
 62
1
 10
1235.133
 20
-7858.234
 30
-236.000
 70
    32
  0
VERTEX
  8
W56LXLIFT
 62
1
 10
1225.984
 20
-7864.004
 30
-236.000
 70
    32
  0
SEQEND
  8
W56LXLIFT
  0
POLYLINE
  8
W56LXLIFT
 62
3
 66
     1
 70
     9
  0
VERTEX
  8
W56LXLIFT
 62
3
 10
1003.670
 20
-7261.694
 30
-349.000
 70
    32
  0
VERTEX
  8
W56LXLIFT
 62
3
 10
991.630
 20
-7228.376
 30
-349.000
 70
    32
  0
VERTEX
  8
W56LXLIFT
 62
3
 10
985.871
 20
-7204.541
 30
-349.000
 70
    32
  0
VERTEX
  8
W56LXLIFT
 62
3
 10
974.556
 20
-7206.379
 30
-349.000
 70
    32
  0
VERTEX
  8
W56LXLIFT
 62
3
 10
966.549
 20
-7193.792
 30
-349.000
 70
    32
  0
VERTEX
  8
W56LXLIFT
 62
3
 10
962.795
 20
-7180.605
 30
-349.000
 70
    32
  0
VERTEX
  8
W56LXLIFT
 62
3
 10
946.893
 20
-7153.495
 30
-349.000
 70
    32
  0
VERTEX
  8
W56LXLIFT
 62
3
 10
934.944
 20
-7134.625
 30
-349.000
 70
    32
  0
VERTEX
  8
W56LXLIFT
 62
3
 10
935.628
 20
-7124.521
 30
-349.000
 70
    32
  0
VERTEX
  8
W56LXLIFT
 62
3
 10
941.634
 20
-7123.183
 30
-349.000
 70
    32
  0
VERTEX
  8
W56LXLIFT
 62
3
 10
939.645
 20
-7115.689
 30
-349.000
 70
    32
  0
VERTEX
  8
W56LXLIFT
 62
3
 10
934.810
 20
-7111.914
 30
-349.000
 70
    32
  0
VERTEX
  8
W56LXLIFT
 62
3
 10
934.677
 20
-7103.826
 30
-349.000
 70
    32
  0
VERTEX
  8
W56LXLIFT
 62
3
 10
937.390
 20
-7092.019
 30
-349.000
 70
    32
  0
VERTEX
  8
W56LXLIFT
 62
3
 10
931.720
 20
-7085.909
 30
-349.000
 70
    32
  0
VERTEX
  8
W56LXLIFT
 62
3
 10
925.510
 20
-7079.211
 30
-349.000
 70
    32
  0
VERTEX
  8
W56LXLIFT
 62
3
 10
915.172
 20
-7075.969
 30
-349.000
 70
    32
  0
VERTEX
  8
W56LXLIFT
 62
3
 10
908.987
 20
-7080.493
 30
-349.000
 70
    32
  0
VERTEX
  8
W56LXLIFT
 62
3
 10
900.070
 20
-7085.161
 30
-349.000
 70
    32
  0
VERTEX
  8
W56LXLIFT
 62
3
 10
901.277
 20
-7097.702
 30
-349.000
 70
    32
  0
VERTEX
  8
W56LXLIFT
 62
3
 10
917.275
 20
-7131.507
 30
-349.000
 70
    32
  0
VERTEX
  8
W56LXLIFT
 62
3
 10
941.389
 20
-7162.978
 30
-349.000
 70
    32
  0
VERTEX
  8
W56LXLIFT
 62
3
 10
946.143
 20
-7174.998
 30
-349.000
 70
    32
  0
VERTEX
  8
W56LXLIFT
 62
3
 10
956.305
 20
-7203.360
 30
-349.000
 70
    32
  0
VERTEX
  8
W56LXLIFT
 62
3
 10
958.198
 20
-7204.158
 30
-349.000
 70
    32
  0
VERTEX
  8
W56LXLIFT
 62
3
 10
960.181
 20
-7209.255
 30
-349.000
 70
    32
  0
VERTEX
  8
W56LXLIFT
 62
3
 10
957.176
 20
-7216.038
 30
-349.000
 70
    32
  0
VERTEX
  8
W56LXLIFT
 62
3
 10
969.504
 20
-7234.084
 30
-349.000
 70
    32
  0
VERTEX
  8
W56LXLIFT
 62
3
 10
979.433
 20
-7239.153
 30
-349.000
 70
    32
  0
VERTEX
  8
W56LXLIFT
 62
3
 10
986.482
 20
-7244.910
 30
-349.000
 70
    32
  0
VERTEX
  8
W56LXLIFT
 62
3
 10
991.857
 20
-7256.584
 30
-349.000
 70
    32
  0
SEQEND
  8
W56LXLIFT
  0
POLYLINE
  8
W56LXLIFT
 62
1
 66
     1
 70
     9
  0
VERTEX
  8
W56LXLIFT
 62
1
 10
992.857
 20
-7255.584
 30
-339.000
 70
    32
  0
VERTEX
  8
W56LXLIFT
 62
1
 10
987.482
 20
-7243.910
 30
-339.000
 70
    32
  0
VERTEX
  8
W56LXLIFT
 62
1
 10
980.433
 20
-7238.153
 30
-339.000
 70
    32
  0
VERTEX
  8
W56LXLIFT
 62
1
 10
970.504
 20
-7233.084
 30
-339.000
 70
    32
  0
VERTEX
  8
W56LXLIFT
 62
1
 10
958.176
 20
-7215.038
 30
-339.000
 70
    32
  0
VERTEX
  8
W56LXLIFT
 62
1
 10
961.181
 20
-7208.255
 30
-339.000
 70
    32
  0
VERTEX
  8
W56LXLIFT
 62
1
 10
959.198
 20
-7203.158
 30
-339.000
 70
    32
  0
VERTEX
  8
W56LXLIFT
 62
1
 10
957.305
 20
-7202.360
 30
-339.000
 70
    32
  0
VERTEX
  8
W56LXLIFT
 62
1
 10
947.143
 20
-7173.998
 30
-339.000
 70
    32
  0
VERTEX
  8
W56LXLIFT
 62
1
 10
942.389
 20
-7161.978
 30
-339.000
 70
    32
  0
VERTEX
  8
W56LXLIFT
 62
1
 10
918.275
 20
-7130.507
 30
-339.000
 70
    32
  0
VERTEX
  8
W56LXLIFT
 62
1
 10
902.277
 20
-7096.702
 30
-339.000
 70
    32
  0
VERTEX
  8
W56LXLIFT
 62
1
 10
901.070
 20
-7084.161
 30
-339.000
 70
    32
  0
VERTEX
  8
W56LXLIFT
 62
1
 10
909.987
 20
-7079.493
 30
-339.000
 70
    32
  0
VERTEX
  8
W56LXLIFT
 62
1
 10
916.172
 20
-7074.969
 30
-339.000
 70
    32
  0
VERTEX
  8
W56LXLIFT
 62
1
 10
926.510
 20
-7078.211
 30
-339.000
 70
    32
  0
VERTEX
  8
W56LXLIFT
 62
1
 10
932.720
 20
-7084.909
 30
-339.000
 70
    32
  0
VERTEX
  8
W56LXLIFT
 62
1
 10
938.390
 20
-7091.019
 30
-339.000
 70
    32
  0
VERTEX
  8
W56LXLIFT
 62
1
 10
935.677
 20
-7102.826
 30
-339.000
 70
    32
  0
VERTEX
  8
W56LXLIFT
 62
1
 10
935.810
 20
-7110.914
 30
-339.000
 70
    32
  0
VERTEX
  8
W56LXLIFT
 62
1
 10
940.645
 20
-7114.689
 30
-339.000
 70
    32
  0
VERTEX
  8
W56LXLIFT
 62
1
 10
942.634
 20
-7122.183
 30
-339.000
 70
    32
  0
VERTEX
  8
W56LXLIFT
 62
1
 10
936.628
 20
-7123.521
 30
-339.000
 70
    32
  0
VERTEX
  8
W56LXLIFT
 62
1
 10
935.944
 20
-7133.625
 30
-339.000
 70
    32
  0
VERTEX
  8
W56LXLIFT
 62
1
 10
947.893
 20
-7152.495
 30
-339.000
 70
    32
  0
VERTEX
  8
W56LXLIFT
 62
1
 10
963.795
 20
-7179.605
 30
-339.000
 70
    32
  0
VERTEX
  8
W56LXLIFT
 62
1
 10
967.549
 20
-7192.792
 30
-339.000
 70
    32
  0
VERTEX
  8
W56LXLIFT
 62
1
 10
975.556
 20
-7205.379
 30
-339.000
 70
    32
  0
VERTEX
  8
W56LXLIFT
 62
1
 10
986.871
 20
-7203.541
 30
-339.000
 70
    32
  0
VERTEX
  8
W56LXLIFT
 62
1
 10
992.630
 20
-7227.376
 30
-339.000
 70
    32
  0
VERTEX
  8
W56LXLIFT
 62
1
 10
1004.670
 20
-7260.694
 30
-339.000
 70
    32
  0
SEQEND
  8
W56LXLIFT
  0
POLYLINE
  8
W56LXLIFT
 62
7
 66
     1
 70
     9
  0
VERTEX
  8
W56LXLIFT
 62
7
 10
656.098
 20
-6018.272
 30
-274.000
 70
    32
  0
VERTEX
  8
W56LXLIFT
 62
7
 10
657.043
 20
-6015.086
 30
-274.000
 70
    32
  0
VERTEX
  8
W56LXLIFT
 62
7
 10
656.211
 20
-6011.996
 30
-274.000
 70
    32
  0
VERTEX
  8
W56LXLIFT
 62
7
 10
665.315
 20
-6002.991
 30
-274.000
 70
    32
  0
VERTEX
  8
W56LXLIFT
 62
7
 10
668.212
 20
-5997.408
 30
-274.000
 70
    32
  0
VERTEX
  8
W56LXLIFT
 62
7
 10
669.206
 20
-5972.455
 30
-274.000
 70
    32
  0
VERTEX
  8
W56LXLIFT
 62
7
 10
667.032
 20
-5947.630
 30
-274.000
 70
    32
  0
VERTEX
  8
W56LXLIFT
 62
7
 10
678.154
 20
-5948.133
 30
-274.000
 70
    32
  0
VERTEX
  8
W56LXLIFT
 62
7
 10
679.148
 20
-5950.996
 30
-274.000
 70
    32
  0
VERTEX
  8
W56LXLIFT
 62
7
 10
678.087
 20
-5954.919
 30
-274.000
 70
    32
  0
VERTEX
  8
W56LXLIFT
 62
7
 10
683.829
 20
-5963.569
 30
-274.000
 70
    32
  0
VERTEX
  8
W56LXLIFT
 62
7
 10
683.735
 20
-5969.721
 30
-274.000
 70
    32
  0
VERTEX
  8
W56LXLIFT
 62
7
 10
688.866
 20
-5972.296
 30
-274.000
 70
    32
  0
VERTEX
  8
W56LXLIFT
 62
7
 10
698.060
 20
-5977.024
 30
-274.000
 70
    32
  0
VERTEX
  8
W56LXLIFT
 62
7
 10
698.473
 20
-5979.984
 30
-274.000
 70
    32
  0
VERTEX
  8
W56LXLIFT
 62
7
 10
705.958
 20
-5993.127
 30
-274.000
 70
    32
  0
VERTEX
  8
W56LXLIFT
 62
7
 10
706.983
 20
-5998.575
 30
-274.000
 70
    32
  0
VERTEX
  8
W56LXLIFT
 62
7
 10
712.730
 20
-6009.177
 30
-274.000
 70
    32
  0
VERTEX
  8
W56LXLIFT
 62
7
 10
714.930
 20
-6019.532
 30
-274.000
 70
    32
  0
VERTEX
  8
W56LXLIFT
 62
7
 10
712.685
 20
-6024.966
 30
-274.000
 70
    32
  0
VERTEX
  8
W56LXLIFT
 62
7
 10
704.448
 20
-6032.472
 30
-274.000
 70
    32
  0
VERTEX
  8
W56LXLIFT
 62
7
 10
700.507
 20
-6029.142
 30
-274.000
 70
    32
  0
VERTEX
  8
W56LXLIFT
 62
7
 10
698.334
 20
-6032.134
 30
-274.000
 70
    32
  0
VERTEX
  8
W56LXLIFT
 62
7
 10
685.104
 20
-6033.815
 30
-274.000
 70
    32
  0
VERTEX
  8
W56LXLIFT
 62
7
 10
678.179
 20
-6024.285
 30
-274.000
 70
    32
  0
VERTEX
  8
W56LXLIFT
 62
7
 10
673.455
 20
-6023.915
 30
-274.000
 70
    32
  0
VERTEX
  8
W56LXLIFT
 62
7
 10
666.715
 20
-6021.967
 30
-274.000
 70
    32
  0
VERTEX
  8
W56LXLIFT
 62
7
 10
663.114
 20
-6025.235
 30
-274.000
 70
    32
  0
SEQEND
  8
W56LXLIFT
  0
POLYLINE
  8
W56LXLIFT
 62
1
 66
     1
 70
     9
  0
VERTEX
  8
W56LXLIFT
 62
1
 10
657.098
 20
-6017.272
 30
-262.000
 70
    32
  0
VERTEX
  8
W56LXLIFT
 62
1
 10
658.043
 20
-6014.086
 30
-262.000
 70
    32
  0
VERTEX
  8
W56LXLIFT
 62
1
 10
657.211
 20
-6010.996
 30
-262.000
 70
    32
  0
VERTEX
  8
W56LXLIFT
 62
1
 10
666.315
 20
-6001.991
 30
-262.000
 70
    32
  0
VERTEX
  8
W56LXLIFT
 62
1
 10
669.212
 20
-5996.408
 30
-262.000
 70
    32
  0
VERTEX
  8
W56LXLIFT
 62
1
 10
670.206
 20
-5971.455
 30
-262.000
 70
    32
  0
VERTEX
  8
W56LXLIFT
 62
1
 10
668.032
 20
-5946.630
 30
-262.000
 70
    32
  0
VERTEX
  8
W56LXLIFT
 62
1
 10
679.154
 20
-5947.133
 30
-262.000
 70
    32
  0
VERTEX
  8
W56LXLIFT
 62
1
 10
680.148
 20
-5949.996
 30
-262.000
 70
    32
  0
VERTEX
  8
W56LXLIFT
 62
1
 10
679.087
 20
-5953.919
 30
-262.000
 70
    32
  0
VERTEX
  8
W56LXLIFT
 62
1
 10
684.829
 20
-5962.569
 30
-262.000
 70
    32
  0
VERTEX
  8
W56LXLIFT
 62
1
 10
684.735
 20
-5968.721
 30
-262.000
 70
    32
  0
VERTEX
  8
W56LXLIFT
 62
1
 10
689.866
 20
-5971.296
 30
-262.000
 70
    32
  0
VERTEX
  8
W56LXLIFT
 62
1
 10
699.060
 20
-5976.024
 30
-262.000
 70
    32
  0
VERTEX
  8
W56LXLIFT
 62
1
 10
699.473
 20
-5978.984
 30
-262.000
 70
    32
  0
VERTEX
  8
W56LXLIFT
 62
1
 10
706.958
 20
-5992.127
 30
-262.000
 70
    32
  0
VERTEX
  8
W56LXLIFT
 62
1
 10
707.983
 20
-5997.575
 30
-262.000
 70
    32
  0
VERTEX
  8
W56LXLIFT
 62
1
 10
713.730
 20
-6008.177
 30
-262.000
 70
    32
  0
VERTEX
  8
W56LXLIFT
 62
1
 10
715.930
 20
-6018.532
 30
-262.000
 70
    32
  0
VERTEX
  8
W56LXLIFT
 62
1
 10
713.685
 20
-6023.966
 30
-262.000
 70
    32
  0
VERTEX
  8
W56LXLIFT
 62
1
 10
705.448
 20
-6031.472
 30
-262.000
 70
    32
  0
VERTEX
  8
W56LXLIFT
 62
1
 10
701.507
 20
-6028.142
 30
-262.000
 70
    32
  0
VERTEX
  8
W56LXLIFT
 62
1
 10
699.334
 20
-6031.134
 30
-262.000
 70
    32
  0
VERTEX
  8
W56LXLIFT
 62
1
 10
686.104
 20
-6032.815
 30
-262.000
 70
    32
  0
VERTEX
  8
W56LXLIFT
 62
1
 10
679.179
 20
-6023.285
 30
-262.000
 70
    32
  0
VERTEX
  8
W56LXLIFT
 62
1
 10
674.455
 20
-6022.915
 30
-262.000
 70
    32
  0
VERTEX
  8
W56LXLIFT
 62
1
 10
667.715
 20
-6020.967
 30
-262.000
 70
    32
  0
VERTEX
  8
W56LXLIFT
 62
1
 10
664.114
 20
-6024.235
 30
-262.000
 70
    32
  0
SEQEND
  8
W56LXLIFT
  0
POLYLINE
  8
W56LXLIFT
 62
8
 66
     1
 70
     9
  0
VERTEX
  8
W56LXLIFT
 62
8
 10
724.671
 20
-6228.526
 30
-251.000
 70
    32
  0
VERTEX
  8
W56LXLIFT
 62
8
 10
724.688
 20
-6190.265
 30
-251.000
 70
    32
  0
VERTEX
  8
W56LXLIFT
 62
8
 10
734.021
 20
-6189.352
 30
-251.000
 70
    32
  0
VERTEX
  8
W56LXLIFT
 62
8
 10
735.077
 20
-6212.489
 30
-251.000
 70
    32
  0
VERTEX
  8
W56LXLIFT
 62
8
 10
741.211
 20
-6226.613
 30
-251.000
 70
    32
  0
VERTEX
  8
W56LXLIFT
 62
8
 10
748.845
 20
-6238.017
 30
-251.000
 70
    32
  0
VERTEX
  8
W56LXLIFT
 62
8
 10
747.726
 20
-6241.113
 30
-251.000
 70
    32
  0
VERTEX
  8
W56LXLIFT
 62
8
 10
764.486
 20
-6265.226
 30
-251.000
 70
    32
  0
VERTEX
  8
W56LXLIFT
 62
8
 10
750.510
 20
-6273.209
 30
-251.000
 70
    32
  0
VERTEX
  8
W56LXLIFT
 62
8
 10
735.992
 20
-6249.638
 30
-251.000
 70
    32
  0
SEQEND
  8
W56LXLIFT
  0
POLYLINE
  8
W56LXLIFT
 62
1
 66
     1
 70
     9
  0
VERTEX
  8
W56LXLIFT
 62
1
 10
725.671
 20
-6227.526
 30
-238.000
 70
    32
  0
VERTEX
  8
W56LXLIFT
 62
1
 10
725.688
 20
-6189.265
 30
-238.000
 70
    32
  0
VERTEX
  8
W56LXLIFT
 62
1
 10
735.021
 20
-6188.352
 30
-238.000
 70
    32
  0
VERTEX
  8
W56LXLIFT
 62
1
 10
736.077
 20
-6211.489
 30
-238.000
 70
    32
  0
VERTEX
  8
W56LXLIFT
 62
1
 10
742.211
 20
-6225.613
 30
-238.000
 70
    32
  0
VERTEX
  8
W56LXLIFT
 62
1
 10
749.845
 20
-6237.017
 30
-238.000
 70
    32
  0
VERTEX
  8
W56LXLIFT
 62
1
 10
748.726
 20
-6240.113
 30
-238.000
 70
    32
  0
VERTEX
  8
W56LXLIFT
 62
1
 10
765.486
 20
-6264.226
 30
-238.000
 70
    32
  0
VERTEX
  8
W56LXLIFT
 62
1
 10
751.510
 20
-6272.209
 30
-238.000
 70
    32
  0
VERTEX
  8
W56LXLIFT
 62
1
 10
736.992
 20
-6248.638
 30
-238.000
 70
    32
  0
SEQEND
  8
W56LXLIFT
  0
POLYLINE
  8
W56LXLIFT
 62
4
 66
     1
 70
     9
  0
VERTEX
  8
W56LXLIFT
 62
4
 10
488.738
 20
-5658.569
 30
-225.000
 70
    32
  0
VERTEX
  8
W56LXLIFT
 62
4
 10
467.737
 20
-5620.694
 30
-225.000
 70
    32
  0
VERTEX
  8
W56LXLIFT
 62
4
 10
449.683
 20
-5612.297
 30
-225.000
 70
    32
  0
VERTEX
  8
W56LXLIFT
 62
4
 10
447.048
 20
-5608.670
 30
-225.000
 70
    32
  0
VERTEX
  8
W56LXLIFT
 62
4
 10
446.946
 20
-5604.941
 30
-225.000
 70
    32
  0
VERTEX
  8
W56LXLIFT
 62
4
 10
424.726
 20
-5589.466
 30
-225.000
 70
    32
  0
VERTEX
  8
W56LXLIFT
 62
4
 10
414.666
 20
-5583.845
 30
-225.000
 70
    32
  0
VERTEX
  8
W56LXLIFT
 62
4
 10
406.613
 20
-5585.024
 30
-225.000
 70
    32
  0
VERTEX
  8
W56LXLIFT
 62
4
 10
405.712
 20
-5591.112
 30
-225.000
 70
    32
  0
VERTEX
  8
W56LXLIFT
 62
4
 10
388.692
 20
-5598.046
 30
-225.000
 70
    32
  0
VERTEX
  8
W56LXLIFT
 62
4
 10
387.112
 20
-5590.936
 30
-225.000
 70
    32
  0
VERTEX
  8
W56LXLIFT
 62
4
 10
378.781
 20
-5590.687
 30
-225.000
 70
    32
  0
VERTEX
  8
W56LXLIFT
 62
4
 10
374.980
 20
-5578.128
 30
-225.000
 70
    32
  0
VERTEX
  8
W56LXLIFT
 62
4
 10
373.755
 20
-5571.955
 30
-225.000
 70
    32
  0
VERTEX
  8
W56LXLIFT
 62
4
 10
368.845
 20
-5566.395
 30
-225.000
 70
    32
  0
VERTEX
  8
W56LXLIFT
 62
4
 10
365.058
 20
-5566.865
 30
-225.000
 70
    32
  0
VERTEX
  8
W56LXLIFT
 62
4
 10
363.850
 20
-5549.053
 30
-225.000
 70
    32
  0
VERTEX
  8
W56LXLIFT
 62
4
 10
367.964
 20
-5542.152
 30
-225.000
 70
    32
  0
VERTEX
  8
W56LXLIFT
 62
4
 10
382.883
 20
-5549.675
 30
-225.000
 70
    32
  0
VERTEX
  8
W56LXLIFT
 62
4
 10
398.933
 20
-5560.397
 30
-225.000
 70
    32
  0
VERTEX
  8
W56LXLIFT
 62
4
 10
419.674
 20
-5571.296
 30
-225.000
 70
    32
  0
VERTEX
  8
W56LXLIFT
 62
4
 10
440.046
 20
-5583.333
 30
-225.000
 70
    32
  0
VERTEX
  8
W56LXLIFT
 62
4
 10
455.163
 20
-5597.558
 30
-225.000
 70
    32
  0
VERTEX
  8
W56LXLIFT
 62
4
 10
474.941
 20
-5610.570
 30
-225.000
 70
    32
  0
VERTEX
  8
W56LXLIFT
 62
4
 10
485.747
 20
-5623.797
 30
-225.000
 70
    32
  0
VERTEX
  8
W56LXLIFT
 62
4
 10
492.861
 20
-5642.860
 30
-225.000
 70
    32
  0
VERTEX
  8
W56LXLIFT
 62
4
 10
500.840
 20
-5665.205
 30
-225.000
 70
    32
  0
SEQEND
  8
W56LXLIFT
  0
POLYLINE
  8
W56LXLIFT
 62
3
 66
     1
 70
     9
  0
VERTEX
  8
W56LXLIFT
 62
3
 10
719.436
 20
-6230.592
 30
-225.000
 70
    32
  0
VERTEX
  8
W56LXLIFT
 62
3
 10
710.562
 20
-6215.090
 30
-225.000
 70
    32
  0
VERTEX
  8
W56LXLIFT
 62
3
 10
710.876
 20
-6207.147
 30
-225.000
 70
    32
  0
VERTEX
  8
W56LXLIFT
 62
3
 10
695.914
 20
-6178.031
 30
-225.000
 70
    32
  0
VERTEX
  8
W56LXLIFT
 62
3
 10
695.943
 20
-6171.491
 30
-225.000
 70
    32
  0
VERTEX
  8
W56LXLIFT
 62
3
 10
697.844
 20
-6169.023
 30
-225.000
 70
    32
  0
VERTEX
  8
W56LXLIFT
 62
3
 10
695.781
 20
-6157.809
 30
-225.000
 70
    32
  0
VERTEX
  8
W56LXLIFT
 62
3
 10
689.948
 20
-6149.334
 30
-225.000
 70
    32
  0
VERTEX
  8
W56LXLIFT
 62
3
 10
687.453
 20
-6135.282
 30
-225.000
 70
    32
  0
VERTEX
  8
W56LXLIFT
 62
3
 10
681.557
 20
-6124.028
 30
-225.000
 70
    32
  0
VERTEX
  8
W56LXLIFT
 62
3
 10
677.934
 20
-6118.293
 30
-225.000
 70
    32
  0
VERTEX
  8
W56LXLIFT
 62
3
 10
672.380
 20
-6108.855
 30
-225.000
 70
    32
  0
VERTEX
  8
W56LXLIFT
 62
3
 10
667.885
 20
-6102.668
 30
-225.000
 70
    32
  0
VERTEX
  8
W56LXLIFT
 62
3
 10
665.519
 20
-6088.197
 30
-225.000
 70
    32
  0
VERTEX
  8
W56LXLIFT
 62
3
 10
663.098
 20
-6082.024
 30
-225.000
 70
    32
  0
VERTEX
  8
W56LXLIFT
 62
3
 10
653.347
 20
-6062.921
 30
-225.000
 70
    32
  0
VERTEX
  8
W56LXLIFT
 62
3
 10
646.950
 20
-6031.386
 30
-225.000
 70
    32
  0
VERTEX
  8
W56LXLIFT
 62
3
 10
651.003
 20
-6014.533
 30
-225.000
 70
    32
  0
VERTEX
  8
W56LXLIFT
 62
3
 10
657.886
 20
-6015.182
 30
-225.000
 70
    32
  0
VERTEX
  8
W56LXLIFT
 62
3
 10
666.659
 20
-6038.472
 30
-225.000
 70
    32
  0
VERTEX
  8
W56LXLIFT
 62
3
 10
671.894
 20
-6051.510
 30
-225.000
 70
    32
  0
VERTEX
  8
W56LXLIFT
 62
3
 10
683.170
 20
-6055.812
 30
-225.000
 70
    32
  0
VERTEX
  8
W56LXLIFT
 62
3
 10
689.881
 20
-6065.497
 30
-225.000
 70
    32
  0
VERTEX
  8
W56LXLIFT
 62
3
 10
693.248
 20
-6080.001
 30
-225.000
 70
    32
  0
VERTEX
  8
W56LXLIFT
 62
3
 10
702.296
 20
-6096.789
 30
-225.000
 70
    32
  0
VERTEX
  8
W56LXLIFT
 62
3
 10
703.921
 20
-6105.605
 30
-225.000
 70
    32
  0
VERTEX
  8
W56LXLIFT
 62
3
 10
707.446
 20
-6143.356
 30
-225.000
 70
    32
  0
VERTEX
  8
W56LXLIFT
 62
3
 10
706.730
 20
-6154.634
 30
-225.000
 70
    32
  0
VERTEX
  8
W56LXLIFT
 62
3
 10
709.155
 20
-6166.346
 30
-225.000
 70
    32
  0
VERTEX
  8
W56LXLIFT
 62
3
 10
708.810
 20
-6172.899
 30
-225.000
 70
    32
  0
VERTEX
  8
W56LXLIFT
 62
3
 10
722.300
 20
-6196.999
 30
-225.000
 70
    32
  0
VERTEX
  8
W56LXLIFT
 62
3
 10
738.656
 20
-6201.413
 30
-225.000
 70
    32
  0
VERTEX
  8
W56LXLIFT
 62
3
 10
742.225
 20
-6213.055
 30
-225.000
 70
    32
  0
VERTEX
  8
W56LXLIFT
 62
3
 10
736.073
 20
-6226.870
 30
-225.000
 70
    32
  0
SEQEND
  8
W56LXLIFT
  0
POLYLINE
  8
W56LXLIFT
 62
6
 66
     1
 70
     9
  0
VERTEX
  8
W56LXLIFT
 62
6
 10
230.009
 20
-5716.281
 30
-228.000
 70
    32
  0
VERTEX
  8
W56LXLIFT
 62
6
 10
212.223
 20
-5670.419
 30
-228.000
 70
    32
  0
VERTEX
  8
W56LXLIFT
 62
6
 10
202.816
 20
-5648.350
 30
-228.000
 70
    32
  0
VERTEX
  8
W56LXLIFT
 62
6
 10
203.154
 20
-5644.628
 30
-228.000
 70
    32
  0
VERTEX
  8
W56LXLIFT
 62
6
 10
198.041
 20
-5630.414
 30
-228.000
 70
    32
  0
VERTEX
  8
W56LXLIFT
 62
6
 10
193.513
 20
-5626.424
 30
-228.000
 70
    32
  0
VERTEX
  8
W56LXLIFT
 62
6
 10
185.626
 20
-5631.720
 30
-228.000
 70
    32
  0
VERTEX
  8
W56LXLIFT
 62
6
 10
195.154
 20
-5656.199
 30
-228.000
 70
    32
  0
VERTEX
  8
W56LXLIFT
 62
6
 10
205.529
 20
-5682.889
 30
-228.000
 70
    32
  0
VERTEX
  8
W56LXLIFT
 62
6
 10
208.949
 20
-5695.073
 30
-228.000
 70
    32
  0
VERTEX
  8
W56LXLIFT
 62
6
 10
215.193
 20
-5721.613
 30
-228.000
 70
    32
  0
VERTEX
  8
W56LXLIFT
 62
6
 10
209.102
 20
-5729.081
 30
-228.000
 70
    32
  0
VERTEX
  8
W56LXLIFT
 62
6
 10
213.770
 20
-5738.946
 30
-228.000
 70
    32
  0
VERTEX
  8
W56LXLIFT
 62
6
 10
217.659
 20
-5743.400
 30
-228.000
 70
    32
  0
VERTEX
  8
W56LXLIFT
 62
6
 10
217.282
 20
-5748.564
 30
-228.000
 70
    32
  0
VERTEX
  8
W56LXLIFT
 62
6
 10
214.372
 20
-5752.634
 30
-228.000
 70
    32
  0
VERTEX
  8
W56LXLIFT
 62
6
 10
214.078
 20
-5760.454
 30
-228.000
 70
    32
  0
VERTEX
  8
W56LXLIFT
 62
6
 10
223.861
 20
-5763.451
 30
-228.000
 70
    32
  0
VERTEX
  8
W56LXLIFT
 62
6
 10
237.541
 20
-5739.059
 30
-228.000
 70
    32
  0
VERTEX
  8
W56LXLIFT
 62
6
 10
240.636
 20
-5726.271
 30
-228.000
 70
    32
  0
SEQEND
  8
W56LXLIFT
  0
POLYLINE
  8
W56LXLIFT
 62
1
 66
     1
 70
     9
  0
VERTEX
  8
W56LXLIFT
 62
1
 10
231.009
 20
-5715.281
 30
-216.000
 70
    32
  0
VERTEX
  8
W56LXLIFT
 62
1
 10
213.223
 20
-5669.419
 30
-216.000
 70
    32
  0
VERTEX
  8
W56LXLIFT
 62
1
 10
203.816
 20
-5647.350
 30
-216.000
 70
    32
  0
VERTEX
  8
W56LXLIFT
 62
1
 10
204.154
 20
-5643.628
 30
-216.000
 70
    32
  0
VERTEX
  8
W56LXLIFT
 62
1
 10
199.041
 20
-5629.414
 30
-216.000
 70
    32
  0
VERTEX
  8
W56LXLIFT
 62
1
 10
194.513
 20
-5625.424
 30
-216.000
 70
    32
  0
VERTEX
  8
W56LXLIFT
 62
1
 10
186.626
 20
-5630.720
 30
-216.000
 70
    32
  0
VERTEX
  8
W56LXLIFT
 62
1
 10
196.154
 20
-5655.199
 30
-216.000
 70
    32
  0
VERTEX
  8
W56LXLIFT
 62
1
 10
206.529
 20
-5681.889
 30
-216.000
 70
    32
  0
VERTEX
  8
W56LXLIFT
 62
1
 10
209.949
 20
-5694.073
 30
-216.000
 70
    32
  0
VERTEX
  8
W56LXLIFT
 62
1
 10
216.193
 20
-5720.613
 30
-216.000
 70
    32
  0
VERTEX
  8
W56LXLIFT
 62
1
 10
210.102
 20
-5728.081
 30
-216.000
 70
    32
  0
VERTEX
  8
W56LXLIFT
 62
1
 10
214.770
 20
-5737.946
 30
-216.000
 70
    32
  0
VERTEX
  8
W56LXLIFT
 62
1
 10
218.659
 20
-5742.400
 30
-216.000
 70
    32
  0
VERTEX
  8
W56LXLIFT
 62
1
 10
218.282
 20
-5747.564
 30
-216.000
 70
    32
  0
VERTEX
  8
W56LXLIFT
 62
1
 10
215.372
 20
-5751.634
 30
-216.000
 70
    32
  0
VERTEX
  8
W56LXLIFT
 62
1
 10
215.078
 20
-5759.454
 30
-216.000
 70
    32
  0
VERTEX
  8
W56LXLIFT
 62
1
 10
224.861
 20
-5762.451
 30
-216.000
 70
    32
  0
VERTEX
  8
W56LXLIFT
 62
1
 10
238.541
 20
-5738.059
 30
-216.000
 70
    32
  0
VERTEX
  8
W56LXLIFT
 62
1
 10
241.636
 20
-5725.271
 30
-216.000
 70
    32
  0
SEQEND
  8
W56LXLIFT
  0
POLYLINE
  8
W56LXLIFT
 62
13
 66
     1
 70
     9
  0
VERTEX
  8
W56LXLIFT
 62
13
 10
814.000
 20
-6412.777
 30
-218.000
 70
    32
  0
VERTEX
  8
W56LXLIFT
 62
13
 10
816.104
 20
-6402.663
 30
-218.000
 70
    32
  0
VERTEX
  8
W56LXLIFT
 62
13
 10
816.081
 20
-6396.052
 30
-218.000
 70
    32
  0
VERTEX
  8
W56LXLIFT
 62
13
 10
810.094
 20
-6387.363
 30
-218.000
 70
    32
  0
VERTEX
  8
W56LXLIFT
 62
13
 10
798.037
 20
-6380.042
 30
-218.000
 70
    32
  0
VERTEX
  8
W56LXLIFT
 62
13
 10
791.851
 20
-6384.537
 30
-218.000
 70
    32
  0
VERTEX
  8
W56LXLIFT
 62
13
 10
785.450
 20
-6375.280
 30
-218.000
 70
    32
  0
VERTEX
  8
W56LXLIFT
 62
13
 10
788.356
 20
-6365.670
 30
-218.000
 70
    32
  0
VERTEX
  8
W56LXLIFT
 62
13
 10
776.779
 20
-6355.719
 30
-218.000
 70
    32
  0
VERTEX
  8
W56LXLIFT
 62
13
 10
760.160
 20
-6360.514
 30
-218.000
 70
    32
  0
VERTEX
  8
W56LXLIFT
 62
13
 10
756.946
 20
-6349.810
 30
-218.000
 70
    32
  0
VERTEX
  8
W56LXLIFT
 62
13
 10
764.206
 20
-6346.491
 30
-218.000
 70
    32
  0
VERTEX
  8
W56LXLIFT
 62
13
 10
775.482
 20
-6335.690
 30
-218.000
 70
    32
  0
VERTEX
  8
W56LXLIFT
 62
13
 10
789.433
 20
-6324.683
 30
-218.000
 70
    32
  0
VERTEX
  8
W56LXLIFT
 62
13
 10
790.978
 20
-6310.957
 30
-218.000
 70
    32
  0
VERTEX
  8
W56LXLIFT
 62
13
 10
801.290
 20
-6301.073
 30
-218.000
 70
    32
  0
VERTEX
  8
W56LXLIFT
 62
13
 10
801.892
 20
-6283.358
 30
-218.000
 70
    32
  0
VERTEX
  8
W56LXLIFT
 62
13
 10
815.633
 20
-6282.828
 30
-218.000
 70
    32
  0
VERTEX
  8
W56LXLIFT
 62
13
 10
826.898
 20
-6312.239
 30
-218.000
 70
    32
  0
VERTEX
  8
W56LXLIFT
 62
13
 10
828.778
 20
-6328.584
 30
-218.000
 70
    32
  0
VERTEX
  8
W56LXLIFT
 62
13
 10
833.853
 20
-6354.561
 30
-218.000
 70
    32
  0
VERTEX
  8
W56LXLIFT
 62
13
 10
842.141
 20
-6378.529
 30
-218.000
 70
    32
  0
VERTEX
  8
W56LXLIFT
 62
13
 10
848.008
 20
-6382.416
 30
-218.000
 70
    32
  0
VERTEX
  8
W56LXLIFT
 62
13
 10
839.978
 20
-6404.115
 30
-218.000
 70
    32
  0
VERTEX
  8
W56LXLIFT
 62
13
 10
830.550
 20
-6399.664
 30
-218.000
 70
    32
  0
VERTEX
  8
W56LXLIFT
 62
13
 10
820.882
 20
-6414.622
 30
-218.000
 70
    32
  0
SEQEND
  8
W56LXLIFT
  0
POLYLINE
  8
W56LXLIFT
 62
1
 66
     1
 70
     9
  0
VERTEX
  8
W56LXLIFT
 62
1
 10
815.000
 20
-6411.777
 30
-208.000
 70
    32
  0
VERTEX
  8
W56LXLIFT
 62
1
 10
817.104
 20
-6401.663
 30
-208.000
 70
    32
  0
VERTEX
  8
W56LXLIFT
 62
1
 10
817.081
 20
-6395.052
 30
-208.000
 70
    32
  0
VERTEX
  8
W56LXLIFT
 62
1
 10
811.094
 20
-6386.363
 30
-208.000
 70
    32
  0
VERTEX
  8
W56LXLIFT
 62
1
 10
799.037
 20
-6379.042
 30
-208.000
 70
    32
  0
VERTEX
  8
W56LXLIFT
 62
1
 10
792.851
 20
-6383.537
 30
-208.000
 70
    32
  0
VERTEX
  8
W56LXLIFT
 62
1
 10
786.450
 20
-6374.280
 30
-208.000
 70
    32
  0
VERTEX
  8
W56LXLIFT
 62
1
 10
789.356
 20
-6364.670
 30
-208.000
 70
    32
  0
VERTEX
  8
W56LXLIFT
 62
1
 10
777.779
 20
-6354.719
 30
-208.000
 70
    32
  0
VERTEX
  8
W56LXLIFT
 62
1
 10
761.160
 20
-6359.514
 30
-208.000
 70
    32
  0
VERTEX
  8
W56LXLIFT
 62
1
 10
757.946
 20
-6348.810
 30
-208.000
 70
    32
  0
VERTEX
  8
W56LXLIFT
 62
1
 10
765.206
 20
-6345.491
 30
-208.000
 70
    32
  0
VERTEX
  8
W56LXLIFT
 62
1
 10
776.482
 20
-6334.690
 30
-208.000
 70
    32
  0
VERTEX
  8
W56LXLIFT
 62
1
 10
790.433
 20
-6323.683
 30
-208.000
 70
    32
  0
VERTEX
  8
W56LXLIFT
 62
1
 10
791.978
 20
-6309.957
 30
-208.000
 70
    32
  0
VERTEX
  8
W56LXLIFT
 62
1
 10
802.290
 20
-6300.073
 30
-208.000
 70
    32
  0
VERTEX
  8
W56LXLIFT
 62
1
 10
802.892
 20
-6282.358
 30
-208.000
 70
    32
  0
VERTEX
  8
W56LXLIFT
 62
1
 10
816.633
 20
-6281.828
 30
-208.000
 70
    32
  0
VERTEX
  8
W56LXLIFT
 62
1
 10
827.898
 20
-6311.239
 30
-208.000
 70
    32
  0
VERTEX
  8
W56LXLIFT
 62
1
 10
829.778
 20
-6327.584
 30
-208.000
 70
    32
  0
VERTEX
  8
W56LXLIFT
 62
1
 10
834.853
 20
-6353.561
 30
-208.000
 70
    32
  0
VERTEX
  8
W56LXLIFT
 62
1
 10
843.141
 20
-6377.529
 30
-208.000
 70
    32
  0
VERTEX
  8
W56LXLIFT
 62
1
 10
849.008
 20
-6381.416
 30
-208.000
 70
    32
  0
VERTEX
  8
W56LXLIFT
 62
1
 10
840.978
 20
-6403.115
 30
-208.000
 70
    32
  0
VERTEX
  8
W56LXLIFT
 62
1
 10
831.550
 20
-6398.664
 30
-208.000
 70
    32
  0
VERTEX
  8
W56LXLIFT
 62
1
 10
821.882
 20
-6413.622
 30
-208.000
 70
    32
  0
SEQEND
  8
W56LXLIFT
  0
POLYLINE
  8
W56LXLIFT
 62
1
 66
     1
 70
     9
  0
VERTEX
  8
W56LXLIFT
 62
1
 10
489.738
 20
-5657.569
 30
-215.000
 70
    32
  0
VERTEX
  8
W56LXLIFT
 62
1
 10
468.737
 20
-5619.694
 30
-215.000
 70
    32
  0
VERTEX
  8
W56LXLIFT
 62
1
 10
450.683
 20
-5611.297
 30
-215.000
 70
    32
  0
VERTEX
  8
W56LXLIFT
 62
1
 10
448.048
 20
-5607.670
 30
-215.000
 70
    32
  0
VERTEX
  8
W56LXLIFT
 62
1
 10
447.946
 20
-5603.941
 30
-215.000
 70
    32
  0
VERTEX
  8
W56LXLIFT
 62
1
 10
425.726
 20
-5588.466
 30
-215.000
 70
    32
  0
VERTEX
  8
W56LXLIFT
 62
1
 10
415.666
 20
-5582.845
 30
-215.000
 70
    32
  0
VERTEX
  8
W56LXLIFT
 62
1
 10
407.613
 20
-5584.024
 30
-215.000
 70
    32
  0
VERTEX
  8
W56LXLIFT
 62
1
 10
406.712
 20
-5590.112
 30
-215.000
 70
    32
  0
VERTEX
  8
W56LXLIFT
 62
1
 10
389.692
 20
-5597.046
 30
-215.000
 70
    32
  0
VERTEX
  8
W56LXLIFT
 62
1
 10
388.112
 20
-5589.936
 30
-215.000
 70
    32
  0
VERTEX
  8
W56LXLIFT
 62
1
 10
379.781
 20
-5589.687
 30
-215.000
 70
    32
  0
VERTEX
  8
W56LXLIFT
 62
1
 10
375.980
 20
-5577.128
 30
-215.000
 70
    32
  0
VERTEX
  8
W56LXLIFT
 62
1
 10
374.755
 20
-5570.955
 30
-215.000
 70
    32
  0
VERTEX
  8
W56LXLIFT
 62
1
 10
369.845
 20
-5565.395
 30
-215.000
 70
    32
  0
VERTEX
  8
W56LXLIFT
 62
1
 10
366.058
 20
-5565.865
 30
-215.000
 70
    32
  0
VERTEX
  8
W56LXLIFT
 62
1
 10
364.850
 20
-5548.053
 30
-215.000
 70
    32
  0
VERTEX
  8
W56LXLIFT
 62
1
 10
368.964
 20
-5541.152
 30
-215.000
 70
    32
  0
VERTEX
  8
W56LXLIFT
 62
1
 10
383.883
 20
-5548.675
 30
-215.000
 70
    32
  0
VERTEX
  8
W56LXLIFT
 62
1
 10
399.933
 20
-5559.397
 30
-215.000
 70
    32
  0
VERTEX
  8
W56LXLIFT
 62
1
 10
420.674
 20
-5570.296
 30
-215.000
 70
    32
  0
VERTEX
  8
W56LXLIFT
 62
1
 10
441.046
 20
-5582.333
 30
-215.000
 70
    32
  0
VERTEX
  8
W56LXLIFT
 62
1
 10
456.163
 20
-5596.558
 30
-215.000
 70
    32
  0
VERTEX
  8
W56LXLIFT
 62
1
 10
475.941
 20
-5609.570
 30
-215.000
 70
    32
  0
VERTEX
  8
W56LXLIFT
 62
1
 10
486.747
 20
-5622.797
 30
-215.000
 70
    32
  0
VERTEX
  8
W56LXLIFT
 62
1
 10
493.861
 20
-5641.860
 30
-215.000
 70
    32
  0
VERTEX
  8
W56LXLIFT
 62
1
 10
501.840
 20
-5664.205
 30
-215.000
 70
    32
  0
SEQEND
  8
W56LXLIFT
  0
POLYLINE
  8
W56LXLIFT
 62
5
 66
     1
 70
     9
  0
VERTEX
  8
W56LXLIFT
 62
5
 10
184.253
 20
-5552.614
 30
-243.000
 70
    32
  0
VERTEX
  8
W56LXLIFT
 62
5
 10
180.279
 20
-5551.335
 30
-243.000
 70
    32
  0
VERTEX
  8
W56LXLIFT
 62
5
 10
166.285
 20
-5551.769
 30
-243.000
 70
    32
  0
VERTEX
  8
W56LXLIFT
 62
5
 10
164.887
 20
-5543.535
 30
-243.000
 70
    32
  0
VERTEX
  8
W56LXLIFT
 62
5
 10
171.000
 20
-5538.558
 30
-243.000
 70
    32
  0
VERTEX
  8
W56LXLIFT
 62
5
 10
177.941
 20
-5531.304
 30
-243.000
 70
    32
  0
VERTEX
  8
W56LXLIFT
 62
5
 10
179.045
 20
-5528.579
 30
-243.000
 70
    32
  0
VERTEX
  8
W56LXLIFT
 62
5
 10
185.160
 20
-5529.154
 30
-243.000
 70
    32
  0
VERTEX
  8
W56LXLIFT
 62
5
 10
189.977
 20
-5525.444
 30
-243.000
 70
    32
  0
VERTEX
  8
W56LXLIFT
 62
5
 10
204.832
 20
-5520.563
 30
-243.000
 70
    32
  0
VERTEX
  8
W56LXLIFT
 62
5
 10
209.368
 20
-5512.480
 30
-243.000
 70
    32
  0
VERTEX
  8
W56LXLIFT
 62
5
 10
219.459
 20
-5515.086
 30
-243.000
 70
    32
  0
SEQEND
  8
W56LXLIFT
  0
POLYLINE
  8
W56LXLIFT
 62
6
 66
     1
 70
     9
  0
VERTEX
  8
W56LXLIFT
 62
6
 10
1086.688
 20
-7128.704
 30
-319.610
 70
    32
  0
VERTEX
  8
W56LXLIFT
 62
6
 10
1086.024
 20
-7111.919
 30
-319.610
 70
    32
  0
VERTEX
  8
W56LXLIFT
 62
6
 10
1075.687
 20
-7107.134
 30
-319.610
 70
    32
  0
VERTEX
  8
W56LXLIFT
 62
6
 10
1062.813
 20
-7100.407
 30
-319.610
 70
    32
  0
VERTEX
  8
W56LXLIFT
 62
6
 10
1079.600
 20
-7079.291
 30
-319.610
 70
    32
  0
VERTEX
  8
W56LXLIFT
 62
6
 10
1092.540
 20
-7086.843
 30
-319.610
 70
    32
  0
VERTEX
  8
W56LXLIFT
 62
6
 10
1101.382
 20
-7088.146
 30
-319.610
 70
    32
  0
VERTEX
  8
W56LXLIFT
 62
6
 10
1106.252
 20
-7086.605
 30
-319.610
 70
    32
  0
VERTEX
  8
W56LXLIFT
 62
6
 10
1112.224
 20
-7093.758
 30
-319.610
 70
    32
  0
VERTEX
  8
W56LXLIFT
 62
6
 10
1117.852
 20
-7095.591
 30
-319.610
 70
    32
  0
VERTEX
  8
W56LXLIFT
 62
6
 10
1117.225
 20
-7102.399
 30
-319.610
 70
    32
  0
VERTEX
  8
W56LXLIFT
 62
6
 10
1121.960
 20
-7111.566
 30
-319.610
 70
    32
  0
VERTEX
  8
W56LXLIFT
 62
6
 10
1127.819
 20
-7116.507
 30
-319.610
 70
    32
  0
VERTEX
  8
W56LXLIFT
 62
6
 10
1135.468
 20
-7125.915
 30
-319.610
 70
    32
  0
VERTEX
  8
W56LXLIFT
 62
6
 10
1137.218
 20
-7131.066
 30
-319.610
 70
    32
  0
VERTEX
  8
W56LXLIFT
 62
6
 10
1135.331
 20
-7137.061
 30
-319.610
 70
    32
  0
VERTEX
  8
W56LXLIFT
 62
6
 10
1151.361
 20
-7152.597
 30
-319.610
 70
    32
  0
VERTEX
  8
W56LXLIFT
 62
6
 10
1138.309
 20
-7174.765
 30
-319.610
 70
    32
  0
VERTEX
  8
W56LXLIFT
 62
6
 10
1141.108
 20
-7185.152
 30
-319.610
 70
    32
  0
VERTEX
  8
W56LXLIFT
 62
6
 10
1128.864
 20
-7195.017
 30
-319.610
 70
    32
  0
VERTEX
  8
W56LXLIFT
 62
6
 10
1120.331
 20
-7211.640
 30
-319.610
 70
    32
  0
VERTEX
  8
W56LXLIFT
 62
6
 10
1115.096
 20
-7208.422
 30
-319.610
 70
    32
  0
VERTEX
  8
W56LXLIFT
 62
6
 10
1111.877
 20
-7201.737
 30
-319.610
 70
    32
  0
VERTEX
  8
W56LXLIFT
 62
6
 10
1115.279
 20
-7190.569
 30
-319.610
 70
    32
  0
VERTEX
  8
W56LXLIFT
 62
6
 10
1112.231
 20
-7181.024
 30
-319.610
 70
    32
  0
VERTEX
  8
W56LXLIFT
 62
6
 10
1111.595
 20
-7173.841
 30
-319.610
 70
    32
  0
VERTEX
  8
W56LXLIFT
 62
6
 10
1106.993
 20
-7166.325
 30
-319.610
 70
    32
  0
VERTEX
  8
W56LXLIFT
 62
6
 10
1098.880
 20
-7158.794
 30
-319.610
 70
    32
  0
VERTEX
  8
W56LXLIFT
 62
6
 10
1099.028
 20
-7153.107
 30
-319.610
 70
    32
  0
VERTEX
  8
W56LXLIFT
 62
6
 10
1095.727
 20
-7145.280
 30
-319.610
 70
    32
  0
VERTEX
  8
W56LXLIFT
 62
6
 10
1090.437
 20
-7138.604
 30
-319.610
 70
    32
  0
SEQEND
  8
W56LXLIFT
  0
POLYLINE
  8
W56LXLIFT
 62
5
 66
     1
 70
     9
  0
VERTEX
  8
W56LXLIFT
 62
5
 10
192.564
 20
-5604.255
 30
-223.860
 70
    32
  0
VERTEX
  8
W56LXLIFT
 62
5
 10
197.370
 20
-5602.282
 30
-224.312
 70
    32
  0
VERTEX
  8
W56LXLIFT
 62
5
 10
200.506
 20
-5606.275
 30
-223.201
 70
    32
  0
VERTEX
  8
W56LXLIFT
 62
5
 10
206.387
 20
-5613.764
 30
-222.838
 70
    32
  0
VERTEX
  8
W56LXLIFT
 62
5
 10
211.417
 20
-5612.593
 30
-223.402
 70
    32
  0
VERTEX
  8
W56LXLIFT
 62
5
 10
219.525
 20
-5609.239
 30
-224.481
 70
    32
  0
VERTEX
  8
W56LXLIFT
 62
5
 10
225.126
 20
-5596.995
 30
-226.373
 70
    32
  0
VERTEX
  8
W56LXLIFT
 62
5
 10
225.154
 20
-5593.272
 30
-226.805
 70
    32
  0
VERTEX
  8
W56LXLIFT
 62
5
 10
221.205
 20
-5587.576
 30
-227.127
 70
    32
  0
VERTEX
  8
W56LXLIFT
 62
5
 10
214.379
 20
-5587.485
 30
-226.555
 70
    32
  0
VERTEX
  8
W56LXLIFT
 62
5
 10
204.586
 20
-5587.255
 30
-227.346
 70
    32
  0
VERTEX
  8
W56LXLIFT
 62
5
 10
199.831
 20
-5585.384
 30
-228.143
 70
    32
  0
VERTEX
  8
W56LXLIFT
 62
5
 10
199.543
 20
-5581.663
 30
-229.035
 70
    32
  0
VERTEX
  8
W56LXLIFT
 62
5
 10
196.719
 20
-5578.011
 30
-229.969
 70
    32
  0
VERTEX
  8
W56LXLIFT
 62
5
 10
189.575
 20
-5569.870
 30
-230.610
 70
    32
  0
VERTEX
  8
W56LXLIFT
 62
5
 10
192.283
 20
-5562.434
 30
-231.395
 70
    32
  0
VERTEX
  8
W56LXLIFT
 62
5
 10
195.587
 20
-5559.056
 30
-231.804
 70
    32
  0
VERTEX
  8
W56LXLIFT
 62
5
 10
214.824
 20
-5555.323
 30
-233.573
 70
    32
  0
VERTEX
  8
W56LXLIFT
 62
5
 10
220.438
 20
-5551.858
 30
-234.486
 70
    32
  0
VERTEX
  8
W56LXLIFT
 62
5
 10
224.225
 20
-5547.749
 30
-235.853
 70
    32
  0
VERTEX
  8
W56LXLIFT
 62
5
 10
224.592
 20
-5536.679
 30
-235.519
 70
    32
  0
VERTEX
  8
W56LXLIFT
 62
5
 10
221.729
 20
-5530.168
 30
-234.992
 70
    32
  0
VERTEX
  8
W56LXLIFT
 62
5
 10
222.513
 20
-5520.574
 30
-235.072
 70
    32
  0
VERTEX
  8
W56LXLIFT
 62
5
 10
219.659
 20
-5516.307
 30
-234.560
 70
    32
  0
VERTEX
  8
W56LXLIFT
 62
5
 10
210.566
 20
-5510.534
 30
-233.916
 70
    32
  0
VERTEX
  8
W56LXLIFT
 62
5
 10
205.990
 20
-5521.924
 30
-233.725
 70
    32
  0
VERTEX
  8
W56LXLIFT
 62
5
 10
193.579
 20
-5524.059
 30
-233.246
 70
    32
  0
VERTEX
  8
W56LXLIFT
 62
5
 10
191.192
 20
-5525.518
 30
-233.158
 70
    32
  0
VERTEX
  8
W56LXLIFT
 62
5
 10
189.356
 20
-5526.640
 30
-232.973
 70
    32
  0
VERTEX
  8
W56LXLIFT
 62
5
 10
182.844
 20
-5536.042
 30
-232.180
 70
    32
  0
VERTEX
  8
W56LXLIFT
 62
5
 10
186.829
 20
-5550.876
 30
-231.577
 70
    32
  0
VERTEX
  8
W56LXLIFT
 62
5
 10
182.746
 20
-5553.631
 30
-231.169
 70
    32
  0
VERTEX
  8
W56LXLIFT
 62
5
 10
174.198
 20
-5578.446
 30
-228.982
 70
    32
  0
VERTEX
  8
W56LXLIFT
 62
5
 10
170.614
 20
-5577.055
 30
-229.000
 70
    32
  0
VERTEX
  8
W56LXLIFT
 62
5
 10
159.966
 20
-5587.308
 30
-227.416
 70
    32
  0
VERTEX
  8
W56LXLIFT
 62
5
 10
178.439
 20
-5610.611
 30
-223.371
 70
    32
  0
SEQEND
  8
W56LXLIFT
  0
POLYLINE
  8
W56LXLIFT
 62
1
 66
     1
 70
     9
  0
VERTEX
  8
W56LXLIFT
 62
1
 10
1243.743
 20
-8470.888
 30
-199.000
 70
    32
  0
VERTEX
  8
W56LXLIFT
 62
1
 10
1243.018
 20
-8458.476
 30
-199.000
 70
    32
  0
VERTEX
  8
W56LXLIFT
 62
1
 10
1245.919
 20
-8455.125
 30
-199.000
 70
    32
  0
VERTEX
  8
W56LXLIFT
 62
1
 10
1252.128
 20
-8443.072
 30
-199.000
 70
    32
  0
VERTEX
  8
W56LXLIFT
 62
1
 10
1256.905
 20
-8434.621
 30
-199.000
 70
    32
  0
VERTEX
  8
W56LXLIFT
 62
1
 10
1260.943
 20
-8424.216
 30
-199.000
 70
    32
  0
VERTEX
  8
W56LXLIFT
 62
1
 10
1266.179
 20
-8409.729
 30
-199.000
 70
    32
  0
VERTEX
  8
W56LXLIFT
 62
1
 10
1268.438
 20
-8393.476
 30
-199.000
 70
    32
  0
VERTEX
  8
W56LXLIFT
 62
1
 10
1268.962
 20
-8386.318
 30
-199.000
 70
    32
  0
VERTEX
  8
W56LXLIFT
 62
1
 10
1263.848
 20
-8378.957
 30
-199.000
 70
    32
  0
VERTEX
  8
W56LXLIFT
 62
1
 10
1260.490
 20
-8378.323
 30
-199.000
 70
    32
  0
VERTEX
  8
W56LXLIFT
 62
1
 10
1254.660
 20
-8380.735
 30
-199.000
 70
    32
  0
VERTEX
  8
W56LXLIFT
 62
1
 10
1250.330
 20
-8374.327
 30
-199.000
 70
    32
  0
VERTEX
  8
W56LXLIFT
 62
1
 10
1255.335
 20
-8371.208
 30
-199.000
 70
    32
  0
VERTEX
  8
W56LXLIFT
 62
1
 10
1256.827
 20
-8364.655
 30
-199.000
 70
    32
  0
VERTEX
  8
W56LXLIFT
 62
1
 10
1268.410
 20
-8361.394
 30
-199.000
 70
    32
  0
VERTEX
  8
W56LXLIFT
 62
1
 10
1267.288
 20
-8345.385
 30
-199.000
 70
    32
  0
VERTEX
  8
W56LXLIFT
 62
1
 10
1268.637
 20
-8338.935
 30
-199.000
 70
    32
  0
VERTEX
  8
W56LXLIFT
 62
1
 10
1275.280
 20
-8337.669
 30
-199.000
 70
    32
  0
VERTEX
  8
W56LXLIFT
 62
1
 10
1279.761
 20
-8350.972
 30
-199.000
 70
    32
  0
VERTEX
  8
W56LXLIFT
 62
1
 10
1283.489
 20
-8363.517
 30
-199.000
 70
    32
  0
VERTEX
  8
W56LXLIFT
 62
1
 10
1283.647
 20
-8380.748
 30
-199.000
 70
    32
  0
VERTEX
  8
W56LXLIFT
 62
1
 10
1284.812
 20
-8393.172
 30
-199.000
 70
    32
  0
VERTEX
  8
W56LXLIFT
 62
1
 10
1284.060
 20
-8404.262
 30
-199.000
 70
    32
  0
VERTEX
  8
W56LXLIFT
 62
1
 10
1281.636
 20
-8414.815
 30
-199.000
 70
    32
  0
VERTEX
  8
W56LXLIFT
 62
1
 10
1278.015
 20
-8432.034
 30
-199.000
 70
    32
  0
VERTEX
  8
W56LXLIFT
 62
1
 10
1277.229
 20
-8444.441
 30
-199.000
 70
    32
  0
VERTEX
  8
W56LXLIFT
 62
1
 10
1278.318
 20
-8455.088
 30
-199.000
 70
    32
  0
VERTEX
  8
W56LXLIFT
 62
1
 10
1282.488
 20
-8472.812
 30
-199.000
 70
    32
  0
VERTEX
  8
W56LXLIFT
 62
1
 10
1280.197
 20
-8477.023
 30
-199.000
 70
    32
  0
VERTEX
  8
W56LXLIFT
 62
1
 10
1270.009
 20
-8475.417
 30
-199.000
 70
    32
  0
VERTEX
  8
W56LXLIFT
 62
1
 10
1268.237
 20
-8470.641
 30
-199.000
 70
    32
  0
VERTEX
  8
W56LXLIFT
 62
1
 10
1264.515
 20
-8462.509
 30
-199.000
 70
    32
  0
VERTEX
  8
W56LXLIFT
 62
1
 10
1258.757
 20
-8461.530
 30
-199.000
 70
    32
  0
VERTEX
  8
W56LXLIFT
 62
1
 10
1253.874
 20
-8471.350
 30
-199.000
 70
    32
  0
SEQEND
  8
W56LXLIFT
  0
POLYLINE
  8
W56LXLIFT
 62
8
 66
     1
 70
     9
  0
VERTEX
  8
W56LXLIFT
 62
8
 10
1245.818
 20
-8272.684
 30
-366.666
 70
    32
  0
VERTEX
  8
W56LXLIFT
 62
8
 10
1303.125
 20
-8339.660
 30
-366.769
 70
    32
  0
VERTEX
  8
W56LXLIFT
 62
8
 10
1313.011
 20
-8332.801
 30
-366.705
 70
    32
  0
VERTEX
  8
W56LXLIFT
 62
8
 10
1320.919
 20
-8342.127
 30
-366.715
 70
    32
  0
VERTEX
  8
W56LXLIFT
 62
8
 10
1324.402
 20
-8349.106
 30
-366.731
 70
    32
  0
VERTEX
  8
W56LXLIFT
 62
8
 10
1305.104
 20
-8362.613
 30
-366.856
 70
    32
  0
VERTEX
  8
W56LXLIFT
 62
8
 10
1298.541
 20
-8375.722
 30
-366.934
 70
    32
  0
VERTEX
  8
W56LXLIFT
 62
8
 10
1289.295
 20
-8373.139
 30
-366.956
 70
    32
  0
VERTEX
  8
W56LXLIFT
 62
8
 10
1281.815
 20
-8366.301
 30
-366.955
 70
    32
  0
VERTEX
  8
W56LXLIFT
 62
8
 10
1274.739
 20
-8363.277
 30
-366.967
 70
    32
  0
VERTEX
  8
W56LXLIFT
 62
8
 10
1272.663
 20
-8357.076
 30
-366.949
 70
    32
  0
VERTEX
  8
W56LXLIFT
 62
8
 10
1268.156
 20
-8353.871
 30
-366.952
 70
    32
  0
VERTEX
  8
W56LXLIFT
 62
8
 10
1264.800
 20
-8345.225
 30
-366.929
 70
    32
  0
VERTEX
  8
W56LXLIFT
 62
8
 10
1255.431
 20
-8335.074
 30
-366.920
 70
    32
  0
VERTEX
  8
W56LXLIFT
 62
8
 10
1254.998
 20
-8329.988
 30
-366.901
 70
    32
  0
VERTEX
  8
W56LXLIFT
 62
8
 10
1242.693
 20
-8310.251
 30
-366.863
 70
    32
  0
VERTEX
  8
W56LXLIFT
 62
8
 10
1233.157
 20
-8306.792
 30
-366.883
 70
    32
  0
VERTEX
  8
W56LXLIFT
 62
8
 10
1240.835
 20
-8276.949
 30
-366.733
 70
    32
  0
SEQEND
  8
W56LXLIFT
  0
POLYLINE
  8
W56LXLIFT
 62
2
 66
     1
 70
     9
  0
VERTEX
  8
W56LXLIFT
 62
2
 10
1224.545
 20
-8122.832
 30
-366.694
 70
    32
  0
VERTEX
  8
W56LXLIFT
 62
2
 10
1228.385
 20
-8148.118
 30
-366.620
 70
    32
  0
VERTEX
  8
W56LXLIFT
 62
2
 10
1235.851
 20
-8162.943
 30
-366.531
 70
    32
  0
VERTEX
  8
W56LXLIFT
 62
2
 10
1238.447
 20
-8172.659
 30
-366.493
 70
    32
  0
VERTEX
  8
W56LXLIFT
 62
2
 10
1240.726
 20
-8186.695
 30
-366.450
 70
    32
  0
VERTEX
  8
W56LXLIFT
 62
2
 10
1236.746
 20
-8192.714
 30
-366.476
 70
    32
  0
VERTEX
  8
W56LXLIFT
 62
2
 10
1225.836
 20
-8196.685
 30
-366.565
 70
    32
  0
VERTEX
  8
W56LXLIFT
 62
2
 10
1207.980
 20
-8192.582
 30
-366.729
 70
    32
  0
VERTEX
  8
W56LXLIFT
 62
2
 10
1202.120
 20
-8198.840
 30
-366.771
 70
    32
  0
VERTEX
  8
W56LXLIFT
 62
2
 10
1194.798
 20
-8200.084
 30
-366.833
 70
    32
  0
VERTEX
  8
W56LXLIFT
 62
2
 10
1180.307
 20
-8192.009
 30
-366.973
 70
    32
  0
VERTEX
  8
W56LXLIFT
 62
2
 10
1166.641
 20
-8195.430
 30
-367.088
 70
    32
  0
VERTEX
  8
W56LXLIFT
 62
2
 10
1151.702
 20
-8179.476
 30
-367.245
 70
    32
  0
VERTEX
  8
W56LXLIFT
 62
2
 10
1145.401
 20
-8167.394
 30
-367.173
 70
    32
  0
VERTEX
  8
W56LXLIFT
 62
2
 10
1143.550
 20
-8154.892
 30
-367.133
 70
    32
  0
VERTEX
  8
W56LXLIFT
 62
2
 10
1150.605
 20
-8142.948
 30
-367.180
 70
    32
  0
VERTEX
  8
W56LXLIFT
 62
2
 10
1152.139
 20
-8134.975
 30
-367.181
 70
    32
  0
VERTEX
  8
W56LXLIFT
 62
2
 10
1165.430
 20
-8123.624
 30
-367.213
 70
    32
  0
VERTEX
  8
W56LXLIFT
 62
2
 10
1175.877
 20
-8117.606
 30
-367.131
 70
    32
  0
VERTEX
  8
W56LXLIFT
 62
2
 10
1184.009
 20
-8116.441
 30
-367.061
 70
    32
  0
VERTEX
  8
W56LXLIFT
 62
2
 10
1192.735
 20
-8112.275
 30
-366.991
 70
    32
  0
VERTEX
  8
W56LXLIFT
 62
2
 10
1212.037
 20
-8119.677
 30
-366.809
 70
    32
  0
VERTEX
  8
W56LXLIFT
 62
2
 10
1219.377
 20
-8117.466
 30
-366.748
 70
    32
  0
SEQEND
  8
W56LXLIFT
  0
POLYLINE
  8
W56LXLIFT
 62
1
 66
     1
 70
     9
  0
VERTEX
  8
W56LXLIFT
 62
1
 10
1188.176
 20
-8166.803
 30
-266.000
 70
    32
  0
VERTEX
  8
W56LXLIFT
 62
1
 10
1164.825
 20
-8164.968
 30
-266.000
 70
    32
  0
VERTEX
  8
W56LXLIFT
 62
1
 10
1159.874
 20
-8158.364
 30
-266.000
 70
    32
  0
VERTEX
  8
W56LXLIFT
 62
1
 10
1142.501
 20
-8149.650
 30
-266.000
 70
    32
  0
VERTEX
  8
W56LXLIFT
 62
1
 10
1136.868
 20
-8143.752
 30
-266.000
 70
    32
  0
VERTEX
  8
W56LXLIFT
 62
1
 10
1134.773
 20
-8136.612
 30
-266.000
 70
    32
  0
VERTEX
  8
W56LXLIFT
 62
1
 10
1135.458
 20
-8125.968
 30
-266.000
 70
    32
  0
VERTEX
  8
W56LXLIFT
 62
1
 10
1138.748
 20
-8122.421
 30
-266.000
 70
    32
  0
VERTEX
  8
W56LXLIFT
 62
1
 10
1144.285
 20
-8120.503
 30
-266.000
 70
    32
  0
VERTEX
  8
W56LXLIFT
 62
1
 10
1151.511
 20
-8120.939
 30
-266.000
 70
    32
  0
VERTEX
  8
W56LXLIFT
 62
1
 10
1163.900
 20
-8121.345
 30
-266.000
 70
    32
  0
VERTEX
  8
W56LXLIFT
 62
1
 10
1173.990
 20
-8131.501
 30
-266.000
 70
    32
  0
VERTEX
  8
W56LXLIFT
 62
1
 10
1181.392
 20
-8139.263
 30
-266.000
 70
    32
  0
VERTEX
  8
W56LXLIFT
 62
1
 10
1186.989
 20
-8147.672
 30
-266.000
 70
    32
  0
VERTEX
  8
W56LXLIFT
 62
1
 10
1198.010
 20
-8159.428
 30
-266.000
 70
    32
  0
VERTEX
  8
W56LXLIFT
 62
1
 10
1196.372
 20
-8162.115
 30
-266.000
 70
    32
  0
SEQEND
  8
W56LXLIFT
  0
POINT
  8
W56LXLIFT
 62
13
 10
1158.373
 20
-8261.628
 30
-245.000
  0
POINT
  8
W56LXLIFT
 62
13
 10
1157.302
 20
-8320.668
 30
-165.000
  0
LINE
  8
W56LXLIFT
 62
13
 10
1157.302
 20
-8320.668
 30
-165.000
 11
1158.373
 21
-8261.628
 31
-245.000
  0
POLYLINE
  8
W56LXLIFT
 62
6
 66
     1
 70
     9
  0
VERTEX
  8
W56LXLIFT
 62
6
 10
1250.854
 20
-7714.020
 30
-363.903
 70
    32
  0
VERTEX
  8
W56LXLIFT
 62
6
 10
1249.744
 20
-7717.061
 30
-363.981
 70
    32
  0
VERTEX
  8
W56LXLIFT
 62
6
 10
1250.617
 20
-7721.090
 30
-364.042
 70
    32
  0
VERTEX
  8
W56LXLIFT
 62
6
 10
1255.967
 20
-7734.611
 30
-364.202
 70
    32
  0
VERTEX
  8
W56LXLIFT
 62
6
 10
1264.293
 20
-7749.613
 30
-364.336
 70
    32
  0
VERTEX
  8
W56LXLIFT
 62
6
 10
1264.497
 20
-7765.651
 30
-364.631
 70
    32
  0
VERTEX
  8
W56LXLIFT
 62
6
 10
1269.670
 20
-7774.442
 30
-364.682
 70
    32
  0
VERTEX
  8
W56LXLIFT
 62
6
 10
1277.975
 20
-7778.455
 30
-364.685
 70
    32
  0
VERTEX
  8
W56LXLIFT
 62
6
 10
1285.228
 20
-7794.854
 30
-364.979
 70
    32
  0
VERTEX
  8
W56LXLIFT
 62
6
 10
1268.551
 20
-7805.105
 30
-365.388
 70
    32
  0
VERTEX
  8
W56LXLIFT
 62
6
 10
1271.322
 20
-7809.533
 30
-365.459
 70
    32
  0
VERTEX
  8
W56LXLIFT
 62
6
 10
1282.076
 20
-7805.471
 30
-365.253
 70
    32
  0
VERTEX
  8
W56LXLIFT
 62
6
 10
1289.550
 20
-7807.367
 30
-365.216
 70
    32
  0
VERTEX
  8
W56LXLIFT
 62
6
 10
1295.623
 20
-7813.588
 30
-365.293
 70
    32
  0
VERTEX
  8
W56LXLIFT
 62
6
 10
1294.889
 20
-7815.934
 30
-365.354
 70
    32
  0
VERTEX
  8
W56LXLIFT
 62
6
 10
1301.670
 20
-7824.248
 30
-365.470
 70
    32
  0
VERTEX
  8
W56LXLIFT
 62
6
 10
1300.695
 20
-7829.029
 30
-365.589
 70
    32
  0
VERTEX
  8
W56LXLIFT
 62
6
 10
1290.511
 20
-7837.764
 30
-365.894
 70
    32
  0
VERTEX
  8
W56LXLIFT
 62
6
 10
1285.359
 20
-7839.962
 30
-365.999
 70
    32
  0
VERTEX
  8
W56LXLIFT
 62
6
 10
1280.469
 20
-7839.603
 30
-366.042
 70
    32
  0
VERTEX
  8
W56LXLIFT
 62
6
 10
1274.929
 20
-7828.588
 30
-365.852
 70
    32
  0
VERTEX
  8
W56LXLIFT
 62
6
 10
1263.261
 20
-7826.710
 30
-365.933
 70
    32
  0
VERTEX
  8
W56LXLIFT
 62
6
 10
1255.773
 20
-7805.189
 30
-365.525
 70
    32
  0
VERTEX
  8
W56LXLIFT
 62
6
 10
1255.632
 20
-7799.894
 30
-365.407
 70
    32
  0
VERTEX
  8
W56LXLIFT
 62
6
 10
1250.630
 20
-7777.607
 30
-365.097
 70
    32
  0
VERTEX
  8
W56LXLIFT
 62
6
 10
1249.999
 20
-7751.079
 30
-364.623
 70
    32
  0
VERTEX
  8
W56LXLIFT
 62
6
 10
1247.232
 20
-7742.334
 30
-364.507
 70
    32
  0
VERTEX
  8
W56LXLIFT
 62
6
 10
1234.702
 20
-7730.270
 30
-364.505
 70
    32
  0
VERTEX
  8
W56LXLIFT
 62
6
 10
1232.423
 20
-7727.008
 30
-364.484
 70
    32
  0
VERTEX
  8
W56LXLIFT
 62
6
 10
1210.686
 20
-7705.628
 30
-364.294
 70
    32
  0
VERTEX
  8
W56LXLIFT
 62
6
 10
1216.297
 20
-7700.845
 30
-364.121
 70
    32
  0
VERTEX
  8
W56LXLIFT
 62
6
 10
1223.781
 20
-7689.789
 30
-363.733
 70
    32
  0
VERTEX
  8
W56LXLIFT
 62
6
 10
1230.943
 20
-7675.184
 30
-363.292
 70
    32
  0
SEQEND
  8
W56LXLIFT
  0
POLYLINE
  8
W56LXLIFT
 62
1
 66
     1
 70
     9
  0
VERTEX
  8
W56LXLIFT
 62
1
 10
1251.854
 20
-7713.020
 30
-353.903
 70
    32
  0
VERTEX
  8
W56LXLIFT
 62
1
 10
1250.744
 20
-7716.061
 30
-353.981
 70
    32
  0
VERTEX
  8
W56LXLIFT
 62
1
 10
1251.617
 20
-7720.090
 30
-354.042
 70
    32
  0
VERTEX
  8
W56LXLIFT
 62
1
 10
1256.967
 20
-7733.611
 30
-354.202
 70
    32
  0
VERTEX
  8
W56LXLIFT
 62
1
 10
1265.293
 20
-7748.613
 30
-354.336
 70
    32
  0
VERTEX
  8
W56LXLIFT
 62
1
 10
1265.497
 20
-7764.651
 30
-354.631
 70
    32
  0
VERTEX
  8
W56LXLIFT
 62
1
 10
1270.670
 20
-7773.442
 30
-354.682
 70
    32
  0
VERTEX
  8
W56LXLIFT
 62
1
 10
1278.975
 20
-7777.455
 30
-354.685
 70
    32
  0
VERTEX
  8
W56LXLIFT
 62
1
 10
1286.228
 20
-7793.854
 30
-354.979
 70
    32
  0
VERTEX
  8
W56LXLIFT
 62
1
 10
1269.551
 20
-7804.105
 30
-355.388
 70
    32
  0
VERTEX
  8
W56LXLIFT
 62
1
 10
1272.322
 20
-7808.533
 30
-355.459
 70
    32
  0
VERTEX
  8
W56LXLIFT
 62
1
 10
1283.076
 20
-7804.471
 30
-355.253
 70
    32
  0
VERTEX
  8
W56LXLIFT
 62
1
 10
1290.550
 20
-7806.367
 30
-355.216
 70
    32
  0
VERTEX
  8
W56LXLIFT
 62
1
 10
1296.623
 20
-7812.588
 30
-355.293
 70
    32
  0
VERTEX
  8
W56LXLIFT
 62
1
 10
1295.889
 20
-7814.934
 30
-355.354
 70
    32
  0
VERTEX
  8
W56LXLIFT
 62
1
 10
1302.670
 20
-7823.248
 30
-355.470
 70
    32
  0
VERTEX
  8
W56LXLIFT
 62
1
 10
1301.695
 20
-7828.029
 30
-355.589
 70
    32
  0
VERTEX
  8
W56LXLIFT
 62
1
 10
1291.511
 20
-7836.764
 30
-355.894
 70
    32
  0
VERTEX
  8
W56LXLIFT
 62
1
 10
1286.359
 20
-7838.962
 30
-355.999
 70
    32
  0
VERTEX
  8
W56LXLIFT
 62
1
 10
1281.469
 20
-7838.603
 30
-356.042
 70
    32
  0
VERTEX
  8
W56LXLIFT
 62
1
 10
1275.929
 20
-7827.588
 30
-355.852
 70
    32
  0
VERTEX
  8
W56LXLIFT
 62
1
 10
1264.261
 20
-7825.710
 30
-355.933
 70
    32
  0
VERTEX
  8
W56LXLIFT
 62
1
 10
1256.773
 20
-7804.189
 30
-355.525
 70
    32
  0
VERTEX
  8
W56LXLIFT
 62
1
 10
1256.632
 20
-7798.894
 30
-355.407
 70
    32
  0
VERTEX
  8
W56LXLIFT
 62
1
 10
1251.630
 20
-7776.607
 30
-355.097
 70
    32
  0
VERTEX
  8
W56LXLIFT
 62
1
 10
1250.999
 20
-7750.079
 30
-354.623
 70
    32
  0
VERTEX
  8
W56LXLIFT
 62
1
 10
1248.232
 20
-7741.334
 30
-354.507
 70
    32
  0
VERTEX
  8
W56LXLIFT
 62
1
 10
1235.702
 20
-7729.270
 30
-354.505
 70
    32
  0
VERTEX
  8
W56LXLIFT
 62
1
 10
1233.423
 20
-7726.008
 30
-354.484
 70
    32
  0
VERTEX
  8
W56LXLIFT
 62
1
 10
1211.686
 20
-7704.628
 30
-354.294
 70
    32
  0
VERTEX
  8
W56LXLIFT
 62
1
 10
1217.297
 20
-7699.845
 30
-354.121
 70
    32
  0
VERTEX
  8
W56LXLIFT
 62
1
 10
1224.781
 20
-7688.789
 30
-353.733
 70
    32
  0
VERTEX
  8
W56LXLIFT
 62
1
 10
1231.943
 20
-7674.184
 30
-353.292
 70
    32
  0
SEQEND
  8
W56LXLIFT
  0
POINT
  8
W56LXLIFT
 62
6
 10
1220.323
 20
-7785.038
 30
-294.000
  0
POINT
  8
W56LXLIFT
 62
6
 10
1257.970
 20
-7751.514
 30
-354.484
  0
LINE
  8
W56LXLIFT
 62
6
 10
1220.323
 20
-7785.038
 30
-294.000
 11
1257.970
 21
-7751.514
 31
-354.484
  0
POLYLINE
  8
W56LXLIFT
 62
4
 66
     1
 70
     9
  0
VERTEX
  8
W56LXLIFT
 62
4
 10
1069.626
 20
-8044.435
 30
-301.000
 70
    32
  0
VERTEX
  8
W56LXLIFT
 62
4
 10
1080.618
 20
-8033.539
 30
-301.000
 70
    32
  0
VERTEX
  8
W56LXLIFT
 62
4
 10
1077.616
 20
-8015.922
 30
-301.000
 70
    32
  0
VERTEX
  8
W56LXLIFT
 62
4
 10
1092.024
 20
-8011.005
 30
-301.000
 70
    32
  0
VERTEX
  8
W56LXLIFT
 62
4
 10
1095.214
 20
-8014.553
 30
-301.000
 70
    32
  0
VERTEX
  8
W56LXLIFT
 62
4
 10
1094.681
 20
-8021.200
 30
-301.000
 70
    32
  0
VERTEX
  8
W56LXLIFT
 62
4
 10
1096.271
 20
-8027.946
 30
-301.000
 70
    32
  0
VERTEX
  8
W56LXLIFT
 62
4
 10
1099.942
 20
-8032.770
 30
-301.000
 70
    32
  0
VERTEX
  8
W56LXLIFT
 62
4
 10
1104.826
 20
-8035.969
 30
-301.000
 70
    32
  0
VERTEX
  8
W56LXLIFT
 62
4
 10
1111.032
 20
-8051.724
 30
-301.000
 70
    32
  0
VERTEX
  8
W56LXLIFT
 62
4
 10
1105.163
 20
-8069.321
 30
-301.000
 70
    32
  0
VERTEX
  8
W56LXLIFT
 62
4
 10
1104.753
 20
-8076.743
 30
-301.000
 70
    32
  0
VERTEX
  8
W56LXLIFT
 62
4
 10
1101.363
 20
-8083.924
 30
-301.000
 70
    32
  0
VERTEX
  8
W56LXLIFT
 62
4
 10
1090.239
 20
-8087.245
 30
-301.000
 70
    32
  0
VERTEX
  8
W56LXLIFT
 62
4
 10
1077.054
 20
-8082.861
 30
-301.000
 70
    32
  0
VERTEX
  8
W56LXLIFT
 62
4
 10
1074.472
 20
-8066.132
 30
-301.000
 70
    32
  0
VERTEX
  8
W56LXLIFT
 62
4
 10
1072.155
 20
-8058.826
 30
-301.000
 70
    32
  0
SEQEND
  8
W56LXLIFT
  0
POLYLINE
  8
W56LXLIFT
 62
8
 66
     1
 70
     9
  0
VERTEX
  8
W56LXLIFT
 62
8
 10
1013.832
 20
-8057.927
 30
-299.000
 70
    32
  0
VERTEX
  8
W56LXLIFT
 62
8
 10
1017.200
 20
-8040.609
 30
-299.000
 70
    32
  0
VERTEX
  8
W56LXLIFT
 62
8
 10
1029.630
 20
-8020.259
 30
-299.000
 70
    32
  0
VERTEX
  8
W56LXLIFT
 62
8
 10
1035.668
 20
-8015.718
 30
-299.000
 70
    32
  0
VERTEX
  8
W56LXLIFT
 62
8
 10
1047.814
 20
-7997.083
 30
-299.000
 70
    32
  0
VERTEX
  8
W56LXLIFT
 62
8
 10
1053.159
 20
-7993.687
 30
-299.000
 70
    32
  0
VERTEX
  8
W56LXLIFT
 62
8
 10
1060.899
 20
-7994.841
 30
-299.000
 70
    32
  0
VERTEX
  8
W56LXLIFT
 62
8
 10
1062.875
 20
-8000.015
 30
-299.000
 70
    32
  0
VERTEX
  8
W56LXLIFT
 62
8
 10
1051.889
 20
-8015.443
 30
-299.000
 70
    32
  0
VERTEX
  8
W56LXLIFT
 62
8
 10
1044.144
 20
-8043.241
 30
-299.000
 70
    32
  0
VERTEX
  8
W56LXLIFT
 62
8
 10
1046.262
 20
-8046.801
 30
-299.000
 70
    32
  0
VERTEX
  8
W56LXLIFT
 62
8
 10
1042.112
 20
-8059.710
 30
-299.000
 70
    32
  0
VERTEX
  8
W56LXLIFT
 62
8
 10
1024.185
 20
-8067.256
 30
-299.000
 70
    32
  0
SEQEND
  8
W56LXLIFT
  0
POLYLINE
  8
W56LXLIFT
 62
5
 66
     1
 70
     9
  0
VERTEX
  8
W56LXLIFT
 62
5
 10
1040.177
 20
-8073.916
 30
-238.000
 70
    32
  0
VERTEX
  8
W56LXLIFT
 62
5
 10
1033.238
 20
-8082.113
 30
-238.000
 70
    32
  0
VERTEX
  8
W56LXLIFT
 62
5
 10
1025.899
 20
-8079.193
 30
-238.000
 70
    32
  0
VERTEX
  8
W56LXLIFT
 62
5
 10
1015.723
 20
-8067.840
 30
-238.000
 70
    32
  0
VERTEX
  8
W56LXLIFT
 62
5
 10
1018.154
 20
-8056.053
 30
-238.000
 70
    32
  0
VERTEX
  8
W56LXLIFT
 62
5
 10
1013.682
 20
-8052.062
 30
-238.000
 70
    32
  0
VERTEX
  8
W56LXLIFT
 62
5
 10
1014.249
 20
-8044.120
 30
-238.000
 70
    32
  0
VERTEX
  8
W56LXLIFT
 62
5
 10
1020.004
 20
-8033.536
 30
-238.000
 70
    32
  0
VERTEX
  8
W56LXLIFT
 62
5
 10
1024.935
 20
-8032.618
 30
-238.000
 70
    32
  0
VERTEX
  8
W56LXLIFT
 62
5
 10
1028.434
 20
-8025.424
 30
-238.000
 70
    32
  0
VERTEX
  8
W56LXLIFT
 62
5
 10
1037.321
 20
-8023.082
 30
-238.000
 70
    32
  0
VERTEX
  8
W56LXLIFT
 62
5
 10
1047.838
 20
-8036.891
 30
-238.000
 70
    32
  0
VERTEX
  8
W56LXLIFT
 62
5
 10
1043.829
 20
-8046.052
 30
-238.000
 70
    32
  0
SEQEND
  8
W56LXLIFT
  0
POLYLINE
  8
W56LXLIFT
 62
1
 66
     1
 70
     9
  0
VERTEX
  8
W56LXLIFT
 62
1
 10
1014.832
 20
-8056.927
 30
-289.000
 70
    32
  0
VERTEX
  8
W56LXLIFT
 62
1
 10
1018.200
 20
-8039.609
 30
-289.000
 70
    32
  0
VERTEX
  8
W56LXLIFT
 62
1
 10
1030.630
 20
-8019.259
 30
-289.000
 70
    32
  0
VERTEX
  8
W56LXLIFT
 62
1
 10
1036.668
 20
-8014.718
 30
-289.000
 70
    32
  0
VERTEX
  8
W56LXLIFT
 62
1
 10
1048.814
 20
-7996.083
 30
-289.000
 70
    32
  0
VERTEX
  8
W56LXLIFT
 62
1
 10
1054.159
 20
-7992.687
 30
-289.000
 70
    32
  0
VERTEX
  8
W56LXLIFT
 62
1
 10
1061.899
 20
-7993.841
 30
-289.000
 70
    32
  0
VERTEX
  8
W56LXLIFT
 62
1
 10
1063.875
 20
-7999.015
 30
-289.000
 70
    32
  0
VERTEX
  8
W56LXLIFT
 62
1
 10
1052.889
 20
-8014.443
 30
-289.000
 70
    32
  0
VERTEX
  8
W56LXLIFT
 62
1
 10
1045.144
 20
-8042.241
 30
-289.000
 70
    32
  0
VERTEX
  8
W56LXLIFT
 62
1
 10
1047.262
 20
-8045.801
 30
-289.000
 70
    32
  0
VERTEX
  8
W56LXLIFT
 62
1
 10
1043.112
 20
-8058.710
 30
-289.000
 70
    32
  0
VERTEX
  8
W56LXLIFT
 62
1
 10
1025.185
 20
-8066.256
 30
-289.000
 70
    32
  0
SEQEND
  8
W56LXLIFT
  0
POLYLINE
  8
W56LXLIFT
 62
1
 66
     1
 70
     9
  0
VERTEX
  8
W56LXLIFT
 62
1
 10
1070.626
 20
-8043.435
 30
-291.000
 70
    32
  0
VERTEX
  8
W56LXLIFT
 62
1
 10
1081.618
 20
-8032.539
 30
-291.000
 70
    32
  0
VERTEX
  8
W56LXLIFT
 62
1
 10
1078.616
 20
-8014.922
 30
-291.000
 70
    32
  0
VERTEX
  8
W56LXLIFT
 62
1
 10
1093.024
 20
-8010.005
 30
-291.000
 70
    32
  0
VERTEX
  8
W56LXLIFT
 62
1
 10
1096.214
 20
-8013.553
 30
-291.000
 70
    32
  0
VERTEX
  8
W56LXLIFT
 62
1
 10
1095.681
 20
-8020.200
 30
-291.000
 70
    32
  0
VERTEX
  8
W56LXLIFT
 62
1
 10
1097.271
 20
-8026.946
 30
-291.000
 70
    32
  0
VERTEX
  8
W56LXLIFT
 62
1
 10
1100.942
 20
-8031.770
 30
-291.000
 70
    32
  0
VERTEX
  8
W56LXLIFT
 62
1
 10
1105.826
 20
-8034.969
 30
-291.000
 70
    32
  0
VERTEX
  8
W56LXLIFT
 62
1
 10
1112.032
 20
-8050.724
 30
-291.000
 70
    32
  0
VERTEX
  8
W56LXLIFT
 62
1
 10
1106.163
 20
-8068.321
 30
-291.000
 70
    32
  0
VERTEX
  8
W56LXLIFT
 62
1
 10
1105.753
 20
-8075.743
 30
-291.000
 70
    32
  0
VERTEX
  8
W56LXLIFT
 62
1
 10
1102.363
 20
-8082.924
 30
-291.000
 70
    32
  0
VERTEX
  8
W56LXLIFT
 62
1
 10
1091.239
 20
-8086.245
 30
-291.000
 70
    32
  0
VERTEX
  8
W56LXLIFT
 62
1
 10
1078.054
 20
-8081.861
 30
-291.000
 70
    32
  0
VERTEX
  8
W56LXLIFT
 62
1
 10
1075.472
 20
-8065.132
 30
-291.000
 70
    32
  0
VERTEX
  8
W56LXLIFT
 62
1
 10
1073.155
 20
-8057.826
 30
-291.000
 70
    32
  0
SEQEND
  8
W56LXLIFT
  0
POLYLINE
  8
W56LXLIFT
 62
6
 66
     1
 70
     9
  0
VERTEX
  8
W56LXLIFT
 62
6
 10
1126.836
 20
-8064.941
 30
-366.812
 70
    32
  0
VERTEX
  8
W56LXLIFT
 62
6
 10
1126.417
 20
-8055.101
 30
-366.791
 70
    32
  0
VERTEX
  8
W56LXLIFT
 62
6
 10
1120.305
 20
-8042.671
 30
-366.710
 70
    32
  0
VERTEX
  8
W56LXLIFT
 62
6
 10
1117.143
 20
-8039.387
 30
-366.673
 70
    32
  0
VERTEX
  8
W56LXLIFT
 62
6
 10
1127.605
 20
-8035.083
 30
-366.767
 70
    32
  0
VERTEX
  8
W56LXLIFT
 62
6
 10
1135.658
 20
-8021.793
 30
-366.822
 70
    32
  0
VERTEX
  8
W56LXLIFT
 62
6
 10
1142.973
 20
-8016.997
 30
-366.885
 70
    32
  0
VERTEX
  8
W56LXLIFT
 62
6
 10
1154.049
 20
-8019.269
 30
-366.996
 70
    32
  0
VERTEX
  8
W56LXLIFT
 62
6
 10
1156.762
 20
-8022.221
 30
-367.028
 70
    32
  0
VERTEX
  8
W56LXLIFT
 62
6
 10
1155.473
 20
-8037.783
 30
-367.043
 70
    32
  0
VERTEX
  8
W56LXLIFT
 62
6
 10
1159.545
 20
-8056.384
 30
-367.115
 70
    32
  0
VERTEX
  8
W56LXLIFT
 62
6
 10
1162.547
 20
-8060.211
 30
-367.151
 70
    32
  0
VERTEX
  8
W56LXLIFT
 62
6
 10
1162.533
 20
-8063.887
 30
-367.157
 70
    32
  0
VERTEX
  8
W56LXLIFT
 62
6
 10
1164.659
 20
-8066.925
 30
-367.183
 70
    32
  0
VERTEX
  8
W56LXLIFT
 62
6
 10
1160.115
 20
-8075.551
 30
-367.154
 70
    32
  0
SEQEND
  8
W56LXLIFT
  0
POLYLINE
  8
W56LXLIFT
 62
1
 66
     1
 70
     9
  0
VERTEX
  8
W56LXLIFT
 62
1
 10
1127.836
 20
-8063.941
 30
-356.812
 70
    32
  0
VERTEX
  8
W56LXLIFT
 62
1
 10
1127.417
 20
-8054.101
 30
-356.791
 70
    32
  0
VERTEX
  8
W56LXLIFT
 62
1
 10
1121.305
 20
-8041.671
 30
-356.710
 70
    32
  0
VERTEX
  8
W56LXLIFT
 62
1
 10
1118.143
 20
-8038.387
 30
-356.673
 70
    32
  0
VERTEX
  8
W56LXLIFT
 62
1
 10
1128.605
 20
-8034.083
 30
-356.767
 70
    32
  0
VERTEX
  8
W56LXLIFT
 62
1
 10
1136.658
 20
-8020.793
 30
-356.822
 70
    32
  0
VERTEX
  8
W56LXLIFT
 62
1
 10
1143.973
 20
-8015.997
 30
-356.885
 70
    32
  0
VERTEX
  8
W56LXLIFT
 62
1
 10
1155.049
 20
-8018.269
 30
-356.996
 70
    32
  0
VERTEX
  8
W56LXLIFT
 62
1
 10
1157.762
 20
-8021.221
 30
-357.028
 70
    32
  0
VERTEX
  8
W56LXLIFT
 62
1
 10
1156.473
 20
-8036.783
 30
-357.043
 70
    32
  0
VERTEX
  8
W56LXLIFT
 62
1
 10
1160.545
 20
-8055.384
 30
-357.115
 70
    32
  0
VERTEX
  8
W56LXLIFT
 62
1
 10
1163.547
 20
-8059.211
 30
-357.151
 70
    32
  0
VERTEX
  8
W56LXLIFT
 62
1
 10
1163.533
 20
-8062.887
 30
-357.157
 70
    32
  0
VERTEX
  8
W56LXLIFT
 62
1
 10
1165.659
 20
-8065.925
 30
-357.183
 70
    32
  0
VERTEX
  8
W56LXLIFT
 62
1
 10
1161.115
 20
-8074.551
 30
-357.154
 70
    32
  0
SEQEND
  8
W56LXLIFT
  0
POLYLINE
  8
W56LXLIFT
 62
1
 66
     1
 70
     9
  0
VERTEX
  8
W56LXLIFT
 62
1
 10
1288.490
 20
-7941.076
 30
-217.000
 70
    32
  0
VERTEX
  8
W56LXLIFT
 62
1
 10
1292.623
 20
-7929.099
 30
-217.000
 70
    32
  0
VERTEX
  8
W56LXLIFT
 62
1
 10
1289.941
 20
-7923.887
 30
-217.000
 70
    32
  0
VERTEX
  8
W56LXLIFT
 62
1
 10
1273.594
 20
-7902.002
 30
-217.000
 70
    32
  0
VERTEX
  8
W56LXLIFT
 62
1
 10
1271.419
 20
-7892.091
 30
-217.000
 70
    32
  0
VERTEX
  8
W56LXLIFT
 62
1
 10
1277.272
 20
-7885.046
 30
-217.000
 70
    32
  0
VERTEX
  8
W56LXLIFT
 62
1
 10
1280.844
 20
-7888.641
 30
-217.000
 70
    32
  0
VERTEX
  8
W56LXLIFT
 62
1
 10
1287.916
 20
-7888.084
 30
-217.000
 70
    32
  0
VERTEX
  8
W56LXLIFT
 62
1
 10
1304.564
 20
-7897.185
 30
-217.000
 70
    32
  0
VERTEX
  8
W56LXLIFT
 62
1
 10
1304.706
 20
-7914.631
 30
-217.000
 70
    32
  0
VERTEX
  8
W56LXLIFT
 62
1
 10
1308.092
 20
-7919.769
 30
-217.000
 70
    32
  0
VERTEX
  8
W56LXLIFT
 62
1
 10
1309.528
 20
-7926.857
 30
-217.000
 70
    32
  0
VERTEX
  8
W56LXLIFT
 62
1
 10
1303.627
 20
-7932.635
 30
-217.000
 70
    32
  0
VERTEX
  8
W56LXLIFT
 62
1
 10
1298.592
 20
-7943.963
 30
-217.000
 70
    32
  0
VERTEX
  8
W56LXLIFT
 62
1
 10
1291.781
 20
-7945.632
 30
-217.000
 70
    32
  0
SEQEND
  8
W56LXLIFT
  0
POLYLINE
  8
W56LXLIFT
 62
4
 66
     1
 70
     9
  0
VERTEX
  8
W56LXLIFT
 62
4
 10
1346.585
 20
-7866.755
 30
-365.801
 70
    32
  0
VERTEX
  8
W56LXLIFT
 62
4
 10
1349.648
 20
-7876.697
 30
-365.767
 70
    32
  0
VERTEX
  8
W56LXLIFT
 62
4
 10
1353.346
 20
-7881.988
 30
-365.728
 70
    32
  0
VERTEX
  8
W56LXLIFT
 62
4
 10
1366.970
 20
-7884.657
 30
-365.584
 70
    32
  0
VERTEX
  8
W56LXLIFT
 62
4
 10
1374.626
 20
-7893.762
 30
-365.502
 70
    32
  0
VERTEX
  8
W56LXLIFT
 62
4
 10
1376.292
 20
-7912.662
 30
-365.481
 70
    32
  0
VERTEX
  8
W56LXLIFT
 62
4
 10
1373.751
 20
-7930.455
 30
-365.506
 70
    32
  0
VERTEX
  8
W56LXLIFT
 62
4
 10
1370.345
 20
-7943.019
 30
-365.531
 70
    32
  0
VERTEX
  8
W56LXLIFT
 62
4
 10
1363.112
 20
-7927.106
 30
-365.607
 70
    32
  0
VERTEX
  8
W56LXLIFT
 62
4
 10
1363.112
 20
-7927.106
 30
-365.618
 70
    32
  0
VERTEX
  8
W56LXLIFT
 62
4
 10
1359.758
 20
-7926.051
 30
-365.654
 70
    32
  0
VERTEX
  8
W56LXLIFT
 62
4
 10
1350.169
 20
-7913.873
 30
-365.756
 70
    32
  0
VERTEX
  8
W56LXLIFT
 62
4
 10
1349.196
 20
-7908.620
 30
-365.767
 70
    32
  0
VERTEX
  8
W56LXLIFT
 62
4
 10
1346.589
 20
-7907.206
 30
-365.795
 70
    32
  0
VERTEX
  8
W56LXLIFT
 62
4
 10
1336.061
 20
-7892.449
 30
-365.908
 70
    32
  0
VERTEX
  8
W56LXLIFT
 62
4
 10
1333.663
 20
-7883.768
 30
-365.935
 70
    32
  0
VERTEX
  8
W56LXLIFT
 62
4
 10
1327.915
 20
-7878.939
 30
-365.996
 70
    32
  0
VERTEX
  8
W56LXLIFT
 62
4
 10
1326.624
 20
-7871.535
 30
-366.010
 70
    32
  0
VERTEX
  8
W56LXLIFT
 62
4
 10
1327.940
 20
-7848.331
 30
-365.737
 70
    32
  0
VERTEX
  8
W56LXLIFT
 62
4
 10
1333.969
 20
-7841.828
 30
-365.526
 70
    32
  0
VERTEX
  8
W56LXLIFT
 62
4
 10
1343.947
 20
-7859.430
 30
-365.818
 70
    32
  0
SEQEND
  8
W56LXLIFT
  0
POINT
  8
W56LXLIFT
 62
4
 10
957.874
 20
-6907.751
 30
-202.000
  0
POLYLINE
  8
W56LXLIFT
 62
4
 66
     1
 70
     9
  0
VERTEX
  8
W56LXLIFT
 62
4
 10
980.344
 20
-6706.132
 30
-360.058
 70
    32
  0
VERTEX
  8
W56LXLIFT
 62
4
 10
1023.890
 20
-6774.018
 30
-360.379
 70
    32
  0
VERTEX
  8
W56LXLIFT
 62
4
 10
1044.350
 20
-6875.292
 30
-360.773
 70
    32
  0
VERTEX
  8
W56LXLIFT
 62
4
 10
1045.631
 20
-6883.680
 30
-360.817
 70
    32
  0
VERTEX
  8
W56LXLIFT
 62
4
 10
1065.198
 20
-6980.939
 30
-361.253
 70
    32
  0
VERTEX
  8
W56LXLIFT
 62
4
 10
1114.906
 20
-7057.544
 30
-361.122
 70
    32
  0
VERTEX
  8
W56LXLIFT
 62
4
 10
1125.742
 20
-7073.336
 30
-361.087
 70
    32
  0
VERTEX
  8
W56LXLIFT
 62
4
 10
1130.564
 20
-7081.382
 30
-361.079
 70
    32
  0
VERTEX
  8
W56LXLIFT
 62
4
 10
1123.451
 20
-7085.309
 30
-361.206
 70
    32
  0
VERTEX
  8
W56LXLIFT
 62
4
 10
1118.519
 20
-7077.220
 30
-361.215
 70
    32
  0
VERTEX
  8
W56LXLIFT
 62
4
 10
1108.163
 20
-7061.721
 30
-361.246
 70
    32
  0
VERTEX
  8
W56LXLIFT
 62
4
 10
1088.560
 20
-7031.665
 30
-361.298
 70
    32
  0
VERTEX
  8
W56LXLIFT
 62
4
 10
1079.365
 20
-7022.178
 30
-361.357
 70
    32
  0
VERTEX
  8
W56LXLIFT
 62
4
 10
1069.502
 20
-7001.762
 30
-361.345
 70
    32
  0
VERTEX
  8
W56LXLIFT
 62
4
 10
1055.151
 20
-6981.555
 30
-361.396
 70
    32
  0
VERTEX
  8
W56LXLIFT
 62
4
 10
1050.631
 20
-6960.328
 30
-361.305
 70
    32
  0
VERTEX
  8
W56LXLIFT
 62
4
 10
1044.402
 20
-6930.259
 30
-361.172
 70
    32
  0
VERTEX
  8
W56LXLIFT
 62
4
 10
1040.640
 20
-6907.199
 30
-361.057
 70
    32
  0
VERTEX
  8
W56LXLIFT
 62
4
 10
1036.490
 20
-6904.080
 30
-361.091
 70
    32
  0
VERTEX
  8
W56LXLIFT
 62
4
 10
1029.981
 20
-6905.114
 30
-361.189
 70
    32
  0
VERTEX
  8
W56LXLIFT
 62
4
 10
1022.485
 20
-6900.470
 30
-361.229
 70
    32
  0
VERTEX
  8
W56LXLIFT
 62
4
 10
1019.735
 20
-6890.310
 30
-361.170
 70
    32
  0
VERTEX
  8
W56LXLIFT
 62
4
 10
1020.040
 20
-6882.638
 30
-361.117
 70
    32
  0
VERTEX
  8
W56LXLIFT
 62
4
 10
1030.551
 20
-6855.003
 30
-360.817
 70
    32
  0
VERTEX
  8
W56LXLIFT
 62
4
 10
1028.904
 20
-6843.956
 30
-360.759
 70
    32
  0
VERTEX
  8
W56LXLIFT
 62
4
 10
1024.594
 20
-6827.767
 30
-360.701
 70
    32
  0
VERTEX
  8
W56LXLIFT
 62
4
 10
1014.999
 20
-6777.492
 30
-360.422
 70
    32
  0
VERTEX
  8
W56LXLIFT
 62
4
 10
984.399
 20
-6730.066
 30
-360.206
 70
    32
  0
VERTEX
  8
W56LXLIFT
 62
4
 10
977.240
 20
-6717.166
 30
-360.143
 70
    32
  0
VERTEX
  8
W56LXLIFT
 62
4
 10
971.453
 20
-6710.466
 30
-360.118
 70
    32
  0
SEQEND
  8
W56LXLIFT
  0
POLYLINE
  8
W56LXLIFT
 62
1
 66
     1
 70
     9
  0
VERTEX
  8
W56LXLIFT
 62
1
 10
981.344
 20
-6705.132
 30
-350.058
 70
    32
  0
VERTEX
  8
W56LXLIFT
 62
1
 10
1024.890
 20
-6773.018
 30
-350.379
 70
    32
  0
VERTEX
  8
W56LXLIFT
 62
1
 10
1045.350
 20
-6874.292
 30
-350.773
 70
    32
  0
VERTEX
  8
W56LXLIFT
 62
1
 10
1046.631
 20
-6882.680
 30
-350.817
 70
    32
  0
VERTEX
  8
W56LXLIFT
 62
1
 10
1066.198
 20
-6979.939
 30
-351.253
 70
    32
  0
VERTEX
  8
W56LXLIFT
 62
1
 10
1115.906
 20
-7056.544
 30
-351.122
 70
    32
  0
VERTEX
  8
W56LXLIFT
 62
1
 10
1126.742
 20
-7072.336
 30
-351.087
 70
    32
  0
VERTEX
  8
W56LXLIFT
 62
1
 10
1131.564
 20
-7080.382
 30
-351.079
 70
    32
  0
VERTEX
  8
W56LXLIFT
 62
1
 10
1124.451
 20
-7084.309
 30
-351.206
 70
    32
  0
VERTEX
  8
W56LXLIFT
 62
1
 10
1119.519
 20
-7076.220
 30
-351.215
 70
    32
  0
VERTEX
  8
W56LXLIFT
 62
1
 10
1109.163
 20
-7060.721
 30
-351.246
 70
    32
  0
VERTEX
  8
W56LXLIFT
 62
1
 10
1089.560
 20
-7030.665
 30
-351.298
 70
    32
  0
VERTEX
  8
W56LXLIFT
 62
1
 10
1080.365
 20
-7021.178
 30
-351.357
 70
    32
  0
VERTEX
  8
W56LXLIFT
 62
1
 10
1070.502
 20
-7000.762
 30
-351.345
 70
    32
  0
VERTEX
  8
W56LXLIFT
 62
1
 10
1056.151
 20
-6980.555
 30
-351.396
 70
    32
  0
VERTEX
  8
W56LXLIFT
 62
1
 10
1051.631
 20
-6959.328
 30
-351.305
 70
    32
  0
VERTEX
  8
W56LXLIFT
 62
1
 10
1045.402
 20
-6929.259
 30
-351.172
 70
    32
  0
VERTEX
  8
W56LXLIFT
 62
1
 10
1041.640
 20
-6906.199
 30
-351.057
 70
    32
  0
VERTEX
  8
W56LXLIFT
 62
1
 10
1037.490
 20
-6903.080
 30
-351.091
 70
    32
  0
VERTEX
  8
W56LXLIFT
 62
1
 10
1030.981
 20
-6904.114
 30
-351.189
 70
    32
  0
VERTEX
  8
W56LXLIFT
 62
1
 10
1023.485
 20
-6899.470
 30
-351.229
 70
    32
  0
VERTEX
  8
W56LXLIFT
 62
1
 10
1020.735
 20
-6889.310
 30
-351.170
 70
    32
  0
VERTEX
  8
W56LXLIFT
 62
1
 10
1021.040
 20
-6881.638
 30
-351.117
 70
    32
  0
VERTEX
  8
W56LXLIFT
 62
1
 10
1031.551
 20
-6854.003
 30
-350.817
 70
    32
  0
VERTEX
  8
W56LXLIFT
 62
1
 10
1029.904
 20
-6842.956
 30
-350.759
 70
    32
  0
VERTEX
  8
W56LXLIFT
 62
1
 10
1025.594
 20
-6826.767
 30
-350.701
 70
    32
  0
VERTEX
  8
W56LXLIFT
 62
1
 10
1015.999
 20
-6776.492
 30
-350.422
 70
    32
  0
VERTEX
  8
W56LXLIFT
 62
1
 10
985.399
 20
-6729.066
 30
-350.206
 70
    32
  0
VERTEX
  8
W56LXLIFT
 62
1
 10
978.240
 20
-6716.166
 30
-350.143
 70
    32
  0
VERTEX
  8
W56LXLIFT
 62
1
 10
972.453
 20
-6709.466
 30
-350.118
 70
    32
  0
SEQEND
  8
W56LXLIFT
  0
POLYLINE
  8
W56LXLIFT
 62
3
 66
     1
 70
     9
  0
VERTEX
  8
W56LXLIFT
 62
3
 10
936.164
 20
-7092.185
 30
-362.377
 70
    32
  0
VERTEX
  8
W56LXLIFT
 62
3
 10
933.350
 20
-7112.350
 30
-362.463
 70
    32
  0
VERTEX
  8
W56LXLIFT
 62
3
 10
938.397
 20
-7115.902
 30
-362.499
 70
    32
  0
VERTEX
  8
W56LXLIFT
 62
3
 10
939.940
 20
-7123.053
 30
-362.539
 70
    32
  0
VERTEX
  8
W56LXLIFT
 62
3
 10
925.404
 20
-7127.177
 30
-362.504
 70
    32
  0
VERTEX
  8
W56LXLIFT
 62
3
 10
918.995
 20
-7119.604
 30
-362.443
 70
    32
  0
VERTEX
  8
W56LXLIFT
 62
3
 10
911.809
 20
-7103.678
 30
-362.340
 70
    32
  0
VERTEX
  8
W56LXLIFT
 62
3
 10
903.755
 20
-7093.537
 30
-362.261
 70
    32
  0
VERTEX
  8
W56LXLIFT
 62
3
 10
905.972
 20
-7093.251
 30
-362.268
 70
    32
  0
VERTEX
  8
W56LXLIFT
 62
3
 10
906.131
 20
-7082.008
 30
-362.214
 70
    32
  0
VERTEX
  8
W56LXLIFT
 62
3
 10
913.638
 20
-7076.270
 30
-362.215
 70
    32
  0
VERTEX
  8
W56LXLIFT
 62
3
 10
923.839
 20
-7079.543
 30
-362.270
 70
    32
  0
VERTEX
  8
W56LXLIFT
 62
3
 10
930.065
 20
-7086.058
 30
-362.324
 70
    32
  0
SEQEND
  8
W56LXLIFT
  0
POLYLINE
  8
W56LXLIFT
 62
3
 66
     1
 70
     9
  0
VERTEX
  8
W56LXLIFT
 62
3
 10
983.931
 20
-7174.082
 30
-362.950
 70
    32
  0
VERTEX
  8
W56LXLIFT
 62
3
 10
983.776
 20
-7178.865
 30
-362.973
 70
    32
  0
VERTEX
  8
W56LXLIFT
 62
3
 10
978.383
 20
-7187.405
 30
-362.993
 70
    32
  0
VERTEX
  8
W56LXLIFT
 62
3
 10
969.025
 20
-7193.900
 30
-362.989
 70
    32
  0
VERTEX
  8
W56LXLIFT
 62
3
 10
960.739
 20
-7192.346
 30
-362.950
 70
    32
  0
VERTEX
  8
W56LXLIFT
 62
3
 10
956.014
 20
-7185.304
 30
-362.898
 70
    32
  0
VERTEX
  8
W56LXLIFT
 62
3
 10
975.673
 20
-7171.203
 30
-362.905
 70
    32
  0
SEQEND
  8
W56LXLIFT
  0
POINT
  8
W56LXLIFT
 62
6
 10
225.847
 20
-5727.945
 30
-228.000
  0
POLYLINE
  8
W56LXLIFT
 62
11
 66
     1
 70
     9
  0
VERTEX
  8
W56LXLIFT
 62
11
 10
590.763
 20
-6006.416
 30
-263.000
 70
    32
  0
VERTEX
  8
W56LXLIFT
 62
11
 10
588.657
 20
-5976.001
 30
-263.000
 70
    32
  0
VERTEX
  8
W56LXLIFT
 62
11
 10
585.268
 20
-5966.402
 30
-263.000
 70
    32
  0
VERTEX
  8
W56LXLIFT
 62
11
 10
582.782
 20
-5961.037
 30
-263.000
 70
    32
  0
VERTEX
  8
W56LXLIFT
 62
11
 10
573.660
 20
-5951.474
 30
-263.000
 70
    32
  0
VERTEX
  8
W56LXLIFT
 62
11
 10
569.154
 20
-5941.384
 30
-263.000
 70
    32
  0
VERTEX
  8
W56LXLIFT
 62
11
 10
569.050
 20
-5927.333
 30
-263.000
 70
    32
  0
VERTEX
  8
W56LXLIFT
 62
11
 10
567.469
 20
-5907.511
 30
-263.000
 70
    32
  0
VERTEX
  8
W56LXLIFT
 62
11
 10
565.684
 20
-5894.138
 30
-263.000
 70
    32
  0
VERTEX
  8
W56LXLIFT
 62
11
 10
556.339
 20
-5879.631
 30
-263.000
 70
    32
  0
VERTEX
  8
W56LXLIFT
 62
11
 10
543.689
 20
-5854.595
 30
-263.000
 70
    32
  0
VERTEX
  8
W56LXLIFT
 62
11
 10
561.176
 20
-5842.323
 30
-263.000
 70
    32
  0
VERTEX
  8
W56LXLIFT
 62
11
 10
567.452
 20
-5841.240
 30
-263.000
 70
    32
  0
VERTEX
  8
W56LXLIFT
 62
11
 10
575.811
 20
-5880.260
 30
-263.000
 70
    32
  0
VERTEX
  8
W56LXLIFT
 62
11
 10
578.820
 20
-5917.300
 30
-263.000
 70
    32
  0
VERTEX
  8
W56LXLIFT
 62
11
 10
584.206
 20
-5940.117
 30
-263.000
 70
    32
  0
VERTEX
  8
W56LXLIFT
 62
11
 10
598.159
 20
-5956.927
 30
-263.000
 70
    32
  0
VERTEX
  8
W56LXLIFT
 62
11
 10
606.411
 20
-5958.862
 30
-263.000
 70
    32
  0
VERTEX
  8
W56LXLIFT
 62
11
 10
613.046
 20
-5964.255
 30
-263.000
 70
    32
  0
VERTEX
  8
W56LXLIFT
 62
11
 10
614.751
 20
-5967.798
 30
-263.000
 70
    32
  0
VERTEX
  8
W56LXLIFT
 62
11
 10
611.976
 20
-5973.400
 30
-263.000
 70
    32
  0
VERTEX
  8
W56LXLIFT
 62
11
 10
610.481
 20
-5978.072
 30
-263.000
 70
    32
  0
VERTEX
  8
W56LXLIFT
 62
11
 10
610.370
 20
-5981.956
 30
-263.000
 70
    32
  0
VERTEX
  8
W56LXLIFT
 62
11
 10
614.924
 20
-5986.579
 30
-263.000
 70
    32
  0
VERTEX
  8
W56LXLIFT
 62
11
 10
620.093
 20
-5990.104
 30
-263.000
 70
    32
  0
VERTEX
  8
W56LXLIFT
 62
11
 10
621.410
 20
-5993.711
 30
-263.000
 70
    32
  0
VERTEX
  8
W56LXLIFT
 62
11
 10
620.870
 20
-6001.492
 30
-263.000
 70
    32
  0
VERTEX
  8
W56LXLIFT
 62
11
 10
625.725
 20
-6012.959
 30
-263.000
 70
    32
  0
VERTEX
  8
W56LXLIFT
 62
11
 10
631.149
 20
-6024.013
 30
-263.000
 70
    32
  0
VERTEX
  8
W56LXLIFT
 62
11
 10
636.981
 20
-6032.488
 30
-263.000
 70
    32
  0
VERTEX
  8
W56LXLIFT
 62
11
 10
636.721
 20
-6035.720
 30
-263.000
 70
    32
  0
VERTEX
  8
W56LXLIFT
 62
11
 10
630.683
 20
-6039.672
 30
-263.000
 70
    32
  0
VERTEX
  8
W56LXLIFT
 62
11
 10
609.589
 20
-6039.353
 30
-263.000
 70
    32
  0
VERTEX
  8
W56LXLIFT
 62
11
 10
598.612
 20
-6029.182
 30
-263.000
 70
    32
  0
VERTEX
  8
W56LXLIFT
 62
11
 10
594.832
 20
-6028.017
 30
-263.000
 70
    32
  0
SEQEND
  8
W56LXLIFT
  0
POLYLINE
  8
W56LXLIFT
 62
2
 66
     1
 70
     9
  0
VERTEX
  8
W56LXLIFT
 62
2
 10
550.232
 20
-6011.201
 30
-263.000
 70
    32
  0
VERTEX
  8
W56LXLIFT
 62
2
 10
541.577
 20
-5985.979
 30
-263.000
 70
    32
  0
VERTEX
  8
W56LXLIFT
 62
2
 10
546.956
 20
-5980.223
 30
-263.000
 70
    32
  0
VERTEX
  8
W56LXLIFT
 62
2
 10
550.266
 20
-5962.496
 30
-263.000
 70
    32
  0
VERTEX
  8
W56LXLIFT
 62
2
 10
566.959
 20
-5964.384
 30
-263.000
 70
    32
  0
VERTEX
  8
W56LXLIFT
 62
2
 10
571.960
 20
-5968.574
 30
-263.000
 70
    32
  0
VERTEX
  8
W56LXLIFT
 62
2
 10
575.912
 20
-5975.808
 30
-263.000
 70
    32
  0
VERTEX
  8
W56LXLIFT
 62
2
 10
562.539
 20
-6008.996
 30
-263.000
 70
    32
  0
SEQEND
  8
W56LXLIFT
  0
POLYLINE
  8
W56LXLIFT
 62
1
 66
     1
 70
     9
  0
VERTEX
  8
W56LXLIFT
 62
1
 10
551.232
 20
-6010.201
 30
-251.000
 70
    32
  0
VERTEX
  8
W56LXLIFT
 62
1
 10
542.577
 20
-5984.979
 30
-251.000
 70
    32
  0
VERTEX
  8
W56LXLIFT
 62
1
 10
547.956
 20
-5979.223
 30
-251.000
 70
    32
  0
VERTEX
  8
W56LXLIFT
 62
1
 10
551.266
 20
-5961.496
 30
-251.000
 70
    32
  0
VERTEX
  8
W56LXLIFT
 62
1
 10
567.959
 20
-5963.384
 30
-251.000
 70
    32
  0
VERTEX
  8
W56LXLIFT
 62
1
 10
572.960
 20
-5967.574
 30
-251.000
 70
    32
  0
VERTEX
  8
W56LXLIFT
 62
1
 10
576.912
 20
-5974.808
 30
-251.000
 70
    32
  0
VERTEX
  8
W56LXLIFT
 62
1
 10
563.539
 20
-6007.996
 30
-251.000
 70
    32
  0
SEQEND
  8
W56LXLIFT
  0
POLYLINE
  8
W56LXLIFT
 62
8
 66
     1
 70
     9
  0
VERTEX
  8
W56LXLIFT
 62
8
 10
485.302
 20
-5713.398
 30
-358.065
 70
    32
  0
VERTEX
  8
W56LXLIFT
 62
8
 10
487.859
 20
-5734.316
 30
-358.079
 70
    32
  0
VERTEX
  8
W56LXLIFT
 62
8
 10
490.789
 20
-5740.426
 30
-358.082
 70
    32
  0
VERTEX
  8
W56LXLIFT
 62
8
 10
493.658
 20
-5742.645
 30
-358.082
 70
    32
  0
VERTEX
  8
W56LXLIFT
 62
8
 10
500.062
 20
-5756.626
 30
-358.090
 70
    32
  0
VERTEX
  8
W56LXLIFT
 62
8
 10
499.740
 20
-5772.462
 30
-358.100
 70
    32
  0
VERTEX
  8
W56LXLIFT
 62
8
 10
501.744
 20
-5788.438
 30
-358.113
 70
    32
  0
VERTEX
  8
W56LXLIFT
 62
8
 10
508.606
 20
-5791.698
 30
-358.115
 70
    32
  0
VERTEX
  8
W56LXLIFT
 62
8
 10
519.811
 20
-5815.847
 30
-358.133
 70
    32
  0
VERTEX
  8
W56LXLIFT
 62
8
 10
510.593
 20
-5827.450
 30
-358.143
 70
    32
  0
VERTEX
  8
W56LXLIFT
 62
8
 10
511.287
 20
-5830.703
 30
-358.145
 70
    32
  0
VERTEX
  8
W56LXLIFT
 62
8
 10
503.780
 20
-5832.976
 30
-358.148
 70
    32
  0
VERTEX
  8
W56LXLIFT
 62
8
 10
485.932
 20
-5830.604
 30
-358.147
 70
    32
  0
VERTEX
  8
W56LXLIFT
 62
8
 10
477.845
 20
-5818.708
 30
-358.139
 70
    32
  0
VERTEX
  8
W56LXLIFT
 62
8
 10
480.056
 20
-5804.262
 30
-358.128
 70
    32
  0
VERTEX
  8
W56LXLIFT
 62
8
 10
472.876
 20
-5758.393
 30
-358.100
 70
    32
  0
VERTEX
  8
W56LXLIFT
 62
8
 10
448.471
 20
-5705.696
 30
-358.072
 70
    32
  0
VERTEX
  8
W56LXLIFT
 62
8
 10
449.452
 20
-5697.812
 30
-358.067
 70
    32
  0
VERTEX
  8
W56LXLIFT
 62
8
 10
445.120
 20
-5680.742
 30
-358.057
 70
    32
  0
VERTEX
  8
W56LXLIFT
 62
8
 10
443.910
 20
-5634.268
 30
-358.026
 70
    32
  0
VERTEX
  8
W56LXLIFT
 62
8
 10
437.705
 20
-5625.315
 30
-358.022
 70
    32
  0
VERTEX
  8
W56LXLIFT
 62
8
 10
460.536
 20
-5610.766
 30
-358.005
 70
    32
  0
VERTEX
  8
W56LXLIFT
 62
8
 10
463.287
 20
-5616.282
 30
-358.008
 70
    32
  0
VERTEX
  8
W56LXLIFT
 62
8
 10
461.959
 20
-5618.710
 30
-358.010
 70
    32
  0
VERTEX
  8
W56LXLIFT
 62
8
 10
467.231
 20
-5630.620
 30
-358.016
 70
    32
  0
VERTEX
  8
W56LXLIFT
 62
8
 10
471.301
 20
-5669.873
 30
-358.041
 70
    32
  0
VERTEX
  8
W56LXLIFT
 62
8
 10
475.317
 20
-5687.900
 30
-358.052
 70
    32
  0
VERTEX
  8
W56LXLIFT
 62
8
 10
480.662
 20
-5699.828
 30
-358.058
 70
    32
  0
SEQEND
  8
W56LXLIFT
  0
POLYLINE
  8
W56LXLIFT
 62
8
 66
     1
 70
     9
  0
VERTEX
  8
W56LXLIFT
 62
8
 10
492.734
 20
-5693.430
 30
-358.050
 70
    32
  0
VERTEX
  8
W56LXLIFT
 62
8
 10
492.946
 20
-5690.419
 30
-358.048
 70
    32
  0
VERTEX
  8
W56LXLIFT
 62
8
 10
489.696
 20
-5683.673
 30
-358.044
 70
    32
  0
VERTEX
  8
W56LXLIFT
 62
8
 10
497.032
 20
-5672.908
 30
-358.035
 70
    32
  0
VERTEX
  8
W56LXLIFT
 62
8
 10
500.210
 20
-5671.626
 30
-358.033
 70
    32
  0
VERTEX
  8
W56LXLIFT
 62
8
 10
507.726
 20
-5672.535
 30
-358.031
 70
    32
  0
VERTEX
  8
W56LXLIFT
 62
8
 10
515.916
 20
-5686.486
 30
-358.037
 70
    32
  0
VERTEX
  8
W56LXLIFT
 62
8
 10
522.749
 20
-5705.067
 30
-358.048
 70
    32
  0
VERTEX
  8
W56LXLIFT
 62
8
 10
529.269
 20
-5717.163
 30
-358.054
 70
    32
  0
VERTEX
  8
W56LXLIFT
 62
8
 10
539.461
 20
-5729.347
 30
-358.063
 70
    32
  0
VERTEX
  8
W56LXLIFT
 62
8
 10
551.213
 20
-5739.421
 30
-358.070
 70
    32
  0
VERTEX
  8
W56LXLIFT
 62
8
 10
550.984
 20
-5761.889
 30
-358.088
 70
    32
  0
VERTEX
  8
W56LXLIFT
 62
8
 10
552.041
 20
-5772.019
 30
-358.096
 70
    32
  0
VERTEX
  8
W56LXLIFT
 62
8
 10
543.345
 20
-5778.064
 30
-358.101
 70
    32
  0
VERTEX
  8
W56LXLIFT
 62
8
 10
537.304
 20
-5770.960
 30
-358.096
 70
    32
  0
VERTEX
  8
W56LXLIFT
 62
8
 10
533.912
 20
-5765.903
 30
-358.092
 70
    32
  0
VERTEX
  8
W56LXLIFT
 62
8
 10
527.826
 20
-5751.603
 30
-358.081
 70
    32
  0
VERTEX
  8
W56LXLIFT
 62
8
 10
507.697
 20
-5722.071
 30
-358.064
 70
    32
  0
VERTEX
  8
W56LXLIFT
 62
8
 10
506.963
 20
-5713.532
 30
-358.058
 70
    32
  0
VERTEX
  8
W56LXLIFT
 62
8
 10
501.447
 20
-5701.824
 30
-358.052
 70
    32
  0
SEQEND
  8
W56LXLIFT
  0
POLYLINE
  8
W56LXLIFT
 62
1
 66
     1
 70
     9
  0
VERTEX
  8
W56LXLIFT
 62
1
 10
486.302
 20
-5712.398
 30
-348.065
 70
    32
  0
VERTEX
  8
W56LXLIFT
 62
1
 10
488.859
 20
-5733.316
 30
-348.079
 70
    32
  0
VERTEX
  8
W56LXLIFT
 62
1
 10
491.789
 20
-5739.426
 30
-348.082
 70
    32
  0
VERTEX
  8
W56LXLIFT
 62
1
 10
494.658
 20
-5741.645
 30
-348.082
 70
    32
  0
VERTEX
  8
W56LXLIFT
 62
1
 10
501.062
 20
-5755.626
 30
-348.090
 70
    32
  0
VERTEX
  8
W56LXLIFT
 62
1
 10
500.740
 20
-5771.462
 30
-348.100
 70
    32
  0
VERTEX
  8
W56LXLIFT
 62
1
 10
502.744
 20
-5787.438
 30
-348.113
 70
    32
  0
VERTEX
  8
W56LXLIFT
 62
1
 10
509.606
 20
-5790.698
 30
-348.115
 70
    32
  0
VERTEX
  8
W56LXLIFT
 62
1
 10
520.811
 20
-5814.847
 30
-348.133
 70
    32
  0
VERTEX
  8
W56LXLIFT
 62
1
 10
511.593
 20
-5826.450
 30
-348.143
 70
    32
  0
VERTEX
  8
W56LXLIFT
 62
1
 10
512.287
 20
-5829.703
 30
-348.145
 70
    32
  0
VERTEX
  8
W56LXLIFT
 62
1
 10
504.780
 20
-5831.976
 30
-348.148
 70
    32
  0
VERTEX
  8
W56LXLIFT
 62
1
 10
486.932
 20
-5829.604
 30
-348.147
 70
    32
  0
VERTEX
  8
W56LXLIFT
 62
1
 10
478.845
 20
-5817.708
 30
-348.139
 70
    32
  0
VERTEX
  8
W56LXLIFT
 62
1
 10
481.056
 20
-5803.262
 30
-348.128
 70
    32
  0
VERTEX
  8
W56LXLIFT
 62
1
 10
473.876
 20
-5757.393
 30
-348.100
 70
    32
  0
VERTEX
  8
W56LXLIFT
 62
1
 10
449.471
 20
-5704.696
 30
-348.072
 70
    32
  0
VERTEX
  8
W56LXLIFT
 62
1
 10
450.452
 20
-5696.812
 30
-348.067
 70
    32
  0
VERTEX
  8
W56LXLIFT
 62
1
 10
446.120
 20
-5679.742
 30
-348.057
 70
    32
  0
VERTEX
  8
W56LXLIFT
 62
1
 10
444.910
 20
-5633.268
 30
-348.026
 70
    32
  0
VERTEX
  8
W56LXLIFT
 62
1
 10
438.705
 20
-5624.315
 30
-348.022
 70
    32
  0
VERTEX
  8
W56LXLIFT
 62
1
 10
461.536
 20
-5609.766
 30
-348.005
 70
    32
  0
VERTEX
  8
W56LXLIFT
 62
1
 10
464.287
 20
-5615.282
 30
-348.008
 70
    32
  0
VERTEX
  8
W56LXLIFT
 62
1
 10
462.959
 20
-5617.710
 30
-348.010
 70
    32
  0
VERTEX
  8
W56LXLIFT
 62
1
 10
468.231
 20
-5629.620
 30
-348.016
 70
    32
  0
VERTEX
  8
W56LXLIFT
 62
1
 10
472.301
 20
-5668.873
 30
-348.041
 70
    32
  0
VERTEX
  8
W56LXLIFT
 62
1
 10
476.317
 20
-5686.900
 30
-348.052
 70
    32
  0
VERTEX
  8
W56LXLIFT
 62
1
 10
481.662
 20
-5698.828
 30
-348.058
 70
    32
  0
SEQEND
  8
W56LXLIFT
  0
POLYLINE
  8
W56LXLIFT
 62
1
 66
     1
 70
     9
  0
VERTEX
  8
W56LXLIFT
 62
1
 10
493.734
 20
-5692.430
 30
-348.050
 70
    32
  0
VERTEX
  8
W56LXLIFT
 62
1
 10
493.946
 20
-5689.419
 30
-348.048
 70
    32
  0
VERTEX
  8
W56LXLIFT
 62
1
 10
490.696
 20
-5682.673
 30
-348.044
 70
    32
  0
VERTEX
  8
W56LXLIFT
 62
1
 10
498.032
 20
-5671.908
 30
-348.035
 70
    32
  0
VERTEX
  8
W56LXLIFT
 62
1
 10
501.210
 20
-5670.626
 30
-348.033
 70
    32
  0
VERTEX
  8
W56LXLIFT
 62
1
 10
508.726
 20
-5671.535
 30
-348.031
 70
    32
  0
VERTEX
  8
W56LXLIFT
 62
1
 10
516.916
 20
-5685.486
 30
-348.037
 70
    32
  0
VERTEX
  8
W56LXLIFT
 62
1
 10
523.749
 20
-5704.067
 30
-348.048
 70
    32
  0
VERTEX
  8
W56LXLIFT
 62
1
 10
530.269
 20
-5716.163
 30
-348.054
 70
    32
  0
VERTEX
  8
W56LXLIFT
 62
1
 10
540.461
 20
-5728.347
 30
-348.063
 70
    32
  0
VERTEX
  8
W56LXLIFT
 62
1
 10
552.213
 20
-5738.421
 30
-348.070
 70
    32
  0
VERTEX
  8
W56LXLIFT
 62
1
 10
551.984
 20
-5760.889
 30
-348.088
 70
    32
  0
VERTEX
  8
W56LXLIFT
 62
1
 10
553.041
 20
-5771.019
 30
-348.096
 70
    32
  0
VERTEX
  8
W56LXLIFT
 62
1
 10
544.345
 20
-5777.064
 30
-348.101
 70
    32
  0
VERTEX
  8
W56LXLIFT
 62
1
 10
538.304
 20
-5769.960
 30
-348.096
 70
    32
  0
VERTEX
  8
W56LXLIFT
 62
1
 10
534.912
 20
-5764.903
 30
-348.092
 70
    32
  0
VERTEX
  8
W56LXLIFT
 62
1
 10
528.826
 20
-5750.603
 30
-348.081
 70
    32
  0
VERTEX
  8
W56LXLIFT
 62
1
 10
508.697
 20
-5721.071
 30
-348.064
 70
    32
  0
VERTEX
  8
W56LXLIFT
 62
1
 10
507.963
 20
-5712.532
 30
-348.058
 70
    32
  0
VERTEX
  8
W56LXLIFT
 62
1
 10
502.447
 20
-5700.824
 30
-348.052
 70
    32
  0
SEQEND
  8
W56LXLIFT
  0
LINE
  8
W56LXLIFT
 62
8
 10
478.050
 20
-5734.819
 30
-358.082
 11
499.106
 21
-5726.652
 31
-495.045
  0
POINT
  8
W56LXLIFT
 62
8
 10
478.050
 20
-5734.819
 30
-358.082
  0
LINE
  8
W56LXLIFT
 62
8
 10
527.074
 20
-5722.797
 30
-358.074
 11
499.106
 21
-5726.652
 31
-495.045
  0
POINT
  8
W56LXLIFT
 62
8
 10
499.106
 20
-5726.652
 30
-495.045
  0
POINT
  8
W56LXLIFT
 62
8
 10
527.074
 20
-5722.797
 30
-358.074
  0
POLYLINE
  8
W56LXLIFT
 62
1
 66
     1
 70
     9
  0
VERTEX
  8
W56LXLIFT
 62
1
 10
1087.688
 20
-7127.704
 30
-309.610
 70
    32
  0
VERTEX
  8
W56LXLIFT
 62
1
 10
1087.024
 20
-7110.919
 30
-309.610
 70
    32
  0
VERTEX
  8
W56LXLIFT
 62
1
 10
1076.687
 20
-7106.134
 30
-309.610
 70
    32
  0
VERTEX
  8
W56LXLIFT
 62
1
 10
1063.813
 20
-7099.407
 30
-309.610
 70
    32
  0
VERTEX
  8
W56LXLIFT
 62
1
 10
1080.600
 20
-7078.291
 30
-309.610
 70
    32
  0
VERTEX
  8
W56LXLIFT
 62
1
 10
1093.540
 20
-7085.843
 30
-309.610
 70
    32
  0
VERTEX
  8
W56LXLIFT
 62
1
 10
1102.382
 20
-7087.146
 30
-309.610
 70
    32
  0
VERTEX
  8
W56LXLIFT
 62
1
 10
1107.252
 20
-7085.605
 30
-309.610
 70
    32
  0
VERTEX
  8
W56LXLIFT
 62
1
 10
1113.224
 20
-7092.758
 30
-309.610
 70
    32
  0
VERTEX
  8
W56LXLIFT
 62
1
 10
1118.852
 20
-7094.591
 30
-309.610
 70
    32
  0
VERTEX
  8
W56LXLIFT
 62
1
 10
1118.225
 20
-7101.399
 30
-309.610
 70
    32
  0
VERTEX
  8
W56LXLIFT
 62
1
 10
1122.960
 20
-7110.566
 30
-309.610
 70
    32
  0
VERTEX
  8
W56LXLIFT
 62
1
 10
1128.819
 20
-7115.507
 30
-309.610
 70
    32
  0
VERTEX
  8
W56LXLIFT
 62
1
 10
1136.468
 20
-7124.915
 30
-309.610
 70
    32
  0
VERTEX
  8
W56LXLIFT
 62
1
 10
1138.218
 20
-7130.066
 30
-309.610
 70
    32
  0
VERTEX
  8
W56LXLIFT
 62
1
 10
1136.331
 20
-7136.061
 30
-309.610
 70
    32
  0
VERTEX
  8
W56LXLIFT
 62
1
 10
1152.361
 20
-7151.597
 30
-309.610
 70
    32
  0
VERTEX
  8
W56LXLIFT
 62
1
 10
1139.309
 20
-7173.765
 30
-309.610
 70
    32
  0
VERTEX
  8
W56LXLIFT
 62
1
 10
1142.108
 20
-7184.152
 30
-309.610
 70
    32
  0
VERTEX
  8
W56LXLIFT
 62
1
 10
1129.864
 20
-7194.017
 30
-309.610
 70
    32
  0
VERTEX
  8
W56LXLIFT
 62
1
 10
1121.331
 20
-7210.640
 30
-309.610
 70
    32
  0
VERTEX
  8
W56LXLIFT
 62
1
 10
1116.096
 20
-7207.422
 30
-309.610
 70
    32
  0
VERTEX
  8
W56LXLIFT
 62
1
 10
1112.877
 20
-7200.737
 30
-309.610
 70
    32
  0
VERTEX
  8
W56LXLIFT
 62
1
 10
1116.279
 20
-7189.569
 30
-309.610
 70
    32
  0
VERTEX
  8
W56LXLIFT
 62
1
 10
1113.231
 20
-7180.024
 30
-309.610
 70
    32
  0
VERTEX
  8
W56LXLIFT
 62
1
 10
1112.595
 20
-7172.841
 30
-309.610
 70
    32
  0
VERTEX
  8
W56LXLIFT
 62
1
 10
1107.993
 20
-7165.325
 30
-309.610
 70
    32
  0
VERTEX
  8
W56LXLIFT
 62
1
 10
1099.880
 20
-7157.794
 30
-309.610
 70
    32
  0
VERTEX
  8
W56LXLIFT
 62
1
 10
1100.028
 20
-7152.107
 30
-309.610
 70
    32
  0
VERTEX
  8
W56LXLIFT
 62
1
 10
1096.727
 20
-7144.280
 30
-309.610
 70
    32
  0
VERTEX
  8
W56LXLIFT
 62
1
 10
1091.437
 20
-7137.604
 30
-309.610
 70
    32
  0
SEQEND
  8
W56LXLIFT
  0
POINT
  8
W56LXLIFT
 62
1
 10
1031.793
 20
-6886.678
 30
-351.162
  0
LINE
  8
W56LXLIFT
 62
4
 10
957.874
 20
-6907.751
 30
-202.000
 11
1031.793
 21
-6886.678
 31
-351.162
  0
POLYLINE
  8
W56LXLIFT
 62
1
 66
     1
 70
     9
  0
VERTEX
  8
W56LXLIFT
 62
1
 10
591.763
 20
-6005.416
 30
-253.000
 70
    32
  0
VERTEX
  8
W56LXLIFT
 62
1
 10
589.657
 20
-5975.001
 30
-253.000
 70
    32
  0
VERTEX
  8
W56LXLIFT
 62
1
 10
586.268
 20
-5965.402
 30
-253.000
 70
    32
  0
VERTEX
  8
W56LXLIFT
 62
1
 10
583.782
 20
-5960.037
 30
-253.000
 70
    32
  0
VERTEX
  8
W56LXLIFT
 62
1
 10
574.660
 20
-5950.474
 30
-253.000
 70
    32
  0
VERTEX
  8
W56LXLIFT
 62
1
 10
570.154
 20
-5940.384
 30
-253.000
 70
    32
  0
VERTEX
  8
W56LXLIFT
 62
1
 10
570.050
 20
-5926.333
 30
-253.000
 70
    32
  0
VERTEX
  8
W56LXLIFT
 62
1
 10
568.469
 20
-5906.511
 30
-253.000
 70
    32
  0
VERTEX
  8
W56LXLIFT
 62
1
 10
566.684
 20
-5893.138
 30
-253.000
 70
    32
  0
VERTEX
  8
W56LXLIFT
 62
1
 10
557.339
 20
-5878.631
 30
-253.000
 70
    32
  0
VERTEX
  8
W56LXLIFT
 62
1
 10
544.689
 20
-5853.595
 30
-253.000
 70
    32
  0
VERTEX
  8
W56LXLIFT
 62
1
 10
562.176
 20
-5841.323
 30
-253.000
 70
    32
  0
VERTEX
  8
W56LXLIFT
 62
1
 10
568.452
 20
-5840.240
 30
-253.000
 70
    32
  0
VERTEX
  8
W56LXLIFT
 62
1
 10
576.811
 20
-5879.260
 30
-253.000
 70
    32
  0
VERTEX
  8
W56LXLIFT
 62
1
 10
579.820
 20
-5916.300
 30
-253.000
 70
    32
  0
VERTEX
  8
W56LXLIFT
 62
1
 10
585.206
 20
-5939.117
 30
-253.000
 70
    32
  0
VERTEX
  8
W56LXLIFT
 62
1
 10
599.159
 20
-5955.927
 30
-253.000
 70
    32
  0
VERTEX
  8
W56LXLIFT
 62
1
 10
607.411
 20
-5957.862
 30
-253.000
 70
    32
  0
VERTEX
  8
W56LXLIFT
 62
1
 10
614.046
 20
-5963.255
 30
-253.000
 70
    32
  0
VERTEX
  8
W56LXLIFT
 62
1
 10
615.751
 20
-5966.798
 30
-253.000
 70
    32
  0
VERTEX
  8
W56LXLIFT
 62
1
 10
612.976
 20
-5972.400
 30
-253.000
 70
    32
  0
VERTEX
  8
W56LXLIFT
 62
1
 10
611.481
 20
-5977.072
 30
-253.000
 70
    32
  0
VERTEX
  8
W56LXLIFT
 62
1
 10
611.370
 20
-5980.956
 30
-253.000
 70
    32
  0
VERTEX
  8
W56LXLIFT
 62
1
 10
615.924
 20
-5985.579
 30
-253.000
 70
    32
  0
VERTEX
  8
W56LXLIFT
 62
1
 10
621.093
 20
-5989.104
 30
-253.000
 70
    32
  0
VERTEX
  8
W56LXLIFT
 62
1
 10
622.410
 20
-5992.711
 30
-253.000
 70
    32
  0
VERTEX
  8
W56LXLIFT
 62
1
 10
621.870
 20
-6000.492
 30
-253.000
 70
    32
  0
VERTEX
  8
W56LXLIFT
 62
1
 10
626.725
 20
-6011.959
 30
-253.000
 70
    32
  0
VERTEX
  8
W56LXLIFT
 62
1
 10
632.149
 20
-6023.013
 30
-253.000
 70
    32
  0
VERTEX
  8
W56LXLIFT
 62
1
 10
637.981
 20
-6031.488
 30
-253.000
 70
    32
  0
VERTEX
  8
W56LXLIFT
 62
1
 10
637.721
 20
-6034.720
 30
-253.000
 70
    32
  0
VERTEX
  8
W56LXLIFT
 62
1
 10
631.683
 20
-6038.672
 30
-253.000
 70
    32
  0
VERTEX
  8
W56LXLIFT
 62
1
 10
610.589
 20
-6038.353
 30
-253.000
 70
    32
  0
VERTEX
  8
W56LXLIFT
 62
1
 10
599.612
 20
-6028.182
 30
-253.000
 70
    32
  0
VERTEX
  8
W56LXLIFT
 62
1
 10
595.832
 20
-6027.017
 30
-253.000
 70
    32
  0
SEQEND
  8
W56LXLIFT
  0
POLYLINE
  8
W56LXLIFT
 62
6
 66
     1
 70
     9
  0
VERTEX
  8
W56LXLIFT
 62
6
 10
306.616
 20
-5715.832
 30
-358.125
 70
    32
  0
VERTEX
  8
W56LXLIFT
 62
6
 10
264.103
 20
-5746.833
 30
-358.160
 70
    32
  0
VERTEX
  8
W56LXLIFT
 62
6
 10
260.145
 20
-5740.971
 30
-358.157
 70
    32
  0
VERTEX
  8
W56LXLIFT
 62
6
 10
267.541
 20
-5735.194
 30
-358.151
 70
    32
  0
VERTEX
  8
W56LXLIFT
 62
6
 10
273.375
 20
-5720.495
 30
-358.139
 70
    32
  0
VERTEX
  8
W56LXLIFT
 62
6
 10
273.412
 20
-5701.317
 30
-358.126
 70
    32
  0
VERTEX
  8
W56LXLIFT
 62
6
 10
253.509
 20
-5658.207
 30
-358.104
 70
    32
  0
VERTEX
  8
W56LXLIFT
 62
6
 10
255.923
 20
-5656.102
 30
-358.102
 70
    32
  0
VERTEX
  8
W56LXLIFT
 62
6
 10
261.585
 20
-5654.648
 30
-358.099
 70
    32
  0
VERTEX
  8
W56LXLIFT
 62
6
 10
274.445
 20
-5677.682
 30
-358.110
 70
    32
  0
VERTEX
  8
W56LXLIFT
 62
6
 10
278.290
 20
-5681.363
 30
-358.112
 70
    32
  0
VERTEX
  8
W56LXLIFT
 62
6
 10
294.077
 20
-5690.315
 30
-358.112
 70
    32
  0
VERTEX
  8
W56LXLIFT
 62
6
 10
294.948
 20
-5700.256
 30
-358.119
 70
    32
  0
VERTEX
  8
W56LXLIFT
 62
6
 10
298.129
 20
-5705.150
 30
-358.121
 70
    32
  0
VERTEX
  8
W56LXLIFT
 62
6
 10
306.299
 20
-5706.691
 30
-358.119
 70
    32
  0
SEQEND
  8
W56LXLIFT
  0
POLYLINE
  8
W56LXLIFT
 62
1
 66
     1
 70
     9
  0
VERTEX
  8
W56LXLIFT
 62
1
 10
307.299
 20
-5705.691
 30
-348.119
 70
    32
  0
VERTEX
  8
W56LXLIFT
 62
1
 10
299.129
 20
-5704.150
 30
-348.121
 70
    32
  0
VERTEX
  8
W56LXLIFT
 62
1
 10
295.948
 20
-5699.256
 30
-348.119
 70
    32
  0
VERTEX
  8
W56LXLIFT
 62
1
 10
295.077
 20
-5689.315
 30
-348.112
 70
    32
  0
VERTEX
  8
W56LXLIFT
 62
1
 10
279.290
 20
-5680.363
 30
-348.112
 70
    32
  0
VERTEX
  8
W56LXLIFT
 62
1
 10
275.445
 20
-5676.682
 30
-348.110
 70
    32
  0
VERTEX
  8
W56LXLIFT
 62
1
 10
262.585
 20
-5653.648
 30
-348.099
 70
    32
  0
VERTEX
  8
W56LXLIFT
 62
1
 10
256.923
 20
-5655.102
 30
-348.102
 70
    32
  0
VERTEX
  8
W56LXLIFT
 62
1
 10
254.509
 20
-5657.207
 30
-348.104
 70
    32
  0
VERTEX
  8
W56LXLIFT
 62
1
 10
274.412
 20
-5700.317
 30
-348.126
 70
    32
  0
VERTEX
  8
W56LXLIFT
 62
1
 10
274.375
 20
-5719.495
 30
-348.139
 70
    32
  0
VERTEX
  8
W56LXLIFT
 62
1
 10
268.541
 20
-5734.194
 30
-348.151
 70
    32
  0
VERTEX
  8
W56LXLIFT
 62
1
 10
261.145
 20
-5739.971
 30
-348.157
 70
    32
  0
VERTEX
  8
W56LXLIFT
 62
1
 10
265.103
 20
-5745.833
 30
-348.160
 70
    32
  0
VERTEX
  8
W56LXLIFT
 62
1
 10
307.616
 20
-5714.832
 30
-348.125
 70
    32
  0
SEQEND
  8
W56LXLIFT
  0
POINT
  8
W56LXLIFT
 62
1
 10
283.162
 20
-5704.627
 30
-348.126
  0
LINE
  8
W56LXLIFT
 62
6
 10
225.847
 20
-5727.945
 30
-228.000
 11
283.162
 21
-5704.627
 31
-348.126
  0
POLYLINE
  8
W56LXLIFT
 62
3
 66
     1
 70
     9
  0
VERTEX
  8
W56LXLIFT
 62
3
 10
453.935
 20
-5597.614
 30
-357.998
 70
    32
  0
VERTEX
  8
W56LXLIFT
 62
3
 10
455.070
 20
-5596.375
 30
-357.997
 70
    32
  0
VERTEX
  8
W56LXLIFT
 62
3
 10
461.173
 20
-5583.117
 30
-357.986
 70
    32
  0
VERTEX
  8
W56LXLIFT
 62
3
 10
464.878
 20
-5563.209
 30
-357.972
 70
    32
  0
VERTEX
  8
W56LXLIFT
 62
3
 10
461.684
 20
-5551.007
 30
-357.964
 70
    32
  0
VERTEX
  8
W56LXLIFT
 62
3
 10
461.460
 20
-5538.897
 30
-357.956
 70
    32
  0
VERTEX
  8
W56LXLIFT
 62
3
 10
458.991
 20
-5530.065
 30
-357.951
 70
    32
  0
VERTEX
  8
W56LXLIFT
 62
3
 10
455.260
 20
-5523.293
 30
-357.948
 70
    32
  0
VERTEX
  8
W56LXLIFT
 62
3
 10
435.432
 20
-5504.017
 30
-357.941
 70
    32
  0
VERTEX
  8
W56LXLIFT
 62
3
 10
429.921
 20
-5495.144
 30
-357.937
 70
    32
  0
VERTEX
  8
W56LXLIFT
 62
3
 10
422.187
 20
-5488.029
 30
-357.935
 70
    32
  0
VERTEX
  8
W56LXLIFT
 62
3
 10
417.468
 20
-5482.157
 30
-357.933
 70
    32
  0
VERTEX
  8
W56LXLIFT
 62
3
 10
409.334
 20
-5471.984
 30
-357.929
 70
    32
  0
VERTEX
  8
W56LXLIFT
 62
3
 10
414.709
 20
-5462.982
 30
-357.921
 70
    32
  0
VERTEX
  8
W56LXLIFT
 62
3
 10
419.288
 20
-5467.875
 30
-357.923
 70
    32
  0
VERTEX
  8
W56LXLIFT
 62
3
 10
433.671
 20
-5476.510
 30
-357.924
 70
    32
  0
VERTEX
  8
W56LXLIFT
 62
3
 10
439.449
 20
-5483.907
 30
-357.927
 70
    32
  0
VERTEX
  8
W56LXLIFT
 62
3
 10
437.567
 20
-5486.934
 30
-357.929
 70
    32
  0
VERTEX
  8
W56LXLIFT
 62
3
 10
447.824
 20
-5500.477
 30
-357.935
 70
    32
  0
VERTEX
  8
W56LXLIFT
 62
3
 10
457.451
 20
-5510.475
 30
-357.939
 70
    32
  0
VERTEX
  8
W56LXLIFT
 62
3
 10
463.526
 20
-5514.115
 30
-357.939
 70
    32
  0
VERTEX
  8
W56LXLIFT
 62
3
 10
465.315
 20
-5514.057
 30
-357.938
 70
    32
  0
VERTEX
  8
W56LXLIFT
 62
3
 10
468.664
 20
-5508.183
 30
-357.933
 70
    32
  0
VERTEX
  8
W56LXLIFT
 62
3
 10
474.465
 20
-5504.912
 30
-357.929
 70
    32
  0
VERTEX
  8
W56LXLIFT
 62
3
 10
492.213
 20
-5531.929
 30
-357.942
 70
    32
  0
VERTEX
  8
W56LXLIFT
 62
3
 10
488.372
 20
-5540.777
 30
-357.949
 70
    32
  0
VERTEX
  8
W56LXLIFT
 62
3
 10
483.238
 20
-5550.902
 30
-357.957
 70
    32
  0
VERTEX
  8
W56LXLIFT
 62
3
 10
475.004
 20
-5575.013
 30
-357.976
 70
    32
  0
VERTEX
  8
W56LXLIFT
 62
3
 10
474.986
 20
-5579.330
 30
-357.979
 70
    32
  0
VERTEX
  8
W56LXLIFT
 62
3
 10
478.170
 20
-5581.748
 30
-357.980
 70
    32
  0
VERTEX
  8
W56LXLIFT
 62
3
 10
477.944
 20
-5590.727
 30
-357.986
 70
    32
  0
VERTEX
  8
W56LXLIFT
 62
3
 10
471.608
 20
-5600.826
 30
-357.995
 70
    32
  0
VERTEX
  8
W56LXLIFT
 62
3
 10
460.536
 20
-5610.766
 30
-358.005
 70
    32
  0
SEQEND
  8
W56LXLIFT
  0
POLYLINE
  8
W56LXLIFT
 62
1
 66
     1
 70
     9
  0
VERTEX
  8
W56LXLIFT
 62
1
 10
454.935
 20
-5596.614
 30
-347.998
 70
    32
  0
VERTEX
  8
W56LXLIFT
 62
1
 10
456.070
 20
-5595.375
 30
-347.997
 70
    32
  0
VERTEX
  8
W56LXLIFT
 62
1
 10
462.173
 20
-5582.117
 30
-347.986
 70
    32
  0
VERTEX
  8
W56LXLIFT
 62
1
 10
465.878
 20
-5562.209
 30
-347.972
 70
    32
  0
VERTEX
  8
W56LXLIFT
 62
1
 10
462.684
 20
-5550.007
 30
-347.964
 70
    32
  0
VERTEX
  8
W56LXLIFT
 62
1
 10
462.460
 20
-5537.897
 30
-347.956
 70
    32
  0
VERTEX
  8
W56LXLIFT
 62
1
 10
459.991
 20
-5529.065
 30
-347.951
 70
    32
  0
VERTEX
  8
W56LXLIFT
 62
1
 10
456.260
 20
-5522.293
 30
-347.948
 70
    32
  0
VERTEX
  8
W56LXLIFT
 62
1
 10
436.432
 20
-5503.017
 30
-347.941
 70
    32
  0
VERTEX
  8
W56LXLIFT
 62
1
 10
430.921
 20
-5494.144
 30
-347.937
 70
    32
  0
VERTEX
  8
W56LXLIFT
 62
1
 10
423.187
 20
-5487.029
 30
-347.935
 70
    32
  0
VERTEX
  8
W56LXLIFT
 62
1
 10
418.468
 20
-5481.157
 30
-347.933
 70
    32
  0
VERTEX
  8
W56LXLIFT
 62
1
 10
410.334
 20
-5470.984
 30
-347.929
 70
    32
  0
VERTEX
  8
W56LXLIFT
 62
1
 10
415.709
 20
-5461.982
 30
-347.921
 70
    32
  0
VERTEX
  8
W56LXLIFT
 62
1
 10
420.288
 20
-5466.875
 30
-347.923
 70
    32
  0
VERTEX
  8
W56LXLIFT
 62
1
 10
434.671
 20
-5475.510
 30
-347.924
 70
    32
  0
VERTEX
  8
W56LXLIFT
 62
1
 10
440.449
 20
-5482.907
 30
-347.927
 70
    32
  0
VERTEX
  8
W56LXLIFT
 62
1
 10
438.567
 20
-5485.934
 30
-347.929
 70
    32
  0
VERTEX
  8
W56LXLIFT
 62
1
 10
448.824
 20
-5499.477
 30
-347.935
 70
    32
  0
VERTEX
  8
W56LXLIFT
 62
1
 10
458.451
 20
-5509.475
 30
-347.939
 70
    32
  0
VERTEX
  8
W56LXLIFT
 62
1
 10
464.526
 20
-5513.115
 30
-347.939
 70
    32
  0
VERTEX
  8
W56LXLIFT
 62
1
 10
466.315
 20
-5513.057
 30
-347.938
 70
    32
  0
VERTEX
  8
W56LXLIFT
 62
1
 10
469.664
 20
-5507.183
 30
-347.933
 70
    32
  0
VERTEX
  8
W56LXLIFT
 62
1
 10
475.465
 20
-5503.912
 30
-347.929
 70
    32
  0
VERTEX
  8
W56LXLIFT
 62
1
 10
493.213
 20
-5530.929
 30
-347.942
 70
    32
  0
VERTEX
  8
W56LXLIFT
 62
1
 10
489.372
 20
-5539.777
 30
-347.949
 70
    32
  0
VERTEX
  8
W56LXLIFT
 62
1
 10
484.238
 20
-5549.902
 30
-347.957
 70
    32
  0
VERTEX
  8
W56LXLIFT
 62
1
 10
476.004
 20
-5574.013
 30
-347.976
 70
    32
  0
VERTEX
  8
W56LXLIFT
 62
1
 10
475.986
 20
-5578.330
 30
-347.979
 70
    32
  0
VERTEX
  8
W56LXLIFT
 62
1
 10
479.170
 20
-5580.748
 30
-347.980
 70
    32
  0
VERTEX
  8
W56LXLIFT
 62
1
 10
478.944
 20
-5589.727
 30
-347.986
 70
    32
  0
VERTEX
  8
W56LXLIFT
 62
1
 10
472.608
 20
-5599.826
 30
-347.995
 70
    32
  0
VERTEX
  8
W56LXLIFT
 62
1
 10
461.536
 20
-5609.766
 30
-348.005
 70
    32
  0
SEQEND
  8
W56LXLIFT
  0
POLYLINE
  8
W56LXLIFT
 62
1
 66
     1
 70
     9
  0
VERTEX
  8
W56LXLIFT
 62
1
 10
720.436
 20
-6229.592
 30
-215.000
 70
    32
  0
VERTEX
  8
W56LXLIFT
 62
1
 10
711.562
 20
-6214.090
 30
-215.000
 70
    32
  0
VERTEX
  8
W56LXLIFT
 62
1
 10
711.876
 20
-6206.147
 30
-215.000
 70
    32
  0
VERTEX
  8
W56LXLIFT
 62
1
 10
696.914
 20
-6177.031
 30
-215.000
 70
    32
  0
VERTEX
  8
W56LXLIFT
 62
1
 10
696.943
 20
-6170.491
 30
-215.000
 70
    32
  0
VERTEX
  8
W56LXLIFT
 62
1
 10
698.844
 20
-6168.023
 30
-215.000
 70
    32
  0
VERTEX
  8
W56LXLIFT
 62
1
 10
696.781
 20
-6156.809
 30
-215.000
 70
    32
  0
VERTEX
  8
W56LXLIFT
 62
1
 10
690.948
 20
-6148.334
 30
-215.000
 70
    32
  0
VERTEX
  8
W56LXLIFT
 62
1
 10
688.453
 20
-6134.282
 30
-215.000
 70
    32
  0
VERTEX
  8
W56LXLIFT
 62
1
 10
682.557
 20
-6123.028
 30
-215.000
 70
    32
  0
VERTEX
  8
W56LXLIFT
 62
1
 10
678.934
 20
-6117.293
 30
-215.000
 70
    32
  0
VERTEX
  8
W56LXLIFT
 62
1
 10
673.380
 20
-6107.855
 30
-215.000
 70
    32
  0
VERTEX
  8
W56LXLIFT
 62
1
 10
668.885
 20
-6101.668
 30
-215.000
 70
    32
  0
VERTEX
  8
W56LXLIFT
 62
1
 10
666.519
 20
-6087.197
 30
-215.000
 70
    32
  0
VERTEX
  8
W56LXLIFT
 62
1
 10
664.098
 20
-6081.024
 30
-215.000
 70
    32
  0
VERTEX
  8
W56LXLIFT
 62
1
 10
654.347
 20
-6061.921
 30
-215.000
 70
    32
  0
VERTEX
  8
W56LXLIFT
 62
1
 10
647.950
 20
-6030.386
 30
-215.000
 70
    32
  0
VERTEX
  8
W56LXLIFT
 62
1
 10
652.003
 20
-6013.533
 30
-215.000
 70
    32
  0
VERTEX
  8
W56LXLIFT
 62
1
 10
658.886
 20
-6014.182
 30
-215.000
 70
    32
  0
VERTEX
  8
W56LXLIFT
 62
1
 10
667.659
 20
-6037.472
 30
-215.000
 70
    32
  0
VERTEX
  8
W56LXLIFT
 62
1
 10
672.894
 20
-6050.510
 30
-215.000
 70
    32
  0
VERTEX
  8
W56LXLIFT
 62
1
 10
684.170
 20
-6054.812
 30
-215.000
 70
    32
  0
VERTEX
  8
W56LXLIFT
 62
1
 10
690.881
 20
-6064.497
 30
-215.000
 70
    32
  0
VERTEX
  8
W56LXLIFT
 62
1
 10
694.248
 20
-6079.001
 30
-215.000
 70
    32
  0
VERTEX
  8
W56LXLIFT
 62
1
 10
703.296
 20
-6095.789
 30
-215.000
 70
    32
  0
VERTEX
  8
W56LXLIFT
 62
1
 10
704.921
 20
-6104.605
 30
-215.000
 70
    32
  0
VERTEX
  8
W56LXLIFT
 62
1
 10
708.446
 20
-6142.356
 30
-215.000
 70
    32
  0
VERTEX
  8
W56LXLIFT
 62
1
 10
707.730
 20
-6153.634
 30
-215.000
 70
    32
  0
VERTEX
  8
W56LXLIFT
 62
1
 10
710.155
 20
-6165.346
 30
-215.000
 70
    32
  0
VERTEX
  8
W56LXLIFT
 62
1
 10
709.810
 20
-6171.899
 30
-215.000
 70
    32
  0
VERTEX
  8
W56LXLIFT
 62
1
 10
723.300
 20
-6195.999
 30
-215.000
 70
    32
  0
VERTEX
  8
W56LXLIFT
 62
1
 10
739.656
 20
-6200.413
 30
-215.000
 70
    32
  0
VERTEX
  8
W56LXLIFT
 62
1
 10
743.225
 20
-6212.055
 30
-215.000
 70
    32
  0
VERTEX
  8
W56LXLIFT
 62
1
 10
737.073
 20
-6225.870
 30
-215.000
 70
    32
  0
SEQEND
  8
W56LXLIFT
  0
LINE
  8
W56LXLIFT
 62
1
 10
935.326
 20
-6774.252
 30
-202.461
 11
981.344
 21
-6705.132
 31
-350.058
  0
LINE
  8
W56LXLIFT
 62
1
 10
915.232
 20
-6776.450
 30
-202.335
 11
972.453
 21
-6709.466
 31
-350.118
  0
LINE
  8
W56LXLIFT
 62
1
 10
1131.564
 20
-7080.382
 30
-351.079
 11
1038.664
 21
-7082.865
 31
-203.405
  0
LINE
  8
W56LXLIFT
 62
1
 10
1124.451
 20
-7084.309
 30
-351.206
 11
1019.378
 21
-7101.499
 31
-203.041
  0
POLYLINE
  8
W56LXLIFT
 62
13
 66
     1
 70
     9
  0
VERTEX
  8
W56LXLIFT
 62
13
 10
1365.395
 20
-7913.612
 30
-300.000
 70
    32
  0
VERTEX
  8
W56LXLIFT
 62
13
 10
1366.765
 20
-7912.628
 30
-300.000
 70
    32
  0
VERTEX
  8
W56LXLIFT
 62
13
 10
1370.480
 20
-7909.962
 30
-300.000
 70
    32
  0
VERTEX
  8
W56LXLIFT
 62
13
 10
1343.172
 20
-7871.912
 30
-300.000
 70
    32
  0
VERTEX
  8
W56LXLIFT
 62
13
 10
1341.327
 20
-7869.341
 30
-300.000
 70
    32
  0
VERTEX
  8
W56LXLIFT
 62
13
 10
1337.612
 20
-7872.007
 30
-300.000
 70
    32
  0
VERTEX
  8
W56LXLIFT
 62
13
 10
1336.242
 20
-7872.990
 30
-300.000
 70
    32
  0
VERTEX
  8
W56LXLIFT
 62
13
 10
1318.140
 20
-7885.981
 30
-300.000
 70
    32
  0
VERTEX
  8
W56LXLIFT
 62
13
 10
1345.146
 20
-7923.610
 30
-300.000
 70
    32
  0
VERTEX
  8
W56LXLIFT
 62
13
 10
1347.293
 20
-7926.602
 30
-300.000
 70
    32
  0
SEQEND
  8
W56LXLIFT
  0
POLYLINE
  8
W56LXLIFT
 62
13
 66
     1
 70
     9
  0
VERTEX
  8
W56LXLIFT
 62
13
 10
1331.975
 20
-7876.052
 30
-290.000
 70
    32
  0
VERTEX
  8
W56LXLIFT
 62
13
 10
1334.280
 20
-7879.265
 30
-290.000
 70
    32
  0
VERTEX
  8
W56LXLIFT
 62
13
 10
1361.128
 20
-7916.674
 30
-290.000
 70
    32
  0
VERTEX
  8
W56LXLIFT
 62
13
 10
1360.729
 20
-7916.960
 30
-290.000
 70
    32
  0
VERTEX
  8
W56LXLIFT
 62
13
 10
1350.944
 20
-7923.983
 30
-290.000
 70
    32
  0
VERTEX
  8
W56LXLIFT
 62
13
 10
1344.905
 20
-7928.316
 30
-290.000
 70
    32
  0
VERTEX
  8
W56LXLIFT
 62
13
 10
1336.555
 20
-7934.309
 30
-290.000
 70
    32
  0
VERTEX
  8
W56LXLIFT
 62
13
 10
1335.716
 20
-7934.911
 30
-290.000
 70
    32
  0
VERTEX
  8
W56LXLIFT
 62
13
 10
1330.861
 20
-7938.396
 30
-290.000
 70
    32
  0
VERTEX
  8
W56LXLIFT
 62
13
 10
1304.493
 20
-7901.654
 30
-290.000
 70
    32
  0
VERTEX
  8
W56LXLIFT
 62
13
 10
1301.708
 20
-7897.774
 30
-290.000
 70
    32
  0
VERTEX
  8
W56LXLIFT
 62
13
 10
1306.563
 20
-7894.290
 30
-290.000
 70
    32
  0
VERTEX
  8
W56LXLIFT
 62
13
 10
1307.402
 20
-7893.688
 30
-290.000
 70
    32
  0
VERTEX
  8
W56LXLIFT
 62
13
 10
1315.752
 20
-7887.695
 30
-290.000
 70
    32
  0
VERTEX
  8
W56LXLIFT
 62
13
 10
1321.791
 20
-7883.361
 30
-290.000
 70
    32
  0
VERTEX
  8
W56LXLIFT
 62
13
 10
1331.576
 20
-7876.339
 30
-290.000
 70
    32
  0
SEQEND
  8
W56LXLIFT
  0
POLYLINE
  8
W56LXLIFT
 62
13
 66
     1
 70
     9
  0
VERTEX
  8
W56LXLIFT
 62
13
 10
1331.920
 20
-7876.092
 30
-280.000
 70
    32
  0
VERTEX
  8
W56LXLIFT
 62
13
 10
1353.717
 20
-7906.464
 30
-280.000
 70
    32
  0
VERTEX
  8
W56LXLIFT
 62
13
 10
1361.073
 20
-7916.713
 30
-280.000
 70
    32
  0
VERTEX
  8
W56LXLIFT
 62
13
 10
1357.302
 20
-7919.420
 30
-280.000
 70
    32
  0
VERTEX
  8
W56LXLIFT
 62
13
 10
1354.791
 20
-7921.222
 30
-280.000
 70
    32
  0
VERTEX
  8
W56LXLIFT
 62
13
 10
1342.366
 20
-7930.139
 30
-280.000
 70
    32
  0
VERTEX
  8
W56LXLIFT
 62
13
 10
1340.182
 20
-7931.706
 30
-280.000
 70
    32
  0
VERTEX
  8
W56LXLIFT
 62
13
 10
1332.378
 20
-7937.307
 30
-280.000
 70
    32
  0
VERTEX
  8
W56LXLIFT
 62
13
 10
1331.092
 20
-7938.230
 30
-280.000
 70
    32
  0
VERTEX
  8
W56LXLIFT
 62
13
 10
1324.104
 20
-7928.494
 30
-280.000
 70
    32
  0
VERTEX
  8
W56LXLIFT
 62
13
 10
1301.939
 20
-7897.609
 30
-280.000
 70
    32
  0
VERTEX
  8
W56LXLIFT
 62
13
 10
1303.225
 20
-7896.685
 30
-280.000
 70
    32
  0
VERTEX
  8
W56LXLIFT
 62
13
 10
1311.029
 20
-7891.085
 30
-280.000
 70
    32
  0
VERTEX
  8
W56LXLIFT
 62
13
 10
1313.213
 20
-7889.517
 30
-280.000
 70
    32
  0
VERTEX
  8
W56LXLIFT
 62
13
 10
1325.638
 20
-7880.600
 30
-280.000
 70
    32
  0
VERTEX
  8
W56LXLIFT
 62
13
 10
1328.149
 20
-7878.798
 30
-280.000
 70
    32
  0
SEQEND
  8
W56LXLIFT
  0
POLYLINE
  8
W56LXLIFT
 62
13
 66
     1
 70
     9
  0
VERTEX
  8
W56LXLIFT
 62
13
 10
1326.928
 20
-7879.674
 30
-270.000
 70
    32
  0
VERTEX
  8
W56LXLIFT
 62
13
 10
1353.069
 20
-7916.099
 30
-270.000
 70
    32
  0
VERTEX
  8
W56LXLIFT
 62
13
 10
1356.081
 20
-7920.296
 30
-270.000
 70
    32
  0
VERTEX
  8
W56LXLIFT
 62
13
 10
1354.549
 20
-7921.396
 30
-270.000
 70
    32
  0
VERTEX
  8
W56LXLIFT
 62
13
 10
1341.430
 20
-7930.811
 30
-270.000
 70
    32
  0
VERTEX
  8
W56LXLIFT
 62
13
 10
1325.168
 20
-7908.151
 30
-270.000
 70
    32
  0
VERTEX
  8
W56LXLIFT
 62
13
 10
1312.277
 20
-7890.189
 30
-270.000
 70
    32
  0
VERTEX
  8
W56LXLIFT
 62
13
 10
1325.396
 20
-7880.774
 30
-270.000
 70
    32
  0
SEQEND
  8
W56LXLIFT
  0
POLYLINE
  8
W56LXLIFT
 62
13
 66
     1
 70
     9
  0
VERTEX
  8
W56LXLIFT
 62
13
 10
1284.136
 20
-7848.841
 30
-280.000
 70
    32
  0
VERTEX
  8
W56LXLIFT
 62
13
 10
1292.479
 20
-7860.466
 30
-280.000
 70
    32
  0
VERTEX
  8
W56LXLIFT
 62
13
 10
1313.289
 20
-7889.463
 30
-280.000
 70
    32
  0
VERTEX
  8
W56LXLIFT
 62
13
 10
1317.308
 20
-7886.578
 30
-280.000
 70
    32
  0
VERTEX
  8
W56LXLIFT
 62
13
 10
1318.503
 20
-7885.721
 30
-280.000
 70
    32
  0
VERTEX
  8
W56LXLIFT
 62
13
 10
1292.631
 20
-7849.671
 30
-280.000
 70
    32
  0
VERTEX
  8
W56LXLIFT
 62
13
 10
1289.350
 20
-7845.099
 30
-280.000
 70
    32
  0
VERTEX
  8
W56LXLIFT
 62
13
 10
1288.155
 20
-7845.957
 30
-280.000
 70
    32
  0
SEQEND
  8
W56LXLIFT
  0
POLYLINE
  8
W56LXLIFT
 62
13
 66
     1
 70
     9
  0
VERTEX
  8
W56LXLIFT
 62
13
 10
1317.423
 20
-7886.496
 30
-270.000
 70
    32
  0
VERTEX
  8
W56LXLIFT
 62
13
 10
1314.078
 20
-7888.897
 30
-270.000
 70
    32
  0
VERTEX
  8
W56LXLIFT
 62
13
 10
1311.858
 20
-7890.490
 30
-270.000
 70
    32
  0
VERTEX
  8
W56LXLIFT
 62
13
 10
1309.904
 20
-7891.892
 30
-270.000
 70
    32
  0
VERTEX
  8
W56LXLIFT
 62
13
 10
1306.494
 20
-7894.339
 30
-270.000
 70
    32
  0
VERTEX
  8
W56LXLIFT
 62
13
 10
1288.126
 20
-7868.745
 30
-270.000
 70
    32
  0
VERTEX
  8
W56LXLIFT
 62
13
 10
1277.341
 20
-7853.718
 30
-270.000
 70
    32
  0
VERTEX
  8
W56LXLIFT
 62
13
 10
1280.751
 20
-7851.271
 30
-270.000
 70
    32
  0
VERTEX
  8
W56LXLIFT
 62
13
 10
1282.705
 20
-7849.868
 30
-270.000
 70
    32
  0
VERTEX
  8
W56LXLIFT
 62
13
 10
1284.925
 20
-7848.275
 30
-270.000
 70
    32
  0
VERTEX
  8
W56LXLIFT
 62
13
 10
1288.270
 20
-7845.874
 30
-270.000
 70
    32
  0
VERTEX
  8
W56LXLIFT
 62
13
 10
1308.751
 20
-7874.412
 30
-270.000
 70
    32
  0
SEQEND
  8
W56LXLIFT
  0
POLYLINE
  8
W56LXLIFT
 62
13
 66
     1
 70
     9
  0
VERTEX
  8
W56LXLIFT
 62
13
 10
1311.913
 20
-7890.450
 30
-260.000
 70
    32
  0
VERTEX
  8
W56LXLIFT
 62
13
 10
1315.866
 20
-7887.614
 30
-260.000
 70
    32
  0
VERTEX
  8
W56LXLIFT
 62
13
 10
1317.284
 20
-7886.596
 30
-260.000
 70
    32
  0
VERTEX
  8
W56LXLIFT
 62
13
 10
1325.450
 20
-7880.735
 30
-260.000
 70
    32
  0
VERTEX
  8
W56LXLIFT
 62
13
 10
1330.156
 20
-7877.358
 30
-260.000
 70
    32
  0
VERTEX
  8
W56LXLIFT
 62
13
 10
1337.745
 20
-7871.911
 30
-260.000
 70
    32
  0
VERTEX
  8
W56LXLIFT
 62
13
 10
1331.232
 20
-7862.836
 30
-260.000
 70
    32
  0
VERTEX
  8
W56LXLIFT
 62
13
 10
1308.592
 20
-7831.290
 30
-260.000
 70
    32
  0
VERTEX
  8
W56LXLIFT
 62
13
 10
1301.003
 20
-7836.736
 30
-260.000
 70
    32
  0
VERTEX
  8
W56LXLIFT
 62
13
 10
1296.297
 20
-7840.114
 30
-260.000
 70
    32
  0
VERTEX
  8
W56LXLIFT
 62
13
 10
1288.131
 20
-7845.975
 30
-260.000
 70
    32
  0
VERTEX
  8
W56LXLIFT
 62
13
 10
1286.713
 20
-7846.992
 30
-260.000
 70
    32
  0
VERTEX
  8
W56LXLIFT
 62
13
 10
1282.760
 20
-7849.829
 30
-260.000
 70
    32
  0
VERTEX
  8
W56LXLIFT
 62
13
 10
1290.299
 20
-7860.333
 30
-260.000
 70
    32
  0
SEQEND
  8
W56LXLIFT
  0
POLYLINE
  8
W56LXLIFT
 62
13
 66
     1
 70
     9
  0
VERTEX
  8
W56LXLIFT
 62
13
 10
1329.688
 20
-7877.694
 30
-250.000
 70
    32
  0
VERTEX
  8
W56LXLIFT
 62
13
 10
1337.523
 20
-7872.071
 30
-250.000
 70
    32
  0
VERTEX
  8
W56LXLIFT
 62
13
 10
1331.949
 20
-7864.304
 30
-250.000
 70
    32
  0
VERTEX
  8
W56LXLIFT
 62
13
 10
1308.370
 20
-7831.449
 30
-250.000
 70
    32
  0
VERTEX
  8
W56LXLIFT
 62
13
 10
1300.535
 20
-7837.072
 30
-250.000
 70
    32
  0
VERTEX
  8
W56LXLIFT
 62
13
 10
1296.535
 20
-7839.943
 30
-250.000
 70
    32
  0
VERTEX
  8
W56LXLIFT
 62
13
 10
1288.115
 20
-7845.986
 30
-250.000
 70
    32
  0
VERTEX
  8
W56LXLIFT
 62
13
 10
1304.663
 20
-7869.044
 30
-250.000
 70
    32
  0
VERTEX
  8
W56LXLIFT
 62
13
 10
1317.268
 20
-7886.607
 30
-250.000
 70
    32
  0
VERTEX
  8
W56LXLIFT
 62
13
 10
1325.688
 20
-7880.565
 30
-250.000
 70
    32
  0
SEQEND
  8
W56LXLIFT
  0
POLYLINE
  8
W56LXLIFT
 62
1
 66
     1
 70
     9
  0
VERTEX
  8
W56LXLIFT
 62
1
 10
973.182
 20
-7140.550
 30
-287.000
 70
    32
  0
VERTEX
  8
W56LXLIFT
 62
1
 10
984.105
 20
-7137.733
 30
-287.000
 70
    32
  0
VERTEX
  8
W56LXLIFT
 62
1
 10
992.208
 20
-7178.224
 30
-287.000
 70
    32
  0
VERTEX
  8
W56LXLIFT
 62
1
 10
993.595
 20
-7182.567
 30
-287.000
 70
    32
  0
VERTEX
  8
W56LXLIFT
 62
1
 10
998.770
 20
-7202.220
 30
-287.000
 70
    32
  0
VERTEX
  8
W56LXLIFT
 62
1
 10
1000.089
 20
-7212.039
 30
-287.000
 70
    32
  0
VERTEX
  8
W56LXLIFT
 62
1
 10
1004.049
 20
-7219.815
 30
-287.000
 70
    32
  0
VERTEX
  8
W56LXLIFT
 62
1
 10
1010.071
 20
-7238.693
 30
-287.000
 70
    32
  0
VERTEX
  8
W56LXLIFT
 62
1
 10
1000.114
 20
-7244.544
 30
-287.000
 70
    32
  0
VERTEX
  8
W56LXLIFT
 62
1
 10
991.539
 20
-7233.653
 30
-287.000
 70
    32
  0
VERTEX
  8
W56LXLIFT
 62
1
 10
977.271
 20
-7222.020
 30
-287.000
 70
    32
  0
VERTEX
  8
W56LXLIFT
 62
1
 10
972.626
 20
-7222.507
 30
-287.000
 70
    32
  0
VERTEX
  8
W56LXLIFT
 62
1
 10
968.844
 20
-7226.251
 30
-287.000
 70
    32
  0
VERTEX
  8
W56LXLIFT
 62
1
 10
962.393
 20
-7224.636
 30
-287.000
 70
    32
  0
VERTEX
  8
W56LXLIFT
 62
1
 10
943.958
 20
-7228.466
 30
-287.000
 70
    32
  0
VERTEX
  8
W56LXLIFT
 62
1
 10
935.075
 20
-7232.130
 30
-287.000
 70
    32
  0
VERTEX
  8
W56LXLIFT
 62
1
 10
933.469
 20
-7238.974
 30
-287.000
 70
    32
  0
VERTEX
  8
W56LXLIFT
 62
1
 10
932.064
 20
-7247.301
 30
-287.000
 70
    32
  0
VERTEX
  8
W56LXLIFT
 62
1
 10
937.182
 20
-7275.020
 30
-287.000
 70
    32
  0
VERTEX
  8
W56LXLIFT
 62
1
 10
929.326
 20
-7273.838
 30
-287.000
 70
    32
  0
VERTEX
  8
W56LXLIFT
 62
1
 10
916.977
 20
-7249.428
 30
-287.000
 70
    32
  0
VERTEX
  8
W56LXLIFT
 62
1
 10
916.836
 20
-7242.990
 30
-287.000
 70
    32
  0
VERTEX
  8
W56LXLIFT
 62
1
 10
918.490
 20
-7234.945
 30
-287.000
 70
    32
  0
VERTEX
  8
W56LXLIFT
 62
1
 10
920.435
 20
-7228.141
 30
-287.000
 70
    32
  0
VERTEX
  8
W56LXLIFT
 62
1
 10
909.212
 20
-7216.559
 30
-287.000
 70
    32
  0
VERTEX
  8
W56LXLIFT
 62
1
 10
905.676
 20
-7209.633
 30
-287.000
 70
    32
  0
VERTEX
  8
W56LXLIFT
 62
1
 10
895.800
 20
-7200.721
 30
-287.000
 70
    32
  0
VERTEX
  8
W56LXLIFT
 62
1
 10
901.041
 20
-7193.460
 30
-287.000
 70
    32
  0
VERTEX
  8
W56LXLIFT
 62
1
 10
914.471
 20
-7206.762
 30
-287.000
 70
    32
  0
VERTEX
  8
W56LXLIFT
 62
1
 10
922.182
 20
-7213.497
 30
-287.000
 70
    32
  0
VERTEX
  8
W56LXLIFT
 62
1
 10
934.959
 20
-7220.025
 30
-287.000
 70
    32
  0
VERTEX
  8
W56LXLIFT
 62
1
 10
949.820
 20
-7215.581
 30
-287.000
 70
    32
  0
VERTEX
  8
W56LXLIFT
 62
1
 10
960.834
 20
-7212.870
 30
-287.000
 70
    32
  0
VERTEX
  8
W56LXLIFT
 62
1
 10
965.590
 20
-7208.711
 30
-287.000
 70
    32
  0
VERTEX
  8
W56LXLIFT
 62
1
 10
972.191
 20
-7199.598
 30
-287.000
 70
    32
  0
VERTEX
  8
W56LXLIFT
 62
1
 10
973.659
 20
-7193.399
 30
-287.000
 70
    32
  0
VERTEX
  8
W56LXLIFT
 62
1
 10
979.433
 20
-7190.233
 30
-287.000
 70
    32
  0
VERTEX
  8
W56LXLIFT
 62
1
 10
981.991
 20
-7180.689
 30
-287.000
 70
    32
  0
SEQEND
  8
W56LXLIFT
  0
POLYLINE
  8
W56LXLIFT
 62
1
 66
     1
 70
     9
  0
VERTEX
  8
W56LXLIFT
 62
1
 10
978.932
 20
-7165.484
 30
-298.000
 70
    32
  0
VERTEX
  8
W56LXLIFT
 62
1
 10
990.320
 20
-7161.761
 30
-298.000
 70
    32
  0
VERTEX
  8
W56LXLIFT
 62
1
 10
986.515
 20
-7173.963
 30
-298.000
 70
    32
  0
VERTEX
  8
W56LXLIFT
 62
1
 10
987.413
 20
-7191.696
 30
-298.000
 70
    32
  0
VERTEX
  8
W56LXLIFT
 62
1
 10
990.441
 20
-7199.478
 30
-298.000
 70
    32
  0
VERTEX
  8
W56LXLIFT
 62
1
 10
1001.551
 20
-7194.933
 30
-298.000
 70
    32
  0
VERTEX
  8
W56LXLIFT
 62
1
 10
1009.029
 20
-7198.105
 30
-298.000
 70
    32
  0
VERTEX
  8
W56LXLIFT
 62
1
 10
1010.337
 20
-7207.743
 30
-298.000
 70
    32
  0
VERTEX
  8
W56LXLIFT
 62
1
 10
1013.021
 20
-7214.788
 30
-298.000
 70
    32
  0
VERTEX
  8
W56LXLIFT
 62
1
 10
1016.730
 20
-7217.669
 30
-298.000
 70
    32
  0
VERTEX
  8
W56LXLIFT
 62
1
 10
1021.395
 20
-7221.027
 30
-298.000
 70
    32
  0
VERTEX
  8
W56LXLIFT
 62
1
 10
1019.497
 20
-7225.479
 30
-298.000
 70
    32
  0
VERTEX
  8
W56LXLIFT
 62
1
 10
1019.014
 20
-7227.899
 30
-298.000
 70
    32
  0
VERTEX
  8
W56LXLIFT
 62
1
 10
1022.214
 20
-7233.807
 30
-298.000
 70
    32
  0
VERTEX
  8
W56LXLIFT
 62
1
 10
1013.193
 20
-7241.488
 30
-298.000
 70
    32
  0
VERTEX
  8
W56LXLIFT
 62
1
 10
1005.116
 20
-7237.733
 30
-298.000
 70
    32
  0
VERTEX
  8
W56LXLIFT
 62
1
 10
992.581
 20
-7224.352
 30
-298.000
 70
    32
  0
VERTEX
  8
W56LXLIFT
 62
1
 10
976.633
 20
-7220.100
 30
-298.000
 70
    32
  0
VERTEX
  8
W56LXLIFT
 62
1
 10
936.842
 20
-7229.489
 30
-298.000
 70
    32
  0
VERTEX
  8
W56LXLIFT
 62
1
 10
936.912
 20
-7243.223
 30
-298.000
 70
    32
  0
VERTEX
  8
W56LXLIFT
 62
1
 10
942.766
 20
-7268.754
 30
-298.000
 70
    32
  0
VERTEX
  8
W56LXLIFT
 62
1
 10
945.104
 20
-7279.710
 30
-298.000
 70
    32
  0
VERTEX
  8
W56LXLIFT
 62
1
 10
935.982
 20
-7281.214
 30
-298.000
 70
    32
  0
VERTEX
  8
W56LXLIFT
 62
1
 10
932.268
 20
-7267.245
 30
-298.000
 70
    32
  0
VERTEX
  8
W56LXLIFT
 62
1
 10
924.539
 20
-7245.161
 30
-298.000
 70
    32
  0
VERTEX
  8
W56LXLIFT
 62
1
 10
920.771
 20
-7233.024
 30
-298.000
 70
    32
  0
VERTEX
  8
W56LXLIFT
 62
1
 10
918.412
 20
-7225.679
 30
-298.000
 70
    32
  0
VERTEX
  8
W56LXLIFT
 62
1
 10
911.893
 20
-7215.456
 30
-298.000
 70
    32
  0
VERTEX
  8
W56LXLIFT
 62
1
 10
907.162
 20
-7207.572
 30
-298.000
 70
    32
  0
VERTEX
  8
W56LXLIFT
 62
1
 10
905.049
 20
-7194.180
 30
-298.000
 70
    32
  0
VERTEX
  8
W56LXLIFT
 62
1
 10
913.924
 20
-7188.351
 30
-298.000
 70
    32
  0
VERTEX
  8
W56LXLIFT
 62
1
 10
922.507
 20
-7202.820
 30
-298.000
 70
    32
  0
VERTEX
  8
W56LXLIFT
 62
1
 10
933.688
 20
-7217.273
 30
-298.000
 70
    32
  0
VERTEX
  8
W56LXLIFT
 62
1
 10
940.626
 20
-7218.123
 30
-298.000
 70
    32
  0
VERTEX
  8
W56LXLIFT
 62
1
 10
967.203
 20
-7210.976
 30
-298.000
 70
    32
  0
VERTEX
  8
W56LXLIFT
 62
1
 10
967.998
 20
-7198.646
 30
-298.000
 70
    32
  0
VERTEX
  8
W56LXLIFT
 62
1
 10
974.134
 20
-7192.101
 30
-298.000
 70
    32
  0
VERTEX
  8
W56LXLIFT
 62
1
 10
976.291
 20
-7188.686
 30
-298.000
 70
    32
  0
SEQEND
  8
W56LXLIFT
  0
POLYLINE
  8
W56LXLIFT
 62
1
 66
     1
 70
     9
  0
VERTEX
  8
W56LXLIFT
 62
1
 10
882.549
 20
-7213.296
 30
-310.000
 70
    32
  0
VERTEX
  8
W56LXLIFT
 62
1
 10
891.727
 20
-7202.570
 30
-310.000
 70
    32
  0
VERTEX
  8
W56LXLIFT
 62
1
 10
898.767
 20
-7210.295
 30
-310.000
 70
    32
  0
VERTEX
  8
W56LXLIFT
 62
1
 10
910.215
 20
-7215.621
 30
-310.000
 70
    32
  0
VERTEX
  8
W56LXLIFT
 62
1
 10
915.172
 20
-7210.596
 30
-310.000
 70
    32
  0
VERTEX
  8
W56LXLIFT
 62
1
 10
917.381
 20
-7203.269
 30
-310.000
 70
    32
  0
VERTEX
  8
W56LXLIFT
 62
1
 10
908.217
 20
-7182.407
 30
-310.000
 70
    32
  0
VERTEX
  8
W56LXLIFT
 62
1
 10
910.267
 20
-7174.967
 30
-310.000
 70
    32
  0
VERTEX
  8
W56LXLIFT
 62
1
 10
920.222
 20
-7165.394
 30
-310.000
 70
    32
  0
VERTEX
  8
W56LXLIFT
 62
1
 10
929.501
 20
-7190.595
 30
-310.000
 70
    32
  0
VERTEX
  8
W56LXLIFT
 62
1
 10
937.335
 20
-7212.516
 30
-310.000
 70
    32
  0
VERTEX
  8
W56LXLIFT
 62
1
 10
942.957
 20
-7217.974
 30
-310.000
 70
    32
  0
VERTEX
  8
W56LXLIFT
 62
1
 10
953.644
 20
-7217.572
 30
-310.000
 70
    32
  0
VERTEX
  8
W56LXLIFT
 62
1
 10
955.724
 20
-7215.456
 30
-310.000
 70
    32
  0
VERTEX
  8
W56LXLIFT
 62
1
 10
961.400
 20
-7217.969
 30
-310.000
 70
    32
  0
VERTEX
  8
W56LXLIFT
 62
1
 10
967.047
 20
-7215.939
 30
-310.000
 70
    32
  0
VERTEX
  8
W56LXLIFT
 62
1
 10
970.695
 20
-7212.730
 30
-310.000
 70
    32
  0
VERTEX
  8
W56LXLIFT
 62
1
 10
975.109
 20
-7202.867
 30
-310.000
 70
    32
  0
VERTEX
  8
W56LXLIFT
 62
1
 10
977.327
 20
-7199.408
 30
-310.000
 70
    32
  0
VERTEX
  8
W56LXLIFT
 62
1
 10
987.510
 20
-7191.569
 30
-310.000
 70
    32
  0
VERTEX
  8
W56LXLIFT
 62
1
 10
988.599
 20
-7202.954
 30
-310.000
 70
    32
  0
VERTEX
  8
W56LXLIFT
 62
1
 10
988.774
 20
-7213.629
 30
-310.000
 70
    32
  0
VERTEX
  8
W56LXLIFT
 62
1
 10
989.266
 20
-7213.880
 30
-310.000
 70
    32
  0
VERTEX
  8
W56LXLIFT
 62
1
 10
997.900
 20
-7212.273
 30
-310.000
 70
    32
  0
VERTEX
  8
W56LXLIFT
 62
1
 10
995.735
 20
-7202.199
 30
-310.000
 70
    32
  0
VERTEX
  8
W56LXLIFT
 62
1
 10
1000.763
 20
-7198.264
 30
-310.000
 70
    32
  0
VERTEX
  8
W56LXLIFT
 62
1
 10
1019.320
 20
-7206.873
 30
-310.000
 70
    32
  0
VERTEX
  8
W56LXLIFT
 62
1
 10
1025.288
 20
-7213.068
 30
-310.000
 70
    32
  0
VERTEX
  8
W56LXLIFT
 62
1
 10
1023.315
 20
-7224.914
 30
-310.000
 70
    32
  0
VERTEX
  8
W56LXLIFT
 62
1
 10
1018.246
 20
-7234.680
 30
-310.000
 70
    32
  0
VERTEX
  8
W56LXLIFT
 62
1
 10
1008.397
 20
-7238.578
 30
-310.000
 70
    32
  0
VERTEX
  8
W56LXLIFT
 62
1
 10
1002.703
 20
-7229.717
 30
-310.000
 70
    32
  0
VERTEX
  8
W56LXLIFT
 62
1
 10
999.220
 20
-7227.727
 30
-310.000
 70
    32
  0
VERTEX
  8
W56LXLIFT
 62
1
 10
981.863
 20
-7227.829
 30
-310.000
 70
    32
  0
VERTEX
  8
W56LXLIFT
 62
1
 10
969.522
 20
-7231.189
 30
-310.000
 70
    32
  0
VERTEX
  8
W56LXLIFT
 62
1
 10
962.482
 20
-7228.402
 30
-310.000
 70
    32
  0
VERTEX
  8
W56LXLIFT
 62
1
 10
956.906
 20
-7229.187
 30
-310.000
 70
    32
  0
VERTEX
  8
W56LXLIFT
 62
1
 10
955.266
 20
-7230.839
 30
-310.000
 70
    32
  0
VERTEX
  8
W56LXLIFT
 62
1
 10
938.413
 20
-7234.473
 30
-310.000
 70
    32
  0
VERTEX
  8
W56LXLIFT
 62
1
 10
934.188
 20
-7240.247
 30
-310.000
 70
    32
  0
VERTEX
  8
W56LXLIFT
 62
1
 10
922.146
 20
-7236.326
 30
-310.000
 70
    32
  0
VERTEX
  8
W56LXLIFT
 62
1
 10
911.204
 20
-7230.364
 30
-310.000
 70
    32
  0
VERTEX
  8
W56LXLIFT
 62
1
 10
896.434
 20
-7221.759
 30
-310.000
 70
    32
  0
VERTEX
  8
W56LXLIFT
 62
1
 10
887.553
 20
-7220.008
 30
-310.000
 70
    32
  0
SEQEND
  8
W56LXLIFT
  0
POLYLINE
  8
W56LXLIFT
 62
1
 66
     1
 70
     9
  0
VERTEX
  8
W56LXLIFT
 62
1
 10
913.901
 20
-7232.767
 30
-320.000
 70
    32
  0
VERTEX
  8
W56LXLIFT
 62
1
 10
916.331
 20
-7217.392
 30
-320.000
 70
    32
  0
VERTEX
  8
W56LXLIFT
 62
1
 10
920.811
 20
-7212.644
 30
-320.000
 70
    32
  0
VERTEX
  8
W56LXLIFT
 62
1
 10
925.937
 20
-7208.894
 30
-320.000
 70
    32
  0
VERTEX
  8
W56LXLIFT
 62
1
 10
923.961
 20
-7197.733
 30
-320.000
 70
    32
  0
VERTEX
  8
W56LXLIFT
 62
1
 10
920.638
 20
-7181.476
 30
-320.000
 70
    32
  0
VERTEX
  8
W56LXLIFT
 62
1
 10
916.437
 20
-7169.422
 30
-320.000
 70
    32
  0
VERTEX
  8
W56LXLIFT
 62
1
 10
913.838
 20
-7162.711
 30
-320.000
 70
    32
  0
VERTEX
  8
W56LXLIFT
 62
1
 10
906.763
 20
-7149.264
 30
-320.000
 70
    32
  0
VERTEX
  8
W56LXLIFT
 62
1
 10
917.084
 20
-7144.918
 30
-320.000
 70
    32
  0
VERTEX
  8
W56LXLIFT
 62
1
 10
922.769
 20
-7152.084
 30
-320.000
 70
    32
  0
VERTEX
  8
W56LXLIFT
 62
1
 10
928.388
 20
-7160.852
 30
-320.000
 70
    32
  0
VERTEX
  8
W56LXLIFT
 62
1
 10
929.791
 20
-7160.692
 30
-320.000
 70
    32
  0
VERTEX
  8
W56LXLIFT
 62
1
 10
935.175
 20
-7180.955
 30
-320.000
 70
    32
  0
VERTEX
  8
W56LXLIFT
 62
1
 10
938.165
 20
-7181.198
 30
-320.000
 70
    32
  0
VERTEX
  8
W56LXLIFT
 62
1
 10
935.010
 20
-7197.501
 30
-320.000
 70
    32
  0
VERTEX
  8
W56LXLIFT
 62
1
 10
938.292
 20
-7203.150
 30
-320.000
 70
    32
  0
VERTEX
  8
W56LXLIFT
 62
1
 10
943.337
 20
-7204.429
 30
-320.000
 70
    32
  0
VERTEX
  8
W56LXLIFT
 62
1
 10
945.869
 20
-7208.542
 30
-320.000
 70
    32
  0
VERTEX
  8
W56LXLIFT
 62
1
 10
965.870
 20
-7215.300
 30
-320.000
 70
    32
  0
VERTEX
  8
W56LXLIFT
 62
1
 10
977.576
 20
-7218.910
 30
-320.000
 70
    32
  0
VERTEX
  8
W56LXLIFT
 62
1
 10
993.377
 20
-7218.580
 30
-320.000
 70
    32
  0
VERTEX
  8
W56LXLIFT
 62
1
 10
1000.838
 20
-7211.351
 30
-320.000
 70
    32
  0
VERTEX
  8
W56LXLIFT
 62
1
 10
1006.092
 20
-7207.167
 30
-320.000
 70
    32
  0
VERTEX
  8
W56LXLIFT
 62
1
 10
1006.092
 20
-7207.167
 30
-320.000
 70
    32
  0
VERTEX
  8
W56LXLIFT
 62
1
 10
1018.935
 20
-7203.848
 30
-320.000
 70
    32
  0
VERTEX
  8
W56LXLIFT
 62
1
 10
1019.186
 20
-7203.783
 30
-320.000
 70
    32
  0
VERTEX
  8
W56LXLIFT
 62
1
 10
1034.411
 20
-7206.533
 30
-320.000
 70
    32
  0
VERTEX
  8
W56LXLIFT
 62
1
 10
1038.558
 20
-7216.835
 30
-320.000
 70
    32
  0
VERTEX
  8
W56LXLIFT
 62
1
 10
1031.879
 20
-7220.562
 30
-320.000
 70
    32
  0
VERTEX
  8
W56LXLIFT
 62
1
 10
1028.631
 20
-7225.625
 30
-320.000
 70
    32
  0
VERTEX
  8
W56LXLIFT
 62
1
 10
1010.491
 20
-7226.361
 30
-320.000
 70
    32
  0
VERTEX
  8
W56LXLIFT
 62
1
 10
1007.661
 20
-7229.405
 30
-320.000
 70
    32
  0
VERTEX
  8
W56LXLIFT
 62
1
 10
996.956
 20
-7230.541
 30
-320.000
 70
    32
  0
VERTEX
  8
W56LXLIFT
 62
1
 10
984.932
 20
-7228.964
 30
-320.000
 70
    32
  0
VERTEX
  8
W56LXLIFT
 62
1
 10
982.520
 20
-7229.098
 30
-320.000
 70
    32
  0
VERTEX
  8
W56LXLIFT
 62
1
 10
975.294
 20
-7236.687
 30
-320.000
 70
    32
  0
VERTEX
  8
W56LXLIFT
 62
1
 10
971.222
 20
-7249.956
 30
-320.000
 70
    32
  0
VERTEX
  8
W56LXLIFT
 62
1
 10
963.428
 20
-7248.248
 30
-320.000
 70
    32
  0
VERTEX
  8
W56LXLIFT
 62
1
 10
964.669
 20
-7239.305
 30
-320.000
 70
    32
  0
VERTEX
  8
W56LXLIFT
 62
1
 10
964.561
 20
-7237.771
 30
-320.000
 70
    32
  0
VERTEX
  8
W56LXLIFT
 62
1
 10
953.420
 20
-7233.808
 30
-320.000
 70
    32
  0
VERTEX
  8
W56LXLIFT
 62
1
 10
938.691
 20
-7232.890
 30
-320.000
 70
    32
  0
VERTEX
  8
W56LXLIFT
 62
1
 10
931.319
 20
-7237.647
 30
-320.000
 70
    32
  0
VERTEX
  8
W56LXLIFT
 62
1
 10
930.959
 20
-7244.760
 30
-320.000
 70
    32
  0
VERTEX
  8
W56LXLIFT
 62
1
 10
920.174
 20
-7245.190
 30
-320.000
 70
    32
  0
SEQEND
  8
W56LXLIFT
  0
POLYLINE
  8
W56LXLIFT
 62
1
 66
     1
 70
     9
  0
VERTEX
  8
W56LXLIFT
 62
1
 10
991.514
 20
-7255.323
 30
-348.855
 70
    32
  0
VERTEX
  8
W56LXLIFT
 62
1
 10
992.414
 20
-7254.552
 30
-348.757
 70
    32
  0
VERTEX
  8
W56LXLIFT
 62
1
 10
994.070
 20
-7253.134
 30
-348.601
 70
    32
  0
VERTEX
  8
W56LXLIFT
 62
1
 10
998.733
 20
-7249.140
 30
-348.103
 70
    32
  0
VERTEX
  8
W56LXLIFT
 62
1
 10
997.282
 20
-7246.663
 30
-346.928
 70
    32
  0
VERTEX
  8
W56LXLIFT
 62
1
 10
994.142
 20
-7241.305
 30
-344.443
 70
    32
  0
VERTEX
  8
W56LXLIFT
 62
1
 10
993.613
 20
-7240.401
 30
-344.285
 70
    32
  0
VERTEX
  8
W56LXLIFT
 62
1
 10
990.033
 20
-7234.807
 30
-343.284
 70
    32
  0
VERTEX
  8
W56LXLIFT
 62
1
 10
986.711
 20
-7229.616
 30
-342.292
 70
    32
  0
VERTEX
  8
W56LXLIFT
 62
1
 10
985.829
 20
-7227.880
 30
-341.981
 70
    32
  0
VERTEX
  8
W56LXLIFT
 62
1
 10
981.421
 20
-7219.203
 30
-341.074
 70
    32
  0
VERTEX
  8
W56LXLIFT
 62
1
 10
977.337
 20
-7210.970
 30
-340.218
 70
    32
  0
VERTEX
  8
W56LXLIFT
 62
1
 10
975.604
 20
-7210.180
 30
-340.066
 70
    32
  0
VERTEX
  8
W56LXLIFT
 62
1
 10
971.450
 20
-7208.287
 30
-339.697
 70
    32
  0
VERTEX
  8
W56LXLIFT
 62
1
 10
967.288
 20
-7196.288
 30
-338.543
 70
    32
  0
VERTEX
  8
W56LXLIFT
 62
1
 10
966.970
 20
-7195.370
 30
-338.560
 70
    32
  0
VERTEX
  8
W56LXLIFT
 62
1
 10
962.882
 20
-7184.580
 30
-338.764
 70
    32
  0
VERTEX
  8
W56LXLIFT
 62
1
 10
953.803
 20
-7183.509
 30
-338.865
 70
    32
  0
VERTEX
  8
W56LXLIFT
 62
1
 10
948.921
 20
-7176.344
 30
-339.020
 70
    32
  0
VERTEX
  8
W56LXLIFT
 62
1
 10
943.038
 20
-7167.710
 30
-339.210
 70
    32
  0
VERTEX
  8
W56LXLIFT
 62
1
 10
936.998
 20
-7155.321
 30
-339.458
 70
    32
  0
VERTEX
  8
W56LXLIFT
 62
1
 10
932.806
 20
-7146.725
 30
-339.458
 70
    32
  0
VERTEX
  8
W56LXLIFT
 62
1
 10
928.378
 20
-7143.425
 30
-339.458
 70
    32
  0
VERTEX
  8
W56LXLIFT
 62
1
 10
926.245
 20
-7139.520
 30
-339.458
 70
    32
  0
VERTEX
  8
W56LXLIFT
 62
1
 10
912.788
 20
-7114.878
 30
-339.460
 70
    32
  0
VERTEX
  8
W56LXLIFT
 62
1
 10
904.786
 20
-7118.245
 30
-339.460
 70
    32
  0
VERTEX
  8
W56LXLIFT
 62
1
 10
904.116
 20
-7118.527
 30
-339.460
 70
    32
  0
VERTEX
  8
W56LXLIFT
 62
1
 10
903.280
 20
-7118.879
 30
-339.460
 70
    32
  0
VERTEX
  8
W56LXLIFT
 62
1
 10
906.283
 20
-7128.380
 30
-339.460
 70
    32
  0
VERTEX
  8
W56LXLIFT
 62
1
 10
917.753
 20
-7148.281
 30
-339.460
 70
    32
  0
VERTEX
  8
W56LXLIFT
 62
1
 10
919.141
 20
-7150.689
 30
-339.460
 70
    32
  0
VERTEX
  8
W56LXLIFT
 62
1
 10
926.485
 20
-7162.185
 30
-339.461
 70
    32
  0
VERTEX
  8
W56LXLIFT
 62
1
 10
928.609
 20
-7165.510
 30
-339.389
 70
    32
  0
VERTEX
  8
W56LXLIFT
 62
1
 10
934.896
 20
-7176.518
 30
-339.160
 70
    32
  0
VERTEX
  8
W56LXLIFT
 62
1
 10
936.740
 20
-7182.539
 30
-339.051
 70
    32
  0
VERTEX
  8
W56LXLIFT
 62
1
 10
940.266
 20
-7194.055
 30
-338.835
 70
    32
  0
VERTEX
  8
W56LXLIFT
 62
1
 10
940.886
 20
-7201.141
 30
-338.718
 70
    32
  0
VERTEX
  8
W56LXLIFT
 62
1
 10
945.742
 20
-7204.095
 30
-338.625
 70
    32
  0
VERTEX
  8
W56LXLIFT
 62
1
 10
947.206
 20
-7209.555
 30
-338.525
 70
    32
  0
VERTEX
  8
W56LXLIFT
 62
1
 10
949.094
 20
-7216.593
 30
-339.177
 70
    32
  0
VERTEX
  8
W56LXLIFT
 62
1
 10
949.361
 20
-7217.588
 30
-339.265
 70
    32
  0
VERTEX
  8
W56LXLIFT
 62
1
 10
956.080
 20
-7233.074
 30
-340.765
 70
    32
  0
VERTEX
  8
W56LXLIFT
 62
1
 10
964.994
 20
-7238.692
 30
-341.663
 70
    32
  0
VERTEX
  8
W56LXLIFT
 62
1
 10
968.825
 20
-7240.437
 30
-341.999
 70
    32
  0
VERTEX
  8
W56LXLIFT
 62
1
 10
974.319
 20
-7242.940
 30
-342.950
 70
    32
  0
VERTEX
  8
W56LXLIFT
 62
1
 10
979.289
 20
-7243.713
 30
-343.596
 70
    32
  0
VERTEX
  8
W56LXLIFT
 62
1
 10
980.869
 20
-7243.959
 30
-343.757
 70
    32
  0
VERTEX
  8
W56LXLIFT
 62
1
 10
984.074
 20
-7247.380
 30
-344.492
 70
    32
  0
VERTEX
  8
W56LXLIFT
 62
1
 10
990.243
 20
-7253.966
 30
-348.099
 70
    32
  0
VERTEX
  8
W56LXLIFT
 62
1
 10
991.514
 20
-7255.323
 30
-348.855
 70
    32
  0
SEQEND
  8
W56LXLIFT
  0
POLYLINE
  8
W56LXLIFT
 62
2
 66
     1
 70
     9
  0
VERTEX
  8
W56LXLIFT
 62
2
 10
1321.520
 20
-7293.860
 30
-352.500
 70
    32
  0
VERTEX
  8
W56LXLIFT
 62
2
 10
1312.824
 20
-7289.159
 30
-352.500
 70
    32
  0
VERTEX
  8
W56LXLIFT
 62
2
 10
1306.969
 20
-7286.771
 30
-352.500
 70
    32
  0
VERTEX
  8
W56LXLIFT
 62
2
 10
1296.465
 20
-7281.309
 30
-352.500
 70
    32
  0
VERTEX
  8
W56LXLIFT
 62
2
 10
1283.231
 20
-7267.773
 30
-352.500
 70
    32
  0
VERTEX
  8
W56LXLIFT
 62
2
 10
1276.893
 20
-7250.547
 30
-352.500
 70
    32
  0
VERTEX
  8
W56LXLIFT
 62
2
 10
1271.709
 20
-7248.600
 30
-352.500
 70
    32
  0
VERTEX
  8
W56LXLIFT
 62
2
 10
1259.566
 20
-7256.270
 30
-352.500
 70
    32
  0
VERTEX
  8
W56LXLIFT
 62
2
 10
1262.889
 20
-7264.938
 30
-352.500
 70
    32
  0
VERTEX
  8
W56LXLIFT
 62
2
 10
1262.728
 20
-7269.890
 30
-352.500
 70
    32
  0
VERTEX
  8
W56LXLIFT
 62
2
 10
1261.279
 20
-7281.571
 30
-352.500
 70
    32
  0
VERTEX
  8
W56LXLIFT
 62
2
 10
1274.996
 20
-7297.547
 30
-352.500
 70
    32
  0
VERTEX
  8
W56LXLIFT
 62
2
 10
1282.887
 20
-7299.353
 30
-352.500
 70
    32
  0
VERTEX
  8
W56LXLIFT
 62
2
 10
1288.556
 20
-7302.667
 30
-352.500
 70
    32
  0
VERTEX
  8
W56LXLIFT
 62
2
 10
1288.593
 20
-7304.222
 30
-352.500
 70
    32
  0
VERTEX
  8
W56LXLIFT
 62
2
 10
1282.336
 20
-7311.044
 30
-352.500
 70
    32
  0
VERTEX
  8
W56LXLIFT
 62
2
 10
1286.271
 20
-7318.915
 30
-352.500
 70
    32
  0
VERTEX
  8
W56LXLIFT
 62
2
 10
1298.718
 20
-7326.376
 30
-352.500
 70
    32
  0
VERTEX
  8
W56LXLIFT
 62
2
 10
1304.536
 20
-7326.765
 30
-352.500
 70
    32
  0
VERTEX
  8
W56LXLIFT
 62
2
 10
1312.179
 20
-7328.902
 30
-352.500
 70
    32
  0
VERTEX
  8
W56LXLIFT
 62
2
 10
1332.697
 20
-7322.962
 30
-352.500
 70
    32
  0
VERTEX
  8
W56LXLIFT
 62
2
 10
1336.148
 20
-7317.803
 30
-352.500
 70
    32
  0
VERTEX
  8
W56LXLIFT
 62
2
 10
1333.113
 20
-7311.310
 30
-352.500
 70
    32
  0
VERTEX
  8
W56LXLIFT
 62
2
 10
1325.662
 20
-7307.434
 30
-352.500
 70
    32
  0
VERTEX
  8
W56LXLIFT
 62
2
 10
1326.363
 20
-7300.871
 30
-352.500
 70
    32
  0
SEQEND
  8
W56LXLIFT
  0
POLYLINE
  8
W56LXLIFT
 62
6
 66
     1
 70
     9
  0
VERTEX
  8
W56LXLIFT
 62
6
 10
1266.988
 20
-7330.448
 30
-334.941
 70
    32
  0
VERTEX
  8
W56LXLIFT
 62
6
 10
1270.013
 20
-7320.754
 30
-334.331
 70
    32
  0
VERTEX
  8
W56LXLIFT
 62
6
 10
1280.460
 20
-7311.511
 30
-333.530
 70
    32
  0
VERTEX
  8
W56LXLIFT
 62
6
 10
1284.568
 20
-7301.025
 30
-332.715
 70
    32
  0
VERTEX
  8
W56LXLIFT
 62
6
 10
1283.600
 20
-7297.729
 30
-332.479
 70
    32
  0
VERTEX
  8
W56LXLIFT
 62
6
 10
1280.152
 20
-7292.784
 30
-332.055
 70
    32
  0
VERTEX
  8
W56LXLIFT
 62
6
 10
1279.059
 20
-7291.218
 30
-332.109
 70
    32
  0
VERTEX
  8
W56LXLIFT
 62
6
 10
1278.649
 20
-7290.630
 30
-332.128
 70
    32
  0
VERTEX
  8
W56LXLIFT
 62
6
 10
1268.218
 20
-7279.565
 30
-332.556
 70
    32
  0
VERTEX
  8
W56LXLIFT
 62
6
 10
1267.478
 20
-7278.781
 30
-332.587
 70
    32
  0
VERTEX
  8
W56LXLIFT
 62
6
 10
1266.106
 20
-7277.255
 30
-332.648
 70
    32
  0
VERTEX
  8
W56LXLIFT
 62
6
 10
1258.903
 20
-7269.248
 30
-332.923
 70
    32
  0
VERTEX
  8
W56LXLIFT
 62
6
 10
1257.956
 20
-7268.196
 30
-332.957
 70
    32
  0
VERTEX
  8
W56LXLIFT
 62
6
 10
1255.996
 20
-7265.153
 30
-333.046
 70
    32
  0
VERTEX
  8
W56LXLIFT
 62
6
 10
1255.395
 20
-7262.634
 30
-333.104
 70
    32
  0
VERTEX
  8
W56LXLIFT
 62
6
 10
1254.699
 20
-7259.714
 30
-333.190
 70
    32
  0
VERTEX
  8
W56LXLIFT
 62
6
 10
1254.685
 20
-7259.654
 30
-333.192
 70
    32
  0
VERTEX
  8
W56LXLIFT
 62
6
 10
1252.955
 20
-7254.316
 30
-333.354
 70
    32
  0
VERTEX
  8
W56LXLIFT
 62
6
 10
1250.710
 20
-7247.392
 30
-333.546
 70
    32
  0
VERTEX
  8
W56LXLIFT
 62
6
 10
1249.719
 20
-7244.333
 30
-333.627
 70
    32
  0
VERTEX
  8
W56LXLIFT
 62
6
 10
1248.657
 20
-7241.057
 30
-333.725
 70
    32
  0
VERTEX
  8
W56LXLIFT
 62
6
 10
1247.398
 20
-7237.172
 30
-333.843
 70
    32
  0
VERTEX
  8
W56LXLIFT
 62
6
 10
1247.369
 20
-7237.085
 30
-333.845
 70
    32
  0
VERTEX
  8
W56LXLIFT
 62
6
 10
1247.492
 20
-7234.259
 30
-333.923
 70
    32
  0
VERTEX
  8
W56LXLIFT
 62
6
 10
1250.615
 20
-7233.419
 30
-333.916
 70
    32
  0
VERTEX
  8
W56LXLIFT
 62
6
 10
1251.021
 20
-7233.309
 30
-333.915
 70
    32
  0
VERTEX
  8
W56LXLIFT
 62
6
 10
1251.894
 20
-7233.074
 30
-333.913
 70
    32
  0
VERTEX
  8
W56LXLIFT
 62
6
 10
1254.436
 20
-7232.390
 30
-333.907
 70
    32
  0
VERTEX
  8
W56LXLIFT
 62
6
 10
1257.083
 20
-7231.678
 30
-333.901
 70
    32
  0
VERTEX
  8
W56LXLIFT
 62
6
 10
1258.231
 20
-7234.266
 30
-333.820
 70
    32
  0
VERTEX
  8
W56LXLIFT
 62
6
 10
1259.614
 20
-7237.385
 30
-333.725
 70
    32
  0
VERTEX
  8
W56LXLIFT
 62
6
 10
1260.731
 20
-7239.905
 30
-333.637
 70
    32
  0
VERTEX
  8
W56LXLIFT
 62
6
 10
1262.031
 20
-7242.835
 30
-333.545
 70
    32
  0
VERTEX
  8
W56LXLIFT
 62
6
 10
1264.468
 20
-7248.331
 30
-333.367
 70
    32
  0
VERTEX
  8
W56LXLIFT
 62
6
 10
1266.617
 20
-7253.178
 30
-333.190
 70
    32
  0
VERTEX
  8
W56LXLIFT
 62
6
 10
1267.206
 20
-7254.506
 30
-333.134
 70
    32
  0
VERTEX
  8
W56LXLIFT
 62
6
 10
1268.957
 20
-7256.052
 30
-333.049
 70
    32
  0
VERTEX
  8
W56LXLIFT
 62
6
 10
1271.742
 20
-7258.511
 30
-332.940
 70
    32
  0
VERTEX
  8
W56LXLIFT
 62
6
 10
1272.193
 20
-7258.909
 30
-332.922
 70
    32
  0
VERTEX
  8
W56LXLIFT
 62
6
 10
1275.490
 20
-7261.821
 30
-332.794
 70
    32
  0
VERTEX
  8
W56LXLIFT
 62
6
 10
1280.636
 20
-7266.364
 30
-332.555
 70
    32
  0
VERTEX
  8
W56LXLIFT
 62
6
 10
1282.018
 20
-7267.584
 30
-332.502
 70
    32
  0
VERTEX
  8
W56LXLIFT
 62
6
 10
1284.747
 20
-7270.169
 30
-332.393
 70
    32
  0
VERTEX
  8
W56LXLIFT
 62
6
 10
1293.014
 20
-7277.999
 30
-332.055
 70
    32
  0
VERTEX
  8
W56LXLIFT
 62
6
 10
1294.344
 20
-7279.259
 30
-332.454
 70
    32
  0
VERTEX
  8
W56LXLIFT
 62
6
 10
1296.427
 20
-7281.396
 30
-332.092
 70
    32
  0
VERTEX
  8
W56LXLIFT
 62
6
 10
1302.462
 20
-7287.588
 30
-332.479
 70
    32
  0
VERTEX
  8
W56LXLIFT
 62
6
 10
1303.762
 20
-7288.921
 30
-332.499
 70
    32
  0
VERTEX
  8
W56LXLIFT
 62
6
 10
1303.795
 20
-7296.260
 30
-332.608
 70
    32
  0
VERTEX
  8
W56LXLIFT
 62
6
 10
1312.568
 20
-7312.016
 30
-332.933
 70
    32
  0
VERTEX
  8
W56LXLIFT
 62
6
 10
1309.324
 20
-7320.205
 30
-333.319
 70
    32
  0
VERTEX
  8
W56LXLIFT
 62
6
 10
1276.707
 20
-7336.837
 30
-334.947
 70
    32
  0
VERTEX
  8
W56LXLIFT
 62
6
 10
1269.238
 20
-7331.927
 30
-334.956
 70
    32
  0
VERTEX
  8
W56LXLIFT
 62
6
 10
1266.988
 20
-7330.448
 30
-334.941
 70
    32
  0
SEQEND
  8
W56LXLIFT
  0
ENDSEC
  0
EOF
