999
********************************
999
*   DXF File - Entities Only   *
999
*        3D Data Format        *
999
*     Output from ENVISAGE     *
999
*     31-Dec-2007 15:54:32     *
999
********************************
  0
SECTION 
  2
HEADER
  9
$ACADVER
  1
AC1009
  9
$EXTMIN
 10
-290000.000
 20
-250000.000
 30
-4000.000
  9
$EXTMAX
 10
320000.000
 20
160000.000
 30
6000.000
  0
ENDSEC
  0
SECTION
  2
ENTITIES
  0
POLYLINE
  8
W57LXLIFT
 62
2
 66
     1
 70
     9
  0
VERTEX
  8
W57LXLIFT
 62
2
 10
1309.755
 20
-8223.242
 30
-496.000
 70
    32
  0
VERTEX
  8
W57LXLIFT
 62
2
 10
1303.744
 20
-8217.716
 30
-496.000
 70
    32
  0
VERTEX
  8
W57LXLIFT
 62
2
 10
1292.521
 20
-8200.690
 30
-496.000
 70
    32
  0
VERTEX
  8
W57LXLIFT
 62
2
 10
1270.066
 20
-8175.072
 30
-496.000
 70
    32
  0
VERTEX
  8
W57LXLIFT
 62
2
 10
1261.176
 20
-8162.209
 30
-496.000
 70
    32
  0
VERTEX
  8
W57LXLIFT
 62
2
 10
1256.125
 20
-8164.206
 30
-496.000
 70
    32
  0
VERTEX
  8
W57LXLIFT
 62
2
 10
1245.987
 20
-8188.214
 30
-496.000
 70
    32
  0
VERTEX
  8
W57LXLIFT
 62
2
 10
1255.684
 20
-8224.375
 30
-496.000
 70
    32
  0
VERTEX
  8
W57LXLIFT
 62
2
 10
1255.721
 20
-8229.102
 30
-496.000
 70
    32
  0
VERTEX
  8
W57LXLIFT
 62
2
 10
1254.761
 20
-8236.812
 30
-496.000
 70
    32
  0
VERTEX
  8
W57LXLIFT
 62
2
 10
1279.140
 20
-8281.255
 30
-496.000
 70
    32
  0
VERTEX
  8
W57LXLIFT
 62
2
 10
1291.606
 20
-8280.861
 30
-496.000
 70
    32
  0
VERTEX
  8
W57LXLIFT
 62
2
 10
1299.175
 20
-8275.440
 30
-496.000
 70
    32
  0
VERTEX
  8
W57LXLIFT
 62
2
 10
1297.103
 20
-8268.173
 30
-496.000
 70
    32
  0
VERTEX
  8
W57LXLIFT
 62
2
 10
1296.499
 20
-8259.638
 30
-496.000
 70
    32
  0
VERTEX
  8
W57LXLIFT
 62
2
 10
1303.833
 20
-8238.503
 30
-496.000
 70
    32
  0
SEQEND
  8
W57LXLIFT
  0
POLYLINE
  8
W57LXLIFT
 62
4
 66
     1
 70
     9
  0
VERTEX
  8
W57LXLIFT
 62
4
 10
1412.527
 20
-7882.557
 30
-492.000
 70
    32
  0
VERTEX
  8
W57LXLIFT
 62
4
 10
1400.313
 20
-7857.058
 30
-492.000
 70
    32
  0
VERTEX
  8
W57LXLIFT
 62
4
 10
1398.423
 20
-7848.688
 30
-492.000
 70
    32
  0
VERTEX
  8
W57LXLIFT
 62
4
 10
1385.334
 20
-7833.431
 30
-492.000
 70
    32
  0
VERTEX
  8
W57LXLIFT
 62
4
 10
1380.440
 20
-7815.437
 30
-492.000
 70
    32
  0
VERTEX
  8
W57LXLIFT
 62
4
 10
1376.053
 20
-7810.369
 30
-492.000
 70
    32
  0
VERTEX
  8
W57LXLIFT
 62
4
 10
1373.562
 20
-7802.969
 30
-492.000
 70
    32
  0
VERTEX
  8
W57LXLIFT
 62
4
 10
1357.525
 20
-7813.160
 30
-492.000
 70
    32
  0
VERTEX
  8
W57LXLIFT
 62
4
 10
1367.905
 20
-7841.377
 30
-492.000
 70
    32
  0
VERTEX
  8
W57LXLIFT
 62
4
 10
1380.423
 20
-7857.043
 30
-492.000
 70
    32
  0
VERTEX
  8
W57LXLIFT
 62
4
 10
1383.356
 20
-7866.719
 30
-492.000
 70
    32
  0
VERTEX
  8
W57LXLIFT
 62
4
 10
1388.746
 20
-7881.332
 30
-492.000
 70
    32
  0
VERTEX
  8
W57LXLIFT
 62
4
 10
1393.589
 20
-7891.260
 30
-492.000
 70
    32
  0
SEQEND
  8
W57LXLIFT
  0
POLYLINE
  8
W57LXLIFT
 62
6
 66
     1
 70
     9
  0
VERTEX
  8
W57LXLIFT
 62
6
 10
1339.764
 20
-7716.872
 30
-497.000
 70
    32
  0
VERTEX
  8
W57LXLIFT
 62
6
 10
1319.172
 20
-7679.223
 30
-497.000
 70
    32
  0
VERTEX
  8
W57LXLIFT
 62
6
 10
1305.449
 20
-7679.221
 30
-497.000
 70
    32
  0
VERTEX
  8
W57LXLIFT
 62
6
 10
1293.927
 20
-7675.050
 30
-497.000
 70
    32
  0
VERTEX
  8
W57LXLIFT
 62
6
 10
1277.304
 20
-7674.317
 30
-497.000
 70
    32
  0
VERTEX
  8
W57LXLIFT
 62
6
 10
1262.916
 20
-7680.625
 30
-497.000
 70
    32
  0
VERTEX
  8
W57LXLIFT
 62
6
 10
1255.202
 20
-7692.633
 30
-497.000
 70
    32
  0
VERTEX
  8
W57LXLIFT
 62
6
 10
1259.039
 20
-7705.982
 30
-497.000
 70
    32
  0
VERTEX
  8
W57LXLIFT
 62
6
 10
1262.576
 20
-7709.715
 30
-497.000
 70
    32
  0
VERTEX
  8
W57LXLIFT
 62
6
 10
1267.940
 20
-7719.918
 30
-497.000
 70
    32
  0
VERTEX
  8
W57LXLIFT
 62
6
 10
1279.446
 20
-7727.233
 30
-497.000
 70
    32
  0
VERTEX
  8
W57LXLIFT
 62
6
 10
1289.616
 20
-7727.403
 30
-497.000
 70
    32
  0
VERTEX
  8
W57LXLIFT
 62
6
 10
1292.543
 20
-7725.307
 30
-497.000
 70
    32
  0
VERTEX
  8
W57LXLIFT
 62
6
 10
1292.336
 20
-7722.754
 30
-497.000
 70
    32
  0
VERTEX
  8
W57LXLIFT
 62
6
 10
1301.363
 20
-7723.743
 30
-497.000
 70
    32
  0
VERTEX
  8
W57LXLIFT
 62
6
 10
1312.401
 20
-7732.366
 30
-497.000
 70
    32
  0
SEQEND
  8
W57LXLIFT
  0
POLYLINE
  8
W57LXLIFT
 62
13
 66
     1
 70
     9
  0
VERTEX
  8
W57LXLIFT
 62
13
 10
1247.756
 20
-7574.695
 30
-495.000
 70
    32
  0
VERTEX
  8
W57LXLIFT
 62
13
 10
1242.841
 20
-7572.057
 30
-495.000
 70
    32
  0
VERTEX
  8
W57LXLIFT
 62
13
 10
1238.389
 20
-7563.579
 30
-495.000
 70
    32
  0
VERTEX
  8
W57LXLIFT
 62
13
 10
1239.134
 20
-7532.794
 30
-495.000
 70
    32
  0
VERTEX
  8
W57LXLIFT
 62
13
 10
1241.694
 20
-7530.636
 30
-495.000
 70
    32
  0
VERTEX
  8
W57LXLIFT
 62
13
 10
1272.451
 20
-7541.449
 30
-495.000
 70
    32
  0
VERTEX
  8
W57LXLIFT
 62
13
 10
1278.217
 20
-7546.934
 30
-495.000
 70
    32
  0
VERTEX
  8
W57LXLIFT
 62
13
 10
1278.814
 20
-7550.936
 30
-495.000
 70
    32
  0
VERTEX
  8
W57LXLIFT
 62
13
 10
1277.078
 20
-7566.008
 30
-495.000
 70
    32
  0
VERTEX
  8
W57LXLIFT
 62
13
 10
1271.703
 20
-7577.961
 30
-495.000
 70
    32
  0
VERTEX
  8
W57LXLIFT
 62
13
 10
1267.475
 20
-7600.113
 30
-495.000
 70
    32
  0
VERTEX
  8
W57LXLIFT
 62
13
 10
1258.425
 20
-7620.208
 30
-495.000
 70
    32
  0
VERTEX
  8
W57LXLIFT
 62
13
 10
1259.462
 20
-7632.214
 30
-495.000
 70
    32
  0
VERTEX
  8
W57LXLIFT
 62
13
 10
1274.619
 20
-7628.487
 30
-495.000
 70
    32
  0
VERTEX
  8
W57LXLIFT
 62
13
 10
1272.393
 20
-7621.006
 30
-495.000
 70
    32
  0
VERTEX
  8
W57LXLIFT
 62
13
 10
1275.902
 20
-7595.589
 30
-495.000
 70
    32
  0
VERTEX
  8
W57LXLIFT
 62
13
 10
1281.785
 20
-7581.327
 30
-495.000
 70
    32
  0
VERTEX
  8
W57LXLIFT
 62
13
 10
1289.932
 20
-7565.552
 30
-495.000
 70
    32
  0
VERTEX
  8
W57LXLIFT
 62
13
 10
1294.340
 20
-7548.026
 30
-495.000
 70
    32
  0
VERTEX
  8
W57LXLIFT
 62
13
 10
1296.048
 20
-7542.265
 30
-495.000
 70
    32
  0
VERTEX
  8
W57LXLIFT
 62
13
 10
1274.191
 20
-7514.165
 30
-495.000
 70
    32
  0
VERTEX
  8
W57LXLIFT
 62
13
 10
1259.621
 20
-7506.343
 30
-495.000
 70
    32
  0
VERTEX
  8
W57LXLIFT
 62
13
 10
1251.444
 20
-7499.452
 30
-495.000
 70
    32
  0
VERTEX
  8
W57LXLIFT
 62
13
 10
1249.490
 20
-7489.183
 30
-495.000
 70
    32
  0
VERTEX
  8
W57LXLIFT
 62
13
 10
1215.086
 20
-7461.212
 30
-495.000
 70
    32
  0
VERTEX
  8
W57LXLIFT
 62
13
 10
1204.796
 20
-7470.527
 30
-495.000
 70
    32
  0
VERTEX
  8
W57LXLIFT
 62
13
 10
1203.976
 20
-7475.868
 30
-495.000
 70
    32
  0
VERTEX
  8
W57LXLIFT
 62
13
 10
1212.946
 20
-7494.725
 30
-495.000
 70
    32
  0
VERTEX
  8
W57LXLIFT
 62
13
 10
1214.276
 20
-7504.576
 30
-495.000
 70
    32
  0
VERTEX
  8
W57LXLIFT
 62
13
 10
1217.740
 20
-7514.842
 30
-495.000
 70
    32
  0
VERTEX
  8
W57LXLIFT
 62
13
 10
1221.447
 20
-7522.883
 30
-495.000
 70
    32
  0
VERTEX
  8
W57LXLIFT
 62
13
 10
1220.993
 20
-7534.768
 30
-495.000
 70
    32
  0
VERTEX
  8
W57LXLIFT
 62
13
 10
1226.221
 20
-7550.362
 30
-495.000
 70
    32
  0
VERTEX
  8
W57LXLIFT
 62
13
 10
1221.968
 20
-7561.620
 30
-495.000
 70
    32
  0
VERTEX
  8
W57LXLIFT
 62
13
 10
1226.765
 20
-7575.254
 30
-495.000
 70
    32
  0
VERTEX
  8
W57LXLIFT
 62
13
 10
1228.597
 20
-7586.258
 30
-495.000
 70
    32
  0
VERTEX
  8
W57LXLIFT
 62
13
 10
1226.203
 20
-7598.452
 30
-495.000
 70
    32
  0
VERTEX
  8
W57LXLIFT
 62
13
 10
1235.722
 20
-7608.272
 30
-495.000
 70
    32
  0
SEQEND
  8
W57LXLIFT
  0
POLYLINE
  8
W57LXLIFT
 62
8
 66
     1
 70
     9
  0
VERTEX
  8
W57LXLIFT
 62
8
 10
1082.376
 20
-7184.837
 30
-484.000
 70
    32
  0
VERTEX
  8
W57LXLIFT
 62
8
 10
1063.456
 20
-7146.206
 30
-484.000
 70
    32
  0
VERTEX
  8
W57LXLIFT
 62
8
 10
1047.620
 20
-7115.199
 30
-484.000
 70
    32
  0
VERTEX
  8
W57LXLIFT
 62
8
 10
1039.657
 20
-7100.915
 30
-484.000
 70
    32
  0
VERTEX
  8
W57LXLIFT
 62
8
 10
1035.997
 20
-7097.163
 30
-484.000
 70
    32
  0
VERTEX
  8
W57LXLIFT
 62
8
 10
1024.703
 20
-7103.416
 30
-484.000
 70
    32
  0
VERTEX
  8
W57LXLIFT
 62
8
 10
1030.460
 20
-7125.330
 30
-484.000
 70
    32
  0
VERTEX
  8
W57LXLIFT
 62
8
 10
1039.959
 20
-7143.266
 30
-484.000
 70
    32
  0
VERTEX
  8
W57LXLIFT
 62
8
 10
1040.988
 20
-7149.228
 30
-484.000
 70
    32
  0
VERTEX
  8
W57LXLIFT
 62
8
 10
1059.533
 20
-7175.270
 30
-484.000
 70
    32
  0
VERTEX
  8
W57LXLIFT
 62
8
 10
1069.030
 20
-7191.695
 30
-484.000
 70
    32
  0
SEQEND
  8
W57LXLIFT
  0
POLYLINE
  8
W57LXLIFT
 62
8
 66
     1
 70
     9
  0
VERTEX
  8
W57LXLIFT
 62
8
 10
1355.513
 20
-8312.004
 30
-485.000
 70
    32
  0
VERTEX
  8
W57LXLIFT
 62
8
 10
1383.785
 20
-8338.148
 30
-485.000
 70
    32
  0
VERTEX
  8
W57LXLIFT
 62
8
 10
1389.410
 20
-8347.963
 30
-485.000
 70
    32
  0
VERTEX
  8
W57LXLIFT
 62
8
 10
1390.196
 20
-8355.758
 30
-485.000
 70
    32
  0
VERTEX
  8
W57LXLIFT
 62
8
 10
1391.742
 20
-8371.912
 30
-485.000
 70
    32
  0
VERTEX
  8
W57LXLIFT
 62
8
 10
1390.247
 20
-8390.605
 30
-485.000
 70
    32
  0
VERTEX
  8
W57LXLIFT
 62
8
 10
1384.443
 20
-8395.917
 30
-485.000
 70
    32
  0
VERTEX
  8
W57LXLIFT
 62
8
 10
1374.159
 20
-8393.733
 30
-485.000
 70
    32
  0
VERTEX
  8
W57LXLIFT
 62
8
 10
1366.249
 20
-8386.452
 30
-485.000
 70
    32
  0
VERTEX
  8
W57LXLIFT
 62
8
 10
1356.095
 20
-8372.654
 30
-485.000
 70
    32
  0
VERTEX
  8
W57LXLIFT
 62
8
 10
1341.963
 20
-8349.364
 30
-485.000
 70
    32
  0
VERTEX
  8
W57LXLIFT
 62
8
 10
1334.866
 20
-8328.124
 30
-485.000
 70
    32
  0
VERTEX
  8
W57LXLIFT
 62
8
 10
1334.596
 20
-8319.844
 30
-485.000
 70
    32
  0
VERTEX
  8
W57LXLIFT
 62
8
 10
1335.096
 20
-8313.068
 30
-485.000
 70
    32
  0
VERTEX
  8
W57LXLIFT
 62
8
 10
1332.621
 20
-8309.220
 30
-485.000
 70
    32
  0
VERTEX
  8
W57LXLIFT
 62
8
 10
1333.393
 20
-8304.311
 30
-485.000
 70
    32
  0
VERTEX
  8
W57LXLIFT
 62
8
 10
1341.612
 20
-8298.435
 30
-485.000
 70
    32
  0
SEQEND
  8
W57LXLIFT
  0
POLYLINE
  8
W57LXLIFT
 62
2
 66
     1
 70
     9
  0
VERTEX
  8
W57LXLIFT
 62
2
 10
1269.898
 20
-8216.657
 30
-488.000
 70
    32
  0
VERTEX
  8
W57LXLIFT
 62
2
 10
1256.591
 20
-8224.499
 30
-488.000
 70
    32
  0
VERTEX
  8
W57LXLIFT
 62
2
 10
1255.524
 20
-8235.274
 30
-488.000
 70
    32
  0
VERTEX
  8
W57LXLIFT
 62
2
 10
1262.516
 20
-8252.787
 30
-488.000
 70
    32
  0
VERTEX
  8
W57LXLIFT
 62
2
 10
1272.924
 20
-8269.768
 30
-488.000
 70
    32
  0
VERTEX
  8
W57LXLIFT
 62
2
 10
1280.380
 20
-8273.142
 30
-488.000
 70
    32
  0
VERTEX
  8
W57LXLIFT
 62
2
 10
1284.280
 20
-8270.737
 30
-488.000
 70
    32
  0
VERTEX
  8
W57LXLIFT
 62
2
 10
1287.809
 20
-8264.690
 30
-488.000
 70
    32
  0
VERTEX
  8
W57LXLIFT
 62
2
 10
1301.950
 20
-8255.155
 30
-488.000
 70
    32
  0
VERTEX
  8
W57LXLIFT
 62
2
 10
1304.896
 20
-8245.620
 30
-488.000
 70
    32
  0
VERTEX
  8
W57LXLIFT
 62
2
 10
1307.437
 20
-8237.467
 30
-488.000
 70
    32
  0
VERTEX
  8
W57LXLIFT
 62
2
 10
1292.058
 20
-8226.495
 30
-488.000
 70
    32
  0
VERTEX
  8
W57LXLIFT
 62
2
 10
1283.654
 20
-8211.967
 30
-488.000
 70
    32
  0
SEQEND
  8
W57LXLIFT
  0
POLYLINE
  8
W57LXLIFT
 62
4
 66
     1
 70
     9
  0
VERTEX
  8
W57LXLIFT
 62
4
 10
1405.891
 20
-7879.106
 30
-482.000
 70
    32
  0
VERTEX
  8
W57LXLIFT
 62
4
 10
1400.075
 20
-7861.715
 30
-482.000
 70
    32
  0
VERTEX
  8
W57LXLIFT
 62
4
 10
1394.737
 20
-7856.473
 30
-482.000
 70
    32
  0
VERTEX
  8
W57LXLIFT
 62
4
 10
1386.219
 20
-7836.267
 30
-482.000
 70
    32
  0
VERTEX
  8
W57LXLIFT
 62
4
 10
1380.394
 20
-7825.729
 30
-482.000
 70
    32
  0
VERTEX
  8
W57LXLIFT
 62
4
 10
1378.026
 20
-7806.806
 30
-482.000
 70
    32
  0
VERTEX
  8
W57LXLIFT
 62
4
 10
1368.900
 20
-7808.451
 30
-482.000
 70
    32
  0
VERTEX
  8
W57LXLIFT
 62
4
 10
1362.592
 20
-7812.175
 30
-482.000
 70
    32
  0
VERTEX
  8
W57LXLIFT
 62
4
 10
1355.931
 20
-7820.937
 30
-482.000
 70
    32
  0
VERTEX
  8
W57LXLIFT
 62
4
 10
1362.374
 20
-7827.548
 30
-482.000
 70
    32
  0
VERTEX
  8
W57LXLIFT
 62
4
 10
1361.931
 20
-7832.760
 30
-482.000
 70
    32
  0
VERTEX
  8
W57LXLIFT
 62
4
 10
1372.449
 20
-7849.445
 30
-482.000
 70
    32
  0
VERTEX
  8
W57LXLIFT
 62
4
 10
1374.788
 20
-7861.761
 30
-482.000
 70
    32
  0
VERTEX
  8
W57LXLIFT
 62
4
 10
1383.571
 20
-7871.884
 30
-482.000
 70
    32
  0
VERTEX
  8
W57LXLIFT
 62
4
 10
1388.415
 20
-7882.267
 30
-482.000
 70
    32
  0
VERTEX
  8
W57LXLIFT
 62
4
 10
1391.046
 20
-7887.523
 30
-482.000
 70
    32
  0
SEQEND
  8
W57LXLIFT
  0
POLYLINE
  8
W57LXLIFT
 62
6
 66
     1
 70
     9
  0
VERTEX
  8
W57LXLIFT
 62
6
 10
1334.468
 20
-7713.548
 30
-506.000
 70
    32
  0
VERTEX
  8
W57LXLIFT
 62
6
 10
1328.437
 20
-7717.504
 30
-506.000
 70
    32
  0
VERTEX
  8
W57LXLIFT
 62
6
 10
1322.026
 20
-7722.281
 30
-506.000
 70
    32
  0
VERTEX
  8
W57LXLIFT
 62
6
 10
1315.935
 20
-7721.825
 30
-506.000
 70
    32
  0
VERTEX
  8
W57LXLIFT
 62
6
 10
1306.610
 20
-7726.332
 30
-506.000
 70
    32
  0
VERTEX
  8
W57LXLIFT
 62
6
 10
1303.122
 20
-7725.721
 30
-506.000
 70
    32
  0
VERTEX
  8
W57LXLIFT
 62
6
 10
1295.824
 20
-7727.339
 30
-506.000
 70
    32
  0
VERTEX
  8
W57LXLIFT
 62
6
 10
1292.624
 20
-7722.497
 30
-506.000
 70
    32
  0
VERTEX
  8
W57LXLIFT
 62
6
 10
1284.356
 20
-7721.888
 30
-506.000
 70
    32
  0
VERTEX
  8
W57LXLIFT
 62
6
 10
1277.154
 20
-7720.503
 30
-506.000
 70
    32
  0
VERTEX
  8
W57LXLIFT
 62
6
 10
1272.634
 20
-7712.057
 30
-506.000
 70
    32
  0
VERTEX
  8
W57LXLIFT
 62
6
 10
1255.586
 20
-7707.300
 30
-506.000
 70
    32
  0
VERTEX
  8
W57LXLIFT
 62
6
 10
1258.524
 20
-7693.424
 30
-506.000
 70
    32
  0
VERTEX
  8
W57LXLIFT
 62
6
 10
1272.935
 20
-7683.366
 30
-506.000
 70
    32
  0
VERTEX
  8
W57LXLIFT
 62
6
 10
1283.103
 20
-7672.703
 30
-506.000
 70
    32
  0
VERTEX
  8
W57LXLIFT
 62
6
 10
1289.205
 20
-7671.085
 30
-506.000
 70
    32
  0
VERTEX
  8
W57LXLIFT
 62
6
 10
1304.119
 20
-7682.613
 30
-506.000
 70
    32
  0
VERTEX
  8
W57LXLIFT
 62
6
 10
1313.870
 20
-7677.795
 30
-506.000
 70
    32
  0
VERTEX
  8
W57LXLIFT
 62
6
 10
1323.975
 20
-7683.913
 30
-506.000
 70
    32
  0
VERTEX
  8
W57LXLIFT
 62
6
 10
1325.631
 20
-7688.576
 30
-506.000
 70
    32
  0
VERTEX
  8
W57LXLIFT
 62
6
 10
1331.466
 20
-7693.455
 30
-506.000
 70
    32
  0
VERTEX
  8
W57LXLIFT
 62
6
 10
1338.361
 20
-7699.194
 30
-506.000
 70
    32
  0
VERTEX
  8
W57LXLIFT
 62
6
 10
1342.120
 20
-7710.476
 30
-506.000
 70
    32
  0
SEQEND
  8
W57LXLIFT
  0
POLYLINE
  8
W57LXLIFT
 62
6
 66
     1
 70
     9
  0
VERTEX
  8
W57LXLIFT
 62
6
 10
1342.120
 20
-7710.476
 30
-480.000
 70
    32
  0
VERTEX
  8
W57LXLIFT
 62
6
 10
1338.361
 20
-7699.194
 30
-480.000
 70
    32
  0
VERTEX
  8
W57LXLIFT
 62
6
 10
1331.466
 20
-7693.455
 30
-480.000
 70
    32
  0
VERTEX
  8
W57LXLIFT
 62
6
 10
1325.631
 20
-7688.576
 30
-480.000
 70
    32
  0
VERTEX
  8
W57LXLIFT
 62
6
 10
1323.975
 20
-7683.913
 30
-480.000
 70
    32
  0
VERTEX
  8
W57LXLIFT
 62
6
 10
1313.870
 20
-7677.795
 30
-480.000
 70
    32
  0
VERTEX
  8
W57LXLIFT
 62
6
 10
1304.119
 20
-7682.613
 30
-480.000
 70
    32
  0
VERTEX
  8
W57LXLIFT
 62
6
 10
1289.205
 20
-7671.085
 30
-480.000
 70
    32
  0
VERTEX
  8
W57LXLIFT
 62
6
 10
1283.103
 20
-7672.703
 30
-480.000
 70
    32
  0
VERTEX
  8
W57LXLIFT
 62
6
 10
1272.935
 20
-7683.366
 30
-480.000
 70
    32
  0
VERTEX
  8
W57LXLIFT
 62
6
 10
1258.524
 20
-7693.424
 30
-480.000
 70
    32
  0
VERTEX
  8
W57LXLIFT
 62
6
 10
1255.586
 20
-7707.300
 30
-480.000
 70
    32
  0
VERTEX
  8
W57LXLIFT
 62
6
 10
1272.634
 20
-7712.057
 30
-480.000
 70
    32
  0
VERTEX
  8
W57LXLIFT
 62
6
 10
1277.154
 20
-7720.503
 30
-480.000
 70
    32
  0
VERTEX
  8
W57LXLIFT
 62
6
 10
1284.356
 20
-7721.888
 30
-480.000
 70
    32
  0
VERTEX
  8
W57LXLIFT
 62
6
 10
1292.624
 20
-7722.497
 30
-480.000
 70
    32
  0
VERTEX
  8
W57LXLIFT
 62
6
 10
1295.824
 20
-7727.339
 30
-480.000
 70
    32
  0
VERTEX
  8
W57LXLIFT
 62
6
 10
1303.122
 20
-7725.721
 30
-480.000
 70
    32
  0
VERTEX
  8
W57LXLIFT
 62
6
 10
1306.610
 20
-7726.332
 30
-480.000
 70
    32
  0
VERTEX
  8
W57LXLIFT
 62
6
 10
1315.935
 20
-7721.825
 30
-480.000
 70
    32
  0
VERTEX
  8
W57LXLIFT
 62
6
 10
1322.026
 20
-7722.281
 30
-480.000
 70
    32
  0
VERTEX
  8
W57LXLIFT
 62
6
 10
1328.437
 20
-7717.504
 30
-480.000
 70
    32
  0
VERTEX
  8
W57LXLIFT
 62
6
 10
1334.468
 20
-7713.548
 30
-480.000
 70
    32
  0
SEQEND
  8
W57LXLIFT
  0
POLYLINE
  8
W57LXLIFT
 62
13
 66
     1
 70
     9
  0
VERTEX
  8
W57LXLIFT
 62
13
 10
1144.808
 20
-7434.556
 30
-484.000
 70
    32
  0
VERTEX
  8
W57LXLIFT
 62
13
 10
1149.481
 20
-7439.630
 30
-484.000
 70
    32
  0
VERTEX
  8
W57LXLIFT
 62
13
 10
1150.709
 20
-7442.213
 30
-484.000
 70
    32
  0
VERTEX
  8
W57LXLIFT
 62
13
 10
1151.047
 20
-7445.662
 30
-484.000
 70
    32
  0
VERTEX
  8
W57LXLIFT
 62
13
 10
1148.468
 20
-7452.865
 30
-484.000
 70
    32
  0
VERTEX
  8
W57LXLIFT
 62
13
 10
1169.370
 20
-7467.096
 30
-484.000
 70
    32
  0
VERTEX
  8
W57LXLIFT
 62
13
 10
1176.585
 20
-7479.991
 30
-484.000
 70
    32
  0
VERTEX
  8
W57LXLIFT
 62
13
 10
1183.515
 20
-7490.703
 30
-484.000
 70
    32
  0
VERTEX
  8
W57LXLIFT
 62
13
 10
1192.871
 20
-7496.388
 30
-484.000
 70
    32
  0
VERTEX
  8
W57LXLIFT
 62
13
 10
1196.042
 20
-7495.818
 30
-484.000
 70
    32
  0
VERTEX
  8
W57LXLIFT
 62
13
 10
1198.583
 20
-7500.054
 30
-484.000
 70
    32
  0
VERTEX
  8
W57LXLIFT
 62
13
 10
1186.801
 20
-7510.588
 30
-484.000
 70
    32
  0
VERTEX
  8
W57LXLIFT
 62
13
 10
1195.901
 20
-7520.698
 30
-484.000
 70
    32
  0
VERTEX
  8
W57LXLIFT
 62
13
 10
1199.459
 20
-7518.868
 30
-484.000
 70
    32
  0
VERTEX
  8
W57LXLIFT
 62
13
 10
1204.171
 20
-7513.699
 30
-484.000
 70
    32
  0
VERTEX
  8
W57LXLIFT
 62
13
 10
1211.843
 20
-7511.699
 30
-484.000
 70
    32
  0
VERTEX
  8
W57LXLIFT
 62
13
 10
1212.200
 20
-7513.830
 30
-484.000
 70
    32
  0
VERTEX
  8
W57LXLIFT
 62
13
 10
1207.127
 20
-7522.087
 30
-484.000
 70
    32
  0
VERTEX
  8
W57LXLIFT
 62
13
 10
1209.122
 20
-7543.782
 30
-484.000
 70
    32
  0
VERTEX
  8
W57LXLIFT
 62
13
 10
1205.339
 20
-7560.229
 30
-484.000
 70
    32
  0
VERTEX
  8
W57LXLIFT
 62
13
 10
1206.202
 20
-7567.534
 30
-484.000
 70
    32
  0
VERTEX
  8
W57LXLIFT
 62
13
 10
1200.644
 20
-7572.885
 30
-484.000
 70
    32
  0
VERTEX
  8
W57LXLIFT
 62
13
 10
1200.199
 20
-7585.706
 30
-484.000
 70
    32
  0
VERTEX
  8
W57LXLIFT
 62
13
 10
1199.834
 20
-7591.623
 30
-484.000
 70
    32
  0
VERTEX
  8
W57LXLIFT
 62
13
 10
1214.260
 20
-7597.854
 30
-484.000
 70
    32
  0
VERTEX
  8
W57LXLIFT
 62
13
 10
1223.758
 20
-7591.048
 30
-484.000
 70
    32
  0
VERTEX
  8
W57LXLIFT
 62
13
 10
1231.488
 20
-7588.680
 30
-484.000
 70
    32
  0
VERTEX
  8
W57LXLIFT
 62
13
 10
1234.470
 20
-7584.118
 30
-484.000
 70
    32
  0
VERTEX
  8
W57LXLIFT
 62
13
 10
1232.603
 20
-7560.808
 30
-484.000
 70
    32
  0
VERTEX
  8
W57LXLIFT
 62
13
 10
1232.508
 20
-7539.035
 30
-484.000
 70
    32
  0
VERTEX
  8
W57LXLIFT
 62
13
 10
1239.028
 20
-7532.766
 30
-484.000
 70
    32
  0
VERTEX
  8
W57LXLIFT
 62
13
 10
1245.099
 20
-7532.149
 30
-484.000
 70
    32
  0
VERTEX
  8
W57LXLIFT
 62
13
 10
1246.890
 20
-7547.146
 30
-484.000
 70
    32
  0
VERTEX
  8
W57LXLIFT
 62
13
 10
1242.895
 20
-7564.943
 30
-484.000
 70
    32
  0
VERTEX
  8
W57LXLIFT
 62
13
 10
1241.101
 20
-7568.748
 30
-484.000
 70
    32
  0
VERTEX
  8
W57LXLIFT
 62
13
 10
1246.311
 20
-7575.605
 30
-484.000
 70
    32
  0
VERTEX
  8
W57LXLIFT
 62
13
 10
1253.488
 20
-7589.940
 30
-484.000
 70
    32
  0
VERTEX
  8
W57LXLIFT
 62
13
 10
1254.886
 20
-7594.248
 30
-484.000
 70
    32
  0
VERTEX
  8
W57LXLIFT
 62
13
 10
1265.618
 20
-7601.973
 30
-484.000
 70
    32
  0
VERTEX
  8
W57LXLIFT
 62
13
 10
1285.614
 20
-7587.197
 30
-484.000
 70
    32
  0
VERTEX
  8
W57LXLIFT
 62
13
 10
1285.803
 20
-7578.800
 30
-484.000
 70
    32
  0
VERTEX
  8
W57LXLIFT
 62
13
 10
1290.343
 20
-7565.931
 30
-484.000
 70
    32
  0
VERTEX
  8
W57LXLIFT
 62
13
 10
1292.683
 20
-7555.860
 30
-484.000
 70
    32
  0
VERTEX
  8
W57LXLIFT
 62
13
 10
1277.145
 20
-7525.117
 30
-484.000
 70
    32
  0
VERTEX
  8
W57LXLIFT
 62
13
 10
1263.830
 20
-7508.622
 30
-484.000
 70
    32
  0
VERTEX
  8
W57LXLIFT
 62
13
 10
1250.552
 20
-7499.489
 30
-484.000
 70
    32
  0
VERTEX
  8
W57LXLIFT
 62
13
 10
1236.073
 20
-7491.992
 30
-484.000
 70
    32
  0
VERTEX
  8
W57LXLIFT
 62
13
 10
1218.669
 20
-7472.715
 30
-484.000
 70
    32
  0
VERTEX
  8
W57LXLIFT
 62
13
 10
1213.026
 20
-7453.024
 30
-484.000
 70
    32
  0
VERTEX
  8
W57LXLIFT
 62
13
 10
1211.561
 20
-7444.744
 30
-484.000
 70
    32
  0
VERTEX
  8
W57LXLIFT
 62
13
 10
1201.908
 20
-7438.950
 30
-484.000
 70
    32
  0
VERTEX
  8
W57LXLIFT
 62
13
 10
1190.894
 20
-7436.210
 30
-484.000
 70
    32
  0
VERTEX
  8
W57LXLIFT
 62
13
 10
1173.457
 20
-7440.321
 30
-484.000
 70
    32
  0
VERTEX
  8
W57LXLIFT
 62
13
 10
1163.884
 20
-7438.815
 30
-484.000
 70
    32
  0
VERTEX
  8
W57LXLIFT
 62
13
 10
1149.914
 20
-7428.882
 30
-484.000
 70
    32
  0
SEQEND
  8
W57LXLIFT
  0
POLYLINE
  8
W57LXLIFT
 62
7
 66
     1
 70
     9
  0
VERTEX
  8
W57LXLIFT
 62
7
 10
1167.012
 20
-7621.171
 30
-506.000
 70
    32
  0
VERTEX
  8
W57LXLIFT
 62
7
 10
1126.108
 20
-7551.410
 30
-506.000
 70
    32
  0
VERTEX
  8
W57LXLIFT
 62
7
 10
1130.731
 20
-7548.805
 30
-506.000
 70
    32
  0
VERTEX
  8
W57LXLIFT
 62
7
 10
1127.330
 20
-7542.044
 30
-506.000
 70
    32
  0
VERTEX
  8
W57LXLIFT
 62
7
 10
1137.919
 20
-7535.095
 30
-506.000
 70
    32
  0
VERTEX
  8
W57LXLIFT
 62
7
 10
1122.274
 20
-7508.234
 30
-506.000
 70
    32
  0
VERTEX
  8
W57LXLIFT
 62
7
 10
1127.368
 20
-7504.633
 30
-506.000
 70
    32
  0
VERTEX
  8
W57LXLIFT
 62
7
 10
1120.426
 20
-7494.800
 30
-506.000
 70
    32
  0
VERTEX
  8
W57LXLIFT
 62
7
 10
1131.893
 20
-7487.863
 30
-506.000
 70
    32
  0
VERTEX
  8
W57LXLIFT
 62
7
 10
1168.399
 20
-7546.808
 30
-506.000
 70
    32
  0
VERTEX
  8
W57LXLIFT
 62
7
 10
1162.181
 20
-7550.357
 30
-506.000
 70
    32
  0
VERTEX
  8
W57LXLIFT
 62
7
 10
1165.323
 20
-7555.568
 30
-506.000
 70
    32
  0
VERTEX
  8
W57LXLIFT
 62
7
 10
1149.013
 20
-7565.704
 30
-506.000
 70
    32
  0
VERTEX
  8
W57LXLIFT
 62
7
 10
1177.117
 20
-7614.900
 30
-506.000
 70
    32
  0
SEQEND
  8
W57LXLIFT
  0
POLYLINE
  8
W57LXLIFT
 62
7
 66
     1
 70
     9
  0
VERTEX
  8
W57LXLIFT
 62
7
 10
1170.421
 20
-7582.719
 30
-486.000
 70
    32
  0
VERTEX
  8
W57LXLIFT
 62
7
 10
1155.781
 20
-7563.059
 30
-486.000
 70
    32
  0
VERTEX
  8
W57LXLIFT
 62
7
 10
1160.785
 20
-7559.633
 30
-486.000
 70
    32
  0
VERTEX
  8
W57LXLIFT
 62
7
 10
1153.629
 20
-7548.760
 30
-486.000
 70
    32
  0
VERTEX
  8
W57LXLIFT
 62
7
 10
1157.418
 20
-7545.457
 30
-486.000
 70
    32
  0
VERTEX
  8
W57LXLIFT
 62
7
 10
1121.162
 20
-7494.916
 30
-486.000
 70
    32
  0
VERTEX
  8
W57LXLIFT
 62
7
 10
1130.711
 20
-7486.985
 30
-486.000
 70
    32
  0
VERTEX
  8
W57LXLIFT
 62
7
 10
1119.309
 20
-7471.922
 30
-486.000
 70
    32
  0
VERTEX
  8
W57LXLIFT
 62
7
 10
1109.753
 20
-7479.097
 30
-486.000
 70
    32
  0
VERTEX
  8
W57LXLIFT
 62
7
 10
1113.399
 20
-7484.702
 30
-486.000
 70
    32
  0
VERTEX
  8
W57LXLIFT
 62
7
 10
1108.654
 20
-7488.483
 30
-486.000
 70
    32
  0
VERTEX
  8
W57LXLIFT
 62
7
 10
1115.609
 20
-7498.633
 30
-486.000
 70
    32
  0
VERTEX
  8
W57LXLIFT
 62
7
 10
1110.677
 20
-7502.007
 30
-486.000
 70
    32
  0
VERTEX
  8
W57LXLIFT
 62
7
 10
1114.167
 20
-7507.398
 30
-486.000
 70
    32
  0
VERTEX
  8
W57LXLIFT
 62
7
 10
1109.474
 20
-7511.250
 30
-486.000
 70
    32
  0
VERTEX
  8
W57LXLIFT
 62
7
 10
1120.669
 20
-7526.029
 30
-486.000
 70
    32
  0
VERTEX
  8
W57LXLIFT
 62
7
 10
1115.781
 20
-7529.914
 30
-486.000
 70
    32
  0
VERTEX
  8
W57LXLIFT
 62
7
 10
1160.989
 20
-7591.108
 30
-486.000
 70
    32
  0
SEQEND
  8
W57LXLIFT
  0
POLYLINE
  8
W57LXLIFT
 62
8
 66
     1
 70
     9
  0
VERTEX
  8
W57LXLIFT
 62
8
 10
1081.014
 20
-7199.327
 30
-476.000
 70
    32
  0
VERTEX
  8
W57LXLIFT
 62
8
 10
1081.865
 20
-7183.928
 30
-476.000
 70
    32
  0
VERTEX
  8
W57LXLIFT
 62
8
 10
1079.149
 20
-7178.407
 30
-476.000
 70
    32
  0
VERTEX
  8
W57LXLIFT
 62
8
 10
1072.420
 20
-7168.419
 30
-476.000
 70
    32
  0
VERTEX
  8
W57LXLIFT
 62
8
 10
1062.533
 20
-7160.512
 30
-476.000
 70
    32
  0
VERTEX
  8
W57LXLIFT
 62
8
 10
1049.834
 20
-7136.504
 30
-476.000
 70
    32
  0
VERTEX
  8
W57LXLIFT
 62
8
 10
1044.775
 20
-7120.301
 30
-476.000
 70
    32
  0
VERTEX
  8
W57LXLIFT
 62
8
 10
1037.903
 20
-7109.221
 30
-476.000
 70
    32
  0
VERTEX
  8
W57LXLIFT
 62
8
 10
1031.204
 20
-7108.230
 30
-476.000
 70
    32
  0
VERTEX
  8
W57LXLIFT
 62
8
 10
1025.625
 20
-7123.702
 30
-476.000
 70
    32
  0
VERTEX
  8
W57LXLIFT
 62
8
 10
1024.479
 20
-7128.993
 30
-476.000
 70
    32
  0
VERTEX
  8
W57LXLIFT
 62
8
 10
1035.711
 20
-7153.525
 30
-476.000
 70
    32
  0
VERTEX
  8
W57LXLIFT
 62
8
 10
1038.666
 20
-7158.329
 30
-476.000
 70
    32
  0
VERTEX
  8
W57LXLIFT
 62
8
 10
1041.353
 20
-7159.632
 30
-476.000
 70
    32
  0
VERTEX
  8
W57LXLIFT
 62
8
 10
1045.985
 20
-7161.367
 30
-476.000
 70
    32
  0
VERTEX
  8
W57LXLIFT
 62
8
 10
1053.680
 20
-7176.412
 30
-476.000
 70
    32
  0
VERTEX
  8
W57LXLIFT
 62
8
 10
1065.095
 20
-7191.791
 30
-476.000
 70
    32
  0
VERTEX
  8
W57LXLIFT
 62
8
 10
1077.146
 20
-7201.926
 30
-476.000
 70
    32
  0
SEQEND
  8
W57LXLIFT
  0
POLYLINE
  8
W57LXLIFT
 62
1
 66
     1
 70
     9
  0
VERTEX
  8
W57LXLIFT
 62
1
 10
1078.146
 20
-7200.926
 30
-466.000
 70
    32
  0
VERTEX
  8
W57LXLIFT
 62
1
 10
1066.095
 20
-7190.791
 30
-466.000
 70
    32
  0
VERTEX
  8
W57LXLIFT
 62
1
 10
1054.680
 20
-7175.412
 30
-466.000
 70
    32
  0
VERTEX
  8
W57LXLIFT
 62
1
 10
1046.985
 20
-7160.367
 30
-466.000
 70
    32
  0
VERTEX
  8
W57LXLIFT
 62
1
 10
1042.353
 20
-7158.632
 30
-466.000
 70
    32
  0
VERTEX
  8
W57LXLIFT
 62
1
 10
1039.666
 20
-7157.329
 30
-466.000
 70
    32
  0
VERTEX
  8
W57LXLIFT
 62
1
 10
1036.711
 20
-7152.525
 30
-466.000
 70
    32
  0
VERTEX
  8
W57LXLIFT
 62
1
 10
1025.479
 20
-7127.993
 30
-466.000
 70
    32
  0
VERTEX
  8
W57LXLIFT
 62
1
 10
1026.625
 20
-7122.702
 30
-466.000
 70
    32
  0
VERTEX
  8
W57LXLIFT
 62
1
 10
1032.204
 20
-7107.230
 30
-466.000
 70
    32
  0
VERTEX
  8
W57LXLIFT
 62
1
 10
1038.903
 20
-7108.221
 30
-466.000
 70
    32
  0
VERTEX
  8
W57LXLIFT
 62
1
 10
1045.775
 20
-7119.301
 30
-466.000
 70
    32
  0
VERTEX
  8
W57LXLIFT
 62
1
 10
1050.834
 20
-7135.504
 30
-466.000
 70
    32
  0
VERTEX
  8
W57LXLIFT
 62
1
 10
1063.533
 20
-7159.512
 30
-466.000
 70
    32
  0
VERTEX
  8
W57LXLIFT
 62
1
 10
1073.420
 20
-7167.419
 30
-466.000
 70
    32
  0
VERTEX
  8
W57LXLIFT
 62
1
 10
1080.149
 20
-7177.407
 30
-466.000
 70
    32
  0
VERTEX
  8
W57LXLIFT
 62
1
 10
1082.865
 20
-7182.928
 30
-466.000
 70
    32
  0
VERTEX
  8
W57LXLIFT
 62
1
 10
1082.014
 20
-7198.327
 30
-466.000
 70
    32
  0
SEQEND
  8
W57LXLIFT
  0
POLYLINE
  8
W57LXLIFT
 62
4
 66
     1
 70
     9
  0
VERTEX
  8
W57LXLIFT
 62
4
 10
983.232
 20
-7046.223
 30
-469.000
 70
    32
  0
VERTEX
  8
W57LXLIFT
 62
4
 10
1004.820
 20
-7038.112
 30
-469.000
 70
    32
  0
VERTEX
  8
W57LXLIFT
 62
4
 10
1013.351
 20
-7048.636
 30
-469.000
 70
    32
  0
VERTEX
  8
W57LXLIFT
 62
4
 10
1016.816
 20
-7053.394
 30
-469.000
 70
    32
  0
VERTEX
  8
W57LXLIFT
 62
4
 10
1018.314
 20
-7064.257
 30
-469.000
 70
    32
  0
VERTEX
  8
W57LXLIFT
 62
4
 10
1026.780
 20
-7085.587
 30
-469.000
 70
    32
  0
VERTEX
  8
W57LXLIFT
 62
4
 10
1032.524
 20
-7099.445
 30
-469.000
 70
    32
  0
VERTEX
  8
W57LXLIFT
 62
4
 10
1037.315
 20
-7108.563
 30
-469.000
 70
    32
  0
VERTEX
  8
W57LXLIFT
 62
4
 10
1030.952
 20
-7108.631
 30
-469.000
 70
    32
  0
VERTEX
  8
W57LXLIFT
 62
4
 10
1027.573
 20
-7117.720
 30
-469.000
 70
    32
  0
VERTEX
  8
W57LXLIFT
 62
4
 10
1024.276
 20
-7101.103
 30
-469.000
 70
    32
  0
VERTEX
  8
W57LXLIFT
 62
4
 10
1018.727
 20
-7099.601
 30
-469.000
 70
    32
  0
VERTEX
  8
W57LXLIFT
 62
4
 10
1012.792
 20
-7088.165
 30
-469.000
 70
    32
  0
VERTEX
  8
W57LXLIFT
 62
4
 10
996.154
 20
-7089.195
 30
-469.000
 70
    32
  0
VERTEX
  8
W57LXLIFT
 62
4
 10
981.414
 20
-7077.757
 30
-469.000
 70
    32
  0
VERTEX
  8
W57LXLIFT
 62
4
 10
983.800
 20
-7070.587
 30
-469.000
 70
    32
  0
VERTEX
  8
W57LXLIFT
 62
4
 10
992.875
 20
-7058.871
 30
-469.000
 70
    32
  0
VERTEX
  8
W57LXLIFT
 62
4
 10
992.713
 20
-7056.708
 30
-469.000
 70
    32
  0
VERTEX
  8
W57LXLIFT
 62
4
 10
987.048
 20
-7055.942
 30
-469.000
 70
    32
  0
SEQEND
  8
W57LXLIFT
  0
POLYLINE
  8
W57LXLIFT
 62
1
 66
     1
 70
     9
  0
VERTEX
  8
W57LXLIFT
 62
1
 10
984.232
 20
-7045.223
 30
-459.000
 70
    32
  0
VERTEX
  8
W57LXLIFT
 62
1
 10
1005.820
 20
-7037.112
 30
-459.000
 70
    32
  0
VERTEX
  8
W57LXLIFT
 62
1
 10
1014.351
 20
-7047.636
 30
-459.000
 70
    32
  0
VERTEX
  8
W57LXLIFT
 62
1
 10
1017.816
 20
-7052.394
 30
-459.000
 70
    32
  0
VERTEX
  8
W57LXLIFT
 62
1
 10
1019.314
 20
-7063.257
 30
-459.000
 70
    32
  0
VERTEX
  8
W57LXLIFT
 62
1
 10
1027.780
 20
-7084.587
 30
-459.000
 70
    32
  0
VERTEX
  8
W57LXLIFT
 62
1
 10
1033.524
 20
-7098.445
 30
-459.000
 70
    32
  0
VERTEX
  8
W57LXLIFT
 62
1
 10
1038.315
 20
-7107.563
 30
-459.000
 70
    32
  0
VERTEX
  8
W57LXLIFT
 62
1
 10
1031.952
 20
-7107.631
 30
-459.000
 70
    32
  0
VERTEX
  8
W57LXLIFT
 62
1
 10
1028.573
 20
-7116.720
 30
-459.000
 70
    32
  0
VERTEX
  8
W57LXLIFT
 62
1
 10
1025.276
 20
-7100.103
 30
-459.000
 70
    32
  0
VERTEX
  8
W57LXLIFT
 62
1
 10
1019.727
 20
-7098.601
 30
-459.000
 70
    32
  0
VERTEX
  8
W57LXLIFT
 62
1
 10
1013.792
 20
-7087.165
 30
-459.000
 70
    32
  0
VERTEX
  8
W57LXLIFT
 62
1
 10
997.154
 20
-7088.195
 30
-459.000
 70
    32
  0
VERTEX
  8
W57LXLIFT
 62
1
 10
982.414
 20
-7076.757
 30
-459.000
 70
    32
  0
VERTEX
  8
W57LXLIFT
 62
1
 10
984.800
 20
-7069.587
 30
-459.000
 70
    32
  0
VERTEX
  8
W57LXLIFT
 62
1
 10
993.875
 20
-7057.871
 30
-459.000
 70
    32
  0
VERTEX
  8
W57LXLIFT
 62
1
 10
993.713
 20
-7055.708
 30
-459.000
 70
    32
  0
VERTEX
  8
W57LXLIFT
 62
1
 10
988.048
 20
-7054.942
 30
-459.000
 70
    32
  0
SEQEND
  8
W57LXLIFT
  0
POLYLINE
  8
W57LXLIFT
 62
8
 66
     1
 70
     9
  0
VERTEX
  8
W57LXLIFT
 62
8
 10
1392.052
 20
-8391.851
 30
-469.000
 70
    32
  0
VERTEX
  8
W57LXLIFT
 62
8
 10
1379.554
 20
-8343.972
 30
-469.000
 70
    32
  0
VERTEX
  8
W57LXLIFT
 62
8
 10
1342.185
 20
-8321.464
 30
-469.000
 70
    32
  0
VERTEX
  8
W57LXLIFT
 62
8
 10
1335.710
 20
-8321.746
 30
-469.000
 70
    32
  0
VERTEX
  8
W57LXLIFT
 62
8
 10
1334.163
 20
-8325.640
 30
-469.000
 70
    32
  0
VERTEX
  8
W57LXLIFT
 62
8
 10
1339.649
 20
-8348.883
 30
-469.000
 70
    32
  0
VERTEX
  8
W57LXLIFT
 62
8
 10
1343.320
 20
-8358.016
 30
-469.000
 70
    32
  0
VERTEX
  8
W57LXLIFT
 62
8
 10
1362.859
 20
-8383.467
 30
-469.000
 70
    32
  0
VERTEX
  8
W57LXLIFT
 62
8
 10
1370.933
 20
-8392.280
 30
-469.000
 70
    32
  0
VERTEX
  8
W57LXLIFT
 62
8
 10
1377.818
 20
-8394.400
 30
-469.000
 70
    32
  0
VERTEX
  8
W57LXLIFT
 62
8
 10
1383.785
 20
-8393.402
 30
-469.000
 70
    32
  0
SEQEND
  8
W57LXLIFT
  0
POLYLINE
  8
W57LXLIFT
 62
2
 66
     1
 70
     9
  0
VERTEX
  8
W57LXLIFT
 62
2
 10
1254.524
 20
-8219.612
 30
-481.000
 70
    32
  0
VERTEX
  8
W57LXLIFT
 62
2
 10
1248.533
 20
-8229.239
 30
-481.000
 70
    32
  0
VERTEX
  8
W57LXLIFT
 62
2
 10
1247.892
 20
-8236.691
 30
-481.000
 70
    32
  0
VERTEX
  8
W57LXLIFT
 62
2
 10
1254.260
 20
-8248.112
 30
-481.000
 70
    32
  0
VERTEX
  8
W57LXLIFT
 62
2
 10
1270.930
 20
-8254.926
 30
-481.000
 70
    32
  0
VERTEX
  8
W57LXLIFT
 62
2
 10
1277.785
 20
-8254.268
 30
-481.000
 70
    32
  0
VERTEX
  8
W57LXLIFT
 62
2
 10
1282.439
 20
-8267.980
 30
-481.000
 70
    32
  0
VERTEX
  8
W57LXLIFT
 62
2
 10
1301.357
 20
-8269.003
 30
-481.000
 70
    32
  0
VERTEX
  8
W57LXLIFT
 62
2
 10
1303.937
 20
-8259.424
 30
-481.000
 70
    32
  0
VERTEX
  8
W57LXLIFT
 62
2
 10
1302.377
 20
-8245.673
 30
-481.000
 70
    32
  0
VERTEX
  8
W57LXLIFT
 62
2
 10
1289.007
 20
-8230.600
 30
-481.000
 70
    32
  0
VERTEX
  8
W57LXLIFT
 62
2
 10
1280.789
 20
-8221.889
 30
-481.000
 70
    32
  0
VERTEX
  8
W57LXLIFT
 62
2
 10
1275.359
 20
-8218.631
 30
-481.000
 70
    32
  0
VERTEX
  8
W57LXLIFT
 62
2
 10
1264.359
 20
-8219.211
 30
-481.000
 70
    32
  0
SEQEND
  8
W57LXLIFT
  0
POLYLINE
  8
W57LXLIFT
 62
4
 66
     1
 70
     9
  0
VERTEX
  8
W57LXLIFT
 62
4
 10
1425.224
 20
-7922.338
 30
-472.000
 70
    32
  0
VERTEX
  8
W57LXLIFT
 62
4
 10
1403.372
 20
-7879.794
 30
-472.000
 70
    32
  0
VERTEX
  8
W57LXLIFT
 62
4
 10
1391.059
 20
-7858.159
 30
-472.000
 70
    32
  0
VERTEX
  8
W57LXLIFT
 62
4
 10
1386.022
 20
-7845.580
 30
-472.000
 70
    32
  0
VERTEX
  8
W57LXLIFT
 62
4
 10
1380.320
 20
-7836.163
 30
-472.000
 70
    32
  0
VERTEX
  8
W57LXLIFT
 62
4
 10
1372.911
 20
-7821.603
 30
-472.000
 70
    32
  0
VERTEX
  8
W57LXLIFT
 62
4
 10
1365.473
 20
-7814.600
 30
-472.000
 70
    32
  0
VERTEX
  8
W57LXLIFT
 62
4
 10
1359.751
 20
-7813.056
 30
-472.000
 70
    32
  0
VERTEX
  8
W57LXLIFT
 62
4
 10
1352.759
 20
-7820.055
 30
-472.000
 70
    32
  0
VERTEX
  8
W57LXLIFT
 62
4
 10
1353.578
 20
-7827.441
 30
-472.000
 70
    32
  0
VERTEX
  8
W57LXLIFT
 62
4
 10
1367.269
 20
-7852.083
 30
-472.000
 70
    32
  0
VERTEX
  8
W57LXLIFT
 62
4
 10
1367.541
 20
-7858.242
 30
-472.000
 70
    32
  0
VERTEX
  8
W57LXLIFT
 62
4
 10
1380.846
 20
-7874.438
 30
-472.000
 70
    32
  0
VERTEX
  8
W57LXLIFT
 62
4
 10
1389.491
 20
-7891.351
 30
-472.000
 70
    32
  0
VERTEX
  8
W57LXLIFT
 62
4
 10
1395.671
 20
-7901.290
 30
-472.000
 70
    32
  0
VERTEX
  8
W57LXLIFT
 62
4
 10
1399.689
 20
-7908.025
 30
-472.000
 70
    32
  0
VERTEX
  8
W57LXLIFT
 62
4
 10
1408.006
 20
-7922.803
 30
-472.000
 70
    32
  0
VERTEX
  8
W57LXLIFT
 62
4
 10
1413.633
 20
-7922.692
 30
-472.000
 70
    32
  0
VERTEX
  8
W57LXLIFT
 62
4
 10
1420.500
 20
-7929.346
 30
-472.000
 70
    32
  0
SEQEND
  8
W57LXLIFT
  0
POLYLINE
  8
W57LXLIFT
 62
6
 66
     1
 70
     9
  0
VERTEX
  8
W57LXLIFT
 62
6
 10
1334.822
 20
-7697.334
 30
-470.000
 70
    32
  0
VERTEX
  8
W57LXLIFT
 62
6
 10
1321.640
 20
-7686.326
 30
-470.000
 70
    32
  0
VERTEX
  8
W57LXLIFT
 62
6
 10
1298.105
 20
-7690.943
 30
-470.000
 70
    32
  0
VERTEX
  8
W57LXLIFT
 62
6
 10
1291.146
 20
-7689.630
 30
-470.000
 70
    32
  0
VERTEX
  8
W57LXLIFT
 62
6
 10
1275.396
 20
-7682.594
 30
-470.000
 70
    32
  0
VERTEX
  8
W57LXLIFT
 62
6
 10
1259.687
 20
-7696.738
 30
-470.000
 70
    32
  0
VERTEX
  8
W57LXLIFT
 62
6
 10
1253.992
 20
-7709.062
 30
-470.000
 70
    32
  0
VERTEX
  8
W57LXLIFT
 62
6
 10
1258.162
 20
-7710.845
 30
-470.000
 70
    32
  0
VERTEX
  8
W57LXLIFT
 62
6
 10
1286.155
 20
-7718.142
 30
-470.000
 70
    32
  0
VERTEX
  8
W57LXLIFT
 62
6
 10
1295.634
 20
-7714.655
 30
-470.000
 70
    32
  0
VERTEX
  8
W57LXLIFT
 62
6
 10
1304.750
 20
-7718.101
 30
-470.000
 70
    32
  0
VERTEX
  8
W57LXLIFT
 62
6
 10
1334.174
 20
-7703.714
 30
-470.000
 70
    32
  0
SEQEND
  8
W57LXLIFT
  0
POLYLINE
  8
W57LXLIFT
 62
13
 66
     1
 70
     9
  0
VERTEX
  8
W57LXLIFT
 62
13
 10
1222.340
 20
-7594.335
 30
-476.000
 70
    32
  0
VERTEX
  8
W57LXLIFT
 62
13
 10
1227.889
 20
-7588.036
 30
-476.000
 70
    32
  0
VERTEX
  8
W57LXLIFT
 62
13
 10
1231.955
 20
-7563.840
 30
-476.000
 70
    32
  0
VERTEX
  8
W57LXLIFT
 62
13
 10
1233.121
 20
-7542.236
 30
-476.000
 70
    32
  0
VERTEX
  8
W57LXLIFT
 62
13
 10
1233.096
 20
-7532.780
 30
-476.000
 70
    32
  0
VERTEX
  8
W57LXLIFT
 62
13
 10
1239.588
 20
-7525.382
 30
-476.000
 70
    32
  0
VERTEX
  8
W57LXLIFT
 62
13
 10
1245.431
 20
-7530.285
 30
-476.000
 70
    32
  0
VERTEX
  8
W57LXLIFT
 62
13
 10
1247.762
 20
-7550.595
 30
-476.000
 70
    32
  0
VERTEX
  8
W57LXLIFT
 62
13
 10
1246.629
 20
-7563.886
 30
-476.000
 70
    32
  0
VERTEX
  8
W57LXLIFT
 62
13
 10
1247.540
 20
-7568.515
 30
-476.000
 70
    32
  0
VERTEX
  8
W57LXLIFT
 62
13
 10
1255.316
 20
-7583.138
 30
-476.000
 70
    32
  0
VERTEX
  8
W57LXLIFT
 62
13
 10
1250.846
 20
-7595.670
 30
-476.000
 70
    32
  0
VERTEX
  8
W57LXLIFT
 62
13
 10
1247.711
 20
-7606.289
 30
-476.000
 70
    32
  0
VERTEX
  8
W57LXLIFT
 62
13
 10
1249.163
 20
-7611.073
 30
-476.000
 70
    32
  0
VERTEX
  8
W57LXLIFT
 62
13
 10
1257.923
 20
-7616.601
 30
-476.000
 70
    32
  0
VERTEX
  8
W57LXLIFT
 62
13
 10
1267.039
 20
-7617.463
 30
-476.000
 70
    32
  0
VERTEX
  8
W57LXLIFT
 62
13
 10
1272.836
 20
-7610.450
 30
-476.000
 70
    32
  0
VERTEX
  8
W57LXLIFT
 62
13
 10
1272.530
 20
-7602.269
 30
-476.000
 70
    32
  0
VERTEX
  8
W57LXLIFT
 62
13
 10
1273.351
 20
-7593.398
 30
-476.000
 70
    32
  0
VERTEX
  8
W57LXLIFT
 62
13
 10
1279.291
 20
-7583.700
 30
-476.000
 70
    32
  0
VERTEX
  8
W57LXLIFT
 62
13
 10
1281.570
 20
-7559.262
 30
-476.000
 70
    32
  0
VERTEX
  8
W57LXLIFT
 62
13
 10
1279.583
 20
-7550.228
 30
-476.000
 70
    32
  0
VERTEX
  8
W57LXLIFT
 62
13
 10
1277.031
 20
-7539.332
 30
-476.000
 70
    32
  0
VERTEX
  8
W57LXLIFT
 62
13
 10
1269.130
 20
-7520.277
 30
-476.000
 70
    32
  0
VERTEX
  8
W57LXLIFT
 62
13
 10
1260.353
 20
-7503.027
 30
-476.000
 70
    32
  0
VERTEX
  8
W57LXLIFT
 62
13
 10
1256.575
 20
-7500.429
 30
-476.000
 70
    32
  0
VERTEX
  8
W57LXLIFT
 62
13
 10
1250.213
 20
-7497.831
 30
-476.000
 70
    32
  0
VERTEX
  8
W57LXLIFT
 62
13
 10
1231.452
 20
-7485.178
 30
-476.000
 70
    32
  0
VERTEX
  8
W57LXLIFT
 62
13
 10
1217.093
 20
-7472.205
 30
-476.000
 70
    32
  0
VERTEX
  8
W57LXLIFT
 62
13
 10
1214.231
 20
-7464.974
 30
-476.000
 70
    32
  0
VERTEX
  8
W57LXLIFT
 62
13
 10
1199.401
 20
-7455.134
 30
-476.000
 70
    32
  0
VERTEX
  8
W57LXLIFT
 62
13
 10
1187.560
 20
-7438.117
 30
-476.000
 70
    32
  0
VERTEX
  8
W57LXLIFT
 62
13
 10
1173.893
 20
-7441.771
 30
-476.000
 70
    32
  0
VERTEX
  8
W57LXLIFT
 62
13
 10
1167.950
 20
-7449.641
 30
-476.000
 70
    32
  0
VERTEX
  8
W57LXLIFT
 62
13
 10
1160.779
 20
-7452.892
 30
-476.000
 70
    32
  0
VERTEX
  8
W57LXLIFT
 62
13
 10
1163.528
 20
-7463.002
 30
-476.000
 70
    32
  0
VERTEX
  8
W57LXLIFT
 62
13
 10
1179.939
 20
-7486.470
 30
-476.000
 70
    32
  0
VERTEX
  8
W57LXLIFT
 62
13
 10
1190.642
 20
-7496.866
 30
-476.000
 70
    32
  0
VERTEX
  8
W57LXLIFT
 62
13
 10
1198.581
 20
-7498.346
 30
-476.000
 70
    32
  0
VERTEX
  8
W57LXLIFT
 62
13
 10
1211.733
 20
-7511.744
 30
-476.000
 70
    32
  0
VERTEX
  8
W57LXLIFT
 62
13
 10
1209.992
 20
-7520.835
 30
-476.000
 70
    32
  0
VERTEX
  8
W57LXLIFT
 62
13
 10
1209.327
 20
-7531.749
 30
-476.000
 70
    32
  0
VERTEX
  8
W57LXLIFT
 62
13
 10
1211.449
 20
-7542.949
 30
-476.000
 70
    32
  0
VERTEX
  8
W57LXLIFT
 62
13
 10
1208.525
 20
-7549.004
 30
-476.000
 70
    32
  0
VERTEX
  8
W57LXLIFT
 62
13
 10
1209.886
 20
-7566.879
 30
-476.000
 70
    32
  0
VERTEX
  8
W57LXLIFT
 62
13
 10
1207.450
 20
-7576.356
 30
-476.000
 70
    32
  0
VERTEX
  8
W57LXLIFT
 62
13
 10
1204.419
 20
-7581.195
 30
-476.000
 70
    32
  0
VERTEX
  8
W57LXLIFT
 62
13
 10
1203.661
 20
-7589.698
 30
-476.000
 70
    32
  0
VERTEX
  8
W57LXLIFT
 62
13
 10
1206.956
 20
-7593.285
 30
-476.000
 70
    32
  0
SEQEND
  8
W57LXLIFT
  0
POLYLINE
  8
W57LXLIFT
 62
7
 66
     1
 70
     9
  0
VERTEX
  8
W57LXLIFT
 62
7
 10
1173.026
 20
-7555.422
 30
-479.000
 70
    32
  0
VERTEX
  8
W57LXLIFT
 62
7
 10
1165.704
 20
-7544.784
 30
-479.000
 70
    32
  0
VERTEX
  8
W57LXLIFT
 62
7
 10
1169.784
 20
-7540.818
 30
-479.000
 70
    32
  0
VERTEX
  8
W57LXLIFT
 62
7
 10
1163.529
 20
-7531.685
 30
-479.000
 70
    32
  0
VERTEX
  8
W57LXLIFT
 62
7
 10
1172.993
 20
-7524.226
 30
-479.000
 70
    32
  0
VERTEX
  8
W57LXLIFT
 62
7
 10
1143.698
 20
-7483.940
 30
-479.000
 70
    32
  0
VERTEX
  8
W57LXLIFT
 62
7
 10
1148.656
 20
-7479.997
 30
-479.000
 70
    32
  0
VERTEX
  8
W57LXLIFT
 62
7
 10
1141.857
 20
-7468.881
 30
-479.000
 70
    32
  0
VERTEX
  8
W57LXLIFT
 62
7
 10
1145.554
 20
-7466.047
 30
-479.000
 70
    32
  0
VERTEX
  8
W57LXLIFT
 62
7
 10
1112.899
 20
-7420.714
 30
-479.000
 70
    32
  0
VERTEX
  8
W57LXLIFT
 62
7
 10
1117.746
 20
-7416.311
 30
-479.000
 70
    32
  0
VERTEX
  8
W57LXLIFT
 62
7
 10
1110.577
 20
-7405.888
 30
-479.000
 70
    32
  0
VERTEX
  8
W57LXLIFT
 62
7
 10
1100.763
 20
-7413.917
 30
-479.000
 70
    32
  0
VERTEX
  8
W57LXLIFT
 62
7
 10
1119.125
 20
-7439.987
 30
-479.000
 70
    32
  0
VERTEX
  8
W57LXLIFT
 62
7
 10
1113.791
 20
-7443.550
 30
-479.000
 70
    32
  0
VERTEX
  8
W57LXLIFT
 62
7
 10
1138.973
 20
-7478.030
 30
-479.000
 70
    32
  0
VERTEX
  8
W57LXLIFT
 62
7
 10
1129.517
 20
-7485.805
 30
-479.000
 70
    32
  0
VERTEX
  8
W57LXLIFT
 62
7
 10
1133.466
 20
-7491.835
 30
-479.000
 70
    32
  0
VERTEX
  8
W57LXLIFT
 62
7
 10
1128.727
 20
-7494.870
 30
-479.000
 70
    32
  0
VERTEX
  8
W57LXLIFT
 62
7
 10
1150.742
 20
-7524.273
 30
-479.000
 70
    32
  0
VERTEX
  8
W57LXLIFT
 62
7
 10
1146.181
 20
-7528.473
 30
-479.000
 70
    32
  0
VERTEX
  8
W57LXLIFT
 62
7
 10
1156.968
 20
-7543.546
 30
-479.000
 70
    32
  0
VERTEX
  8
W57LXLIFT
 62
7
 10
1151.254
 20
-7547.486
 30
-479.000
 70
    32
  0
VERTEX
  8
W57LXLIFT
 62
7
 10
1159.224
 20
-7556.911
 30
-479.000
 70
    32
  0
VERTEX
  8
W57LXLIFT
 62
7
 10
1164.486
 20
-7553.398
 30
-479.000
 70
    32
  0
VERTEX
  8
W57LXLIFT
 62
7
 10
1168.632
 20
-7558.643
 30
-479.000
 70
    32
  0
SEQEND
  8
W57LXLIFT
  0
POLYLINE
  8
W57LXLIFT
 62
8
 66
     1
 70
     9
  0
VERTEX
  8
W57LXLIFT
 62
8
 10
1336.334
 20
-8347.046
 30
-460.000
 70
    32
  0
VERTEX
  8
W57LXLIFT
 62
8
 10
1340.750
 20
-8363.311
 30
-460.000
 70
    32
  0
VERTEX
  8
W57LXLIFT
 62
8
 10
1338.289
 20
-8373.675
 30
-460.000
 70
    32
  0
VERTEX
  8
W57LXLIFT
 62
8
 10
1343.216
 20
-8381.388
 30
-460.000
 70
    32
  0
VERTEX
  8
W57LXLIFT
 62
8
 10
1358.979
 20
-8399.526
 30
-460.000
 70
    32
  0
VERTEX
  8
W57LXLIFT
 62
8
 10
1364.524
 20
-8400.660
 30
-460.000
 70
    32
  0
VERTEX
  8
W57LXLIFT
 62
8
 10
1372.802
 20
-8392.424
 30
-460.000
 70
    32
  0
VERTEX
  8
W57LXLIFT
 62
8
 10
1378.411
 20
-8387.263
 30
-460.000
 70
    32
  0
VERTEX
  8
W57LXLIFT
 62
8
 10
1375.955
 20
-8377.260
 30
-460.000
 70
    32
  0
VERTEX
  8
W57LXLIFT
 62
8
 10
1374.635
 20
-8369.467
 30
-460.000
 70
    32
  0
VERTEX
  8
W57LXLIFT
 62
8
 10
1382.011
 20
-8367.257
 30
-460.000
 70
    32
  0
VERTEX
  8
W57LXLIFT
 62
8
 10
1383.636
 20
-8361.795
 30
-460.000
 70
    32
  0
VERTEX
  8
W57LXLIFT
 62
8
 10
1380.882
 20
-8355.020
 30
-460.000
 70
    32
  0
VERTEX
  8
W57LXLIFT
 62
8
 10
1376.807
 20
-8348.965
 30
-460.000
 70
    32
  0
VERTEX
  8
W57LXLIFT
 62
8
 10
1369.999
 20
-8341.183
 30
-460.000
 70
    32
  0
VERTEX
  8
W57LXLIFT
 62
8
 10
1359.423
 20
-8340.704
 30
-460.000
 70
    32
  0
VERTEX
  8
W57LXLIFT
 62
8
 10
1348.073
 20
-8334.417
 30
-460.000
 70
    32
  0
SEQEND
  8
W57LXLIFT
  0
POLYLINE
  8
W57LXLIFT
 62
2
 66
     1
 70
     9
  0
VERTEX
  8
W57LXLIFT
 62
2
 10
1246.575
 20
-8243.646
 30
-465.000
 70
    32
  0
VERTEX
  8
W57LXLIFT
 62
2
 10
1243.901
 20
-8250.820
 30
-465.000
 70
    32
  0
VERTEX
  8
W57LXLIFT
 62
2
 10
1257.186
 20
-8256.491
 30
-465.000
 70
    32
  0
VERTEX
  8
W57LXLIFT
 62
2
 10
1262.379
 20
-8264.124
 30
-465.000
 70
    32
  0
VERTEX
  8
W57LXLIFT
 62
2
 10
1268.746
 20
-8266.723
 30
-465.000
 70
    32
  0
VERTEX
  8
W57LXLIFT
 62
2
 10
1280.556
 20
-8267.728
 30
-465.000
 70
    32
  0
VERTEX
  8
W57LXLIFT
 62
2
 10
1287.948
 20
-8264.322
 30
-465.000
 70
    32
  0
VERTEX
  8
W57LXLIFT
 62
2
 10
1295.831
 20
-8255.072
 30
-465.000
 70
    32
  0
VERTEX
  8
W57LXLIFT
 62
2
 10
1295.695
 20
-8247.734
 30
-465.000
 70
    32
  0
VERTEX
  8
W57LXLIFT
 62
2
 10
1282.782
 20
-8232.857
 30
-465.000
 70
    32
  0
VERTEX
  8
W57LXLIFT
 62
2
 10
1270.394
 20
-8225.258
 30
-465.000
 70
    32
  0
VERTEX
  8
W57LXLIFT
 62
2
 10
1261.542
 20
-8222.803
 30
-465.000
 70
    32
  0
VERTEX
  8
W57LXLIFT
 62
2
 10
1251.457
 20
-8222.408
 30
-465.000
 70
    32
  0
VERTEX
  8
W57LXLIFT
 62
2
 10
1250.045
 20
-8231.058
 30
-465.000
 70
    32
  0
SEQEND
  8
W57LXLIFT
  0
POLYLINE
  8
W57LXLIFT
 62
4
 66
     1
 70
     9
  0
VERTEX
  8
W57LXLIFT
 62
4
 10
1430.645
 20
-7924.862
 30
-462.000
 70
    32
  0
VERTEX
  8
W57LXLIFT
 62
4
 10
1428.609
 20
-7920.164
 30
-462.000
 70
    32
  0
VERTEX
  8
W57LXLIFT
 62
4
 10
1424.710
 20
-7902.347
 30
-462.000
 70
    32
  0
VERTEX
  8
W57LXLIFT
 62
4
 10
1412.761
 20
-7894.760
 30
-462.000
 70
    32
  0
VERTEX
  8
W57LXLIFT
 62
4
 10
1405.514
 20
-7884.381
 30
-462.000
 70
    32
  0
VERTEX
  8
W57LXLIFT
 62
4
 10
1399.695
 20
-7877.083
 30
-462.000
 70
    32
  0
VERTEX
  8
W57LXLIFT
 62
4
 10
1387.335
 20
-7861.922
 30
-462.000
 70
    32
  0
VERTEX
  8
W57LXLIFT
 62
4
 10
1384.502
 20
-7848.953
 30
-462.000
 70
    32
  0
VERTEX
  8
W57LXLIFT
 62
4
 10
1372.785
 20
-7834.091
 30
-462.000
 70
    32
  0
VERTEX
  8
W57LXLIFT
 62
4
 10
1366.763
 20
-7823.920
 30
-462.000
 70
    32
  0
VERTEX
  8
W57LXLIFT
 62
4
 10
1358.312
 20
-7820.966
 30
-462.000
 70
    32
  0
VERTEX
  8
W57LXLIFT
 62
4
 10
1353.769
 20
-7822.461
 30
-462.000
 70
    32
  0
VERTEX
  8
W57LXLIFT
 62
4
 10
1351.474
 20
-7826.673
 30
-462.000
 70
    32
  0
VERTEX
  8
W57LXLIFT
 62
4
 10
1356.467
 20
-7833.263
 30
-462.000
 70
    32
  0
VERTEX
  8
W57LXLIFT
 62
4
 10
1357.422
 20
-7837.651
 30
-462.000
 70
    32
  0
VERTEX
  8
W57LXLIFT
 62
4
 10
1369.894
 20
-7861.029
 30
-462.000
 70
    32
  0
VERTEX
  8
W57LXLIFT
 62
4
 10
1375.424
 20
-7863.359
 30
-462.000
 70
    32
  0
VERTEX
  8
W57LXLIFT
 62
4
 10
1392.238
 20
-7895.297
 30
-462.000
 70
    32
  0
VERTEX
  8
W57LXLIFT
 62
4
 10
1403.469
 20
-7914.490
 30
-462.000
 70
    32
  0
VERTEX
  8
W57LXLIFT
 62
4
 10
1410.273
 20
-7915.272
 30
-462.000
 70
    32
  0
VERTEX
  8
W57LXLIFT
 62
4
 10
1422.053
 20
-7929.766
 30
-462.000
 70
    32
  0
SEQEND
  8
W57LXLIFT
  0
POLYLINE
  8
W57LXLIFT
 62
6
 66
     1
 70
     9
  0
VERTEX
  8
W57LXLIFT
 62
6
 10
1233.861
 20
-7672.869
 30
-460.000
 70
    32
  0
VERTEX
  8
W57LXLIFT
 62
6
 10
1247.452
 20
-7689.312
 30
-460.000
 70
    32
  0
VERTEX
  8
W57LXLIFT
 62
6
 10
1249.671
 20
-7708.104
 30
-460.000
 70
    32
  0
VERTEX
  8
W57LXLIFT
 62
6
 10
1253.316
 20
-7711.878
 30
-460.000
 70
    32
  0
VERTEX
  8
W57LXLIFT
 62
6
 10
1277.569
 20
-7713.870
 30
-460.000
 70
    32
  0
VERTEX
  8
W57LXLIFT
 62
6
 10
1307.674
 20
-7722.597
 30
-460.000
 70
    32
  0
VERTEX
  8
W57LXLIFT
 62
6
 10
1311.205
 20
-7726.668
 30
-460.000
 70
    32
  0
VERTEX
  8
W57LXLIFT
 62
6
 10
1326.499
 20
-7719.817
 30
-460.000
 70
    32
  0
VERTEX
  8
W57LXLIFT
 62
6
 10
1333.733
 20
-7711.781
 30
-460.000
 70
    32
  0
VERTEX
  8
W57LXLIFT
 62
6
 10
1332.096
 20
-7701.412
 30
-460.000
 70
    32
  0
VERTEX
  8
W57LXLIFT
 62
6
 10
1309.337
 20
-7698.792
 30
-460.000
 70
    32
  0
VERTEX
  8
W57LXLIFT
 62
6
 10
1298.235
 20
-7696.962
 30
-460.000
 70
    32
  0
VERTEX
  8
W57LXLIFT
 62
6
 10
1279.978
 20
-7681.994
 30
-460.000
 70
    32
  0
VERTEX
  8
W57LXLIFT
 62
6
 10
1267.259
 20
-7667.087
 30
-460.000
 70
    32
  0
VERTEX
  8
W57LXLIFT
 62
6
 10
1242.380
 20
-7662.845
 30
-460.000
 70
    32
  0
SEQEND
  8
W57LXLIFT
  0
POLYLINE
  8
W57LXLIFT
 62
13
 66
     1
 70
     9
  0
VERTEX
  8
W57LXLIFT
 62
13
 10
1246.456
 20
-7641.532
 30
-467.000
 70
    32
  0
VERTEX
  8
W57LXLIFT
 62
13
 10
1246.977
 20
-7633.297
 30
-467.000
 70
    32
  0
VERTEX
  8
W57LXLIFT
 62
13
 10
1249.439
 20
-7628.105
 30
-467.000
 70
    32
  0
VERTEX
  8
W57LXLIFT
 62
13
 10
1255.996
 20
-7623.673
 30
-467.000
 70
    32
  0
VERTEX
  8
W57LXLIFT
 62
13
 10
1267.939
 20
-7616.503
 30
-467.000
 70
    32
  0
VERTEX
  8
W57LXLIFT
 62
13
 10
1273.244
 20
-7613.498
 30
-467.000
 70
    32
  0
VERTEX
  8
W57LXLIFT
 62
13
 10
1276.962
 20
-7613.880
 30
-467.000
 70
    32
  0
VERTEX
  8
W57LXLIFT
 62
13
 10
1282.218
 20
-7604.876
 30
-467.000
 70
    32
  0
VERTEX
  8
W57LXLIFT
 62
13
 10
1273.278
 20
-7604.423
 30
-467.000
 70
    32
  0
VERTEX
  8
W57LXLIFT
 62
13
 10
1268.725
 20
-7600.431
 30
-467.000
 70
    32
  0
VERTEX
  8
W57LXLIFT
 62
13
 10
1264.479
 20
-7596.112
 30
-467.000
 70
    32
  0
VERTEX
  8
W57LXLIFT
 62
13
 10
1264.051
 20
-7593.076
 30
-467.000
 70
    32
  0
VERTEX
  8
W57LXLIFT
 62
13
 10
1265.255
 20
-7574.552
 30
-467.000
 70
    32
  0
VERTEX
  8
W57LXLIFT
 62
13
 10
1269.721
 20
-7549.838
 30
-467.000
 70
    32
  0
VERTEX
  8
W57LXLIFT
 62
13
 10
1270.399
 20
-7532.549
 30
-467.000
 70
    32
  0
VERTEX
  8
W57LXLIFT
 62
13
 10
1266.299
 20
-7522.202
 30
-467.000
 70
    32
  0
VERTEX
  8
W57LXLIFT
 62
13
 10
1267.066
 20
-7516.594
 30
-467.000
 70
    32
  0
VERTEX
  8
W57LXLIFT
 62
13
 10
1248.945
 20
-7508.964
 30
-467.000
 70
    32
  0
VERTEX
  8
W57LXLIFT
 62
13
 10
1236.064
 20
-7490.939
 30
-467.000
 70
    32
  0
VERTEX
  8
W57LXLIFT
 62
13
 10
1220.583
 20
-7476.697
 30
-467.000
 70
    32
  0
VERTEX
  8
W57LXLIFT
 62
13
 10
1210.186
 20
-7469.627
 30
-467.000
 70
    32
  0
VERTEX
  8
W57LXLIFT
 62
13
 10
1205.641
 20
-7463.366
 30
-467.000
 70
    32
  0
VERTEX
  8
W57LXLIFT
 62
13
 10
1204.914
 20
-7458.386
 30
-467.000
 70
    32
  0
VERTEX
  8
W57LXLIFT
 62
13
 10
1196.536
 20
-7446.868
 30
-467.000
 70
    32
  0
VERTEX
  8
W57LXLIFT
 62
13
 10
1188.150
 20
-7451.303
 30
-467.000
 70
    32
  0
VERTEX
  8
W57LXLIFT
 62
13
 10
1182.430
 20
-7458.588
 30
-467.000
 70
    32
  0
VERTEX
  8
W57LXLIFT
 62
13
 10
1179.689
 20
-7459.130
 30
-467.000
 70
    32
  0
VERTEX
  8
W57LXLIFT
 62
13
 10
1176.775
 20
-7459.579
 30
-467.000
 70
    32
  0
VERTEX
  8
W57LXLIFT
 62
13
 10
1175.104
 20
-7460.870
 30
-467.000
 70
    32
  0
VERTEX
  8
W57LXLIFT
 62
13
 10
1175.096
 20
-7463.139
 30
-467.000
 70
    32
  0
VERTEX
  8
W57LXLIFT
 62
13
 10
1170.381
 20
-7472.299
 30
-467.000
 70
    32
  0
VERTEX
  8
W57LXLIFT
 62
13
 10
1177.388
 20
-7475.953
 30
-467.000
 70
    32
  0
VERTEX
  8
W57LXLIFT
 62
13
 10
1197.304
 20
-7490.069
 30
-467.000
 70
    32
  0
VERTEX
  8
W57LXLIFT
 62
13
 10
1198.165
 20
-7500.557
 30
-467.000
 70
    32
  0
VERTEX
  8
W57LXLIFT
 62
13
 10
1193.686
 20
-7512.027
 30
-467.000
 70
    32
  0
VERTEX
  8
W57LXLIFT
 62
13
 10
1203.794
 20
-7517.471
 30
-467.000
 70
    32
  0
VERTEX
  8
W57LXLIFT
 62
13
 10
1206.536
 20
-7511.002
 30
-467.000
 70
    32
  0
VERTEX
  8
W57LXLIFT
 62
13
 10
1210.592
 20
-7508.667
 30
-467.000
 70
    32
  0
VERTEX
  8
W57LXLIFT
 62
13
 10
1213.701
 20
-7510.774
 30
-467.000
 70
    32
  0
VERTEX
  8
W57LXLIFT
 62
13
 10
1214.587
 20
-7517.041
 30
-467.000
 70
    32
  0
VERTEX
  8
W57LXLIFT
 62
13
 10
1206.025
 20
-7538.409
 30
-467.000
 70
    32
  0
VERTEX
  8
W57LXLIFT
 62
13
 10
1194.490
 20
-7553.910
 30
-467.000
 70
    32
  0
VERTEX
  8
W57LXLIFT
 62
13
 10
1195.365
 20
-7563.203
 30
-467.000
 70
    32
  0
VERTEX
  8
W57LXLIFT
 62
13
 10
1212.258
 20
-7585.064
 30
-467.000
 70
    32
  0
VERTEX
  8
W57LXLIFT
 62
13
 10
1225.698
 20
-7576.509
 30
-467.000
 70
    32
  0
VERTEX
  8
W57LXLIFT
 62
13
 10
1225.759
 20
-7568.385
 30
-467.000
 70
    32
  0
VERTEX
  8
W57LXLIFT
 62
13
 10
1223.257
 20
-7554.212
 30
-467.000
 70
    32
  0
VERTEX
  8
W57LXLIFT
 62
13
 10
1223.108
 20
-7542.142
 30
-467.000
 70
    32
  0
VERTEX
  8
W57LXLIFT
 62
13
 10
1224.652
 20
-7533.829
 30
-467.000
 70
    32
  0
VERTEX
  8
W57LXLIFT
 62
13
 10
1233.646
 20
-7522.498
 30
-467.000
 70
    32
  0
VERTEX
  8
W57LXLIFT
 62
13
 10
1243.170
 20
-7539.131
 30
-467.000
 70
    32
  0
VERTEX
  8
W57LXLIFT
 62
13
 10
1240.041
 20
-7553.416
 30
-467.000
 70
    32
  0
VERTEX
  8
W57LXLIFT
 62
13
 10
1246.141
 20
-7564.609
 30
-467.000
 70
    32
  0
VERTEX
  8
W57LXLIFT
 62
13
 10
1241.970
 20
-7575.753
 30
-467.000
 70
    32
  0
VERTEX
  8
W57LXLIFT
 62
13
 10
1238.552
 20
-7593.583
 30
-467.000
 70
    32
  0
VERTEX
  8
W57LXLIFT
 62
13
 10
1232.961
 20
-7601.963
 30
-467.000
 70
    32
  0
VERTEX
  8
W57LXLIFT
 62
13
 10
1223.687
 20
-7608.642
 30
-467.000
 70
    32
  0
VERTEX
  8
W57LXLIFT
 62
13
 10
1227.775
 20
-7633.113
 30
-467.000
 70
    32
  0
SEQEND
  8
W57LXLIFT
  0
POLYLINE
  8
W57LXLIFT
 62
7
 66
     1
 70
     9
  0
VERTEX
  8
W57LXLIFT
 62
7
 10
1170.145
 20
-7540.993
 30
-471.000
 70
    32
  0
VERTEX
  8
W57LXLIFT
 62
7
 10
1159.683
 20
-7526.534
 30
-471.000
 70
    32
  0
VERTEX
  8
W57LXLIFT
 62
7
 10
1164.360
 20
-7522.035
 30
-471.000
 70
    32
  0
VERTEX
  8
W57LXLIFT
 62
7
 10
1138.512
 20
-7487.233
 30
-471.000
 70
    32
  0
VERTEX
  8
W57LXLIFT
 62
7
 10
1143.330
 20
-7483.388
 30
-471.000
 70
    32
  0
VERTEX
  8
W57LXLIFT
 62
7
 10
1139.526
 20
-7478.325
 30
-471.000
 70
    32
  0
VERTEX
  8
W57LXLIFT
 62
7
 10
1145.244
 20
-7474.381
 30
-471.000
 70
    32
  0
VERTEX
  8
W57LXLIFT
 62
7
 10
1130.073
 20
-7453.886
 30
-471.000
 70
    32
  0
VERTEX
  8
W57LXLIFT
 62
7
 10
1135.410
 20
-7450.318
 30
-471.000
 70
    32
  0
VERTEX
  8
W57LXLIFT
 62
7
 10
1117.049
 20
-7424.864
 30
-471.000
 70
    32
  0
VERTEX
  8
W57LXLIFT
 62
7
 10
1121.977
 20
-7421.480
 30
-471.000
 70
    32
  0
VERTEX
  8
W57LXLIFT
 62
7
 10
1103.679
 20
-7395.658
 30
-471.000
 70
    32
  0
VERTEX
  8
W57LXLIFT
 62
7
 10
1098.515
 20
-7399.318
 30
-471.000
 70
    32
  0
VERTEX
  8
W57LXLIFT
 62
7
 10
1101.917
 20
-7404.880
 30
-471.000
 70
    32
  0
VERTEX
  8
W57LXLIFT
 62
7
 10
1096.926
 20
-7408.632
 30
-471.000
 70
    32
  0
VERTEX
  8
W57LXLIFT
 62
7
 10
1100.129
 20
-7413.151
 30
-471.000
 70
    32
  0
VERTEX
  8
W57LXLIFT
 62
7
 10
1095.425
 20
-7416.700
 30
-471.000
 70
    32
  0
VERTEX
  8
W57LXLIFT
 62
7
 10
1098.747
 20
-7421.996
 30
-471.000
 70
    32
  0
VERTEX
  8
W57LXLIFT
 62
7
 10
1103.767
 20
-7418.438
 30
-471.000
 70
    32
  0
VERTEX
  8
W57LXLIFT
 62
7
 10
1111.320
 20
-7429.248
 30
-471.000
 70
    32
  0
VERTEX
  8
W57LXLIFT
 62
7
 10
1106.392
 20
-7432.632
 30
-471.000
 70
    32
  0
VERTEX
  8
W57LXLIFT
 62
7
 10
1124.397
 20
-7457.584
 30
-471.000
 70
    32
  0
VERTEX
  8
W57LXLIFT
 62
7
 10
1120.154
 20
-7461.023
 30
-471.000
 70
    32
  0
VERTEX
  8
W57LXLIFT
 62
7
 10
1123.332
 20
-7466.420
 30
-471.000
 70
    32
  0
VERTEX
  8
W57LXLIFT
 62
7
 10
1118.362
 20
-7470.050
 30
-471.000
 70
    32
  0
VERTEX
  8
W57LXLIFT
 62
7
 10
1133.093
 20
-7490.534
 30
-471.000
 70
    32
  0
VERTEX
  8
W57LXLIFT
 62
7
 10
1128.542
 20
-7494.298
 30
-471.000
 70
    32
  0
VERTEX
  8
W57LXLIFT
 62
7
 10
1139.297
 20
-7509.627
 30
-471.000
 70
    32
  0
VERTEX
  8
W57LXLIFT
 62
7
 10
1134.479
 20
-7513.472
 30
-471.000
 70
    32
  0
VERTEX
  8
W57LXLIFT
 62
7
 10
1160.357
 20
-7548.468
 30
-471.000
 70
    32
  0
SEQEND
  8
W57LXLIFT
  0
POLYLINE
  8
W57LXLIFT
 62
8
 66
     1
 70
     9
  0
VERTEX
  8
W57LXLIFT
 62
8
 10
1345.982
 20
-8406.390
 30
-452.000
 70
    32
  0
VERTEX
  8
W57LXLIFT
 62
8
 10
1350.896
 20
-8409.127
 30
-452.000
 70
    32
  0
VERTEX
  8
W57LXLIFT
 62
8
 10
1366.793
 20
-8408.142
 30
-452.000
 70
    32
  0
VERTEX
  8
W57LXLIFT
 62
8
 10
1370.196
 20
-8406.545
 30
-452.000
 70
    32
  0
VERTEX
  8
W57LXLIFT
 62
8
 10
1377.005
 20
-8397.812
 30
-452.000
 70
    32
  0
VERTEX
  8
W57LXLIFT
 62
8
 10
1377.255
 20
-8371.032
 30
-452.000
 70
    32
  0
VERTEX
  8
W57LXLIFT
 62
8
 10
1380.105
 20
-8364.625
 30
-452.000
 70
    32
  0
VERTEX
  8
W57LXLIFT
 62
8
 10
1374.237
 20
-8356.825
 30
-452.000
 70
    32
  0
VERTEX
  8
W57LXLIFT
 62
8
 10
1371.586
 20
-8350.169
 30
-452.000
 70
    32
  0
VERTEX
  8
W57LXLIFT
 62
8
 10
1370.885
 20
-8344.706
 30
-452.000
 70
    32
  0
VERTEX
  8
W57LXLIFT
 62
8
 10
1361.831
 20
-8343.448
 30
-452.000
 70
    32
  0
VERTEX
  8
W57LXLIFT
 62
8
 10
1339.757
 20
-8346.846
 30
-452.000
 70
    32
  0
VERTEX
  8
W57LXLIFT
 62
8
 10
1338.615
 20
-8345.719
 30
-452.000
 70
    32
  0
VERTEX
  8
W57LXLIFT
 62
8
 10
1320.955
 20
-8345.919
 30
-452.000
 70
    32
  0
VERTEX
  8
W57LXLIFT
 62
8
 10
1312.676
 20
-8345.730
 30
-452.000
 70
    32
  0
VERTEX
  8
W57LXLIFT
 62
8
 10
1306.115
 20
-8359.602
 30
-452.000
 70
    32
  0
VERTEX
  8
W57LXLIFT
 62
8
 10
1310.293
 20
-8365.369
 30
-452.000
 70
    32
  0
VERTEX
  8
W57LXLIFT
 62
8
 10
1347.600
 20
-8359.620
 30
-452.000
 70
    32
  0
VERTEX
  8
W57LXLIFT
 62
8
 10
1349.190
 20
-8374.102
 30
-452.000
 70
    32
  0
VERTEX
  8
W57LXLIFT
 62
8
 10
1351.564
 20
-8383.673
 30
-452.000
 70
    32
  0
VERTEX
  8
W57LXLIFT
 62
8
 10
1347.406
 20
-8391.571
 30
-452.000
 70
    32
  0
VERTEX
  8
W57LXLIFT
 62
8
 10
1341.953
 20
-8396.933
 30
-452.000
 70
    32
  0
SEQEND
  8
W57LXLIFT
  0
POLYLINE
  8
W57LXLIFT
 62
2
 66
     1
 70
     9
  0
VERTEX
  8
W57LXLIFT
 62
2
 10
1251.311
 20
-8220.714
 30
-456.000
 70
    32
  0
VERTEX
  8
W57LXLIFT
 62
2
 10
1251.969
 20
-8231.963
 30
-456.000
 70
    32
  0
VERTEX
  8
W57LXLIFT
 62
2
 10
1251.187
 20
-8238.826
 30
-456.000
 70
    32
  0
VERTEX
  8
W57LXLIFT
 62
2
 10
1246.434
 20
-8253.995
 30
-456.000
 70
    32
  0
VERTEX
  8
W57LXLIFT
 62
2
 10
1249.102
 20
-8258.576
 30
-456.000
 70
    32
  0
VERTEX
  8
W57LXLIFT
 62
2
 10
1250.542
 20
-8266.109
 30
-456.000
 70
    32
  0
VERTEX
  8
W57LXLIFT
 62
2
 10
1263.105
 20
-8278.504
 30
-456.000
 70
    32
  0
VERTEX
  8
W57LXLIFT
 62
2
 10
1278.100
 20
-8278.823
 30
-456.000
 70
    32
  0
VERTEX
  8
W57LXLIFT
 62
2
 10
1283.981
 20
-8276.300
 30
-456.000
 70
    32
  0
VERTEX
  8
W57LXLIFT
 62
2
 10
1289.211
 20
-8286.516
 30
-456.000
 70
    32
  0
VERTEX
  8
W57LXLIFT
 62
2
 10
1298.167
 20
-8280.896
 30
-456.000
 70
    32
  0
VERTEX
  8
W57LXLIFT
 62
2
 10
1293.019
 20
-8250.861
 30
-456.000
 70
    32
  0
VERTEX
  8
W57LXLIFT
 62
2
 10
1283.713
 20
-8239.364
 30
-456.000
 70
    32
  0
VERTEX
  8
W57LXLIFT
 62
2
 10
1279.815
 20
-8235.783
 30
-456.000
 70
    32
  0
VERTEX
  8
W57LXLIFT
 62
2
 10
1278.370
 20
-8230.641
 30
-456.000
 70
    32
  0
VERTEX
  8
W57LXLIFT
 62
2
 10
1268.089
 20
-8229.187
 30
-456.000
 70
    32
  0
VERTEX
  8
W57LXLIFT
 62
2
 10
1261.534
 20
-8225.685
 30
-456.000
 70
    32
  0
VERTEX
  8
W57LXLIFT
 62
2
 10
1255.483
 20
-8219.429
 30
-456.000
 70
    32
  0
SEQEND
  8
W57LXLIFT
  0
POLYLINE
  8
W57LXLIFT
 62
4
 66
     1
 70
     9
  0
VERTEX
  8
W57LXLIFT
 62
4
 10
1422.227
 20
-7927.639
 30
-452.000
 70
    32
  0
VERTEX
  8
W57LXLIFT
 62
4
 10
1427.031
 20
-7920.033
 30
-452.000
 70
    32
  0
VERTEX
  8
W57LXLIFT
 62
4
 10
1419.342
 20
-7904.324
 30
-452.000
 70
    32
  0
VERTEX
  8
W57LXLIFT
 62
4
 10
1410.558
 20
-7900.592
 30
-452.000
 70
    32
  0
VERTEX
  8
W57LXLIFT
 62
4
 10
1397.150
 20
-7887.180
 30
-452.000
 70
    32
  0
VERTEX
  8
W57LXLIFT
 62
4
 10
1389.421
 20
-7876.061
 30
-452.000
 70
    32
  0
VERTEX
  8
W57LXLIFT
 62
4
 10
1385.066
 20
-7860.759
 30
-452.000
 70
    32
  0
VERTEX
  8
W57LXLIFT
 62
4
 10
1383.342
 20
-7856.580
 30
-452.000
 70
    32
  0
VERTEX
  8
W57LXLIFT
 62
4
 10
1375.358
 20
-7850.205
 30
-452.000
 70
    32
  0
VERTEX
  8
W57LXLIFT
 62
4
 10
1357.560
 20
-7823.690
 30
-452.000
 70
    32
  0
VERTEX
  8
W57LXLIFT
 62
4
 10
1351.593
 20
-7823.995
 30
-452.000
 70
    32
  0
VERTEX
  8
W57LXLIFT
 62
4
 10
1349.148
 20
-7828.264
 30
-452.000
 70
    32
  0
VERTEX
  8
W57LXLIFT
 62
4
 10
1366.081
 20
-7861.377
 30
-452.000
 70
    32
  0
VERTEX
  8
W57LXLIFT
 62
4
 10
1371.112
 20
-7874.017
 30
-452.000
 70
    32
  0
VERTEX
  8
W57LXLIFT
 62
4
 10
1378.700
 20
-7885.239
 30
-452.000
 70
    32
  0
VERTEX
  8
W57LXLIFT
 62
4
 10
1386.651
 20
-7898.912
 30
-452.000
 70
    32
  0
VERTEX
  8
W57LXLIFT
 62
4
 10
1393.049
 20
-7906.545
 30
-452.000
 70
    32
  0
VERTEX
  8
W57LXLIFT
 62
4
 10
1398.257
 20
-7918.080
 30
-452.000
 70
    32
  0
VERTEX
  8
W57LXLIFT
 62
4
 10
1405.619
 20
-7921.648
 30
-452.000
 70
    32
  0
VERTEX
  8
W57LXLIFT
 62
4
 10
1413.046
 20
-7928.753
 30
-452.000
 70
    32
  0
SEQEND
  8
W57LXLIFT
  0
POLYLINE
  8
W57LXLIFT
 62
6
 66
     1
 70
     9
  0
VERTEX
  8
W57LXLIFT
 62
6
 10
1313.694
 20
-7701.848
 30
-453.000
 70
    32
  0
VERTEX
  8
W57LXLIFT
 62
6
 10
1293.217
 20
-7701.157
 30
-453.000
 70
    32
  0
VERTEX
  8
W57LXLIFT
 62
6
 10
1279.726
 20
-7684.333
 30
-453.000
 70
    32
  0
VERTEX
  8
W57LXLIFT
 62
6
 10
1271.580
 20
-7678.184
 30
-453.000
 70
    32
  0
VERTEX
  8
W57LXLIFT
 62
6
 10
1255.290
 20
-7678.477
 30
-453.000
 70
    32
  0
VERTEX
  8
W57LXLIFT
 62
6
 10
1245.621
 20
-7681.465
 30
-453.000
 70
    32
  0
VERTEX
  8
W57LXLIFT
 62
6
 10
1245.082
 20
-7686.415
 30
-453.000
 70
    32
  0
VERTEX
  8
W57LXLIFT
 62
6
 10
1253.093
 20
-7702.868
 30
-453.000
 70
    32
  0
VERTEX
  8
W57LXLIFT
 62
6
 10
1249.750
 20
-7710.392
 30
-453.000
 70
    32
  0
VERTEX
  8
W57LXLIFT
 62
6
 10
1252.046
 20
-7712.962
 30
-453.000
 70
    32
  0
VERTEX
  8
W57LXLIFT
 62
6
 10
1258.791
 20
-7711.333
 30
-453.000
 70
    32
  0
VERTEX
  8
W57LXLIFT
 62
6
 10
1265.659
 20
-7709.723
 30
-453.000
 70
    32
  0
VERTEX
  8
W57LXLIFT
 62
6
 10
1276.112
 20
-7712.464
 30
-453.000
 70
    32
  0
VERTEX
  8
W57LXLIFT
 62
6
 10
1293.504
 20
-7721.035
 30
-453.000
 70
    32
  0
VERTEX
  8
W57LXLIFT
 62
6
 10
1302.531
 20
-7726.003
 30
-453.000
 70
    32
  0
VERTEX
  8
W57LXLIFT
 62
6
 10
1315.974
 20
-7723.429
 30
-453.000
 70
    32
  0
VERTEX
  8
W57LXLIFT
 62
6
 10
1321.900
 20
-7713.925
 30
-453.000
 70
    32
  0
SEQEND
  8
W57LXLIFT
  0
POLYLINE
  8
W57LXLIFT
 62
13
 66
     1
 70
     9
  0
VERTEX
  8
W57LXLIFT
 62
13
 10
1261.827
 20
-7516.212
 30
-458.000
 70
    32
  0
VERTEX
  8
W57LXLIFT
 62
13
 10
1250.086
 20
-7510.496
 30
-458.000
 70
    32
  0
VERTEX
  8
W57LXLIFT
 62
13
 10
1239.869
 20
-7501.938
 30
-458.000
 70
    32
  0
VERTEX
  8
W57LXLIFT
 62
13
 10
1234.065
 20
-7494.526
 30
-458.000
 70
    32
  0
VERTEX
  8
W57LXLIFT
 62
13
 10
1231.157
 20
-7490.662
 30
-458.000
 70
    32
  0
VERTEX
  8
W57LXLIFT
 62
13
 10
1224.396
 20
-7486.875
 30
-458.000
 70
    32
  0
VERTEX
  8
W57LXLIFT
 62
13
 10
1213.410
 20
-7474.857
 30
-458.000
 70
    32
  0
VERTEX
  8
W57LXLIFT
 62
13
 10
1205.810
 20
-7470.810
 30
-458.000
 70
    32
  0
VERTEX
  8
W57LXLIFT
 62
13
 10
1201.687
 20
-7470.214
 30
-458.000
 70
    32
  0
VERTEX
  8
W57LXLIFT
 62
13
 10
1190.614
 20
-7474.111
 30
-458.000
 70
    32
  0
VERTEX
  8
W57LXLIFT
 62
13
 10
1188.282
 20
-7480.034
 30
-458.000
 70
    32
  0
VERTEX
  8
W57LXLIFT
 62
13
 10
1190.773
 20
-7485.720
 30
-458.000
 70
    32
  0
VERTEX
  8
W57LXLIFT
 62
13
 10
1197.500
 20
-7493.658
 30
-458.000
 70
    32
  0
VERTEX
  8
W57LXLIFT
 62
13
 10
1198.353
 20
-7497.382
 30
-458.000
 70
    32
  0
VERTEX
  8
W57LXLIFT
 62
13
 10
1195.914
 20
-7505.555
 30
-458.000
 70
    32
  0
VERTEX
  8
W57LXLIFT
 62
13
 10
1198.307
 20
-7511.855
 30
-458.000
 70
    32
  0
VERTEX
  8
W57LXLIFT
 62
13
 10
1202.185
 20
-7512.412
 30
-458.000
 70
    32
  0
VERTEX
  8
W57LXLIFT
 62
13
 10
1209.700
 20
-7509.898
 30
-458.000
 70
    32
  0
VERTEX
  8
W57LXLIFT
 62
13
 10
1211.305
 20
-7526.649
 30
-458.000
 70
    32
  0
VERTEX
  8
W57LXLIFT
 62
13
 10
1203.843
 20
-7538.677
 30
-458.000
 70
    32
  0
VERTEX
  8
W57LXLIFT
 62
13
 10
1199.545
 20
-7548.630
 30
-458.000
 70
    32
  0
VERTEX
  8
W57LXLIFT
 62
13
 10
1191.873
 20
-7555.274
 30
-458.000
 70
    32
  0
VERTEX
  8
W57LXLIFT
 62
13
 10
1209.690
 20
-7578.519
 30
-458.000
 70
    32
  0
VERTEX
  8
W57LXLIFT
 62
13
 10
1213.462
 20
-7580.129
 30
-458.000
 70
    32
  0
VERTEX
  8
W57LXLIFT
 62
13
 10
1219.460
 20
-7576.869
 30
-458.000
 70
    32
  0
VERTEX
  8
W57LXLIFT
 62
13
 10
1225.796
 20
-7565.983
 30
-458.000
 70
    32
  0
VERTEX
  8
W57LXLIFT
 62
13
 10
1220.322
 20
-7554.531
 30
-458.000
 70
    32
  0
VERTEX
  8
W57LXLIFT
 62
13
 10
1226.568
 20
-7525.688
 30
-458.000
 70
    32
  0
VERTEX
  8
W57LXLIFT
 62
13
 10
1230.206
 20
-7522.618
 30
-458.000
 70
    32
  0
VERTEX
  8
W57LXLIFT
 62
13
 10
1233.573
 20
-7523.219
 30
-458.000
 70
    32
  0
VERTEX
  8
W57LXLIFT
 62
13
 10
1238.116
 20
-7537.732
 30
-458.000
 70
    32
  0
VERTEX
  8
W57LXLIFT
 62
13
 10
1238.844
 20
-7563.912
 30
-458.000
 70
    32
  0
VERTEX
  8
W57LXLIFT
 62
13
 10
1239.095
 20
-7571.004
 30
-458.000
 70
    32
  0
VERTEX
  8
W57LXLIFT
 62
13
 10
1229.771
 20
-7587.205
 30
-458.000
 70
    32
  0
VERTEX
  8
W57LXLIFT
 62
13
 10
1230.876
 20
-7590.529
 30
-458.000
 70
    32
  0
VERTEX
  8
W57LXLIFT
 62
13
 10
1239.461
 20
-7593.538
 30
-458.000
 70
    32
  0
VERTEX
  8
W57LXLIFT
 62
13
 10
1246.797
 20
-7600.817
 30
-458.000
 70
    32
  0
VERTEX
  8
W57LXLIFT
 62
13
 10
1249.425
 20
-7602.496
 30
-458.000
 70
    32
  0
VERTEX
  8
W57LXLIFT
 62
13
 10
1255.278
 20
-7597.387
 30
-458.000
 70
    32
  0
VERTEX
  8
W57LXLIFT
 62
13
 10
1262.918
 20
-7579.910
 30
-458.000
 70
    32
  0
VERTEX
  8
W57LXLIFT
 62
13
 10
1265.370
 20
-7561.415
 30
-458.000
 70
    32
  0
VERTEX
  8
W57LXLIFT
 62
13
 10
1263.952
 20
-7548.219
 30
-458.000
 70
    32
  0
VERTEX
  8
W57LXLIFT
 62
13
 10
1259.764
 20
-7537.791
 30
-458.000
 70
    32
  0
VERTEX
  8
W57LXLIFT
 62
13
 10
1259.953
 20
-7526.364
 30
-458.000
 70
    32
  0
SEQEND
  8
W57LXLIFT
  0
POLYLINE
  8
W57LXLIFT
 62
7
 66
     1
 70
     9
  0
VERTEX
  8
W57LXLIFT
 62
7
 10
1148.243
 20
-7480.813
 30
-463.000
 70
    32
  0
VERTEX
  8
W57LXLIFT
 62
7
 10
1144.944
 20
-7475.061
 30
-463.000
 70
    32
  0
VERTEX
  8
W57LXLIFT
 62
7
 10
1149.022
 20
-7471.998
 30
-463.000
 70
    32
  0
VERTEX
  8
W57LXLIFT
 62
7
 10
1142.073
 20
-7461.507
 30
-463.000
 70
    32
  0
VERTEX
  8
W57LXLIFT
 62
7
 10
1147.077
 20
-7457.774
 30
-463.000
 70
    32
  0
VERTEX
  8
W57LXLIFT
 62
7
 10
1139.716
 20
-7446.714
 30
-463.000
 70
    32
  0
VERTEX
  8
W57LXLIFT
 62
7
 10
1144.505
 20
-7443.135
 30
-463.000
 70
    32
  0
VERTEX
  8
W57LXLIFT
 62
7
 10
1141.462
 20
-7438.934
 30
-463.000
 70
    32
  0
VERTEX
  8
W57LXLIFT
 62
7
 10
1136.304
 20
-7442.454
 30
-463.000
 70
    32
  0
VERTEX
  8
W57LXLIFT
 62
7
 10
1129.375
 20
-7431.840
 30
-463.000
 70
    32
  0
VERTEX
  8
W57LXLIFT
 62
7
 10
1134.261
 20
-7428.844
 30
-463.000
 70
    32
  0
VERTEX
  8
W57LXLIFT
 62
7
 10
1130.360
 20
-7423.310
 30
-463.000
 70
    32
  0
VERTEX
  8
W57LXLIFT
 62
7
 10
1135.661
 20
-7419.687
 30
-463.000
 70
    32
  0
VERTEX
  8
W57LXLIFT
 62
7
 10
1125.585
 20
-7404.730
 30
-463.000
 70
    32
  0
VERTEX
  8
W57LXLIFT
 62
7
 10
1119.516
 20
-7408.042
 30
-463.000
 70
    32
  0
VERTEX
  8
W57LXLIFT
 62
7
 10
1112.030
 20
-7398.157
 30
-463.000
 70
    32
  0
VERTEX
  8
W57LXLIFT
 62
7
 10
1096.808
 20
-7408.316
 30
-463.000
 70
    32
  0
VERTEX
  8
W57LXLIFT
 62
7
 10
1122.551
 20
-7444.601
 30
-463.000
 70
    32
  0
VERTEX
  8
W57LXLIFT
 62
7
 10
1116.895
 20
-7448.481
 30
-463.000
 70
    32
  0
VERTEX
  8
W57LXLIFT
 62
7
 10
1123.806
 20
-7458.022
 30
-463.000
 70
    32
  0
VERTEX
  8
W57LXLIFT
 62
7
 10
1118.538
 20
-7461.839
 30
-463.000
 70
    32
  0
VERTEX
  8
W57LXLIFT
 62
7
 10
1126.565
 20
-7473.069
 30
-463.000
 70
    32
  0
VERTEX
  8
W57LXLIFT
 62
7
 10
1121.802
 20
-7476.085
 30
-463.000
 70
    32
  0
VERTEX
  8
W57LXLIFT
 62
7
 10
1128.738
 20
-7486.259
 30
-463.000
 70
    32
  0
VERTEX
  8
W57LXLIFT
 62
7
 10
1132.674
 20
-7483.299
 30
-463.000
 70
    32
  0
VERTEX
  8
W57LXLIFT
 62
7
 10
1136.910
 20
-7488.698
 30
-463.000
 70
    32
  0
SEQEND
  8
W57LXLIFT
  0
POLYLINE
  8
W57LXLIFT
 62
8
 66
     1
 70
     9
  0
VERTEX
  8
W57LXLIFT
 62
8
 10
1362.441
 20
-8409.328
 30
-441.000
 70
    32
  0
VERTEX
  8
W57LXLIFT
 62
8
 10
1366.275
 20
-8391.354
 30
-441.000
 70
    32
  0
VERTEX
  8
W57LXLIFT
 62
8
 10
1372.678
 20
-8375.430
 30
-441.000
 70
    32
  0
VERTEX
  8
W57LXLIFT
 62
8
 10
1376.058
 20
-8367.340
 30
-441.000
 70
    32
  0
VERTEX
  8
W57LXLIFT
 62
8
 10
1366.035
 20
-8353.629
 30
-441.000
 70
    32
  0
VERTEX
  8
W57LXLIFT
 62
8
 10
1360.569
 20
-8351.175
 30
-441.000
 70
    32
  0
VERTEX
  8
W57LXLIFT
 62
8
 10
1354.570
 20
-8346.934
 30
-441.000
 70
    32
  0
VERTEX
  8
W57LXLIFT
 62
8
 10
1348.135
 20
-8348.547
 30
-441.000
 70
    32
  0
VERTEX
  8
W57LXLIFT
 62
8
 10
1345.276
 20
-8345.945
 30
-441.000
 70
    32
  0
VERTEX
  8
W57LXLIFT
 62
8
 10
1337.203
 20
-8345.593
 30
-441.000
 70
    32
  0
VERTEX
  8
W57LXLIFT
 62
8
 10
1315.479
 20
-8347.837
 30
-441.000
 70
    32
  0
VERTEX
  8
W57LXLIFT
 62
8
 10
1304.526
 20
-8350.110
 30
-441.000
 70
    32
  0
VERTEX
  8
W57LXLIFT
 62
8
 10
1302.044
 20
-8354.185
 30
-441.000
 70
    32
  0
VERTEX
  8
W57LXLIFT
 62
8
 10
1304.535
 20
-8358.682
 30
-441.000
 70
    32
  0
VERTEX
  8
W57LXLIFT
 62
8
 10
1307.985
 20
-8362.702
 30
-441.000
 70
    32
  0
VERTEX
  8
W57LXLIFT
 62
8
 10
1312.306
 20
-8365.224
 30
-441.000
 70
    32
  0
VERTEX
  8
W57LXLIFT
 62
8
 10
1315.730
 20
-8364.703
 30
-441.000
 70
    32
  0
VERTEX
  8
W57LXLIFT
 62
8
 10
1328.311
 20
-8360.927
 30
-441.000
 70
    32
  0
VERTEX
  8
W57LXLIFT
 62
8
 10
1337.496
 20
-8359.063
 30
-441.000
 70
    32
  0
VERTEX
  8
W57LXLIFT
 62
8
 10
1341.642
 20
-8359.540
 30
-441.000
 70
    32
  0
VERTEX
  8
W57LXLIFT
 62
8
 10
1351.999
 20
-8362.150
 30
-441.000
 70
    32
  0
VERTEX
  8
W57LXLIFT
 62
8
 10
1351.885
 20
-8370.702
 30
-441.000
 70
    32
  0
VERTEX
  8
W57LXLIFT
 62
8
 10
1353.936
 20
-8382.250
 30
-441.000
 70
    32
  0
VERTEX
  8
W57LXLIFT
 62
8
 10
1348.821
 20
-8390.944
 30
-441.000
 70
    32
  0
VERTEX
  8
W57LXLIFT
 62
8
 10
1350.303
 20
-8404.857
 30
-441.000
 70
    32
  0
VERTEX
  8
W57LXLIFT
 62
8
 10
1356.910
 20
-8411.591
 30
-441.000
 70
    32
  0
SEQEND
  8
W57LXLIFT
  0
POLYLINE
  8
W57LXLIFT
 62
2
 66
     1
 70
     9
  0
VERTEX
  8
W57LXLIFT
 62
2
 10
1271.204
 20
-8320.996
 30
-447.000
 70
    32
  0
VERTEX
  8
W57LXLIFT
 62
2
 10
1277.947
 20
-8310.799
 30
-447.000
 70
    32
  0
VERTEX
  8
W57LXLIFT
 62
2
 10
1286.767
 20
-8300.621
 30
-447.000
 70
    32
  0
VERTEX
  8
W57LXLIFT
 62
2
 10
1292.842
 20
-8293.405
 30
-447.000
 70
    32
  0
VERTEX
  8
W57LXLIFT
 62
2
 10
1293.644
 20
-8288.807
 30
-447.000
 70
    32
  0
VERTEX
  8
W57LXLIFT
 62
2
 10
1293.105
 20
-8282.356
 30
-447.000
 70
    32
  0
VERTEX
  8
W57LXLIFT
 62
2
 10
1281.731
 20
-8247.253
 30
-447.000
 70
    32
  0
VERTEX
  8
W57LXLIFT
 62
2
 10
1276.443
 20
-8238.589
 30
-447.000
 70
    32
  0
VERTEX
  8
W57LXLIFT
 62
2
 10
1271.432
 20
-8235.263
 30
-447.000
 70
    32
  0
VERTEX
  8
W57LXLIFT
 62
2
 10
1263.281
 20
-8230.298
 30
-447.000
 70
    32
  0
VERTEX
  8
W57LXLIFT
 62
2
 10
1257.234
 20
-8224.789
 30
-447.000
 70
    32
  0
VERTEX
  8
W57LXLIFT
 62
2
 10
1254.588
 20
-8220.078
 30
-447.000
 70
    32
  0
VERTEX
  8
W57LXLIFT
 62
2
 10
1254.401
 20
-8212.612
 30
-447.000
 70
    32
  0
VERTEX
  8
W57LXLIFT
 62
2
 10
1255.212
 20
-8195.412
 30
-447.000
 70
    32
  0
VERTEX
  8
W57LXLIFT
 62
2
 10
1253.654
 20
-8187.851
 30
-447.000
 70
    32
  0
VERTEX
  8
W57LXLIFT
 62
2
 10
1251.737
 20
-8183.699
 30
-447.000
 70
    32
  0
VERTEX
  8
W57LXLIFT
 62
2
 10
1253.616
 20
-8170.829
 30
-447.000
 70
    32
  0
VERTEX
  8
W57LXLIFT
 62
2
 10
1252.023
 20
-8164.271
 30
-447.000
 70
    32
  0
VERTEX
  8
W57LXLIFT
 62
2
 10
1246.587
 20
-8158.104
 30
-447.000
 70
    32
  0
VERTEX
  8
W57LXLIFT
 62
2
 10
1239.898
 20
-8160.117
 30
-447.000
 70
    32
  0
VERTEX
  8
W57LXLIFT
 62
2
 10
1233.886
 20
-8160.664
 30
-447.000
 70
    32
  0
VERTEX
  8
W57LXLIFT
 62
2
 10
1230.480
 20
-8157.154
 30
-447.000
 70
    32
  0
VERTEX
  8
W57LXLIFT
 62
2
 10
1225.954
 20
-8156.301
 30
-447.000
 70
    32
  0
VERTEX
  8
W57LXLIFT
 62
2
 10
1224.407
 20
-8154.162
 30
-447.000
 70
    32
  0
VERTEX
  8
W57LXLIFT
 62
2
 10
1215.059
 20
-8156.252
 30
-447.000
 70
    32
  0
VERTEX
  8
W57LXLIFT
 62
2
 10
1212.239
 20
-8158.508
 30
-447.000
 70
    32
  0
VERTEX
  8
W57LXLIFT
 62
2
 10
1211.872
 20
-8162.357
 30
-447.000
 70
    32
  0
VERTEX
  8
W57LXLIFT
 62
2
 10
1214.529
 20
-8165.430
 30
-447.000
 70
    32
  0
VERTEX
  8
W57LXLIFT
 62
2
 10
1220.607
 20
-8176.238
 30
-447.000
 70
    32
  0
VERTEX
  8
W57LXLIFT
 62
2
 10
1223.335
 20
-8186.319
 30
-447.000
 70
    32
  0
VERTEX
  8
W57LXLIFT
 62
2
 10
1233.124
 20
-8200.307
 30
-447.000
 70
    32
  0
VERTEX
  8
W57LXLIFT
 62
2
 10
1229.320
 20
-8221.626
 30
-447.000
 70
    32
  0
VERTEX
  8
W57LXLIFT
 62
2
 10
1231.130
 20
-8226.833
 30
-447.000
 70
    32
  0
VERTEX
  8
W57LXLIFT
 62
2
 10
1237.028
 20
-8234.839
 30
-447.000
 70
    32
  0
VERTEX
  8
W57LXLIFT
 62
2
 10
1242.699
 20
-8254.845
 30
-447.000
 70
    32
  0
VERTEX
  8
W57LXLIFT
 62
2
 10
1246.921
 20
-8272.098
 30
-447.000
 70
    32
  0
VERTEX
  8
W57LXLIFT
 62
2
 10
1267.844
 20
-8288.568
 30
-447.000
 70
    32
  0
VERTEX
  8
W57LXLIFT
 62
2
 10
1266.025
 20
-8303.023
 30
-447.000
 70
    32
  0
VERTEX
  8
W57LXLIFT
 62
2
 10
1265.524
 20
-8306.534
 30
-447.000
 70
    32
  0
VERTEX
  8
W57LXLIFT
 62
2
 10
1266.949
 20
-8310.608
 30
-447.000
 70
    32
  0
VERTEX
  8
W57LXLIFT
 62
2
 10
1265.760
 20
-8317.223
 30
-447.000
 70
    32
  0
SEQEND
  8
W57LXLIFT
  0
POLYLINE
  8
W57LXLIFT
 62
4
 66
     1
 70
     9
  0
VERTEX
  8
W57LXLIFT
 62
4
 10
1351.809
 20
-7824.118
 30
-444.000
 70
    32
  0
VERTEX
  8
W57LXLIFT
 62
4
 10
1350.074
 20
-7833.734
 30
-444.000
 70
    32
  0
VERTEX
  8
W57LXLIFT
 62
4
 10
1356.026
 20
-7845.719
 30
-444.000
 70
    32
  0
VERTEX
  8
W57LXLIFT
 62
4
 10
1365.377
 20
-7856.548
 30
-444.000
 70
    32
  0
VERTEX
  8
W57LXLIFT
 62
4
 10
1369.381
 20
-7866.141
 30
-444.000
 70
    32
  0
VERTEX
  8
W57LXLIFT
 62
4
 10
1378.377
 20
-7879.182
 30
-444.000
 70
    32
  0
VERTEX
  8
W57LXLIFT
 62
4
 10
1396.240
 20
-7902.534
 30
-444.000
 70
    32
  0
VERTEX
  8
W57LXLIFT
 62
4
 10
1416.905
 20
-7925.706
 30
-444.000
 70
    32
  0
VERTEX
  8
W57LXLIFT
 62
4
 10
1426.067
 20
-7918.104
 30
-444.000
 70
    32
  0
VERTEX
  8
W57LXLIFT
 62
4
 10
1413.081
 20
-7904.799
 30
-444.000
 70
    32
  0
VERTEX
  8
W57LXLIFT
 62
4
 10
1396.951
 20
-7883.994
 30
-444.000
 70
    32
  0
VERTEX
  8
W57LXLIFT
 62
4
 10
1387.456
 20
-7871.314
 30
-444.000
 70
    32
  0
VERTEX
  8
W57LXLIFT
 62
4
 10
1369.360
 20
-7843.135
 30
-444.000
 70
    32
  0
VERTEX
  8
W57LXLIFT
 62
4
 10
1362.467
 20
-7827.596
 30
-444.000
 70
    32
  0
VERTEX
  8
W57LXLIFT
 62
4
 10
1359.184
 20
-7824.106
 30
-444.000
 70
    32
  0
SEQEND
  8
W57LXLIFT
  0
POLYLINE
  8
W57LXLIFT
 62
6
 66
     1
 70
     9
  0
VERTEX
  8
W57LXLIFT
 62
6
 10
1231.376
 20
-7668.831
 30
-441.000
 70
    32
  0
VERTEX
  8
W57LXLIFT
 62
6
 10
1227.922
 20
-7685.228
 30
-441.000
 70
    32
  0
VERTEX
  8
W57LXLIFT
 62
6
 10
1244.226
 20
-7706.124
 30
-441.000
 70
    32
  0
VERTEX
  8
W57LXLIFT
 62
6
 10
1240.487
 20
-7708.611
 30
-441.000
 70
    32
  0
VERTEX
  8
W57LXLIFT
 62
6
 10
1240.402
 20
-7713.450
 30
-441.000
 70
    32
  0
VERTEX
  8
W57LXLIFT
 62
6
 10
1245.734
 20
-7715.567
 30
-441.000
 70
    32
  0
VERTEX
  8
W57LXLIFT
 62
6
 10
1248.860
 20
-7714.935
 30
-441.000
 70
    32
  0
VERTEX
  8
W57LXLIFT
 62
6
 10
1255.818
 20
-7711.642
 30
-441.000
 70
    32
  0
VERTEX
  8
W57LXLIFT
 62
6
 10
1266.925
 20
-7709.583
 30
-441.000
 70
    32
  0
VERTEX
  8
W57LXLIFT
 62
6
 10
1276.618
 20
-7715.930
 30
-441.000
 70
    32
  0
VERTEX
  8
W57LXLIFT
 62
6
 10
1283.037
 20
-7720.302
 30
-441.000
 70
    32
  0
VERTEX
  8
W57LXLIFT
 62
6
 10
1295.217
 20
-7723.330
 30
-441.000
 70
    32
  0
VERTEX
  8
W57LXLIFT
 62
6
 10
1300.551
 20
-7722.297
 30
-441.000
 70
    32
  0
VERTEX
  8
W57LXLIFT
 62
6
 10
1308.018
 20
-7717.006
 30
-441.000
 70
    32
  0
VERTEX
  8
W57LXLIFT
 62
6
 10
1307.338
 20
-7712.611
 30
-441.000
 70
    32
  0
VERTEX
  8
W57LXLIFT
 62
6
 10
1293.527
 20
-7705.224
 30
-441.000
 70
    32
  0
VERTEX
  8
W57LXLIFT
 62
6
 10
1285.098
 20
-7700.025
 30
-441.000
 70
    32
  0
VERTEX
  8
W57LXLIFT
 62
6
 10
1272.303
 20
-7689.840
 30
-441.000
 70
    32
  0
VERTEX
  8
W57LXLIFT
 62
6
 10
1265.284
 20
-7682.536
 30
-441.000
 70
    32
  0
VERTEX
  8
W57LXLIFT
 62
6
 10
1249.041
 20
-7677.341
 30
-441.000
 70
    32
  0
VERTEX
  8
W57LXLIFT
 62
6
 10
1238.103
 20
-7671.677
 30
-441.000
 70
    32
  0
SEQEND
  8
W57LXLIFT
  0
POLYLINE
  8
W57LXLIFT
 62
6
 66
     1
 70
     9
  0
VERTEX
  8
W57LXLIFT
 62
6
 10
1236.553
 20
-7687.409
 30
-435.000
 70
    32
  0
VERTEX
  8
W57LXLIFT
 62
6
 10
1243.900
 20
-7686.811
 30
-435.000
 70
    32
  0
VERTEX
  8
W57LXLIFT
 62
6
 10
1249.785
 20
-7688.551
 30
-435.000
 70
    32
  0
VERTEX
  8
W57LXLIFT
 62
6
 10
1259.611
 20
-7695.362
 30
-435.000
 70
    32
  0
VERTEX
  8
W57LXLIFT
 62
6
 10
1270.226
 20
-7698.587
 30
-435.000
 70
    32
  0
VERTEX
  8
W57LXLIFT
 62
6
 10
1277.367
 20
-7701.483
 30
-435.000
 70
    32
  0
VERTEX
  8
W57LXLIFT
 62
6
 10
1281.779
 20
-7706.758
 30
-435.000
 70
    32
  0
VERTEX
  8
W57LXLIFT
 62
6
 10
1286.570
 20
-7709.387
 30
-435.000
 70
    32
  0
VERTEX
  8
W57LXLIFT
 62
6
 10
1292.250
 20
-7710.841
 30
-435.000
 70
    32
  0
VERTEX
  8
W57LXLIFT
 62
6
 10
1294.557
 20
-7715.135
 30
-435.000
 70
    32
  0
VERTEX
  8
W57LXLIFT
 62
6
 10
1307.908
 20
-7723.102
 30
-435.000
 70
    32
  0
VERTEX
  8
W57LXLIFT
 62
6
 10
1305.991
 20
-7734.188
 30
-435.000
 70
    32
  0
VERTEX
  8
W57LXLIFT
 62
6
 10
1303.547
 20
-7736.363
 30
-435.000
 70
    32
  0
VERTEX
  8
W57LXLIFT
 62
6
 10
1295.564
 20
-7741.519
 30
-435.000
 70
    32
  0
VERTEX
  8
W57LXLIFT
 62
6
 10
1285.963
 20
-7733.359
 30
-435.000
 70
    32
  0
VERTEX
  8
W57LXLIFT
 62
6
 10
1276.119
 20
-7722.890
 30
-435.000
 70
    32
  0
VERTEX
  8
W57LXLIFT
 62
6
 10
1261.797
 20
-7715.075
 30
-435.000
 70
    32
  0
VERTEX
  8
W57LXLIFT
 62
6
 10
1254.819
 20
-7712.710
 30
-435.000
 70
    32
  0
VERTEX
  8
W57LXLIFT
 62
6
 10
1245.231
 20
-7717.283
 30
-435.000
 70
    32
  0
VERTEX
  8
W57LXLIFT
 62
6
 10
1239.230
 20
-7704.935
 30
-435.000
 70
    32
  0
VERTEX
  8
W57LXLIFT
 62
6
 10
1237.600
 20
-7695.840
 30
-435.000
 70
    32
  0
SEQEND
  8
W57LXLIFT
  0
POLYLINE
  8
W57LXLIFT
 62
4
 66
     1
 70
     9
  0
VERTEX
  8
W57LXLIFT
 62
4
 10
1354.823
 20
-7827.307
 30
-435.000
 70
    32
  0
VERTEX
  8
W57LXLIFT
 62
4
 10
1360.052
 20
-7832.214
 30
-435.000
 70
    32
  0
VERTEX
  8
W57LXLIFT
 62
4
 10
1364.204
 20
-7843.937
 30
-435.000
 70
    32
  0
VERTEX
  8
W57LXLIFT
 62
4
 10
1373.405
 20
-7854.866
 30
-435.000
 70
    32
  0
VERTEX
  8
W57LXLIFT
 62
4
 10
1383.164
 20
-7871.875
 30
-435.000
 70
    32
  0
VERTEX
  8
W57LXLIFT
 62
4
 10
1390.925
 20
-7879.727
 30
-435.000
 70
    32
  0
VERTEX
  8
W57LXLIFT
 62
4
 10
1396.882
 20
-7881.417
 30
-435.000
 70
    32
  0
VERTEX
  8
W57LXLIFT
 62
4
 10
1401.471
 20
-7879.223
 30
-435.000
 70
    32
  0
VERTEX
  8
W57LXLIFT
 62
4
 10
1411.755
 20
-7890.459
 30
-435.000
 70
    32
  0
VERTEX
  8
W57LXLIFT
 62
4
 10
1418.979
 20
-7909.060
 30
-435.000
 70
    32
  0
VERTEX
  8
W57LXLIFT
 62
4
 10
1417.772
 20
-7910.245
 30
-435.000
 70
    32
  0
VERTEX
  8
W57LXLIFT
 62
4
 10
1419.763
 20
-7913.792
 30
-435.000
 70
    32
  0
VERTEX
  8
W57LXLIFT
 62
4
 10
1416.051
 20
-7917.520
 30
-435.000
 70
    32
  0
VERTEX
  8
W57LXLIFT
 62
4
 10
1406.672
 20
-7915.573
 30
-435.000
 70
    32
  0
VERTEX
  8
W57LXLIFT
 62
4
 10
1395.399
 20
-7901.587
 30
-435.000
 70
    32
  0
VERTEX
  8
W57LXLIFT
 62
4
 10
1387.256
 20
-7898.650
 30
-435.000
 70
    32
  0
VERTEX
  8
W57LXLIFT
 62
4
 10
1364.028
 20
-7866.091
 30
-435.000
 70
    32
  0
VERTEX
  8
W57LXLIFT
 62
4
 10
1345.874
 20
-7840.493
 30
-435.000
 70
    32
  0
VERTEX
  8
W57LXLIFT
 62
4
 10
1344.938
 20
-7833.279
 30
-435.000
 70
    32
  0
SEQEND
  8
W57LXLIFT
  0
POLYLINE
  8
W57LXLIFT
 62
2
 66
     1
 70
     9
  0
VERTEX
  8
W57LXLIFT
 62
2
 10
1241.524
 20
-8232.292
 30
-433.000
 70
    32
  0
VERTEX
  8
W57LXLIFT
 62
2
 10
1247.200
 20
-8241.308
 30
-433.000
 70
    32
  0
VERTEX
  8
W57LXLIFT
 62
2
 10
1247.166
 20
-8247.919
 30
-433.000
 70
    32
  0
VERTEX
  8
W57LXLIFT
 62
2
 10
1248.931
 20
-8251.302
 30
-433.000
 70
    32
  0
VERTEX
  8
W57LXLIFT
 62
2
 10
1265.713
 20
-8245.916
 30
-433.000
 70
    32
  0
VERTEX
  8
W57LXLIFT
 62
2
 10
1266.554
 20
-8241.646
 30
-433.000
 70
    32
  0
VERTEX
  8
W57LXLIFT
 62
2
 10
1257.164
 20
-8222.430
 30
-433.000
 70
    32
  0
VERTEX
  8
W57LXLIFT
 62
2
 10
1252.106
 20
-8220.638
 30
-433.000
 70
    32
  0
VERTEX
  8
W57LXLIFT
 62
2
 10
1247.015
 20
-8225.459
 30
-433.000
 70
    32
  0
SEQEND
  8
W57LXLIFT
  0
POLYLINE
  8
W57LXLIFT
 62
1
 66
     1
 70
     9
  0
VERTEX
  8
W57LXLIFT
 62
1
 10
1248.015
 20
-8224.459
 30
-423.000
 70
    32
  0
VERTEX
  8
W57LXLIFT
 62
1
 10
1253.106
 20
-8219.638
 30
-423.000
 70
    32
  0
VERTEX
  8
W57LXLIFT
 62
1
 10
1258.164
 20
-8221.430
 30
-423.000
 70
    32
  0
VERTEX
  8
W57LXLIFT
 62
1
 10
1267.554
 20
-8240.646
 30
-423.000
 70
    32
  0
VERTEX
  8
W57LXLIFT
 62
1
 10
1266.713
 20
-8244.916
 30
-423.000
 70
    32
  0
VERTEX
  8
W57LXLIFT
 62
1
 10
1249.931
 20
-8250.302
 30
-423.000
 70
    32
  0
VERTEX
  8
W57LXLIFT
 62
1
 10
1248.166
 20
-8246.919
 30
-423.000
 70
    32
  0
VERTEX
  8
W57LXLIFT
 62
1
 10
1248.200
 20
-8240.308
 30
-423.000
 70
    32
  0
VERTEX
  8
W57LXLIFT
 62
1
 10
1242.524
 20
-8231.292
 30
-423.000
 70
    32
  0
SEQEND
  8
W57LXLIFT
  0
POLYLINE
  8
W57LXLIFT
 62
2
 66
     1
 70
     9
  0
VERTEX
  8
W57LXLIFT
 62
2
 10
1239.083
 20
-8229.174
 30
-440.000
 70
    32
  0
VERTEX
  8
W57LXLIFT
 62
2
 10
1244.837
 20
-8227.552
 30
-440.000
 70
    32
  0
VERTEX
  8
W57LXLIFT
 62
2
 10
1246.922
 20
-8226.388
 30
-440.000
 70
    32
  0
VERTEX
  8
W57LXLIFT
 62
2
 10
1253.297
 20
-8229.723
 30
-440.000
 70
    32
  0
VERTEX
  8
W57LXLIFT
 62
2
 10
1260.261
 20
-8237.820
 30
-440.000
 70
    32
  0
VERTEX
  8
W57LXLIFT
 62
2
 10
1263.943
 20
-8249.339
 30
-440.000
 70
    32
  0
VERTEX
  8
W57LXLIFT
 62
2
 10
1265.758
 20
-8257.331
 30
-440.000
 70
    32
  0
VERTEX
  8
W57LXLIFT
 62
2
 10
1271.250
 20
-8265.938
 30
-440.000
 70
    32
  0
VERTEX
  8
W57LXLIFT
 62
2
 10
1276.220
 20
-8278.049
 30
-440.000
 70
    32
  0
VERTEX
  8
W57LXLIFT
 62
2
 10
1278.714
 20
-8293.654
 30
-440.000
 70
    32
  0
VERTEX
  8
W57LXLIFT
 62
2
 10
1279.459
 20
-8314.071
 30
-440.000
 70
    32
  0
VERTEX
  8
W57LXLIFT
 62
2
 10
1277.109
 20
-8331.513
 30
-440.000
 70
    32
  0
VERTEX
  8
W57LXLIFT
 62
2
 10
1276.308
 20
-8337.807
 30
-440.000
 70
    32
  0
VERTEX
  8
W57LXLIFT
 62
2
 10
1274.172
 20
-8339.655
 30
-440.000
 70
    32
  0
VERTEX
  8
W57LXLIFT
 62
2
 10
1263.536
 20
-8336.553
 30
-440.000
 70
    32
  0
VERTEX
  8
W57LXLIFT
 62
2
 10
1265.606
 20
-8325.682
 30
-440.000
 70
    32
  0
VERTEX
  8
W57LXLIFT
 62
2
 10
1266.646
 20
-8311.550
 30
-440.000
 70
    32
  0
VERTEX
  8
W57LXLIFT
 62
2
 10
1262.313
 20
-8295.638
 30
-440.000
 70
    32
  0
VERTEX
  8
W57LXLIFT
 62
2
 10
1257.026
 20
-8283.536
 30
-440.000
 70
    32
  0
VERTEX
  8
W57LXLIFT
 62
2
 10
1257.515
 20
-8269.690
 30
-440.000
 70
    32
  0
VERTEX
  8
W57LXLIFT
 62
2
 10
1254.627
 20
-8261.708
 30
-440.000
 70
    32
  0
VERTEX
  8
W57LXLIFT
 62
2
 10
1251.768
 20
-8257.701
 30
-440.000
 70
    32
  0
VERTEX
  8
W57LXLIFT
 62
2
 10
1247.248
 20
-8246.672
 30
-440.000
 70
    32
  0
VERTEX
  8
W57LXLIFT
 62
2
 10
1242.512
 20
-8236.553
 30
-440.000
 70
    32
  0
SEQEND
  8
W57LXLIFT
  0
POLYLINE
  8
W57LXLIFT
 62
8
 66
     1
 70
     9
  0
VERTEX
  8
W57LXLIFT
 62
8
 10
1378.681
 20
-8366.273
 30
-431.000
 70
    32
  0
VERTEX
  8
W57LXLIFT
 62
8
 10
1368.968
 20
-8357.653
 30
-431.000
 70
    32
  0
VERTEX
  8
W57LXLIFT
 62
8
 10
1355.791
 20
-8349.777
 30
-431.000
 70
    32
  0
VERTEX
  8
W57LXLIFT
 62
8
 10
1327.476
 20
-8349.138
 30
-431.000
 70
    32
  0
VERTEX
  8
W57LXLIFT
 62
8
 10
1315.051
 20
-8348.068
 30
-431.000
 70
    32
  0
VERTEX
  8
W57LXLIFT
 62
8
 10
1304.618
 20
-8347.521
 30
-431.000
 70
    32
  0
VERTEX
  8
W57LXLIFT
 62
8
 10
1298.790
 20
-8352.974
 30
-431.000
 70
    32
  0
VERTEX
  8
W57LXLIFT
 62
8
 10
1299.013
 20
-8356.918
 30
-431.000
 70
    32
  0
VERTEX
  8
W57LXLIFT
 62
8
 10
1302.861
 20
-8364.431
 30
-431.000
 70
    32
  0
VERTEX
  8
W57LXLIFT
 62
8
 10
1306.943
 20
-8373.180
 30
-431.000
 70
    32
  0
VERTEX
  8
W57LXLIFT
 62
8
 10
1314.290
 20
-8374.850
 30
-431.000
 70
    32
  0
VERTEX
  8
W57LXLIFT
 62
8
 10
1333.767
 20
-8373.697
 30
-431.000
 70
    32
  0
VERTEX
  8
W57LXLIFT
 62
8
 10
1351.487
 20
-8371.745
 30
-431.000
 70
    32
  0
VERTEX
  8
W57LXLIFT
 62
8
 10
1363.071
 20
-8377.842
 30
-431.000
 70
    32
  0
SEQEND
  8
W57LXLIFT
  0
POLYLINE
  8
W57LXLIFT
 62
8
 66
     1
 70
     9
  0
VERTEX
  8
W57LXLIFT
 62
8
 10
1297.010
 20
-8359.289
 30
-420.000
 70
    32
  0
VERTEX
  8
W57LXLIFT
 62
8
 10
1314.820
 20
-8363.993
 30
-420.000
 70
    32
  0
VERTEX
  8
W57LXLIFT
 62
8
 10
1321.500
 20
-8367.010
 30
-420.000
 70
    32
  0
VERTEX
  8
W57LXLIFT
 62
8
 10
1329.601
 20
-8375.816
 30
-420.000
 70
    32
  0
VERTEX
  8
W57LXLIFT
 62
8
 10
1346.623
 20
-8375.468
 30
-420.000
 70
    32
  0
VERTEX
  8
W57LXLIFT
 62
8
 10
1356.109
 20
-8387.282
 30
-420.000
 70
    32
  0
VERTEX
  8
W57LXLIFT
 62
8
 10
1352.131
 20
-8393.675
 30
-420.000
 70
    32
  0
VERTEX
  8
W57LXLIFT
 62
8
 10
1357.170
 20
-8406.064
 30
-420.000
 70
    32
  0
VERTEX
  8
W57LXLIFT
 62
8
 10
1378.718
 20
-8406.920
 30
-420.000
 70
    32
  0
VERTEX
  8
W57LXLIFT
 62
8
 10
1377.655
 20
-8395.264
 30
-420.000
 70
    32
  0
VERTEX
  8
W57LXLIFT
 62
8
 10
1372.863
 20
-8376.548
 30
-420.000
 70
    32
  0
VERTEX
  8
W57LXLIFT
 62
8
 10
1354.253
 20
-8350.395
 30
-420.000
 70
    32
  0
VERTEX
  8
W57LXLIFT
 62
8
 10
1340.912
 20
-8344.994
 30
-420.000
 70
    32
  0
VERTEX
  8
W57LXLIFT
 62
8
 10
1320.416
 20
-8344.252
 30
-420.000
 70
    32
  0
VERTEX
  8
W57LXLIFT
 62
8
 10
1314.979
 20
-8343.588
 30
-420.000
 70
    32
  0
VERTEX
  8
W57LXLIFT
 62
8
 10
1305.132
 20
-8344.767
 30
-420.000
 70
    32
  0
VERTEX
  8
W57LXLIFT
 62
8
 10
1300.431
 20
-8349.839
 30
-420.000
 70
    32
  0
VERTEX
  8
W57LXLIFT
 62
8
 10
1296.902
 20
-8350.947
 30
-420.000
 70
    32
  0
SEQEND
  8
W57LXLIFT
  0
POLYLINE
  8
W57LXLIFT
 62
4
 66
     1
 70
     9
  0
VERTEX
  8
W57LXLIFT
 62
4
 10
1371.748
 20
-7853.973
 30
-426.000
 70
    32
  0
VERTEX
  8
W57LXLIFT
 62
4
 10
1357.106
 20
-7838.705
 30
-426.000
 70
    32
  0
VERTEX
  8
W57LXLIFT
 62
4
 10
1349.094
 20
-7831.238
 30
-426.000
 70
    32
  0
VERTEX
  8
W57LXLIFT
 62
4
 10
1343.987
 20
-7834.225
 30
-426.000
 70
    32
  0
VERTEX
  8
W57LXLIFT
 62
4
 10
1343.281
 20
-7840.664
 30
-426.000
 70
    32
  0
VERTEX
  8
W57LXLIFT
 62
4
 10
1353.409
 20
-7859.144
 30
-426.000
 70
    32
  0
VERTEX
  8
W57LXLIFT
 62
4
 10
1363.881
 20
-7874.467
 30
-426.000
 70
    32
  0
VERTEX
  8
W57LXLIFT
 62
4
 10
1376.760
 20
-7892.717
 30
-426.000
 70
    32
  0
VERTEX
  8
W57LXLIFT
 62
4
 10
1401.226
 20
-7914.055
 30
-426.000
 70
    32
  0
VERTEX
  8
W57LXLIFT
 62
4
 10
1409.928
 20
-7918.548
 30
-426.000
 70
    32
  0
VERTEX
  8
W57LXLIFT
 62
4
 10
1414.621
 20
-7918.014
 30
-426.000
 70
    32
  0
VERTEX
  8
W57LXLIFT
 62
4
 10
1419.474
 20
-7913.913
 30
-426.000
 70
    32
  0
VERTEX
  8
W57LXLIFT
 62
4
 10
1414.902
 20
-7903.999
 30
-426.000
 70
    32
  0
VERTEX
  8
W57LXLIFT
 62
4
 10
1409.460
 20
-7894.380
 30
-426.000
 70
    32
  0
VERTEX
  8
W57LXLIFT
 62
4
 10
1402.398
 20
-7887.641
 30
-426.000
 70
    32
  0
VERTEX
  8
W57LXLIFT
 62
4
 10
1393.494
 20
-7887.717
 30
-426.000
 70
    32
  0
VERTEX
  8
W57LXLIFT
 62
4
 10
1383.004
 20
-7876.617
 30
-426.000
 70
    32
  0
VERTEX
  8
W57LXLIFT
 62
4
 10
1378.061
 20
-7868.154
 30
-426.000
 70
    32
  0
VERTEX
  8
W57LXLIFT
 62
4
 10
1368.727
 20
-7857.311
 30
-426.000
 70
    32
  0
SEQEND
  8
W57LXLIFT
  0
POLYLINE
  8
W57LXLIFT
 62
6
 66
     1
 70
     9
  0
VERTEX
  8
W57LXLIFT
 62
6
 10
1289.077
 20
-7715.501
 30
-427.000
 70
    32
  0
VERTEX
  8
W57LXLIFT
 62
6
 10
1278.336
 20
-7708.142
 30
-427.000
 70
    32
  0
VERTEX
  8
W57LXLIFT
 62
6
 10
1268.452
 20
-7695.315
 30
-427.000
 70
    32
  0
VERTEX
  8
W57LXLIFT
 62
6
 10
1258.349
 20
-7680.055
 30
-427.000
 70
    32
  0
VERTEX
  8
W57LXLIFT
 62
6
 10
1254.198
 20
-7674.374
 30
-427.000
 70
    32
  0
VERTEX
  8
W57LXLIFT
 62
6
 10
1225.984
 20
-7662.179
 30
-427.000
 70
    32
  0
VERTEX
  8
W57LXLIFT
 62
6
 10
1221.630
 20
-7661.823
 30
-427.000
 70
    32
  0
VERTEX
  8
W57LXLIFT
 62
6
 10
1215.474
 20
-7668.795
 30
-427.000
 70
    32
  0
VERTEX
  8
W57LXLIFT
 62
6
 10
1211.889
 20
-7678.469
 30
-427.000
 70
    32
  0
VERTEX
  8
W57LXLIFT
 62
6
 10
1217.817
 20
-7690.441
 30
-427.000
 70
    32
  0
VERTEX
  8
W57LXLIFT
 62
6
 10
1223.275
 20
-7696.594
 30
-427.000
 70
    32
  0
VERTEX
  8
W57LXLIFT
 62
6
 10
1230.496
 20
-7700.522
 30
-427.000
 70
    32
  0
VERTEX
  8
W57LXLIFT
 62
6
 10
1233.361
 20
-7704.852
 30
-427.000
 70
    32
  0
VERTEX
  8
W57LXLIFT
 62
6
 10
1237.105
 20
-7714.816
 30
-427.000
 70
    32
  0
VERTEX
  8
W57LXLIFT
 62
6
 10
1254.941
 20
-7721.983
 30
-427.000
 70
    32
  0
VERTEX
  8
W57LXLIFT
 62
6
 10
1264.619
 20
-7724.055
 30
-427.000
 70
    32
  0
VERTEX
  8
W57LXLIFT
 62
6
 10
1280.783
 20
-7734.787
 30
-427.000
 70
    32
  0
VERTEX
  8
W57LXLIFT
 62
6
 10
1292.169
 20
-7741.687
 30
-427.000
 70
    32
  0
VERTEX
  8
W57LXLIFT
 62
6
 10
1299.794
 20
-7742.089
 30
-427.000
 70
    32
  0
VERTEX
  8
W57LXLIFT
 62
6
 10
1306.306
 20
-7736.376
 30
-427.000
 70
    32
  0
VERTEX
  8
W57LXLIFT
 62
6
 10
1307.531
 20
-7726.114
 30
-427.000
 70
    32
  0
VERTEX
  8
W57LXLIFT
 62
6
 10
1303.483
 20
-7714.208
 30
-427.000
 70
    32
  0
SEQEND
  8
W57LXLIFT
  0
POLYLINE
  8
W57LXLIFT
 62
8
 66
     1
 70
     9
  0
VERTEX
  8
W57LXLIFT
 62
8
 10
1322.243
 20
-8371.869
 30
-411.000
 70
    32
  0
VERTEX
  8
W57LXLIFT
 62
8
 10
1342.837
 20
-8376.322
 30
-411.000
 70
    32
  0
VERTEX
  8
W57LXLIFT
 62
8
 10
1350.930
 20
-8379.415
 30
-411.000
 70
    32
  0
VERTEX
  8
W57LXLIFT
 62
8
 10
1364.391
 20
-8390.793
 30
-411.000
 70
    32
  0
VERTEX
  8
W57LXLIFT
 62
8
 10
1370.100
 20
-8380.763
 30
-411.000
 70
    32
  0
VERTEX
  8
W57LXLIFT
 62
8
 10
1359.537
 20
-8367.239
 30
-411.000
 70
    32
  0
VERTEX
  8
W57LXLIFT
 62
8
 10
1353.181
 20
-8359.248
 30
-411.000
 70
    32
  0
VERTEX
  8
W57LXLIFT
 62
8
 10
1348.820
 20
-8353.063
 30
-411.000
 70
    32
  0
VERTEX
  8
W57LXLIFT
 62
8
 10
1337.476
 20
-8346.467
 30
-411.000
 70
    32
  0
SEQEND
  8
W57LXLIFT
  0
POLYLINE
  8
W57LXLIFT
 62
4
 66
     1
 70
     9
  0
VERTEX
  8
W57LXLIFT
 62
4
 10
1395.437
 20
-7908.251
 30
-407.000
 70
    32
  0
VERTEX
  8
W57LXLIFT
 62
4
 10
1407.405
 20
-7901.796
 30
-407.000
 70
    32
  0
VERTEX
  8
W57LXLIFT
 62
4
 10
1407.584
 20
-7895.533
 30
-407.000
 70
    32
  0
VERTEX
  8
W57LXLIFT
 62
4
 10
1401.511
 20
-7890.288
 30
-407.000
 70
    32
  0
VERTEX
  8
W57LXLIFT
 62
4
 10
1393.874
 20
-7887.514
 30
-407.000
 70
    32
  0
VERTEX
  8
W57LXLIFT
 62
4
 10
1387.218
 20
-7885.328
 30
-407.000
 70
    32
  0
VERTEX
  8
W57LXLIFT
 62
4
 10
1375.546
 20
-7872.078
 30
-407.000
 70
    32
  0
VERTEX
  8
W57LXLIFT
 62
4
 10
1374.557
 20
-7866.899
 30
-407.000
 70
    32
  0
VERTEX
  8
W57LXLIFT
 62
4
 10
1365.382
 20
-7850.815
 30
-407.000
 70
    32
  0
VERTEX
  8
W57LXLIFT
 62
4
 10
1354.902
 20
-7840.951
 30
-407.000
 70
    32
  0
VERTEX
  8
W57LXLIFT
 62
4
 10
1350.279
 20
-7837.369
 30
-407.000
 70
    32
  0
VERTEX
  8
W57LXLIFT
 62
4
 10
1338.525
 20
-7846.183
 30
-407.000
 70
    32
  0
VERTEX
  8
W57LXLIFT
 62
4
 10
1343.978
 20
-7855.172
 30
-407.000
 70
    32
  0
VERTEX
  8
W57LXLIFT
 62
4
 10
1351.035
 20
-7863.519
 30
-407.000
 70
    32
  0
VERTEX
  8
W57LXLIFT
 62
4
 10
1363.129
 20
-7879.850
 30
-407.000
 70
    32
  0
VERTEX
  8
W57LXLIFT
 62
4
 10
1368.341
 20
-7887.923
 30
-407.000
 70
    32
  0
VERTEX
  8
W57LXLIFT
 62
4
 10
1374.809
 20
-7897.692
 30
-407.000
 70
    32
  0
VERTEX
  8
W57LXLIFT
 62
4
 10
1383.378
 20
-7900.541
 30
-407.000
 70
    32
  0
SEQEND
  8
W57LXLIFT
  0
POLYLINE
  8
W57LXLIFT
 62
6
 66
     1
 70
     9
  0
VERTEX
  8
W57LXLIFT
 62
6
 10
1276.643
 20
-7744.883
 30
-415.000
 70
    32
  0
VERTEX
  8
W57LXLIFT
 62
6
 10
1290.103
 20
-7747.833
 30
-415.000
 70
    32
  0
VERTEX
  8
W57LXLIFT
 62
6
 10
1298.052
 20
-7742.603
 30
-415.000
 70
    32
  0
VERTEX
  8
W57LXLIFT
 62
6
 10
1299.943
 20
-7735.400
 30
-415.000
 70
    32
  0
VERTEX
  8
W57LXLIFT
 62
6
 10
1296.093
 20
-7729.166
 30
-415.000
 70
    32
  0
VERTEX
  8
W57LXLIFT
 62
6
 10
1292.572
 20
-7726.629
 30
-415.000
 70
    32
  0
VERTEX
  8
W57LXLIFT
 62
6
 10
1284.796
 20
-7726.476
 30
-415.000
 70
    32
  0
VERTEX
  8
W57LXLIFT
 62
6
 10
1277.957
 20
-7725.519
 30
-415.000
 70
    32
  0
VERTEX
  8
W57LXLIFT
 62
6
 10
1267.172
 20
-7713.912
 30
-415.000
 70
    32
  0
VERTEX
  8
W57LXLIFT
 62
6
 10
1263.316
 20
-7708.557
 30
-415.000
 70
    32
  0
VERTEX
  8
W57LXLIFT
 62
6
 10
1261.672
 20
-7703.972
 30
-415.000
 70
    32
  0
VERTEX
  8
W57LXLIFT
 62
6
 10
1260.091
 20
-7697.699
 30
-415.000
 70
    32
  0
VERTEX
  8
W57LXLIFT
 62
6
 10
1252.523
 20
-7689.401
 30
-415.000
 70
    32
  0
VERTEX
  8
W57LXLIFT
 62
6
 10
1242.113
 20
-7671.057
 30
-415.000
 70
    32
  0
VERTEX
  8
W57LXLIFT
 62
6
 10
1239.149
 20
-7669.420
 30
-415.000
 70
    32
  0
VERTEX
  8
W57LXLIFT
 62
6
 10
1235.602
 20
-7668.326
 30
-415.000
 70
    32
  0
VERTEX
  8
W57LXLIFT
 62
6
 10
1227.970
 20
-7664.672
 30
-415.000
 70
    32
  0
VERTEX
  8
W57LXLIFT
 62
6
 10
1221.655
 20
-7664.423
 30
-415.000
 70
    32
  0
VERTEX
  8
W57LXLIFT
 62
6
 10
1214.195
 20
-7670.166
 30
-415.000
 70
    32
  0
VERTEX
  8
W57LXLIFT
 62
6
 10
1211.710
 20
-7676.714
 30
-415.000
 70
    32
  0
VERTEX
  8
W57LXLIFT
 62
6
 10
1214.058
 20
-7681.215
 30
-415.000
 70
    32
  0
VERTEX
  8
W57LXLIFT
 62
6
 10
1218.352
 20
-7681.100
 30
-415.000
 70
    32
  0
VERTEX
  8
W57LXLIFT
 62
6
 10
1235.627
 20
-7701.914
 30
-415.000
 70
    32
  0
VERTEX
  8
W57LXLIFT
 62
6
 10
1233.907
 20
-7718.513
 30
-415.000
 70
    32
  0
VERTEX
  8
W57LXLIFT
 62
6
 10
1237.360
 20
-7723.619
 30
-415.000
 70
    32
  0
VERTEX
  8
W57LXLIFT
 62
6
 10
1246.911
 20
-7721.143
 30
-415.000
 70
    32
  0
VERTEX
  8
W57LXLIFT
 62
6
 10
1256.059
 20
-7721.375
 30
-415.000
 70
    32
  0
VERTEX
  8
W57LXLIFT
 62
6
 10
1262.484
 20
-7726.798
 30
-415.000
 70
    32
  0
VERTEX
  8
W57LXLIFT
 62
6
 10
1275.882
 20
-7742.820
 30
-415.000
 70
    32
  0
SEQEND
  8
W57LXLIFT
  0
POLYLINE
  8
W57LXLIFT
 62
8
 66
     1
 70
     9
  0
VERTEX
  8
W57LXLIFT
 62
8
 10
1337.220
 20
-8357.232
 30
-400.000
 70
    32
  0
VERTEX
  8
W57LXLIFT
 62
8
 10
1339.128
 20
-8362.454
 30
-400.000
 70
    32
  0
VERTEX
  8
W57LXLIFT
 62
8
 10
1342.941
 20
-8376.357
 30
-400.000
 70
    32
  0
VERTEX
  8
W57LXLIFT
 62
8
 10
1339.225
 20
-8386.692
 30
-400.000
 70
    32
  0
VERTEX
  8
W57LXLIFT
 62
8
 10
1328.458
 20
-8392.469
 30
-400.000
 70
    32
  0
VERTEX
  8
W57LXLIFT
 62
8
 10
1327.410
 20
-8404.565
 30
-400.000
 70
    32
  0
VERTEX
  8
W57LXLIFT
 62
8
 10
1337.416
 20
-8417.916
 30
-400.000
 70
    32
  0
VERTEX
  8
W57LXLIFT
 62
8
 10
1344.399
 20
-8419.066
 30
-400.000
 70
    32
  0
VERTEX
  8
W57LXLIFT
 62
8
 10
1352.007
 20
-8394.272
 30
-400.000
 70
    32
  0
VERTEX
  8
W57LXLIFT
 62
8
 10
1354.371
 20
-8387.174
 30
-400.000
 70
    32
  0
VERTEX
  8
W57LXLIFT
 62
8
 10
1360.341
 20
-8381.488
 30
-400.000
 70
    32
  0
VERTEX
  8
W57LXLIFT
 62
8
 10
1359.976
 20
-8377.213
 30
-400.000
 70
    32
  0
VERTEX
  8
W57LXLIFT
 62
8
 10
1351.354
 20
-8362.328
 30
-400.000
 70
    32
  0
VERTEX
  8
W57LXLIFT
 62
8
 10
1342.759
 20
-8350.342
 30
-400.000
 70
    32
  0
SEQEND
  8
W57LXLIFT
  0
POLYLINE
  8
W57LXLIFT
 62
8
 66
     1
 70
     9
  0
VERTEX
  8
W57LXLIFT
 62
8
 10
1313.427
 20
-8329.027
 30
-409.000
 70
    32
  0
VERTEX
  8
W57LXLIFT
 62
8
 10
1307.642
 20
-8313.729
 30
-409.000
 70
    32
  0
VERTEX
  8
W57LXLIFT
 62
8
 10
1301.897
 20
-8314.607
 30
-409.000
 70
    32
  0
VERTEX
  8
W57LXLIFT
 62
8
 10
1303.148
 20
-8328.403
 30
-409.000
 70
    32
  0
VERTEX
  8
W57LXLIFT
 62
8
 10
1302.513
 20
-8337.610
 30
-409.000
 70
    32
  0
VERTEX
  8
W57LXLIFT
 62
8
 10
1308.498
 20
-8345.202
 30
-409.000
 70
    32
  0
VERTEX
  8
W57LXLIFT
 62
8
 10
1306.724
 20
-8351.768
 30
-409.000
 70
    32
  0
VERTEX
  8
W57LXLIFT
 62
8
 10
1311.700
 20
-8365.486
 30
-409.000
 70
    32
  0
VERTEX
  8
W57LXLIFT
 62
8
 10
1316.959
 20
-8361.822
 30
-409.000
 70
    32
  0
VERTEX
  8
W57LXLIFT
 62
8
 10
1317.464
 20
-8358.759
 30
-409.000
 70
    32
  0
VERTEX
  8
W57LXLIFT
 62
8
 10
1319.522
 20
-8356.959
 30
-409.000
 70
    32
  0
VERTEX
  8
W57LXLIFT
 62
8
 10
1319.226
 20
-8346.152
 30
-409.000
 70
    32
  0
VERTEX
  8
W57LXLIFT
 62
8
 10
1321.250
 20
-8342.647
 30
-409.000
 70
    32
  0
VERTEX
  8
W57LXLIFT
 62
8
 10
1329.318
 20
-8339.886
 30
-409.000
 70
    32
  0
VERTEX
  8
W57LXLIFT
 62
8
 10
1335.451
 20
-8333.976
 30
-409.000
 70
    32
  0
VERTEX
  8
W57LXLIFT
 62
8
 10
1333.931
 20
-8323.722
 30
-409.000
 70
    32
  0
VERTEX
  8
W57LXLIFT
 62
8
 10
1332.835
 20
-8321.591
 30
-409.000
 70
    32
  0
VERTEX
  8
W57LXLIFT
 62
8
 10
1329.173
 20
-8322.812
 30
-409.000
 70
    32
  0
SEQEND
  8
W57LXLIFT
  0
POLYLINE
  8
W57LXLIFT
 62
1
 66
     1
 70
     9
  0
VERTEX
  8
W57LXLIFT
 62
1
 10
1330.173
 20
-8321.812
 30
-399.000
 70
    32
  0
VERTEX
  8
W57LXLIFT
 62
1
 10
1333.835
 20
-8320.591
 30
-399.000
 70
    32
  0
VERTEX
  8
W57LXLIFT
 62
1
 10
1334.931
 20
-8322.722
 30
-399.000
 70
    32
  0
VERTEX
  8
W57LXLIFT
 62
1
 10
1336.451
 20
-8332.976
 30
-399.000
 70
    32
  0
VERTEX
  8
W57LXLIFT
 62
1
 10
1330.318
 20
-8338.886
 30
-399.000
 70
    32
  0
VERTEX
  8
W57LXLIFT
 62
1
 10
1322.250
 20
-8341.647
 30
-399.000
 70
    32
  0
VERTEX
  8
W57LXLIFT
 62
1
 10
1320.226
 20
-8345.152
 30
-399.000
 70
    32
  0
VERTEX
  8
W57LXLIFT
 62
1
 10
1320.522
 20
-8355.959
 30
-399.000
 70
    32
  0
VERTEX
  8
W57LXLIFT
 62
1
 10
1318.464
 20
-8357.759
 30
-399.000
 70
    32
  0
VERTEX
  8
W57LXLIFT
 62
1
 10
1317.959
 20
-8360.822
 30
-399.000
 70
    32
  0
VERTEX
  8
W57LXLIFT
 62
1
 10
1312.700
 20
-8364.486
 30
-399.000
 70
    32
  0
VERTEX
  8
W57LXLIFT
 62
1
 10
1307.724
 20
-8350.768
 30
-399.000
 70
    32
  0
VERTEX
  8
W57LXLIFT
 62
1
 10
1309.498
 20
-8344.202
 30
-399.000
 70
    32
  0
VERTEX
  8
W57LXLIFT
 62
1
 10
1303.513
 20
-8336.610
 30
-399.000
 70
    32
  0
VERTEX
  8
W57LXLIFT
 62
1
 10
1304.148
 20
-8327.403
 30
-399.000
 70
    32
  0
VERTEX
  8
W57LXLIFT
 62
1
 10
1302.897
 20
-8313.607
 30
-399.000
 70
    32
  0
VERTEX
  8
W57LXLIFT
 62
1
 10
1308.642
 20
-8312.729
 30
-399.000
 70
    32
  0
VERTEX
  8
W57LXLIFT
 62
1
 10
1314.427
 20
-8328.027
 30
-399.000
 70
    32
  0
SEQEND
  8
W57LXLIFT
  0
POLYLINE
  8
W57LXLIFT
 62
4
 66
     1
 70
     9
  0
VERTEX
  8
W57LXLIFT
 62
4
 10
1345.191
 20
-7846.653
 30
-399.000
 70
    32
  0
VERTEX
  8
W57LXLIFT
 62
4
 10
1342.283
 20
-7857.814
 30
-399.000
 70
    32
  0
VERTEX
  8
W57LXLIFT
 62
4
 10
1359.052
 20
-7885.114
 30
-399.000
 70
    32
  0
VERTEX
  8
W57LXLIFT
 62
4
 10
1371.879
 20
-7900.439
 30
-399.000
 70
    32
  0
VERTEX
  8
W57LXLIFT
 62
4
 10
1383.908
 20
-7908.775
 30
-399.000
 70
    32
  0
VERTEX
  8
W57LXLIFT
 62
4
 10
1396.587
 20
-7916.211
 30
-399.000
 70
    32
  0
VERTEX
  8
W57LXLIFT
 62
4
 10
1407.104
 20
-7891.707
 30
-399.000
 70
    32
  0
VERTEX
  8
W57LXLIFT
 62
4
 10
1397.274
 20
-7885.684
 30
-399.000
 70
    32
  0
VERTEX
  8
W57LXLIFT
 62
4
 10
1382.786
 20
-7882.354
 30
-399.000
 70
    32
  0
VERTEX
  8
W57LXLIFT
 62
4
 10
1371.994
 20
-7863.840
 30
-399.000
 70
    32
  0
VERTEX
  8
W57LXLIFT
 62
4
 10
1364.020
 20
-7851.517
 30
-399.000
 70
    32
  0
VERTEX
  8
W57LXLIFT
 62
4
 10
1356.900
 20
-7842.794
 30
-399.000
 70
    32
  0
SEQEND
  8
W57LXLIFT
  0
POLYLINE
  8
W57LXLIFT
 62
6
 66
     1
 70
     9
  0
VERTEX
  8
W57LXLIFT
 62
6
 10
1243.633
 20
-7670.242
 30
-405.000
 70
    32
  0
VERTEX
  8
W57LXLIFT
 62
6
 10
1237.139
 20
-7674.143
 30
-405.000
 70
    32
  0
VERTEX
  8
W57LXLIFT
 62
6
 10
1232.988
 20
-7675.284
 30
-405.000
 70
    32
  0
VERTEX
  8
W57LXLIFT
 62
6
 10
1220.374
 20
-7670.501
 30
-405.000
 70
    32
  0
VERTEX
  8
W57LXLIFT
 62
6
 10
1202.905
 20
-7656.235
 30
-405.000
 70
    32
  0
VERTEX
  8
W57LXLIFT
 62
6
 10
1196.765
 20
-7658.370
 30
-405.000
 70
    32
  0
VERTEX
  8
W57LXLIFT
 62
6
 10
1195.662
 20
-7663.159
 30
-405.000
 70
    32
  0
VERTEX
  8
W57LXLIFT
 62
6
 10
1202.106
 20
-7670.638
 30
-405.000
 70
    32
  0
VERTEX
  8
W57LXLIFT
 62
6
 10
1208.166
 20
-7674.719
 30
-405.000
 70
    32
  0
VERTEX
  8
W57LXLIFT
 62
6
 10
1216.103
 20
-7683.828
 30
-405.000
 70
    32
  0
VERTEX
  8
W57LXLIFT
 62
6
 10
1231.278
 20
-7699.414
 30
-405.000
 70
    32
  0
VERTEX
  8
W57LXLIFT
 62
6
 10
1233.740
 20
-7711.585
 30
-405.000
 70
    32
  0
VERTEX
  8
W57LXLIFT
 62
6
 10
1234.119
 20
-7717.687
 30
-405.000
 70
    32
  0
VERTEX
  8
W57LXLIFT
 62
6
 10
1236.757
 20
-7720.009
 30
-405.000
 70
    32
  0
VERTEX
  8
W57LXLIFT
 62
6
 10
1247.633
 20
-7718.152
 30
-405.000
 70
    32
  0
VERTEX
  8
W57LXLIFT
 62
6
 10
1255.307
 20
-7723.128
 30
-405.000
 70
    32
  0
VERTEX
  8
W57LXLIFT
 62
6
 10
1257.109
 20
-7731.667
 30
-405.000
 70
    32
  0
VERTEX
  8
W57LXLIFT
 62
6
 10
1263.780
 20
-7740.064
 30
-405.000
 70
    32
  0
VERTEX
  8
W57LXLIFT
 62
6
 10
1270.401
 20
-7744.174
 30
-405.000
 70
    32
  0
VERTEX
  8
W57LXLIFT
 62
6
 10
1277.351
 20
-7744.376
 30
-405.000
 70
    32
  0
VERTEX
  8
W57LXLIFT
 62
6
 10
1283.868
 20
-7741.863
 30
-405.000
 70
    32
  0
VERTEX
  8
W57LXLIFT
 62
6
 10
1285.232
 20
-7739.697
 30
-405.000
 70
    32
  0
VERTEX
  8
W57LXLIFT
 62
6
 10
1277.855
 20
-7729.862
 30
-405.000
 70
    32
  0
VERTEX
  8
W57LXLIFT
 62
6
 10
1269.856
 20
-7720.365
 30
-405.000
 70
    32
  0
VERTEX
  8
W57LXLIFT
 62
6
 10
1263.290
 20
-7707.896
 30
-405.000
 70
    32
  0
VERTEX
  8
W57LXLIFT
 62
6
 10
1262.742
 20
-7703.967
 30
-405.000
 70
    32
  0
VERTEX
  8
W57LXLIFT
 62
6
 10
1264.608
 20
-7697.983
 30
-405.000
 70
    32
  0
VERTEX
  8
W57LXLIFT
 62
6
 10
1255.428
 20
-7684.580
 30
-405.000
 70
    32
  0
SEQEND
  8
W57LXLIFT
  0
POLYLINE
  8
W57LXLIFT
 62
8
 66
     1
 70
     9
  0
VERTEX
  8
W57LXLIFT
 62
8
 10
1351.434
 20
-8429.649
 30
-390.000
 70
    32
  0
VERTEX
  8
W57LXLIFT
 62
8
 10
1353.165
 20
-8417.038
 30
-390.000
 70
    32
  0
VERTEX
  8
W57LXLIFT
 62
8
 10
1360.954
 20
-8404.657
 30
-390.000
 70
    32
  0
VERTEX
  8
W57LXLIFT
 62
8
 10
1359.022
 20
-8400.846
 30
-390.000
 70
    32
  0
VERTEX
  8
W57LXLIFT
 62
8
 10
1359.969
 20
-8387.612
 30
-390.000
 70
    32
  0
VERTEX
  8
W57LXLIFT
 62
8
 10
1350.246
 20
-8373.508
 30
-390.000
 70
    32
  0
VERTEX
  8
W57LXLIFT
 62
8
 10
1340.907
 20
-8378.744
 30
-390.000
 70
    32
  0
VERTEX
  8
W57LXLIFT
 62
8
 10
1337.112
 20
-8394.182
 30
-390.000
 70
    32
  0
VERTEX
  8
W57LXLIFT
 62
8
 10
1336.058
 20
-8411.419
 30
-390.000
 70
    32
  0
VERTEX
  8
W57LXLIFT
 62
8
 10
1334.458
 20
-8417.393
 30
-390.000
 70
    32
  0
VERTEX
  8
W57LXLIFT
 62
8
 10
1339.386
 20
-8420.090
 30
-390.000
 70
    32
  0
VERTEX
  8
W57LXLIFT
 62
8
 10
1341.961
 20
-8424.627
 30
-390.000
 70
    32
  0
VERTEX
  8
W57LXLIFT
 62
8
 10
1342.189
 20
-8428.493
 30
-390.000
 70
    32
  0
SEQEND
  8
W57LXLIFT
  0
POLYLINE
  8
W57LXLIFT
 62
1
 66
     1
 70
     9
  0
VERTEX
  8
W57LXLIFT
 62
1
 10
1343.189
 20
-8427.493
 30
-380.000
 70
    32
  0
VERTEX
  8
W57LXLIFT
 62
1
 10
1342.961
 20
-8423.627
 30
-380.000
 70
    32
  0
VERTEX
  8
W57LXLIFT
 62
1
 10
1340.386
 20
-8419.090
 30
-380.000
 70
    32
  0
VERTEX
  8
W57LXLIFT
 62
1
 10
1335.458
 20
-8416.393
 30
-380.000
 70
    32
  0
VERTEX
  8
W57LXLIFT
 62
1
 10
1337.058
 20
-8410.419
 30
-380.000
 70
    32
  0
VERTEX
  8
W57LXLIFT
 62
1
 10
1338.112
 20
-8393.182
 30
-380.000
 70
    32
  0
VERTEX
  8
W57LXLIFT
 62
1
 10
1341.907
 20
-8377.744
 30
-380.000
 70
    32
  0
VERTEX
  8
W57LXLIFT
 62
1
 10
1351.246
 20
-8372.508
 30
-380.000
 70
    32
  0
VERTEX
  8
W57LXLIFT
 62
1
 10
1360.969
 20
-8386.612
 30
-380.000
 70
    32
  0
VERTEX
  8
W57LXLIFT
 62
1
 10
1360.022
 20
-8399.846
 30
-380.000
 70
    32
  0
VERTEX
  8
W57LXLIFT
 62
1
 10
1361.954
 20
-8403.657
 30
-380.000
 70
    32
  0
VERTEX
  8
W57LXLIFT
 62
1
 10
1354.165
 20
-8416.038
 30
-380.000
 70
    32
  0
VERTEX
  8
W57LXLIFT
 62
1
 10
1352.434
 20
-8428.649
 30
-380.000
 70
    32
  0
SEQEND
  8
W57LXLIFT
  0
POLYLINE
  8
W57LXLIFT
 62
4
 66
     1
 70
     9
  0
VERTEX
  8
W57LXLIFT
 62
4
 10
1342.759
 20
-7852.145
 30
-390.000
 70
    32
  0
VERTEX
  8
W57LXLIFT
 62
4
 10
1342.348
 20
-7858.551
 30
-390.000
 70
    32
  0
VERTEX
  8
W57LXLIFT
 62
4
 10
1343.673
 20
-7863.463
 30
-390.000
 70
    32
  0
VERTEX
  8
W57LXLIFT
 62
4
 10
1348.106
 20
-7866.525
 30
-390.000
 70
    32
  0
VERTEX
  8
W57LXLIFT
 62
4
 10
1360.141
 20
-7888.958
 30
-390.000
 70
    32
  0
VERTEX
  8
W57LXLIFT
 62
4
 10
1367.651
 20
-7897.386
 30
-390.000
 70
    32
  0
VERTEX
  8
W57LXLIFT
 62
4
 10
1376.340
 20
-7905.492
 30
-390.000
 70
    32
  0
VERTEX
  8
W57LXLIFT
 62
4
 10
1387.462
 20
-7914.534
 30
-390.000
 70
    32
  0
VERTEX
  8
W57LXLIFT
 62
4
 10
1391.231
 20
-7919.065
 30
-390.000
 70
    32
  0
VERTEX
  8
W57LXLIFT
 62
4
 10
1401.754
 20
-7913.067
 30
-390.000
 70
    32
  0
VERTEX
  8
W57LXLIFT
 62
4
 10
1401.702
 20
-7907.218
 30
-390.000
 70
    32
  0
VERTEX
  8
W57LXLIFT
 62
4
 10
1398.607
 20
-7901.974
 30
-390.000
 70
    32
  0
VERTEX
  8
W57LXLIFT
 62
4
 10
1384.229
 20
-7887.914
 30
-390.000
 70
    32
  0
VERTEX
  8
W57LXLIFT
 62
4
 10
1374.699
 20
-7879.555
 30
-390.000
 70
    32
  0
VERTEX
  8
W57LXLIFT
 62
4
 10
1367.065
 20
-7863.696
 30
-390.000
 70
    32
  0
VERTEX
  8
W57LXLIFT
 62
4
 10
1362.829
 20
-7850.678
 30
-390.000
 70
    32
  0
VERTEX
  8
W57LXLIFT
 62
4
 10
1357.297
 20
-7848.643
 30
-390.000
 70
    32
  0
VERTEX
  8
W57LXLIFT
 62
4
 10
1350.339
 20
-7845.259
 30
-390.000
 70
    32
  0
SEQEND
  8
W57LXLIFT
  0
POLYLINE
  8
W57LXLIFT
 62
6
 66
     1
 70
     9
  0
VERTEX
  8
W57LXLIFT
 62
6
 10
1211.815
 20
-7685.431
 30
-395.000
 70
    32
  0
VERTEX
  8
W57LXLIFT
 62
6
 10
1223.473
 20
-7699.202
 30
-395.000
 70
    32
  0
VERTEX
  8
W57LXLIFT
 62
6
 10
1225.609
 20
-7703.735
 30
-395.000
 70
    32
  0
VERTEX
  8
W57LXLIFT
 62
6
 10
1228.295
 20
-7719.092
 30
-395.000
 70
    32
  0
VERTEX
  8
W57LXLIFT
 62
6
 10
1229.764
 20
-7725.534
 30
-395.000
 70
    32
  0
VERTEX
  8
W57LXLIFT
 62
6
 10
1239.497
 20
-7721.426
 30
-395.000
 70
    32
  0
VERTEX
  8
W57LXLIFT
 62
6
 10
1243.338
 20
-7723.832
 30
-395.000
 70
    32
  0
VERTEX
  8
W57LXLIFT
 62
6
 10
1252.860
 20
-7738.848
 30
-395.000
 70
    32
  0
VERTEX
  8
W57LXLIFT
 62
6
 10
1261.281
 20
-7741.700
 30
-395.000
 70
    32
  0
VERTEX
  8
W57LXLIFT
 62
6
 10
1269.139
 20
-7737.118
 30
-395.000
 70
    32
  0
VERTEX
  8
W57LXLIFT
 62
6
 10
1264.195
 20
-7724.621
 30
-395.000
 70
    32
  0
VERTEX
  8
W57LXLIFT
 62
6
 10
1256.296
 20
-7714.625
 30
-395.000
 70
    32
  0
VERTEX
  8
W57LXLIFT
 62
6
 10
1253.863
 20
-7704.206
 30
-395.000
 70
    32
  0
VERTEX
  8
W57LXLIFT
 62
6
 10
1257.358
 20
-7702.288
 30
-395.000
 70
    32
  0
VERTEX
  8
W57LXLIFT
 62
6
 10
1254.156
 20
-7689.491
 30
-395.000
 70
    32
  0
VERTEX
  8
W57LXLIFT
 62
6
 10
1248.851
 20
-7678.132
 30
-395.000
 70
    32
  0
VERTEX
  8
W57LXLIFT
 62
6
 10
1239.701
 20
-7680.068
 30
-395.000
 70
    32
  0
VERTEX
  8
W57LXLIFT
 62
6
 10
1234.108
 20
-7680.912
 30
-395.000
 70
    32
  0
VERTEX
  8
W57LXLIFT
 62
6
 10
1229.430
 20
-7677.813
 30
-395.000
 70
    32
  0
VERTEX
  8
W57LXLIFT
 62
6
 10
1222.358
 20
-7671.461
 30
-395.000
 70
    32
  0
VERTEX
  8
W57LXLIFT
 62
6
 10
1213.675
 20
-7679.811
 30
-395.000
 70
    32
  0
SEQEND
  8
W57LXLIFT
  0
POLYLINE
  8
W57LXLIFT
 62
4
 66
     1
 70
     9
  0
VERTEX
  8
W57LXLIFT
 62
4
 10
1344.170
 20
-7863.215
 30
-382.000
 70
    32
  0
VERTEX
  8
W57LXLIFT
 62
4
 10
1346.732
 20
-7877.547
 30
-382.000
 70
    32
  0
VERTEX
  8
W57LXLIFT
 62
4
 10
1347.170
 20
-7891.804
 30
-382.000
 70
    32
  0
VERTEX
  8
W57LXLIFT
 62
4
 10
1349.848
 20
-7898.872
 30
-382.000
 70
    32
  0
VERTEX
  8
W57LXLIFT
 62
4
 10
1363.154
 20
-7905.004
 30
-382.000
 70
    32
  0
VERTEX
  8
W57LXLIFT
 62
4
 10
1373.539
 20
-7913.386
 30
-382.000
 70
    32
  0
VERTEX
  8
W57LXLIFT
 62
4
 10
1379.674
 20
-7920.422
 30
-382.000
 70
    32
  0
VERTEX
  8
W57LXLIFT
 62
4
 10
1388.679
 20
-7921.873
 30
-382.000
 70
    32
  0
VERTEX
  8
W57LXLIFT
 62
4
 10
1392.147
 20
-7919.332
 30
-382.000
 70
    32
  0
VERTEX
  8
W57LXLIFT
 62
4
 10
1393.791
 20
-7911.926
 30
-382.000
 70
    32
  0
VERTEX
  8
W57LXLIFT
 62
4
 10
1390.740
 20
-7908.504
 30
-382.000
 70
    32
  0
VERTEX
  8
W57LXLIFT
 62
4
 10
1379.560
 20
-7894.287
 30
-382.000
 70
    32
  0
VERTEX
  8
W57LXLIFT
 62
4
 10
1375.033
 20
-7887.813
 30
-382.000
 70
    32
  0
VERTEX
  8
W57LXLIFT
 62
4
 10
1365.073
 20
-7866.500
 30
-382.000
 70
    32
  0
VERTEX
  8
W57LXLIFT
 62
4
 10
1352.140
 20
-7856.721
 30
-382.000
 70
    32
  0
SEQEND
  8
W57LXLIFT
  0
POLYLINE
  8
W57LXLIFT
 62
6
 66
     1
 70
     9
  0
VERTEX
  8
W57LXLIFT
 62
6
 10
1243.694
 20
-7718.829
 30
-386.000
 70
    32
  0
VERTEX
  8
W57LXLIFT
 62
6
 10
1245.108
 20
-7721.056
 30
-386.000
 70
    32
  0
VERTEX
  8
W57LXLIFT
 62
6
 10
1250.276
 20
-7715.638
 30
-386.000
 70
    32
  0
VERTEX
  8
W57LXLIFT
 62
6
 10
1250.972
 20
-7708.274
 30
-386.000
 70
    32
  0
VERTEX
  8
W57LXLIFT
 62
6
 10
1246.343
 20
-7696.762
 30
-386.000
 70
    32
  0
VERTEX
  8
W57LXLIFT
 62
6
 10
1239.097
 20
-7683.904
 30
-386.000
 70
    32
  0
VERTEX
  8
W57LXLIFT
 62
6
 10
1231.702
 20
-7678.118
 30
-386.000
 70
    32
  0
VERTEX
  8
W57LXLIFT
 62
6
 10
1223.795
 20
-7677.275
 30
-386.000
 70
    32
  0
VERTEX
  8
W57LXLIFT
 62
6
 10
1221.660
 20
-7673.619
 30
-386.000
 70
    32
  0
VERTEX
  8
W57LXLIFT
 62
6
 10
1218.975
 20
-7673.519
 30
-386.000
 70
    32
  0
VERTEX
  8
W57LXLIFT
 62
6
 10
1213.142
 20
-7680.404
 30
-386.000
 70
    32
  0
VERTEX
  8
W57LXLIFT
 62
6
 10
1220.350
 20
-7695.139
 30
-386.000
 70
    32
  0
VERTEX
  8
W57LXLIFT
 62
6
 10
1226.252
 20
-7708.983
 30
-386.000
 70
    32
  0
VERTEX
  8
W57LXLIFT
 62
6
 10
1227.786
 20
-7721.022
 30
-386.000
 70
    32
  0
VERTEX
  8
W57LXLIFT
 62
6
 10
1230.214
 20
-7725.226
 30
-386.000
 70
    32
  0
VERTEX
  8
W57LXLIFT
 62
6
 10
1233.847
 20
-7723.652
 30
-386.000
 70
    32
  0
SEQEND
  8
W57LXLIFT
  0
POLYLINE
  8
W57LXLIFT
 62
3
 66
     1
 70
     9
  0
VERTEX
  8
W57LXLIFT
 62
3
 10
1190.928
 20
-8143.296
 30
-409.000
 70
    32
  0
VERTEX
  8
W57LXLIFT
 62
3
 10
1193.057
 20
-8136.858
 30
-409.000
 70
    32
  0
VERTEX
  8
W57LXLIFT
 62
3
 10
1202.138
 20
-8133.583
 30
-409.000
 70
    32
  0
VERTEX
  8
W57LXLIFT
 62
3
 10
1206.261
 20
-8139.597
 30
-409.000
 70
    32
  0
VERTEX
  8
W57LXLIFT
 62
3
 10
1215.384
 20
-8144.777
 30
-409.000
 70
    32
  0
VERTEX
  8
W57LXLIFT
 62
3
 10
1223.611
 20
-8160.898
 30
-409.000
 70
    32
  0
VERTEX
  8
W57LXLIFT
 62
3
 10
1232.949
 20
-8163.027
 30
-409.000
 70
    32
  0
VERTEX
  8
W57LXLIFT
 62
3
 10
1239.145
 20
-8177.786
 30
-409.000
 70
    32
  0
VERTEX
  8
W57LXLIFT
 62
3
 10
1241.480
 20
-8182.479
 30
-409.000
 70
    32
  0
VERTEX
  8
W57LXLIFT
 62
3
 10
1252.510
 20
-8190.829
 30
-409.000
 70
    32
  0
VERTEX
  8
W57LXLIFT
 62
3
 10
1249.777
 20
-8200.377
 30
-409.000
 70
    32
  0
VERTEX
  8
W57LXLIFT
 62
3
 10
1237.638
 20
-8212.891
 30
-409.000
 70
    32
  0
VERTEX
  8
W57LXLIFT
 62
3
 10
1232.328
 20
-8207.176
 30
-409.000
 70
    32
  0
VERTEX
  8
W57LXLIFT
 62
3
 10
1225.400
 20
-8207.862
 30
-409.000
 70
    32
  0
VERTEX
  8
W57LXLIFT
 62
3
 10
1215.823
 20
-8202.035
 30
-409.000
 70
    32
  0
VERTEX
  8
W57LXLIFT
 62
3
 10
1209.934
 20
-8191.679
 30
-409.000
 70
    32
  0
VERTEX
  8
W57LXLIFT
 62
3
 10
1206.438
 20
-8189.306
 30
-409.000
 70
    32
  0
VERTEX
  8
W57LXLIFT
 62
3
 10
1189.789
 20
-8154.193
 30
-409.000
 70
    32
  0
SEQEND
  8
W57LXLIFT
  0
POLYLINE
  8
W57LXLIFT
 62
1
 66
     1
 70
     9
  0
VERTEX
  8
W57LXLIFT
 62
1
 10
1191.928
 20
-8142.296
 30
-384.000
 70
    32
  0
VERTEX
  8
W57LXLIFT
 62
1
 10
1194.057
 20
-8135.858
 30
-384.000
 70
    32
  0
VERTEX
  8
W57LXLIFT
 62
1
 10
1203.138
 20
-8132.583
 30
-384.000
 70
    32
  0
VERTEX
  8
W57LXLIFT
 62
1
 10
1207.261
 20
-8138.597
 30
-384.000
 70
    32
  0
VERTEX
  8
W57LXLIFT
 62
1
 10
1216.384
 20
-8143.777
 30
-384.000
 70
    32
  0
VERTEX
  8
W57LXLIFT
 62
1
 10
1224.611
 20
-8159.898
 30
-384.000
 70
    32
  0
VERTEX
  8
W57LXLIFT
 62
1
 10
1233.949
 20
-8162.027
 30
-384.000
 70
    32
  0
VERTEX
  8
W57LXLIFT
 62
1
 10
1240.145
 20
-8176.786
 30
-384.000
 70
    32
  0
VERTEX
  8
W57LXLIFT
 62
1
 10
1242.480
 20
-8181.479
 30
-384.000
 70
    32
  0
VERTEX
  8
W57LXLIFT
 62
1
 10
1253.510
 20
-8189.829
 30
-384.000
 70
    32
  0
VERTEX
  8
W57LXLIFT
 62
1
 10
1250.777
 20
-8199.377
 30
-384.000
 70
    32
  0
VERTEX
  8
W57LXLIFT
 62
1
 10
1238.638
 20
-8211.891
 30
-384.000
 70
    32
  0
VERTEX
  8
W57LXLIFT
 62
1
 10
1233.328
 20
-8206.176
 30
-384.000
 70
    32
  0
VERTEX
  8
W57LXLIFT
 62
1
 10
1226.400
 20
-8206.862
 30
-384.000
 70
    32
  0
VERTEX
  8
W57LXLIFT
 62
1
 10
1216.823
 20
-8201.035
 30
-384.000
 70
    32
  0
VERTEX
  8
W57LXLIFT
 62
1
 10
1210.934
 20
-8190.679
 30
-384.000
 70
    32
  0
VERTEX
  8
W57LXLIFT
 62
1
 10
1207.438
 20
-8188.306
 30
-384.000
 70
    32
  0
VERTEX
  8
W57LXLIFT
 62
1
 10
1190.789
 20
-8153.193
 30
-384.000
 70
    32
  0
SEQEND
  8
W57LXLIFT
  0
POLYLINE
  8
W57LXLIFT
 62
6
 66
     1
 70
     9
  0
VERTEX
  8
W57LXLIFT
 62
6
 10
743.411
 20
-5787.722
 30
-481.000
 70
    32
  0
VERTEX
  8
W57LXLIFT
 62
6
 10
748.463
 20
-5817.070
 30
-481.000
 70
    32
  0
VERTEX
  8
W57LXLIFT
 62
6
 10
748.686
 20
-5832.397
 30
-481.000
 70
    32
  0
VERTEX
  8
W57LXLIFT
 62
6
 10
749.069
 20
-5840.952
 30
-481.000
 70
    32
  0
VERTEX
  8
W57LXLIFT
 62
6
 10
743.419
 20
-5851.096
 30
-481.000
 70
    32
  0
VERTEX
  8
W57LXLIFT
 62
6
 10
742.331
 20
-5858.984
 30
-481.000
 70
    32
  0
VERTEX
  8
W57LXLIFT
 62
6
 10
746.786
 20
-5870.116
 30
-481.000
 70
    32
  0
VERTEX
  8
W57LXLIFT
 62
6
 10
755.649
 20
-5873.871
 30
-481.000
 70
    32
  0
VERTEX
  8
W57LXLIFT
 62
6
 10
766.748
 20
-5885.584
 30
-481.000
 70
    32
  0
VERTEX
  8
W57LXLIFT
 62
6
 10
777.820
 20
-5899.937
 30
-481.000
 70
    32
  0
VERTEX
  8
W57LXLIFT
 62
6
 10
787.699
 20
-5902.400
 30
-481.000
 70
    32
  0
VERTEX
  8
W57LXLIFT
 62
6
 10
810.360
 20
-5890.907
 30
-481.000
 70
    32
  0
VERTEX
  8
W57LXLIFT
 62
6
 10
804.959
 20
-5872.833
 30
-481.000
 70
    32
  0
VERTEX
  8
W57LXLIFT
 62
6
 10
792.001
 20
-5855.610
 30
-481.000
 70
    32
  0
VERTEX
  8
W57LXLIFT
 62
6
 10
781.582
 20
-5834.562
 30
-481.000
 70
    32
  0
VERTEX
  8
W57LXLIFT
 62
6
 10
774.398
 20
-5821.940
 30
-481.000
 70
    32
  0
VERTEX
  8
W57LXLIFT
 62
6
 10
763.440
 20
-5806.850
 30
-481.000
 70
    32
  0
VERTEX
  8
W57LXLIFT
 62
6
 10
758.266
 20
-5795.482
 30
-481.000
 70
    32
  0
VERTEX
  8
W57LXLIFT
 62
6
 10
754.581
 20
-5784.657
 30
-481.000
 70
    32
  0
SEQEND
  8
W57LXLIFT
  0
POLYLINE
  8
W57LXLIFT
 62
2
 66
     1
 70
     9
  0
VERTEX
  8
W57LXLIFT
 62
2
 10
1012.866
 20
-6702.356
 30
-485.000
 70
    32
  0
VERTEX
  8
W57LXLIFT
 62
2
 10
1021.222
 20
-6700.810
 30
-485.000
 70
    32
  0
VERTEX
  8
W57LXLIFT
 62
2
 10
1025.601
 20
-6694.435
 30
-485.000
 70
    32
  0
VERTEX
  8
W57LXLIFT
 62
2
 10
1023.240
 20
-6673.367
 30
-485.000
 70
    32
  0
VERTEX
  8
W57LXLIFT
 62
2
 10
1023.783
 20
-6637.516
 30
-485.000
 70
    32
  0
VERTEX
  8
W57LXLIFT
 62
2
 10
1020.335
 20
-6632.517
 30
-485.000
 70
    32
  0
VERTEX
  8
W57LXLIFT
 62
2
 10
1013.653
 20
-6628.909
 30
-485.000
 70
    32
  0
VERTEX
  8
W57LXLIFT
 62
2
 10
1010.258
 20
-6630.527
 30
-485.000
 70
    32
  0
VERTEX
  8
W57LXLIFT
 62
2
 10
996.464
 20
-6656.788
 30
-485.000
 70
    32
  0
VERTEX
  8
W57LXLIFT
 62
2
 10
996.332
 20
-6665.830
 30
-485.000
 70
    32
  0
VERTEX
  8
W57LXLIFT
 62
2
 10
996.862
 20
-6672.205
 30
-485.000
 70
    32
  0
VERTEX
  8
W57LXLIFT
 62
2
 10
999.865
 20
-6676.002
 30
-485.000
 70
    32
  0
VERTEX
  8
W57LXLIFT
 62
2
 10
1000.849
 20
-6684.334
 30
-485.000
 70
    32
  0
VERTEX
  8
W57LXLIFT
 62
2
 10
1006.278
 20
-6691.589
 30
-485.000
 70
    32
  0
VERTEX
  8
W57LXLIFT
 62
2
 10
1011.007
 20
-6696.847
 30
-485.000
 70
    32
  0
SEQEND
  8
W57LXLIFT
  0
POLYLINE
  8
W57LXLIFT
 62
8
 66
     1
 70
     9
  0
VERTEX
  8
W57LXLIFT
 62
8
 10
580.769
 20
-5776.425
 30
-480.000
 70
    32
  0
VERTEX
  8
W57LXLIFT
 62
8
 10
570.360
 20
-5777.405
 30
-480.000
 70
    32
  0
VERTEX
  8
W57LXLIFT
 62
8
 10
564.524
 20
-5776.885
 30
-480.000
 70
    32
  0
VERTEX
  8
W57LXLIFT
 62
8
 10
559.223
 20
-5772.482
 30
-480.000
 70
    32
  0
VERTEX
  8
W57LXLIFT
 62
8
 10
551.491
 20
-5761.790
 30
-480.000
 70
    32
  0
VERTEX
  8
W57LXLIFT
 62
8
 10
545.915
 20
-5755.080
 30
-480.000
 70
    32
  0
VERTEX
  8
W57LXLIFT
 62
8
 10
531.581
 20
-5746.393
 30
-480.000
 70
    32
  0
VERTEX
  8
W57LXLIFT
 62
8
 10
527.395
 20
-5742.917
 30
-480.000
 70
    32
  0
VERTEX
  8
W57LXLIFT
 62
8
 10
522.817
 20
-5733.402
 30
-480.000
 70
    32
  0
VERTEX
  8
W57LXLIFT
 62
8
 10
514.196
 20
-5725.217
 30
-480.000
 70
    32
  0
VERTEX
  8
W57LXLIFT
 62
8
 10
507.939
 20
-5714.752
 30
-480.000
 70
    32
  0
VERTEX
  8
W57LXLIFT
 62
8
 10
501.218
 20
-5703.208
 30
-480.000
 70
    32
  0
VERTEX
  8
W57LXLIFT
 62
8
 10
493.543
 20
-5713.419
 30
-480.000
 70
    32
  0
VERTEX
  8
W57LXLIFT
 62
8
 10
507.079
 20
-5732.618
 30
-480.000
 70
    32
  0
VERTEX
  8
W57LXLIFT
 62
8
 10
504.445
 20
-5746.876
 30
-480.000
 70
    32
  0
VERTEX
  8
W57LXLIFT
 62
8
 10
513.133
 20
-5755.450
 30
-480.000
 70
    32
  0
VERTEX
  8
W57LXLIFT
 62
8
 10
524.970
 20
-5765.640
 30
-480.000
 70
    32
  0
VERTEX
  8
W57LXLIFT
 62
8
 10
525.954
 20
-5769.064
 30
-480.000
 70
    32
  0
VERTEX
  8
W57LXLIFT
 62
8
 10
534.797
 20
-5772.942
 30
-480.000
 70
    32
  0
VERTEX
  8
W57LXLIFT
 62
8
 10
544.209
 20
-5791.129
 30
-480.000
 70
    32
  0
VERTEX
  8
W57LXLIFT
 62
8
 10
547.576
 20
-5793.787
 30
-480.000
 70
    32
  0
VERTEX
  8
W57LXLIFT
 62
8
 10
551.459
 20
-5802.503
 30
-480.000
 70
    32
  0
VERTEX
  8
W57LXLIFT
 62
8
 10
561.182
 20
-5804.753
 30
-480.000
 70
    32
  0
VERTEX
  8
W57LXLIFT
 62
8
 10
573.090
 20
-5801.802
 30
-480.000
 70
    32
  0
VERTEX
  8
W57LXLIFT
 62
8
 10
583.810
 20
-5794.703
 30
-480.000
 70
    32
  0
SEQEND
  8
W57LXLIFT
  0
POLYLINE
  8
W57LXLIFT
 62
6
 66
     1
 70
     9
  0
VERTEX
  8
W57LXLIFT
 62
6
 10
738.296
 20
-5862.180
 30
-473.000
 70
    32
  0
VERTEX
  8
W57LXLIFT
 62
6
 10
765.719
 20
-5872.187
 30
-473.000
 70
    32
  0
VERTEX
  8
W57LXLIFT
 62
6
 10
772.594
 20
-5886.136
 30
-473.000
 70
    32
  0
VERTEX
  8
W57LXLIFT
 62
6
 10
785.789
 20
-5902.786
 30
-473.000
 70
    32
  0
VERTEX
  8
W57LXLIFT
 62
6
 10
802.036
 20
-5908.506
 30
-473.000
 70
    32
  0
VERTEX
  8
W57LXLIFT
 62
6
 10
814.823
 20
-5921.749
 30
-473.000
 70
    32
  0
VERTEX
  8
W57LXLIFT
 62
6
 10
818.806
 20
-5918.091
 30
-473.000
 70
    32
  0
VERTEX
  8
W57LXLIFT
 62
6
 10
818.678
 20
-5900.543
 30
-473.000
 70
    32
  0
VERTEX
  8
W57LXLIFT
 62
6
 10
807.951
 20
-5879.050
 30
-473.000
 70
    32
  0
VERTEX
  8
W57LXLIFT
 62
6
 10
787.971
 20
-5850.672
 30
-473.000
 70
    32
  0
VERTEX
  8
W57LXLIFT
 62
6
 10
778.932
 20
-5838.840
 30
-473.000
 70
    32
  0
VERTEX
  8
W57LXLIFT
 62
6
 10
776.317
 20
-5829.852
 30
-473.000
 70
    32
  0
VERTEX
  8
W57LXLIFT
 62
6
 10
766.637
 20
-5826.872
 30
-473.000
 70
    32
  0
VERTEX
  8
W57LXLIFT
 62
6
 10
758.348
 20
-5829.850
 30
-473.000
 70
    32
  0
VERTEX
  8
W57LXLIFT
 62
6
 10
751.115
 20
-5828.140
 30
-473.000
 70
    32
  0
VERTEX
  8
W57LXLIFT
 62
6
 10
750.784
 20
-5832.627
 30
-473.000
 70
    32
  0
VERTEX
  8
W57LXLIFT
 62
6
 10
752.816
 20
-5842.910
 30
-473.000
 70
    32
  0
VERTEX
  8
W57LXLIFT
 62
6
 10
748.950
 20
-5849.424
 30
-473.000
 70
    32
  0
VERTEX
  8
W57LXLIFT
 62
6
 10
736.334
 20
-5859.032
 30
-473.000
 70
    32
  0
SEQEND
  8
W57LXLIFT
  0
POLYLINE
  8
W57LXLIFT
 62
6
 66
     1
 70
     9
  0
VERTEX
  8
W57LXLIFT
 62
6
 10
752.924
 20
-5852.991
 30
-468.000
 70
    32
  0
VERTEX
  8
W57LXLIFT
 62
6
 10
731.849
 20
-5861.000
 30
-468.000
 70
    32
  0
VERTEX
  8
W57LXLIFT
 62
6
 10
735.701
 20
-5868.095
 30
-468.000
 70
    32
  0
VERTEX
  8
W57LXLIFT
 62
6
 10
744.958
 20
-5867.887
 30
-468.000
 70
    32
  0
VERTEX
  8
W57LXLIFT
 62
6
 10
763.369
 20
-5875.429
 30
-468.000
 70
    32
  0
VERTEX
  8
W57LXLIFT
 62
6
 10
769.474
 20
-5885.554
 30
-468.000
 70
    32
  0
VERTEX
  8
W57LXLIFT
 62
6
 10
781.674
 20
-5904.170
 30
-468.000
 70
    32
  0
VERTEX
  8
W57LXLIFT
 62
6
 10
800.862
 20
-5910.697
 30
-468.000
 70
    32
  0
VERTEX
  8
W57LXLIFT
 62
6
 10
805.431
 20
-5914.193
 30
-468.000
 70
    32
  0
VERTEX
  8
W57LXLIFT
 62
6
 10
812.574
 20
-5924.094
 30
-468.000
 70
    32
  0
VERTEX
  8
W57LXLIFT
 62
6
 10
815.955
 20
-5922.018
 30
-468.000
 70
    32
  0
VERTEX
  8
W57LXLIFT
 62
6
 10
816.236
 20
-5909.444
 30
-468.000
 70
    32
  0
VERTEX
  8
W57LXLIFT
 62
6
 10
814.626
 20
-5899.478
 30
-468.000
 70
    32
  0
VERTEX
  8
W57LXLIFT
 62
6
 10
804.684
 20
-5878.746
 30
-468.000
 70
    32
  0
VERTEX
  8
W57LXLIFT
 62
6
 10
785.206
 20
-5853.284
 30
-468.000
 70
    32
  0
VERTEX
  8
W57LXLIFT
 62
6
 10
776.092
 20
-5840.143
 30
-468.000
 70
    32
  0
VERTEX
  8
W57LXLIFT
 62
6
 10
773.540
 20
-5833.177
 30
-468.000
 70
    32
  0
VERTEX
  8
W57LXLIFT
 62
6
 10
763.007
 20
-5831.816
 30
-468.000
 70
    32
  0
VERTEX
  8
W57LXLIFT
 62
6
 10
748.276
 20
-5834.670
 30
-468.000
 70
    32
  0
SEQEND
  8
W57LXLIFT
  0
POLYLINE
  8
W57LXLIFT
 62
8
 66
     1
 70
     9
  0
VERTEX
  8
W57LXLIFT
 62
8
 10
558.185
 20
-5774.315
 30
-470.000
 70
    32
  0
VERTEX
  8
W57LXLIFT
 62
8
 10
525.666
 20
-5750.889
 30
-470.000
 70
    32
  0
VERTEX
  8
W57LXLIFT
 62
8
 10
520.226
 20
-5741.364
 30
-470.000
 70
    32
  0
VERTEX
  8
W57LXLIFT
 62
8
 10
494.683
 20
-5708.921
 30
-470.000
 70
    32
  0
VERTEX
  8
W57LXLIFT
 62
8
 10
485.396
 20
-5686.717
 30
-470.000
 70
    32
  0
VERTEX
  8
W57LXLIFT
 62
8
 10
478.481
 20
-5685.511
 30
-470.000
 70
    32
  0
VERTEX
  8
W57LXLIFT
 62
8
 10
470.449
 20
-5682.509
 30
-470.000
 70
    32
  0
VERTEX
  8
W57LXLIFT
 62
8
 10
455.745
 20
-5691.581
 30
-470.000
 70
    32
  0
VERTEX
  8
W57LXLIFT
 62
8
 10
458.589
 20
-5700.410
 30
-470.000
 70
    32
  0
VERTEX
  8
W57LXLIFT
 62
8
 10
476.856
 20
-5721.300
 30
-470.000
 70
    32
  0
VERTEX
  8
W57LXLIFT
 62
8
 10
493.821
 20
-5742.940
 30
-470.000
 70
    32
  0
VERTEX
  8
W57LXLIFT
 62
8
 10
516.079
 20
-5771.258
 30
-470.000
 70
    32
  0
VERTEX
  8
W57LXLIFT
 62
8
 10
527.739
 20
-5780.318
 30
-470.000
 70
    32
  0
VERTEX
  8
W57LXLIFT
 62
8
 10
535.760
 20
-5781.686
 30
-470.000
 70
    32
  0
SEQEND
  8
W57LXLIFT
  0
POLYLINE
  8
W57LXLIFT
 62
8
 66
     1
 70
     9
  0
VERTEX
  8
W57LXLIFT
 62
8
 10
558.885
 20
-5813.487
 30
-460.000
 70
    32
  0
VERTEX
  8
W57LXLIFT
 62
8
 10
563.453
 20
-5804.645
 30
-460.000
 70
    32
  0
VERTEX
  8
W57LXLIFT
 62
8
 10
564.339
 20
-5799.119
 30
-460.000
 70
    32
  0
VERTEX
  8
W57LXLIFT
 62
8
 10
576.326
 20
-5786.428
 30
-460.000
 70
    32
  0
VERTEX
  8
W57LXLIFT
 62
8
 10
575.255
 20
-5780.146
 30
-460.000
 70
    32
  0
VERTEX
  8
W57LXLIFT
 62
8
 10
571.153
 20
-5773.126
 30
-460.000
 70
    32
  0
VERTEX
  8
W57LXLIFT
 62
8
 10
558.497
 20
-5760.137
 30
-460.000
 70
    32
  0
VERTEX
  8
W57LXLIFT
 62
8
 10
530.362
 20
-5732.508
 30
-460.000
 70
    32
  0
VERTEX
  8
W57LXLIFT
 62
8
 10
515.118
 20
-5709.341
 30
-460.000
 70
    32
  0
VERTEX
  8
W57LXLIFT
 62
8
 10
510.872
 20
-5700.471
 30
-460.000
 70
    32
  0
VERTEX
  8
W57LXLIFT
 62
8
 10
489.296
 20
-5680.256
 30
-460.000
 70
    32
  0
VERTEX
  8
W57LXLIFT
 62
8
 10
472.853
 20
-5684.989
 30
-460.000
 70
    32
  0
VERTEX
  8
W57LXLIFT
 62
8
 10
464.947
 20
-5689.516
 30
-460.000
 70
    32
  0
VERTEX
  8
W57LXLIFT
 62
8
 10
461.859
 20
-5696.201
 30
-460.000
 70
    32
  0
VERTEX
  8
W57LXLIFT
 62
8
 10
474.549
 20
-5716.440
 30
-460.000
 70
    32
  0
VERTEX
  8
W57LXLIFT
 62
8
 10
489.626
 20
-5733.975
 30
-460.000
 70
    32
  0
VERTEX
  8
W57LXLIFT
 62
8
 10
505.821
 20
-5748.855
 30
-460.000
 70
    32
  0
VERTEX
  8
W57LXLIFT
 62
8
 10
521.680
 20
-5768.972
 30
-460.000
 70
    32
  0
VERTEX
  8
W57LXLIFT
 62
8
 10
532.405
 20
-5783.793
 30
-460.000
 70
    32
  0
VERTEX
  8
W57LXLIFT
 62
8
 10
545.990
 20
-5794.916
 30
-460.000
 70
    32
  0
VERTEX
  8
W57LXLIFT
 62
8
 10
547.801
 20
-5808.371
 30
-460.000
 70
    32
  0
VERTEX
  8
W57LXLIFT
 62
8
 10
551.086
 20
-5813.811
 30
-460.000
 70
    32
  0
SEQEND
  8
W57LXLIFT
  0
POLYLINE
  8
W57LXLIFT
 62
8
 66
     1
 70
     9
  0
VERTEX
  8
W57LXLIFT
 62
8
 10
558.874
 20
-5809.995
 30
-452.000
 70
    32
  0
VERTEX
  8
W57LXLIFT
 62
8
 10
559.111
 20
-5800.012
 30
-452.000
 70
    32
  0
VERTEX
  8
W57LXLIFT
 62
8
 10
567.897
 20
-5792.184
 30
-452.000
 70
    32
  0
VERTEX
  8
W57LXLIFT
 62
8
 10
570.331
 20
-5783.868
 30
-452.000
 70
    32
  0
VERTEX
  8
W57LXLIFT
 62
8
 10
568.216
 20
-5777.236
 30
-452.000
 70
    32
  0
VERTEX
  8
W57LXLIFT
 62
8
 10
563.972
 20
-5770.522
 30
-452.000
 70
    32
  0
VERTEX
  8
W57LXLIFT
 62
8
 10
541.509
 20
-5750.942
 30
-452.000
 70
    32
  0
VERTEX
  8
W57LXLIFT
 62
8
 10
522.078
 20
-5732.528
 30
-452.000
 70
    32
  0
VERTEX
  8
W57LXLIFT
 62
8
 10
506.144
 20
-5710.690
 30
-452.000
 70
    32
  0
VERTEX
  8
W57LXLIFT
 62
8
 10
490.198
 20
-5689.733
 30
-452.000
 70
    32
  0
VERTEX
  8
W57LXLIFT
 62
8
 10
477.658
 20
-5685.694
 30
-452.000
 70
    32
  0
VERTEX
  8
W57LXLIFT
 62
8
 10
470.993
 20
-5695.681
 30
-452.000
 70
    32
  0
VERTEX
  8
W57LXLIFT
 62
8
 10
460.986
 20
-5701.238
 30
-452.000
 70
    32
  0
VERTEX
  8
W57LXLIFT
 62
8
 10
459.665
 20
-5705.254
 30
-452.000
 70
    32
  0
VERTEX
  8
W57LXLIFT
 62
8
 10
472.116
 20
-5718.733
 30
-452.000
 70
    32
  0
VERTEX
  8
W57LXLIFT
 62
8
 10
483.324
 20
-5735.735
 30
-452.000
 70
    32
  0
VERTEX
  8
W57LXLIFT
 62
8
 10
505.502
 20
-5751.490
 30
-452.000
 70
    32
  0
VERTEX
  8
W57LXLIFT
 62
8
 10
506.907
 20
-5755.806
 30
-452.000
 70
    32
  0
VERTEX
  8
W57LXLIFT
 62
8
 10
535.842
 20
-5786.797
 30
-452.000
 70
    32
  0
VERTEX
  8
W57LXLIFT
 62
8
 10
539.900
 20
-5806.400
 30
-452.000
 70
    32
  0
SEQEND
  8
W57LXLIFT
  0
POLYLINE
  8
W57LXLIFT
 62
8
 66
     1
 70
     9
  0
VERTEX
  8
W57LXLIFT
 62
8
 10
563.003
 20
-5793.495
 30
-439.000
 70
    32
  0
VERTEX
  8
W57LXLIFT
 62
8
 10
566.542
 20
-5791.929
 30
-439.000
 70
    32
  0
VERTEX
  8
W57LXLIFT
 62
8
 10
570.116
 20
-5784.372
 30
-439.000
 70
    32
  0
VERTEX
  8
W57LXLIFT
 62
8
 10
568.979
 20
-5777.053
 30
-439.000
 70
    32
  0
VERTEX
  8
W57LXLIFT
 62
8
 10
564.803
 20
-5770.182
 30
-439.000
 70
    32
  0
VERTEX
  8
W57LXLIFT
 62
8
 10
549.028
 20
-5757.434
 30
-439.000
 70
    32
  0
VERTEX
  8
W57LXLIFT
 62
8
 10
538.358
 20
-5750.131
 30
-439.000
 70
    32
  0
VERTEX
  8
W57LXLIFT
 62
8
 10
525.083
 20
-5734.069
 30
-439.000
 70
    32
  0
VERTEX
  8
W57LXLIFT
 62
8
 10
516.436
 20
-5725.203
 30
-439.000
 70
    32
  0
VERTEX
  8
W57LXLIFT
 62
8
 10
503.277
 20
-5706.887
 30
-439.000
 70
    32
  0
VERTEX
  8
W57LXLIFT
 62
8
 10
497.206
 20
-5696.171
 30
-439.000
 70
    32
  0
VERTEX
  8
W57LXLIFT
 62
8
 10
489.639
 20
-5688.808
 30
-439.000
 70
    32
  0
VERTEX
  8
W57LXLIFT
 62
8
 10
476.864
 20
-5694.732
 30
-439.000
 70
    32
  0
VERTEX
  8
W57LXLIFT
 62
8
 10
465.988
 20
-5706.016
 30
-439.000
 70
    32
  0
VERTEX
  8
W57LXLIFT
 62
8
 10
466.689
 20
-5711.370
 30
-439.000
 70
    32
  0
VERTEX
  8
W57LXLIFT
 62
8
 10
492.532
 20
-5735.867
 30
-439.000
 70
    32
  0
VERTEX
  8
W57LXLIFT
 62
8
 10
506.835
 20
-5749.889
 30
-439.000
 70
    32
  0
VERTEX
  8
W57LXLIFT
 62
8
 10
517.464
 20
-5764.382
 30
-439.000
 70
    32
  0
VERTEX
  8
W57LXLIFT
 62
8
 10
520.408
 20
-5766.064
 30
-439.000
 70
    32
  0
VERTEX
  8
W57LXLIFT
 62
8
 10
529.737
 20
-5781.164
 30
-439.000
 70
    32
  0
VERTEX
  8
W57LXLIFT
 62
8
 10
537.793
 20
-5787.092
 30
-439.000
 70
    32
  0
VERTEX
  8
W57LXLIFT
 62
8
 10
538.714
 20
-5794.565
 30
-439.000
 70
    32
  0
VERTEX
  8
W57LXLIFT
 62
8
 10
537.014
 20
-5801.861
 30
-439.000
 70
    32
  0
VERTEX
  8
W57LXLIFT
 62
8
 10
540.623
 20
-5803.715
 30
-439.000
 70
    32
  0
VERTEX
  8
W57LXLIFT
 62
8
 10
550.526
 20
-5803.760
 30
-439.000
 70
    32
  0
VERTEX
  8
W57LXLIFT
 62
8
 10
560.692
 20
-5798.735
 30
-439.000
 70
    32
  0
SEQEND
  8
W57LXLIFT
  0
POLYLINE
  8
W57LXLIFT
 62
8
 66
     1
 70
     9
  0
VERTEX
  8
W57LXLIFT
 62
8
 10
450.408
 20
-5643.626
 30
-430.000
 70
    32
  0
VERTEX
  8
W57LXLIFT
 62
8
 10
456.765
 20
-5707.287
 30
-430.000
 70
    32
  0
VERTEX
  8
W57LXLIFT
 62
8
 10
478.986
 20
-5742.486
 30
-430.000
 70
    32
  0
VERTEX
  8
W57LXLIFT
 62
8
 10
494.160
 20
-5795.008
 30
-430.000
 70
    32
  0
VERTEX
  8
W57LXLIFT
 62
8
 10
546.492
 20
-5807.233
 30
-430.000
 70
    32
  0
VERTEX
  8
W57LXLIFT
 62
8
 10
554.468
 20
-5800.164
 30
-430.000
 70
    32
  0
VERTEX
  8
W57LXLIFT
 62
8
 10
564.062
 20
-5784.568
 30
-430.000
 70
    32
  0
VERTEX
  8
W57LXLIFT
 62
8
 10
569.966
 20
-5739.947
 30
-430.000
 70
    32
  0
VERTEX
  8
W57LXLIFT
 62
8
 10
524.175
 20
-5714.335
 30
-430.000
 70
    32
  0
VERTEX
  8
W57LXLIFT
 62
8
 10
494.945
 20
-5675.877
 30
-430.000
 70
    32
  0
VERTEX
  8
W57LXLIFT
 62
8
 10
469.412
 20
-5627.280
 30
-430.000
 70
    32
  0
SEQEND
  8
W57LXLIFT
  0
POLYLINE
  8
W57LXLIFT
 62
8
 66
     1
 70
     9
  0
VERTEX
  8
W57LXLIFT
 62
8
 10
448.122
 20
-5649.196
 30
-413.000
 70
    32
  0
VERTEX
  8
W57LXLIFT
 62
8
 10
456.893
 20
-5700.659
 30
-413.000
 70
    32
  0
VERTEX
  8
W57LXLIFT
 62
8
 10
478.824
 20
-5747.906
 30
-413.000
 70
    32
  0
VERTEX
  8
W57LXLIFT
 62
8
 10
482.338
 20
-5800.467
 30
-413.000
 70
    32
  0
VERTEX
  8
W57LXLIFT
 62
8
 10
537.542
 20
-5816.759
 30
-413.000
 70
    32
  0
VERTEX
  8
W57LXLIFT
 62
8
 10
550.707
 20
-5817.186
 30
-413.000
 70
    32
  0
VERTEX
  8
W57LXLIFT
 62
8
 10
550.929
 20
-5807.626
 30
-413.000
 70
    32
  0
VERTEX
  8
W57LXLIFT
 62
8
 10
570.929
 20
-5734.078
 30
-413.000
 70
    32
  0
VERTEX
  8
W57LXLIFT
 62
8
 10
529.903
 20
-5711.540
 30
-413.000
 70
    32
  0
VERTEX
  8
W57LXLIFT
 62
8
 10
493.913
 20
-5673.694
 30
-413.000
 70
    32
  0
VERTEX
  8
W57LXLIFT
 62
8
 10
472.272
 20
-5632.827
 30
-413.000
 70
    32
  0
SEQEND
  8
W57LXLIFT
  0
POLYLINE
  8
W57LXLIFT
 62
8
 66
     1
 70
     9
  0
VERTEX
  8
W57LXLIFT
 62
8
 10
436.880
 20
-5634.010
 30
-392.000
 70
    32
  0
VERTEX
  8
W57LXLIFT
 62
8
 10
456.978
 20
-5701.593
 30
-392.000
 70
    32
  0
VERTEX
  8
W57LXLIFT
 62
8
 10
471.418
 20
-5748.901
 30
-392.000
 70
    32
  0
VERTEX
  8
W57LXLIFT
 62
8
 10
470.636
 20
-5817.024
 30
-392.000
 70
    32
  0
VERTEX
  8
W57LXLIFT
 62
8
 10
542.639
 20
-5816.258
 30
-392.000
 70
    32
  0
VERTEX
  8
W57LXLIFT
 62
8
 10
551.162
 20
-5808.125
 30
-392.000
 70
    32
  0
VERTEX
  8
W57LXLIFT
 62
8
 10
551.025
 20
-5803.643
 30
-392.000
 70
    32
  0
VERTEX
  8
W57LXLIFT
 62
8
 10
573.045
 20
-5738.427
 30
-392.000
 70
    32
  0
VERTEX
  8
W57LXLIFT
 62
8
 10
537.595
 20
-5702.448
 30
-392.000
 70
    32
  0
VERTEX
  8
W57LXLIFT
 62
8
 10
495.507
 20
-5674.196
 30
-392.000
 70
    32
  0
VERTEX
  8
W57LXLIFT
 62
8
 10
457.518
 20
-5618.917
 30
-392.000
 70
    32
  0
SEQEND
  8
W57LXLIFT
  0
POLYLINE
  8
W57LXLIFT
 62
1
 66
     1
 70
     9
  0
VERTEX
  8
W57LXLIFT
 62
1
 10
1008.908
 20
-6726.440
 30
-382.000
 70
    32
  0
VERTEX
  8
W57LXLIFT
 62
1
 10
994.975
 20
-6714.384
 30
-382.000
 70
    32
  0
VERTEX
  8
W57LXLIFT
 62
1
 10
987.820
 20
-6705.429
 30
-382.000
 70
    32
  0
VERTEX
  8
W57LXLIFT
 62
1
 10
986.481
 20
-6700.943
 30
-382.000
 70
    32
  0
VERTEX
  8
W57LXLIFT
 62
1
 10
993.159
 20
-6689.665
 30
-382.000
 70
    32
  0
VERTEX
  8
W57LXLIFT
 62
1
 10
991.469
 20
-6684.999
 30
-382.000
 70
    32
  0
VERTEX
  8
W57LXLIFT
 62
1
 10
988.483
 20
-6681.399
 30
-382.000
 70
    32
  0
VERTEX
  8
W57LXLIFT
 62
1
 10
985.501
 20
-6648.124
 30
-382.000
 70
    32
  0
VERTEX
  8
W57LXLIFT
 62
1
 10
982.921
 20
-6642.253
 30
-382.000
 70
    32
  0
VERTEX
  8
W57LXLIFT
 62
1
 10
980.624
 20
-6640.773
 30
-382.000
 70
    32
  0
VERTEX
  8
W57LXLIFT
 62
1
 10
968.513
 20
-6650.476
 30
-382.000
 70
    32
  0
VERTEX
  8
W57LXLIFT
 62
1
 10
970.021
 20
-6667.210
 30
-382.000
 70
    32
  0
VERTEX
  8
W57LXLIFT
 62
1
 10
970.904
 20
-6680.574
 30
-382.000
 70
    32
  0
VERTEX
  8
W57LXLIFT
 62
1
 10
966.136
 20
-6690.881
 30
-382.000
 70
    32
  0
VERTEX
  8
W57LXLIFT
 62
1
 10
964.493
 20
-6695.926
 30
-382.000
 70
    32
  0
VERTEX
  8
W57LXLIFT
 62
1
 10
966.605
 20
-6700.717
 30
-382.000
 70
    32
  0
VERTEX
  8
W57LXLIFT
 62
1
 10
966.450
 20
-6702.584
 30
-382.000
 70
    32
  0
VERTEX
  8
W57LXLIFT
 62
1
 10
967.938
 20
-6706.085
 30
-382.000
 70
    32
  0
VERTEX
  8
W57LXLIFT
 62
1
 10
964.978
 20
-6712.758
 30
-382.000
 70
    32
  0
VERTEX
  8
W57LXLIFT
 62
1
 10
962.375
 20
-6716.649
 30
-382.000
 70
    32
  0
VERTEX
  8
W57LXLIFT
 62
1
 10
964.172
 20
-6723.536
 30
-382.000
 70
    32
  0
VERTEX
  8
W57LXLIFT
 62
1
 10
972.111
 20
-6726.875
 30
-382.000
 70
    32
  0
VERTEX
  8
W57LXLIFT
 62
1
 10
975.472
 20
-6729.651
 30
-382.000
 70
    32
  0
VERTEX
  8
W57LXLIFT
 62
1
 10
978.083
 20
-6742.834
 30
-382.000
 70
    32
  0
VERTEX
  8
W57LXLIFT
 62
1
 10
982.741
 20
-6753.302
 30
-382.000
 70
    32
  0
VERTEX
  8
W57LXLIFT
 62
1
 10
990.415
 20
-6761.327
 30
-382.000
 70
    32
  0
VERTEX
  8
W57LXLIFT
 62
1
 10
996.593
 20
-6762.133
 30
-382.000
 70
    32
  0
VERTEX
  8
W57LXLIFT
 62
1
 10
1003.548
 20
-6756.126
 30
-382.000
 70
    32
  0
VERTEX
  8
W57LXLIFT
 62
1
 10
995.767
 20
-6743.800
 30
-382.000
 70
    32
  0
VERTEX
  8
W57LXLIFT
 62
1
 10
995.308
 20
-6737.242
 30
-382.000
 70
    32
  0
VERTEX
  8
W57LXLIFT
 62
1
 10
1004.812
 20
-6736.470
 30
-382.000
 70
    32
  0
SEQEND
  8
W57LXLIFT
  0
POLYLINE
  8
W57LXLIFT
 62
1
 66
     1
 70
     9
  0
VERTEX
  8
W57LXLIFT
 62
1
 10
1101.927
 20
-6885.002
 30
-372.000
 70
    32
  0
VERTEX
  8
W57LXLIFT
 62
1
 10
1091.563
 20
-6883.123
 30
-372.000
 70
    32
  0
VERTEX
  8
W57LXLIFT
 62
1
 10
1085.413
 20
-6876.274
 30
-372.000
 70
    32
  0
VERTEX
  8
W57LXLIFT
 62
1
 10
1079.212
 20
-6869.353
 30
-372.000
 70
    32
  0
VERTEX
  8
W57LXLIFT
 62
1
 10
1076.537
 20
-6855.340
 30
-372.000
 70
    32
  0
VERTEX
  8
W57LXLIFT
 62
1
 10
1077.807
 20
-6846.081
 30
-372.000
 70
    32
  0
VERTEX
  8
W57LXLIFT
 62
1
 10
1070.763
 20
-6845.586
 30
-372.000
 70
    32
  0
VERTEX
  8
W57LXLIFT
 62
1
 10
1057.751
 20
-6848.727
 30
-372.000
 70
    32
  0
VERTEX
  8
W57LXLIFT
 62
1
 10
1054.987
 20
-6857.445
 30
-372.000
 70
    32
  0
VERTEX
  8
W57LXLIFT
 62
1
 10
1055.669
 20
-6871.724
 30
-372.000
 70
    32
  0
VERTEX
  8
W57LXLIFT
 62
1
 10
1064.056
 20
-6876.265
 30
-372.000
 70
    32
  0
VERTEX
  8
W57LXLIFT
 62
1
 10
1068.167
 20
-6877.831
 30
-372.000
 70
    32
  0
VERTEX
  8
W57LXLIFT
 62
1
 10
1072.553
 20
-6882.587
 30
-372.000
 70
    32
  0
VERTEX
  8
W57LXLIFT
 62
1
 10
1074.315
 20
-6887.200
 30
-372.000
 70
    32
  0
VERTEX
  8
W57LXLIFT
 62
1
 10
1068.601
 20
-6901.270
 30
-372.000
 70
    32
  0
VERTEX
  8
W57LXLIFT
 62
1
 10
1074.516
 20
-6908.841
 30
-372.000
 70
    32
  0
VERTEX
  8
W57LXLIFT
 62
1
 10
1087.672
 20
-6905.155
 30
-372.000
 70
    32
  0
VERTEX
  8
W57LXLIFT
 62
1
 10
1102.909
 20
-6896.869
 30
-372.000
 70
    32
  0
VERTEX
  8
W57LXLIFT
 62
1
 10
1107.772
 20
-6894.704
 30
-372.000
 70
    32
  0
SEQEND
  8
W57LXLIFT
  0
POLYLINE
  8
W57LXLIFT
 62
1
 66
     1
 70
     9
  0
VERTEX
  8
W57LXLIFT
 62
1
 10
1114.200
 20
-6937.561
 30
-362.000
 70
    32
  0
VERTEX
  8
W57LXLIFT
 62
1
 10
1140.957
 20
-7019.502
 30
-362.000
 70
    32
  0
VERTEX
  8
W57LXLIFT
 62
1
 10
1113.436
 20
-7039.143
 30
-362.000
 70
    32
  0
VERTEX
  8
W57LXLIFT
 62
1
 10
1106.478
 20
-7030.052
 30
-362.000
 70
    32
  0
VERTEX
  8
W57LXLIFT
 62
1
 10
1082.278
 20
-6947.880
 30
-362.000
 70
    32
  0
SEQEND
  8
W57LXLIFT
  0
POLYLINE
  8
W57LXLIFT
 62
4
 66
     1
 70
     9
  0
VERTEX
  8
W57LXLIFT
 62
4
 10
454.931
 20
-5560.455
 30
-482.000
 70
    32
  0
VERTEX
  8
W57LXLIFT
 62
4
 10
459.093
 20
-5536.201
 30
-482.000
 70
    32
  0
VERTEX
  8
W57LXLIFT
 62
4
 10
465.994
 20
-5526.546
 30
-482.000
 70
    32
  0
VERTEX
  8
W57LXLIFT
 62
4
 10
469.866
 20
-5521.846
 30
-482.000
 70
    32
  0
VERTEX
  8
W57LXLIFT
 62
4
 10
467.000
 20
-5510.945
 30
-482.000
 70
    32
  0
VERTEX
  8
W57LXLIFT
 62
4
 10
470.617
 20
-5508.727
 30
-482.000
 70
    32
  0
VERTEX
  8
W57LXLIFT
 62
4
 10
483.371
 20
-5507.343
 30
-482.000
 70
    32
  0
VERTEX
  8
W57LXLIFT
 62
4
 10
492.022
 20
-5505.582
 30
-482.000
 70
    32
  0
VERTEX
  8
W57LXLIFT
 62
4
 10
496.931
 20
-5511.377
 30
-482.000
 70
    32
  0
VERTEX
  8
W57LXLIFT
 62
4
 10
493.009
 20
-5519.283
 30
-482.000
 70
    32
  0
VERTEX
  8
W57LXLIFT
 62
4
 10
486.374
 20
-5530.491
 30
-482.000
 70
    32
  0
VERTEX
  8
W57LXLIFT
 62
4
 10
475.080
 20
-5533.863
 30
-482.000
 70
    32
  0
VERTEX
  8
W57LXLIFT
 62
4
 10
472.237
 20
-5539.666
 30
-482.000
 70
    32
  0
VERTEX
  8
W57LXLIFT
 62
4
 10
473.556
 20
-5545.036
 30
-482.000
 70
    32
  0
VERTEX
  8
W57LXLIFT
 62
4
 10
468.287
 20
-5550.215
 30
-482.000
 70
    32
  0
VERTEX
  8
W57LXLIFT
 62
4
 10
467.510
 20
-5570.892
 30
-482.000
 70
    32
  0
SEQEND
  8
W57LXLIFT
  0
POLYLINE
  8
W57LXLIFT
 62
1
 66
     1
 70
     9
  0
VERTEX
  8
W57LXLIFT
 62
1
 10
455.931
 20
-5559.455
 30
-472.000
 70
    32
  0
VERTEX
  8
W57LXLIFT
 62
1
 10
460.093
 20
-5535.201
 30
-472.000
 70
    32
  0
VERTEX
  8
W57LXLIFT
 62
1
 10
466.994
 20
-5525.546
 30
-472.000
 70
    32
  0
VERTEX
  8
W57LXLIFT
 62
1
 10
470.866
 20
-5520.846
 30
-472.000
 70
    32
  0
VERTEX
  8
W57LXLIFT
 62
1
 10
468.000
 20
-5509.945
 30
-472.000
 70
    32
  0
VERTEX
  8
W57LXLIFT
 62
1
 10
471.617
 20
-5507.727
 30
-472.000
 70
    32
  0
VERTEX
  8
W57LXLIFT
 62
1
 10
484.371
 20
-5506.343
 30
-472.000
 70
    32
  0
VERTEX
  8
W57LXLIFT
 62
1
 10
493.022
 20
-5504.582
 30
-472.000
 70
    32
  0
VERTEX
  8
W57LXLIFT
 62
1
 10
497.931
 20
-5510.377
 30
-472.000
 70
    32
  0
VERTEX
  8
W57LXLIFT
 62
1
 10
494.009
 20
-5518.283
 30
-472.000
 70
    32
  0
VERTEX
  8
W57LXLIFT
 62
1
 10
487.374
 20
-5529.491
 30
-472.000
 70
    32
  0
VERTEX
  8
W57LXLIFT
 62
1
 10
476.080
 20
-5532.863
 30
-472.000
 70
    32
  0
VERTEX
  8
W57LXLIFT
 62
1
 10
473.237
 20
-5538.666
 30
-472.000
 70
    32
  0
VERTEX
  8
W57LXLIFT
 62
1
 10
474.556
 20
-5544.036
 30
-472.000
 70
    32
  0
VERTEX
  8
W57LXLIFT
 62
1
 10
469.287
 20
-5549.215
 30
-472.000
 70
    32
  0
VERTEX
  8
W57LXLIFT
 62
1
 10
468.510
 20
-5569.892
 30
-472.000
 70
    32
  0
SEQEND
  8
W57LXLIFT
  0
POLYLINE
  8
W57LXLIFT
 62
3
 66
     1
 70
     9
  0
VERTEX
  8
W57LXLIFT
 62
3
 10
350.434
 20
-5572.029
 30
-482.000
 70
    32
  0
VERTEX
  8
W57LXLIFT
 62
3
 10
360.307
 20
-5547.516
 30
-482.000
 70
    32
  0
VERTEX
  8
W57LXLIFT
 62
3
 10
371.644
 20
-5546.734
 30
-482.000
 70
    32
  0
VERTEX
  8
W57LXLIFT
 62
3
 10
376.306
 20
-5550.853
 30
-482.000
 70
    32
  0
VERTEX
  8
W57LXLIFT
 62
3
 10
377.793
 20
-5560.471
 30
-482.000
 70
    32
  0
VERTEX
  8
W57LXLIFT
 62
3
 10
381.969
 20
-5568.989
 30
-482.000
 70
    32
  0
VERTEX
  8
W57LXLIFT
 62
3
 10
381.905
 20
-5575.155
 30
-482.000
 70
    32
  0
VERTEX
  8
W57LXLIFT
 62
3
 10
389.099
 20
-5596.866
 30
-482.000
 70
    32
  0
VERTEX
  8
W57LXLIFT
 62
3
 10
390.906
 20
-5602.752
 30
-482.000
 70
    32
  0
VERTEX
  8
W57LXLIFT
 62
3
 10
403.215
 20
-5623.987
 30
-482.000
 70
    32
  0
VERTEX
  8
W57LXLIFT
 62
3
 10
404.212
 20
-5640.084
 30
-482.000
 70
    32
  0
VERTEX
  8
W57LXLIFT
 62
3
 10
410.793
 20
-5656.344
 30
-482.000
 70
    32
  0
VERTEX
  8
W57LXLIFT
 62
3
 10
424.793
 20
-5679.288
 30
-482.000
 70
    32
  0
VERTEX
  8
W57LXLIFT
 62
3
 10
431.479
 20
-5698.968
 30
-482.000
 70
    32
  0
VERTEX
  8
W57LXLIFT
 62
3
 10
426.733
 20
-5708.134
 30
-482.000
 70
    32
  0
VERTEX
  8
W57LXLIFT
 62
3
 10
420.914
 20
-5720.601
 30
-482.000
 70
    32
  0
VERTEX
  8
W57LXLIFT
 62
3
 10
413.403
 20
-5710.816
 30
-482.000
 70
    32
  0
VERTEX
  8
W57LXLIFT
 62
3
 10
415.941
 20
-5700.429
 30
-482.000
 70
    32
  0
VERTEX
  8
W57LXLIFT
 62
3
 10
416.161
 20
-5692.837
 30
-482.000
 70
    32
  0
VERTEX
  8
W57LXLIFT
 62
3
 10
412.656
 20
-5682.405
 30
-482.000
 70
    32
  0
VERTEX
  8
W57LXLIFT
 62
3
 10
405.219
 20
-5668.849
 30
-482.000
 70
    32
  0
VERTEX
  8
W57LXLIFT
 62
3
 10
396.422
 20
-5652.249
 30
-482.000
 70
    32
  0
VERTEX
  8
W57LXLIFT
 62
3
 10
389.915
 20
-5640.853
 30
-482.000
 70
    32
  0
VERTEX
  8
W57LXLIFT
 62
3
 10
387.047
 20
-5635.308
 30
-482.000
 70
    32
  0
VERTEX
  8
W57LXLIFT
 62
3
 10
386.846
 20
-5630.866
 30
-482.000
 70
    32
  0
VERTEX
  8
W57LXLIFT
 62
3
 10
382.660
 20
-5621.590
 30
-482.000
 70
    32
  0
VERTEX
  8
W57LXLIFT
 62
3
 10
378.972
 20
-5613.588
 30
-482.000
 70
    32
  0
VERTEX
  8
W57LXLIFT
 62
3
 10
370.695
 20
-5596.059
 30
-482.000
 70
    32
  0
VERTEX
  8
W57LXLIFT
 62
3
 10
361.048
 20
-5585.001
 30
-482.000
 70
    32
  0
SEQEND
  8
W57LXLIFT
  0
POLYLINE
  8
W57LXLIFT
 62
13
 66
     1
 70
     9
  0
VERTEX
  8
W57LXLIFT
 62
13
 10
396.576
 20
-5753.546
 30
-476.000
 70
    32
  0
VERTEX
  8
W57LXLIFT
 62
13
 10
392.902
 20
-5745.861
 30
-476.000
 70
    32
  0
VERTEX
  8
W57LXLIFT
 62
13
 10
390.990
 20
-5738.195
 30
-476.000
 70
    32
  0
VERTEX
  8
W57LXLIFT
 62
13
 10
394.350
 20
-5731.904
 30
-476.000
 70
    32
  0
VERTEX
  8
W57LXLIFT
 62
13
 10
391.825
 20
-5729.059
 30
-476.000
 70
    32
  0
VERTEX
  8
W57LXLIFT
 62
13
 10
392.314
 20
-5722.580
 30
-476.000
 70
    32
  0
VERTEX
  8
W57LXLIFT
 62
13
 10
384.225
 20
-5712.453
 30
-476.000
 70
    32
  0
VERTEX
  8
W57LXLIFT
 62
13
 10
370.960
 20
-5691.701
 30
-476.000
 70
    32
  0
VERTEX
  8
W57LXLIFT
 62
13
 10
354.871
 20
-5666.357
 30
-476.000
 70
    32
  0
VERTEX
  8
W57LXLIFT
 62
13
 10
351.207
 20
-5659.430
 30
-476.000
 70
    32
  0
VERTEX
  8
W57LXLIFT
 62
13
 10
341.752
 20
-5655.333
 30
-476.000
 70
    32
  0
VERTEX
  8
W57LXLIFT
 62
13
 10
337.549
 20
-5651.096
 30
-476.000
 70
    32
  0
VERTEX
  8
W57LXLIFT
 62
13
 10
333.221
 20
-5640.286
 30
-476.000
 70
    32
  0
VERTEX
  8
W57LXLIFT
 62
13
 10
330.560
 20
-5631.748
 30
-476.000
 70
    32
  0
VERTEX
  8
W57LXLIFT
 62
13
 10
331.513
 20
-5623.072
 30
-476.000
 70
    32
  0
VERTEX
  8
W57LXLIFT
 62
13
 10
343.106
 20
-5612.813
 30
-476.000
 70
    32
  0
VERTEX
  8
W57LXLIFT
 62
13
 10
359.107
 20
-5609.155
 30
-476.000
 70
    32
  0
VERTEX
  8
W57LXLIFT
 62
13
 10
368.257
 20
-5608.668
 30
-476.000
 70
    32
  0
VERTEX
  8
W57LXLIFT
 62
13
 10
370.974
 20
-5627.108
 30
-476.000
 70
    32
  0
VERTEX
  8
W57LXLIFT
 62
13
 10
376.885
 20
-5648.559
 30
-476.000
 70
    32
  0
VERTEX
  8
W57LXLIFT
 62
13
 10
384.883
 20
-5669.133
 30
-476.000
 70
    32
  0
VERTEX
  8
W57LXLIFT
 62
13
 10
392.046
 20
-5683.655
 30
-476.000
 70
    32
  0
VERTEX
  8
W57LXLIFT
 62
13
 10
407.034
 20
-5703.033
 30
-476.000
 70
    32
  0
VERTEX
  8
W57LXLIFT
 62
13
 10
418.786
 20
-5718.448
 30
-476.000
 70
    32
  0
VERTEX
  8
W57LXLIFT
 62
13
 10
427.419
 20
-5727.082
 30
-476.000
 70
    32
  0
VERTEX
  8
W57LXLIFT
 62
13
 10
426.775
 20
-5738.264
 30
-476.000
 70
    32
  0
VERTEX
  8
W57LXLIFT
 62
13
 10
438.865
 20
-5756.819
 30
-476.000
 70
    32
  0
VERTEX
  8
W57LXLIFT
 62
13
 10
443.892
 20
-5763.072
 30
-476.000
 70
    32
  0
VERTEX
  8
W57LXLIFT
 62
13
 10
449.169
 20
-5765.646
 30
-476.000
 70
    32
  0
VERTEX
  8
W57LXLIFT
 62
13
 10
455.198
 20
-5777.285
 30
-476.000
 70
    32
  0
VERTEX
  8
W57LXLIFT
 62
13
 10
455.076
 20
-5789.177
 30
-476.000
 70
    32
  0
VERTEX
  8
W57LXLIFT
 62
13
 10
445.358
 20
-5800.353
 30
-476.000
 70
    32
  0
VERTEX
  8
W57LXLIFT
 62
13
 10
433.574
 20
-5798.293
 30
-476.000
 70
    32
  0
VERTEX
  8
W57LXLIFT
 62
13
 10
428.914
 20
-5788.819
 30
-476.000
 70
    32
  0
VERTEX
  8
W57LXLIFT
 62
13
 10
420.423
 20
-5788.714
 30
-476.000
 70
    32
  0
VERTEX
  8
W57LXLIFT
 62
13
 10
411.219
 20
-5763.670
 30
-476.000
 70
    32
  0
VERTEX
  8
W57LXLIFT
 62
13
 10
408.188
 20
-5763.709
 30
-476.000
 70
    32
  0
SEQEND
  8
W57LXLIFT
  0
POLYLINE
  8
W57LXLIFT
 62
6
 66
     1
 70
     9
  0
VERTEX
  8
W57LXLIFT
 62
6
 10
361.182
 20
-5790.781
 30
-478.000
 70
    32
  0
VERTEX
  8
W57LXLIFT
 62
6
 10
360.776
 20
-5772.065
 30
-478.000
 70
    32
  0
VERTEX
  8
W57LXLIFT
 62
6
 10
360.018
 20
-5760.164
 30
-478.000
 70
    32
  0
VERTEX
  8
W57LXLIFT
 62
6
 10
355.759
 20
-5747.663
 30
-478.000
 70
    32
  0
VERTEX
  8
W57LXLIFT
 62
6
 10
352.919
 20
-5718.932
 30
-478.000
 70
    32
  0
VERTEX
  8
W57LXLIFT
 62
6
 10
359.219
 20
-5711.138
 30
-478.000
 70
    32
  0
VERTEX
  8
W57LXLIFT
 62
6
 10
363.614
 20
-5710.426
 30
-478.000
 70
    32
  0
VERTEX
  8
W57LXLIFT
 62
6
 10
368.020
 20
-5713.748
 30
-478.000
 70
    32
  0
VERTEX
  8
W57LXLIFT
 62
6
 10
374.342
 20
-5724.297
 30
-478.000
 70
    32
  0
VERTEX
  8
W57LXLIFT
 62
6
 10
380.269
 20
-5730.437
 30
-478.000
 70
    32
  0
VERTEX
  8
W57LXLIFT
 62
6
 10
376.584
 20
-5749.534
 30
-478.000
 70
    32
  0
VERTEX
  8
W57LXLIFT
 62
6
 10
376.477
 20
-5775.293
 30
-478.000
 70
    32
  0
SEQEND
  8
W57LXLIFT
  0
POLYLINE
  8
W57LXLIFT
 62
1
 66
     1
 70
     9
  0
VERTEX
  8
W57LXLIFT
 62
1
 10
362.182
 20
-5789.781
 30
-453.000
 70
    32
  0
VERTEX
  8
W57LXLIFT
 62
1
 10
361.776
 20
-5771.065
 30
-453.000
 70
    32
  0
VERTEX
  8
W57LXLIFT
 62
1
 10
361.018
 20
-5759.164
 30
-453.000
 70
    32
  0
VERTEX
  8
W57LXLIFT
 62
1
 10
356.759
 20
-5746.663
 30
-453.000
 70
    32
  0
VERTEX
  8
W57LXLIFT
 62
1
 10
353.919
 20
-5717.932
 30
-453.000
 70
    32
  0
VERTEX
  8
W57LXLIFT
 62
1
 10
360.219
 20
-5710.138
 30
-453.000
 70
    32
  0
VERTEX
  8
W57LXLIFT
 62
1
 10
364.614
 20
-5709.426
 30
-453.000
 70
    32
  0
VERTEX
  8
W57LXLIFT
 62
1
 10
369.020
 20
-5712.748
 30
-453.000
 70
    32
  0
VERTEX
  8
W57LXLIFT
 62
1
 10
375.342
 20
-5723.297
 30
-453.000
 70
    32
  0
VERTEX
  8
W57LXLIFT
 62
1
 10
381.269
 20
-5729.437
 30
-453.000
 70
    32
  0
VERTEX
  8
W57LXLIFT
 62
1
 10
377.584
 20
-5748.534
 30
-453.000
 70
    32
  0
VERTEX
  8
W57LXLIFT
 62
1
 10
377.477
 20
-5774.293
 30
-453.000
 70
    32
  0
SEQEND
  8
W57LXLIFT
  0
POLYLINE
  8
W57LXLIFT
 62
3
 66
     1
 70
     9
  0
VERTEX
  8
W57LXLIFT
 62
3
 10
345.473
 20
-5588.346
 30
-465.000
 70
    32
  0
VERTEX
  8
W57LXLIFT
 62
3
 10
353.764
 20
-5595.920
 30
-465.000
 70
    32
  0
VERTEX
  8
W57LXLIFT
 62
3
 10
356.711
 20
-5597.254
 30
-465.000
 70
    32
  0
VERTEX
  8
W57LXLIFT
 62
3
 10
362.323
 20
-5598.052
 30
-465.000
 70
    32
  0
VERTEX
  8
W57LXLIFT
 62
3
 10
378.396
 20
-5597.619
 30
-465.000
 70
    32
  0
VERTEX
  8
W57LXLIFT
 62
3
 10
376.169
 20
-5593.244
 30
-465.000
 70
    32
  0
VERTEX
  8
W57LXLIFT
 62
3
 10
370.556
 20
-5570.263
 30
-465.000
 70
    32
  0
VERTEX
  8
W57LXLIFT
 62
3
 10
369.102
 20
-5560.839
 30
-465.000
 70
    32
  0
VERTEX
  8
W57LXLIFT
 62
3
 10
365.194
 20
-5557.152
 30
-465.000
 70
    32
  0
VERTEX
  8
W57LXLIFT
 62
3
 10
357.938
 20
-5546.523
 30
-465.000
 70
    32
  0
VERTEX
  8
W57LXLIFT
 62
3
 10
351.441
 20
-5547.795
 30
-465.000
 70
    32
  0
VERTEX
  8
W57LXLIFT
 62
3
 10
345.372
 20
-5553.670
 30
-465.000
 70
    32
  0
VERTEX
  8
W57LXLIFT
 62
3
 10
346.335
 20
-5566.296
 30
-465.000
 70
    32
  0
VERTEX
  8
W57LXLIFT
 62
3
 10
343.184
 20
-5574.509
 30
-465.000
 70
    32
  0
VERTEX
  8
W57LXLIFT
 62
3
 10
337.588
 20
-5578.944
 30
-465.000
 70
    32
  0
SEQEND
  8
W57LXLIFT
  0
POLYLINE
  8
W57LXLIFT
 62
1
 66
     1
 70
     9
  0
VERTEX
  8
W57LXLIFT
 62
1
 10
338.588
 20
-5577.944
 30
-456.000
 70
    32
  0
VERTEX
  8
W57LXLIFT
 62
1
 10
344.184
 20
-5573.509
 30
-456.000
 70
    32
  0
VERTEX
  8
W57LXLIFT
 62
1
 10
347.335
 20
-5565.296
 30
-456.000
 70
    32
  0
VERTEX
  8
W57LXLIFT
 62
1
 10
346.372
 20
-5552.670
 30
-456.000
 70
    32
  0
VERTEX
  8
W57LXLIFT
 62
1
 10
352.441
 20
-5546.795
 30
-456.000
 70
    32
  0
VERTEX
  8
W57LXLIFT
 62
1
 10
358.938
 20
-5545.523
 30
-456.000
 70
    32
  0
VERTEX
  8
W57LXLIFT
 62
1
 10
366.194
 20
-5556.152
 30
-456.000
 70
    32
  0
VERTEX
  8
W57LXLIFT
 62
1
 10
370.102
 20
-5559.839
 30
-456.000
 70
    32
  0
VERTEX
  8
W57LXLIFT
 62
1
 10
371.556
 20
-5569.263
 30
-456.000
 70
    32
  0
VERTEX
  8
W57LXLIFT
 62
1
 10
377.169
 20
-5592.244
 30
-456.000
 70
    32
  0
VERTEX
  8
W57LXLIFT
 62
1
 10
379.396
 20
-5596.619
 30
-456.000
 70
    32
  0
VERTEX
  8
W57LXLIFT
 62
1
 10
363.323
 20
-5597.052
 30
-456.000
 70
    32
  0
VERTEX
  8
W57LXLIFT
 62
1
 10
357.711
 20
-5596.254
 30
-456.000
 70
    32
  0
VERTEX
  8
W57LXLIFT
 62
1
 10
354.764
 20
-5594.920
 30
-456.000
 70
    32
  0
VERTEX
  8
W57LXLIFT
 62
1
 10
346.473
 20
-5587.346
 30
-456.000
 70
    32
  0
SEQEND
  8
W57LXLIFT
  0
POLYLINE
  8
W57LXLIFT
 62
13
 66
     1
 70
     9
  0
VERTEX
  8
W57LXLIFT
 62
13
 10
401.922
 20
-5773.335
 30
-462.000
 70
    32
  0
VERTEX
  8
W57LXLIFT
 62
13
 10
413.804
 20
-5782.972
 30
-462.000
 70
    32
  0
VERTEX
  8
W57LXLIFT
 62
13
 10
416.391
 20
-5785.007
 30
-462.000
 70
    32
  0
VERTEX
  8
W57LXLIFT
 62
13
 10
423.885
 20
-5799.832
 30
-462.000
 70
    32
  0
VERTEX
  8
W57LXLIFT
 62
13
 10
441.950
 20
-5794.221
 30
-462.000
 70
    32
  0
VERTEX
  8
W57LXLIFT
 62
13
 10
441.524
 20
-5784.262
 30
-462.000
 70
    32
  0
VERTEX
  8
W57LXLIFT
 62
13
 10
444.429
 20
-5777.649
 30
-462.000
 70
    32
  0
VERTEX
  8
W57LXLIFT
 62
13
 10
435.012
 20
-5763.034
 30
-462.000
 70
    32
  0
VERTEX
  8
W57LXLIFT
 62
13
 10
423.031
 20
-5742.542
 30
-462.000
 70
    32
  0
VERTEX
  8
W57LXLIFT
 62
13
 10
423.079
 20
-5732.781
 30
-462.000
 70
    32
  0
VERTEX
  8
W57LXLIFT
 62
13
 10
420.103
 20
-5729.174
 30
-462.000
 70
    32
  0
VERTEX
  8
W57LXLIFT
 62
13
 10
421.127
 20
-5720.445
 30
-462.000
 70
    32
  0
VERTEX
  8
W57LXLIFT
 62
13
 10
422.275
 20
-5715.012
 30
-462.000
 70
    32
  0
VERTEX
  8
W57LXLIFT
 62
13
 10
415.471
 20
-5706.784
 30
-462.000
 70
    32
  0
VERTEX
  8
W57LXLIFT
 62
13
 10
409.118
 20
-5714.507
 30
-462.000
 70
    32
  0
VERTEX
  8
W57LXLIFT
 62
13
 10
395.610
 20
-5710.544
 30
-462.000
 70
    32
  0
VERTEX
  8
W57LXLIFT
 62
13
 10
386.209
 20
-5678.979
 30
-462.000
 70
    32
  0
VERTEX
  8
W57LXLIFT
 62
13
 10
382.331
 20
-5670.569
 30
-462.000
 70
    32
  0
VERTEX
  8
W57LXLIFT
 62
13
 10
374.676
 20
-5654.333
 30
-462.000
 70
    32
  0
VERTEX
  8
W57LXLIFT
 62
13
 10
369.560
 20
-5641.260
 30
-462.000
 70
    32
  0
VERTEX
  8
W57LXLIFT
 62
13
 10
364.864
 20
-5635.309
 30
-462.000
 70
    32
  0
VERTEX
  8
W57LXLIFT
 62
13
 10
374.871
 20
-5625.122
 30
-462.000
 70
    32
  0
VERTEX
  8
W57LXLIFT
 62
13
 10
369.287
 20
-5614.687
 30
-462.000
 70
    32
  0
VERTEX
  8
W57LXLIFT
 62
13
 10
354.252
 20
-5616.981
 30
-462.000
 70
    32
  0
VERTEX
  8
W57LXLIFT
 62
13
 10
350.177
 20
-5612.322
 30
-462.000
 70
    32
  0
VERTEX
  8
W57LXLIFT
 62
13
 10
346.326
 20
-5599.632
 30
-462.000
 70
    32
  0
VERTEX
  8
W57LXLIFT
 62
13
 10
361.258
 20
-5588.562
 30
-462.000
 70
    32
  0
VERTEX
  8
W57LXLIFT
 62
13
 10
364.944
 20
-5571.104
 30
-462.000
 70
    32
  0
VERTEX
  8
W57LXLIFT
 62
13
 10
362.471
 20
-5568.330
 30
-462.000
 70
    32
  0
VERTEX
  8
W57LXLIFT
 62
13
 10
360.421
 20
-5550.055
 30
-462.000
 70
    32
  0
VERTEX
  8
W57LXLIFT
 62
13
 10
348.248
 20
-5544.784
 30
-462.000
 70
    32
  0
VERTEX
  8
W57LXLIFT
 62
13
 10
334.312
 20
-5560.040
 30
-462.000
 70
    32
  0
VERTEX
  8
W57LXLIFT
 62
13
 10
335.291
 20
-5567.627
 30
-462.000
 70
    32
  0
VERTEX
  8
W57LXLIFT
 62
13
 10
332.437
 20
-5572.672
 30
-462.000
 70
    32
  0
VERTEX
  8
W57LXLIFT
 62
13
 10
319.986
 20
-5580.719
 30
-462.000
 70
    32
  0
VERTEX
  8
W57LXLIFT
 62
13
 10
321.296
 20
-5588.608
 30
-462.000
 70
    32
  0
VERTEX
  8
W57LXLIFT
 62
13
 10
319.086
 20
-5603.016
 30
-462.000
 70
    32
  0
VERTEX
  8
W57LXLIFT
 62
13
 10
332.470
 20
-5603.682
 30
-462.000
 70
    32
  0
VERTEX
  8
W57LXLIFT
 62
13
 10
333.707
 20
-5615.342
 30
-462.000
 70
    32
  0
VERTEX
  8
W57LXLIFT
 62
13
 10
333.990
 20
-5623.767
 30
-462.000
 70
    32
  0
VERTEX
  8
W57LXLIFT
 62
13
 10
335.388
 20
-5624.926
 30
-462.000
 70
    32
  0
VERTEX
  8
W57LXLIFT
 62
13
 10
332.572
 20
-5631.364
 30
-462.000
 70
    32
  0
VERTEX
  8
W57LXLIFT
 62
13
 10
340.185
 20
-5636.376
 30
-462.000
 70
    32
  0
VERTEX
  8
W57LXLIFT
 62
13
 10
350.358
 20
-5646.066
 30
-462.000
 70
    32
  0
VERTEX
  8
W57LXLIFT
 62
13
 10
354.945
 20
-5652.315
 30
-462.000
 70
    32
  0
VERTEX
  8
W57LXLIFT
 62
13
 10
367.133
 20
-5669.814
 30
-462.000
 70
    32
  0
VERTEX
  8
W57LXLIFT
 62
13
 10
370.036
 20
-5678.830
 30
-462.000
 70
    32
  0
VERTEX
  8
W57LXLIFT
 62
13
 10
376.310
 20
-5697.501
 30
-462.000
 70
    32
  0
VERTEX
  8
W57LXLIFT
 62
13
 10
389.269
 20
-5712.029
 30
-462.000
 70
    32
  0
VERTEX
  8
W57LXLIFT
 62
13
 10
391.280
 20
-5728.912
 30
-462.000
 70
    32
  0
VERTEX
  8
W57LXLIFT
 62
13
 10
396.842
 20
-5744.827
 30
-462.000
 70
    32
  0
VERTEX
  8
W57LXLIFT
 62
13
 10
404.326
 20
-5746.983
 30
-462.000
 70
    32
  0
VERTEX
  8
W57LXLIFT
 62
13
 10
398.976
 20
-5751.456
 30
-462.000
 70
    32
  0
VERTEX
  8
W57LXLIFT
 62
13
 10
392.898
 20
-5758.212
 30
-462.000
 70
    32
  0
SEQEND
  8
W57LXLIFT
  0
POLYLINE
  8
W57LXLIFT
 62
5
 66
     1
 70
     9
  0
VERTEX
  8
W57LXLIFT
 62
5
 10
1133.378
 20
-6931.377
 30
-470.016
 70
    32
  0
VERTEX
  8
W57LXLIFT
 62
5
 10
1135.896
 20
-6926.785
 30
-469.364
 70
    32
  0
VERTEX
  8
W57LXLIFT
 62
5
 10
1135.505
 20
-6920.667
 30
-468.705
 70
    32
  0
VERTEX
  8
W57LXLIFT
 62
5
 10
1127.234
 20
-6908.605
 30
-468.000
 70
    32
  0
VERTEX
  8
W57LXLIFT
 62
5
 10
1125.646
 20
-6902.622
 30
-468.000
 70
    32
  0
VERTEX
  8
W57LXLIFT
 62
5
 10
1133.826
 20
-6897.495
 30
-468.000
 70
    32
  0
VERTEX
  8
W57LXLIFT
 62
5
 10
1156.100
 20
-6913.949
 30
-468.000
 70
    32
  0
VERTEX
  8
W57LXLIFT
 62
5
 10
1159.198
 20
-6920.221
 30
-468.000
 70
    32
  0
VERTEX
  8
W57LXLIFT
 62
5
 10
1160.092
 20
-6931.297
 30
-468.120
 70
    32
  0
VERTEX
  8
W57LXLIFT
 62
5
 10
1149.128
 20
-6937.922
 30
-469.532
 70
    32
  0
VERTEX
  8
W57LXLIFT
 62
5
 10
1142.169
 20
-6937.782
 30
-470.021
 70
    32
  0
SEQEND
  8
W57LXLIFT
  0
POLYLINE
  8
W57LXLIFT
 62
2
 66
     1
 70
     9
  0
VERTEX
  8
W57LXLIFT
 62
2
 10
1241.300
 20
-8168.334
 30
-509.675
 70
    32
  0
VERTEX
  8
W57LXLIFT
 62
2
 10
1248.329
 20
-8157.755
 30
-509.659
 70
    32
  0
VERTEX
  8
W57LXLIFT
 62
2
 10
1249.584
 20
-8158.170
 30
-509.653
 70
    32
  0
VERTEX
  8
W57LXLIFT
 62
2
 10
1253.252
 20
-8163.135
 30
-509.630
 70
    32
  0
VERTEX
  8
W57LXLIFT
 62
2
 10
1264.523
 20
-8165.602
 30
-509.578
 70
    32
  0
VERTEX
  8
W57LXLIFT
 62
2
 10
1271.299
 20
-8169.479
 30
-509.543
 70
    32
  0
VERTEX
  8
W57LXLIFT
 62
2
 10
1273.624
 20
-8172.049
 30
-509.529
 70
    32
  0
VERTEX
  8
W57LXLIFT
 62
2
 10
1274.375
 20
-8179.149
 30
-509.516
 70
    32
  0
VERTEX
  8
W57LXLIFT
 62
2
 10
1277.408
 20
-8179.187
 30
-509.503
 70
    32
  0
VERTEX
  8
W57LXLIFT
 62
2
 10
1279.503
 20
-8181.273
 30
-509.491
 70
    32
  0
VERTEX
  8
W57LXLIFT
 62
2
 10
1284.925
 20
-8195.862
 30
-509.447
 70
    32
  0
VERTEX
  8
W57LXLIFT
 62
2
 10
1287.143
 20
-8200.439
 30
-509.431
 70
    32
  0
VERTEX
  8
W57LXLIFT
 62
2
 10
1301.412
 20
-8209.841
 30
-509.406
 70
    32
  0
VERTEX
  8
W57LXLIFT
 62
2
 10
1308.108
 20
-8223.328
 30
-509.417
 70
    32
  0
VERTEX
  8
W57LXLIFT
 62
2
 10
1321.384
 20
-8224.509
 30
-509.378
 70
    32
  0
VERTEX
  8
W57LXLIFT
 62
2
 10
1325.130
 20
-8227.271
 30
-509.373
 70
    32
  0
VERTEX
  8
W57LXLIFT
 62
2
 10
1327.997
 20
-8248.683
 30
-509.414
 70
    32
  0
VERTEX
  8
W57LXLIFT
 62
2
 10
1322.951
 20
-8253.159
 30
-509.440
 70
    32
  0
VERTEX
  8
W57LXLIFT
 62
2
 10
1322.038
 20
-8256.478
 30
-509.451
 70
    32
  0
VERTEX
  8
W57LXLIFT
 62
2
 10
1327.401
 20
-8271.752
 30
-509.470
 70
    32
  0
VERTEX
  8
W57LXLIFT
 62
2
 10
1315.603
 20
-8278.562
 30
-509.523
 70
    32
  0
VERTEX
  8
W57LXLIFT
 62
2
 10
1310.667
 20
-8275.016
 30
-509.530
 70
    32
  0
VERTEX
  8
W57LXLIFT
 62
2
 10
1308.337
 20
-8267.189
 30
-509.519
 70
    32
  0
VERTEX
  8
W57LXLIFT
 62
2
 10
1298.880
 20
-8266.250
 30
-509.546
 70
    32
  0
VERTEX
  8
W57LXLIFT
 62
2
 10
1291.883
 20
-8268.540
 30
-509.573
 70
    32
  0
VERTEX
  8
W57LXLIFT
 62
2
 10
1283.592
 20
-8274.109
 30
-509.612
 70
    32
  0
VERTEX
  8
W57LXLIFT
 62
2
 10
1272.601
 20
-8276.475
 30
-509.652
 70
    32
  0
VERTEX
  8
W57LXLIFT
 62
2
 10
1265.766
 20
-8268.345
 30
-509.654
 70
    32
  0
VERTEX
  8
W57LXLIFT
 62
2
 10
1265.272
 20
-8264.394
 30
-509.647
 70
    32
  0
VERTEX
  8
W57LXLIFT
 62
2
 10
1254.141
 20
-8244.221
 30
-509.634
 70
    32
  0
VERTEX
  8
W57LXLIFT
 62
2
 10
1250.644
 20
-8223.140
 30
-509.596
 70
    32
  0
VERTEX
  8
W57LXLIFT
 62
2
 10
1246.983
 20
-8218.493
 30
-509.596
 70
    32
  0
VERTEX
  8
W57LXLIFT
 62
2
 10
1249.496
 20
-8208.347
 30
-509.583
 70
    32
  0
VERTEX
  8
W57LXLIFT
 62
2
 10
1248.406
 20
-8199.894
 30
-509.600
 70
    32
  0
VERTEX
  8
W57LXLIFT
 62
2
 10
1241.381
 20
-8183.248
 30
-509.654
 70
    32
  0
VERTEX
  8
W57LXLIFT
 62
2
 10
1237.302
 20
-8178.424
 30
-509.678
 70
    32
  0
SEQEND
  8
W57LXLIFT
  0
POLYLINE
  8
W57LXLIFT
 62
1
 66
     1
 70
     9
  0
VERTEX
  8
W57LXLIFT
 62
1
 10
1234.847
 20
-7722.652
 30
-376.000
 70
    32
  0
VERTEX
  8
W57LXLIFT
 62
1
 10
1231.214
 20
-7724.226
 30
-376.000
 70
    32
  0
VERTEX
  8
W57LXLIFT
 62
1
 10
1228.786
 20
-7720.022
 30
-376.000
 70
    32
  0
VERTEX
  8
W57LXLIFT
 62
1
 10
1227.252
 20
-7707.983
 30
-376.000
 70
    32
  0
VERTEX
  8
W57LXLIFT
 62
1
 10
1221.350
 20
-7694.139
 30
-376.000
 70
    32
  0
VERTEX
  8
W57LXLIFT
 62
1
 10
1214.142
 20
-7679.404
 30
-376.000
 70
    32
  0
VERTEX
  8
W57LXLIFT
 62
1
 10
1219.975
 20
-7672.519
 30
-376.000
 70
    32
  0
VERTEX
  8
W57LXLIFT
 62
1
 10
1222.660
 20
-7672.619
 30
-376.000
 70
    32
  0
VERTEX
  8
W57LXLIFT
 62
1
 10
1224.795
 20
-7676.275
 30
-376.000
 70
    32
  0
VERTEX
  8
W57LXLIFT
 62
1
 10
1232.702
 20
-7677.118
 30
-376.000
 70
    32
  0
VERTEX
  8
W57LXLIFT
 62
1
 10
1240.097
 20
-7682.904
 30
-376.000
 70
    32
  0
VERTEX
  8
W57LXLIFT
 62
1
 10
1247.343
 20
-7695.762
 30
-376.000
 70
    32
  0
VERTEX
  8
W57LXLIFT
 62
1
 10
1251.972
 20
-7707.274
 30
-376.000
 70
    32
  0
VERTEX
  8
W57LXLIFT
 62
1
 10
1251.276
 20
-7714.638
 30
-376.000
 70
    32
  0
VERTEX
  8
W57LXLIFT
 62
1
 10
1246.108
 20
-7720.056
 30
-376.000
 70
    32
  0
VERTEX
  8
W57LXLIFT
 62
1
 10
1244.694
 20
-7717.829
 30
-376.000
 70
    32
  0
SEQEND
  8
W57LXLIFT
  0
POLYLINE
  8
W57LXLIFT
 62
1
 66
     1
 70
     9
  0
VERTEX
  8
W57LXLIFT
 62
1
 10
1353.140
 20
-7855.721
 30
-372.000
 70
    32
  0
VERTEX
  8
W57LXLIFT
 62
1
 10
1366.073
 20
-7865.500
 30
-372.000
 70
    32
  0
VERTEX
  8
W57LXLIFT
 62
1
 10
1376.033
 20
-7886.813
 30
-372.000
 70
    32
  0
VERTEX
  8
W57LXLIFT
 62
1
 10
1380.560
 20
-7893.287
 30
-372.000
 70
    32
  0
VERTEX
  8
W57LXLIFT
 62
1
 10
1391.740
 20
-7907.504
 30
-372.000
 70
    32
  0
VERTEX
  8
W57LXLIFT
 62
1
 10
1394.791
 20
-7910.926
 30
-372.000
 70
    32
  0
VERTEX
  8
W57LXLIFT
 62
1
 10
1393.147
 20
-7918.332
 30
-372.000
 70
    32
  0
VERTEX
  8
W57LXLIFT
 62
1
 10
1389.679
 20
-7920.873
 30
-372.000
 70
    32
  0
VERTEX
  8
W57LXLIFT
 62
1
 10
1380.674
 20
-7919.422
 30
-372.000
 70
    32
  0
VERTEX
  8
W57LXLIFT
 62
1
 10
1374.539
 20
-7912.386
 30
-372.000
 70
    32
  0
VERTEX
  8
W57LXLIFT
 62
1
 10
1364.154
 20
-7904.004
 30
-372.000
 70
    32
  0
VERTEX
  8
W57LXLIFT
 62
1
 10
1350.848
 20
-7897.872
 30
-372.000
 70
    32
  0
VERTEX
  8
W57LXLIFT
 62
1
 10
1348.170
 20
-7890.804
 30
-372.000
 70
    32
  0
VERTEX
  8
W57LXLIFT
 62
1
 10
1347.732
 20
-7876.547
 30
-372.000
 70
    32
  0
VERTEX
  8
W57LXLIFT
 62
1
 10
1345.170
 20
-7862.215
 30
-372.000
 70
    32
  0
SEQEND
  8
W57LXLIFT
  0
POLYLINE
  8
W57LXLIFT
 62
4
 66
     1
 70
     9
  0
VERTEX
  8
W57LXLIFT
 62
4
 10
1415.952
 20
-7860.393
 30
-507.885
 70
    32
  0
VERTEX
  8
W57LXLIFT
 62
4
 10
1416.058
 20
-7863.912
 30
-507.897
 70
    32
  0
VERTEX
  8
W57LXLIFT
 62
4
 10
1421.862
 20
-7883.095
 30
-507.951
 70
    32
  0
VERTEX
  8
W57LXLIFT
 62
4
 10
1420.182
 20
-7887.266
 30
-507.969
 70
    32
  0
VERTEX
  8
W57LXLIFT
 62
4
 10
1405.062
 20
-7896.826
 30
-508.037
 70
    32
  0
VERTEX
  8
W57LXLIFT
 62
4
 10
1392.978
 20
-7872.288
 30
-507.978
 70
    32
  0
VERTEX
  8
W57LXLIFT
 62
4
 10
1385.378
 20
-7861.576
 30
-507.958
 70
    32
  0
VERTEX
  8
W57LXLIFT
 62
4
 10
1376.101
 20
-7837.090
 30
-507.914
 70
    32
  0
VERTEX
  8
W57LXLIFT
 62
4
 10
1371.825
 20
-7825.203
 30
-507.902
 70
    32
  0
VERTEX
  8
W57LXLIFT
 62
4
 10
1363.772
 20
-7811.984
 30
-507.922
 70
    32
  0
VERTEX
  8
W57LXLIFT
 62
4
 10
1353.145
 20
-7798.640
 30
-507.967
 70
    32
  0
VERTEX
  8
W57LXLIFT
 62
4
 10
1354.020
 20
-7795.751
 30
-507.945
 70
    32
  0
VERTEX
  8
W57LXLIFT
 62
4
 10
1357.248
 20
-7792.063
 30
-507.896
 70
    32
  0
VERTEX
  8
W57LXLIFT
 62
4
 10
1376.311
 20
-7780.201
 30
-507.694
 70
    32
  0
VERTEX
  8
W57LXLIFT
 62
4
 10
1381.992
 20
-7787.315
 30
-507.706
 70
    32
  0
VERTEX
  8
W57LXLIFT
 62
4
 10
1402.510
 20
-7827.882
 30
-507.801
 70
    32
  0
VERTEX
  8
W57LXLIFT
 62
4
 10
1406.145
 20
-7840.263
 30
-507.836
 70
    32
  0
VERTEX
  8
W57LXLIFT
 62
4
 10
1413.125
 20
-7853.074
 30
-507.865
 70
    32
  0
SEQEND
  8
W57LXLIFT
  0
POLYLINE
  8
W57LXLIFT
 62
13
 66
     1
 70
     9
  0
VERTEX
  8
W57LXLIFT
 62
13
 10
1152.534
 20
-7446.116
 30
-445.000
 70
    32
  0
VERTEX
  8
W57LXLIFT
 62
13
 10
1165.519
 20
-7443.350
 30
-445.000
 70
    32
  0
VERTEX
  8
W57LXLIFT
 62
13
 10
1168.378
 20
-7445.952
 30
-445.000
 70
    32
  0
VERTEX
  8
W57LXLIFT
 62
13
 10
1173.306
 20
-7449.012
 30
-445.000
 70
    32
  0
VERTEX
  8
W57LXLIFT
 62
13
 10
1180.290
 20
-7450.261
 30
-445.000
 70
    32
  0
VERTEX
  8
W57LXLIFT
 62
13
 10
1189.079
 20
-7463.017
 30
-445.000
 70
    32
  0
VERTEX
  8
W57LXLIFT
 62
13
 10
1202.309
 20
-7472.453
 30
-445.000
 70
    32
  0
VERTEX
  8
W57LXLIFT
 62
13
 10
1214.469
 20
-7473.651
 30
-445.000
 70
    32
  0
VERTEX
  8
W57LXLIFT
 62
13
 10
1217.582
 20
-7477.807
 30
-445.000
 70
    32
  0
VERTEX
  8
W57LXLIFT
 62
13
 10
1223.302
 20
-7479.860
 30
-445.000
 70
    32
  0
VERTEX
  8
W57LXLIFT
 62
13
 10
1227.304
 20
-7485.545
 30
-445.000
 70
    32
  0
VERTEX
  8
W57LXLIFT
 62
13
 10
1231.881
 20
-7491.574
 30
-445.000
 70
    32
  0
VERTEX
  8
W57LXLIFT
 62
13
 10
1242.173
 20
-7498.900
 30
-445.000
 70
    32
  0
VERTEX
  8
W57LXLIFT
 62
13
 10
1250.327
 20
-7514.831
 30
-445.000
 70
    32
  0
VERTEX
  8
W57LXLIFT
 62
13
 10
1256.674
 20
-7519.254
 30
-445.000
 70
    32
  0
VERTEX
  8
W57LXLIFT
 62
13
 10
1255.453
 20
-7532.182
 30
-445.000
 70
    32
  0
VERTEX
  8
W57LXLIFT
 62
13
 10
1241.902
 20
-7529.610
 30
-445.000
 70
    32
  0
VERTEX
  8
W57LXLIFT
 62
13
 10
1238.989
 20
-7523.029
 30
-445.000
 70
    32
  0
VERTEX
  8
W57LXLIFT
 62
13
 10
1233.294
 20
-7516.505
 30
-445.000
 70
    32
  0
VERTEX
  8
W57LXLIFT
 62
13
 10
1228.793
 20
-7518.239
 30
-445.000
 70
    32
  0
VERTEX
  8
W57LXLIFT
 62
13
 10
1216.763
 20
-7507.609
 30
-445.000
 70
    32
  0
VERTEX
  8
W57LXLIFT
 62
13
 10
1212.405
 20
-7502.182
 30
-445.000
 70
    32
  0
VERTEX
  8
W57LXLIFT
 62
13
 10
1205.524
 20
-7501.077
 30
-445.000
 70
    32
  0
VERTEX
  8
W57LXLIFT
 62
13
 10
1201.450
 20
-7493.490
 30
-445.000
 70
    32
  0
VERTEX
  8
W57LXLIFT
 62
13
 10
1199.936
 20
-7486.440
 30
-445.000
 70
    32
  0
VERTEX
  8
W57LXLIFT
 62
13
 10
1193.517
 20
-7482.069
 30
-445.000
 70
    32
  0
VERTEX
  8
W57LXLIFT
 62
13
 10
1186.680
 20
-7474.416
 30
-445.000
 70
    32
  0
VERTEX
  8
W57LXLIFT
 62
13
 10
1176.356
 20
-7466.896
 30
-445.000
 70
    32
  0
VERTEX
  8
W57LXLIFT
 62
13
 10
1170.069
 20
-7464.058
 30
-445.000
 70
    32
  0
VERTEX
  8
W57LXLIFT
 62
13
 10
1166.631
 20
-7467.413
 30
-445.000
 70
    32
  0
SEQEND
  8
W57LXLIFT
  0
POLYLINE
  8
W57LXLIFT
 62
1
 66
     1
 70
     9
  0
VERTEX
  8
W57LXLIFT
 62
1
 10
1153.534
 20
-7445.116
 30
-435.000
 70
    32
  0
VERTEX
  8
W57LXLIFT
 62
1
 10
1166.519
 20
-7442.350
 30
-435.000
 70
    32
  0
VERTEX
  8
W57LXLIFT
 62
1
 10
1169.378
 20
-7444.952
 30
-435.000
 70
    32
  0
VERTEX
  8
W57LXLIFT
 62
1
 10
1174.306
 20
-7448.012
 30
-435.000
 70
    32
  0
VERTEX
  8
W57LXLIFT
 62
1
 10
1181.290
 20
-7449.261
 30
-435.000
 70
    32
  0
VERTEX
  8
W57LXLIFT
 62
1
 10
1190.079
 20
-7462.017
 30
-435.000
 70
    32
  0
VERTEX
  8
W57LXLIFT
 62
1
 10
1203.309
 20
-7471.453
 30
-435.000
 70
    32
  0
VERTEX
  8
W57LXLIFT
 62
1
 10
1215.469
 20
-7472.651
 30
-435.000
 70
    32
  0
VERTEX
  8
W57LXLIFT
 62
1
 10
1218.582
 20
-7476.807
 30
-435.000
 70
    32
  0
VERTEX
  8
W57LXLIFT
 62
1
 10
1224.302
 20
-7478.860
 30
-435.000
 70
    32
  0
VERTEX
  8
W57LXLIFT
 62
1
 10
1228.304
 20
-7484.545
 30
-435.000
 70
    32
  0
VERTEX
  8
W57LXLIFT
 62
1
 10
1232.881
 20
-7490.574
 30
-435.000
 70
    32
  0
VERTEX
  8
W57LXLIFT
 62
1
 10
1243.173
 20
-7497.900
 30
-435.000
 70
    32
  0
VERTEX
  8
W57LXLIFT
 62
1
 10
1251.327
 20
-7513.831
 30
-435.000
 70
    32
  0
VERTEX
  8
W57LXLIFT
 62
1
 10
1257.674
 20
-7518.254
 30
-435.000
 70
    32
  0
VERTEX
  8
W57LXLIFT
 62
1
 10
1256.453
 20
-7531.182
 30
-435.000
 70
    32
  0
VERTEX
  8
W57LXLIFT
 62
1
 10
1242.902
 20
-7528.610
 30
-435.000
 70
    32
  0
VERTEX
  8
W57LXLIFT
 62
1
 10
1239.989
 20
-7522.029
 30
-435.000
 70
    32
  0
VERTEX
  8
W57LXLIFT
 62
1
 10
1234.294
 20
-7515.505
 30
-435.000
 70
    32
  0
VERTEX
  8
W57LXLIFT
 62
1
 10
1229.793
 20
-7517.239
 30
-435.000
 70
    32
  0
VERTEX
  8
W57LXLIFT
 62
1
 10
1217.763
 20
-7506.609
 30
-435.000
 70
    32
  0
VERTEX
  8
W57LXLIFT
 62
1
 10
1213.405
 20
-7501.182
 30
-435.000
 70
    32
  0
VERTEX
  8
W57LXLIFT
 62
1
 10
1206.524
 20
-7500.077
 30
-435.000
 70
    32
  0
VERTEX
  8
W57LXLIFT
 62
1
 10
1202.450
 20
-7492.490
 30
-435.000
 70
    32
  0
VERTEX
  8
W57LXLIFT
 62
1
 10
1200.936
 20
-7485.440
 30
-435.000
 70
    32
  0
VERTEX
  8
W57LXLIFT
 62
1
 10
1194.517
 20
-7481.069
 30
-435.000
 70
    32
  0
VERTEX
  8
W57LXLIFT
 62
1
 10
1187.680
 20
-7473.416
 30
-435.000
 70
    32
  0
VERTEX
  8
W57LXLIFT
 62
1
 10
1177.356
 20
-7465.896
 30
-435.000
 70
    32
  0
VERTEX
  8
W57LXLIFT
 62
1
 10
1171.069
 20
-7463.058
 30
-435.000
 70
    32
  0
VERTEX
  8
W57LXLIFT
 62
1
 10
1167.631
 20
-7466.413
 30
-435.000
 70
    32
  0
SEQEND
  8
W57LXLIFT
  0
POLYLINE
  8
W57LXLIFT
 62
1
 66
     1
 70
     9
  0
VERTEX
  8
W57LXLIFT
 62
1
 10
1137.910
 20
-7487.698
 30
-453.000
 70
    32
  0
VERTEX
  8
W57LXLIFT
 62
1
 10
1133.674
 20
-7482.299
 30
-453.000
 70
    32
  0
VERTEX
  8
W57LXLIFT
 62
1
 10
1129.738
 20
-7485.259
 30
-453.000
 70
    32
  0
VERTEX
  8
W57LXLIFT
 62
1
 10
1122.802
 20
-7475.085
 30
-453.000
 70
    32
  0
VERTEX
  8
W57LXLIFT
 62
1
 10
1127.565
 20
-7472.069
 30
-453.000
 70
    32
  0
VERTEX
  8
W57LXLIFT
 62
1
 10
1119.538
 20
-7460.839
 30
-453.000
 70
    32
  0
VERTEX
  8
W57LXLIFT
 62
1
 10
1124.806
 20
-7457.022
 30
-453.000
 70
    32
  0
VERTEX
  8
W57LXLIFT
 62
1
 10
1117.895
 20
-7447.481
 30
-453.000
 70
    32
  0
VERTEX
  8
W57LXLIFT
 62
1
 10
1123.551
 20
-7443.601
 30
-453.000
 70
    32
  0
VERTEX
  8
W57LXLIFT
 62
1
 10
1097.808
 20
-7407.316
 30
-453.000
 70
    32
  0
VERTEX
  8
W57LXLIFT
 62
1
 10
1113.030
 20
-7397.157
 30
-453.000
 70
    32
  0
VERTEX
  8
W57LXLIFT
 62
1
 10
1120.516
 20
-7407.042
 30
-453.000
 70
    32
  0
VERTEX
  8
W57LXLIFT
 62
1
 10
1126.585
 20
-7403.730
 30
-453.000
 70
    32
  0
VERTEX
  8
W57LXLIFT
 62
1
 10
1136.661
 20
-7418.687
 30
-453.000
 70
    32
  0
VERTEX
  8
W57LXLIFT
 62
1
 10
1131.360
 20
-7422.310
 30
-453.000
 70
    32
  0
VERTEX
  8
W57LXLIFT
 62
1
 10
1135.261
 20
-7427.844
 30
-453.000
 70
    32
  0
VERTEX
  8
W57LXLIFT
 62
1
 10
1130.375
 20
-7430.840
 30
-453.000
 70
    32
  0
VERTEX
  8
W57LXLIFT
 62
1
 10
1137.304
 20
-7441.454
 30
-453.000
 70
    32
  0
VERTEX
  8
W57LXLIFT
 62
1
 10
1142.462
 20
-7437.934
 30
-453.000
 70
    32
  0
VERTEX
  8
W57LXLIFT
 62
1
 10
1145.505
 20
-7442.135
 30
-453.000
 70
    32
  0
VERTEX
  8
W57LXLIFT
 62
1
 10
1140.716
 20
-7445.714
 30
-453.000
 70
    32
  0
VERTEX
  8
W57LXLIFT
 62
1
 10
1148.077
 20
-7456.774
 30
-453.000
 70
    32
  0
VERTEX
  8
W57LXLIFT
 62
1
 10
1143.073
 20
-7460.507
 30
-453.000
 70
    32
  0
VERTEX
  8
W57LXLIFT
 62
1
 10
1150.022
 20
-7470.998
 30
-453.000
 70
    32
  0
VERTEX
  8
W57LXLIFT
 62
1
 10
1145.944
 20
-7474.061
 30
-453.000
 70
    32
  0
VERTEX
  8
W57LXLIFT
 62
1
 10
1149.243
 20
-7479.813
 30
-453.000
 70
    32
  0
SEQEND
  8
W57LXLIFT
  0
POLYLINE
  8
W57LXLIFT
 62
8
 66
     1
 70
     9
  0
VERTEX
  8
W57LXLIFT
 62
8
 10
1038.290
 20
-7086.397
 30
-495.655
 70
    32
  0
VERTEX
  8
W57LXLIFT
 62
8
 10
1044.237
 20
-7090.637
 30
-495.967
 70
    32
  0
VERTEX
  8
W57LXLIFT
 62
8
 10
1055.554
 20
-7129.667
 30
-495.796
 70
    32
  0
VERTEX
  8
W57LXLIFT
 62
8
 10
1065.442
 20
-7148.552
 30
-496.022
 70
    32
  0
VERTEX
  8
W57LXLIFT
 62
8
 10
1073.040
 20
-7167.847
 30
-496.750
 70
    32
  0
VERTEX
  8
W57LXLIFT
 62
8
 10
1073.750
 20
-7186.213
 30
-497.581
 70
    32
  0
VERTEX
  8
W57LXLIFT
 62
8
 10
1066.390
 20
-7187.482
 30
-497.736
 70
    32
  0
VERTEX
  8
W57LXLIFT
 62
8
 10
1057.580
 20
-7180.508
 30
-497.435
 70
    32
  0
VERTEX
  8
W57LXLIFT
 62
8
 10
1034.476
 20
-7138.716
 30
-496.078
 70
    32
  0
VERTEX
  8
W57LXLIFT
 62
8
 10
1027.237
 20
-7111.126
 30
-495.051
 70
    32
  0
SEQEND
  8
W57LXLIFT
  0
POLYLINE
  8
W57LXLIFT
 62
3
 66
     1
 70
     9
  0
VERTEX
  8
W57LXLIFT
 62
3
 10
1100.927
 20
-6886.002
 30
-385.000
 70
    32
  0
VERTEX
  8
W57LXLIFT
 62
3
 10
1090.563
 20
-6884.123
 30
-385.000
 70
    32
  0
VERTEX
  8
W57LXLIFT
 62
3
 10
1084.413
 20
-6877.274
 30
-385.000
 70
    32
  0
VERTEX
  8
W57LXLIFT
 62
3
 10
1078.212
 20
-6870.353
 30
-385.000
 70
    32
  0
VERTEX
  8
W57LXLIFT
 62
3
 10
1075.537
 20
-6856.340
 30
-385.000
 70
    32
  0
VERTEX
  8
W57LXLIFT
 62
3
 10
1076.807
 20
-6847.081
 30
-385.000
 70
    32
  0
VERTEX
  8
W57LXLIFT
 62
3
 10
1069.763
 20
-6846.586
 30
-385.000
 70
    32
  0
VERTEX
  8
W57LXLIFT
 62
3
 10
1056.751
 20
-6849.727
 30
-385.000
 70
    32
  0
VERTEX
  8
W57LXLIFT
 62
3
 10
1053.987
 20
-6858.445
 30
-385.000
 70
    32
  0
VERTEX
  8
W57LXLIFT
 62
3
 10
1054.669
 20
-6872.724
 30
-385.000
 70
    32
  0
VERTEX
  8
W57LXLIFT
 62
3
 10
1063.056
 20
-6877.265
 30
-385.000
 70
    32
  0
VERTEX
  8
W57LXLIFT
 62
3
 10
1067.167
 20
-6878.831
 30
-385.000
 70
    32
  0
VERTEX
  8
W57LXLIFT
 62
3
 10
1071.553
 20
-6883.587
 30
-385.000
 70
    32
  0
VERTEX
  8
W57LXLIFT
 62
3
 10
1073.315
 20
-6888.200
 30
-385.000
 70
    32
  0
VERTEX
  8
W57LXLIFT
 62
3
 10
1067.601
 20
-6902.270
 30
-385.000
 70
    32
  0
VERTEX
  8
W57LXLIFT
 62
3
 10
1073.516
 20
-6909.841
 30
-385.000
 70
    32
  0
VERTEX
  8
W57LXLIFT
 62
3
 10
1086.672
 20
-6906.155
 30
-385.000
 70
    32
  0
VERTEX
  8
W57LXLIFT
 62
3
 10
1101.909
 20
-6897.869
 30
-385.000
 70
    32
  0
VERTEX
  8
W57LXLIFT
 62
3
 10
1106.772
 20
-6895.704
 30
-385.000
 70
    32
  0
SEQEND
  8
W57LXLIFT
  0
POINT
  8
W57LXLIFT
 62
3
 10
1077.072
 20
-6879.849
 30
-385.000
  0
POINT
  8
W57LXLIFT
 62
3
 10
1123.902
 20
-6841.827
 30
-490.976
  0
LINE
  8
W57LXLIFT
 62
3
 10
1077.072
 20
-6879.849
 30
-385.000
 11
1123.902
 21
-6841.827
 31
-490.976
  0
POLYLINE
  8
W57LXLIFT
 62
6
 66
     1
 70
     9
  0
VERTEX
  8
W57LXLIFT
 62
6
 10
1113.200
 20
-6938.561
 30
-388.000
 70
    32
  0
VERTEX
  8
W57LXLIFT
 62
6
 10
1139.957
 20
-7020.502
 30
-388.000
 70
    32
  0
VERTEX
  8
W57LXLIFT
 62
6
 10
1112.436
 20
-7040.143
 30
-388.000
 70
    32
  0
VERTEX
  8
W57LXLIFT
 62
6
 10
1105.478
 20
-7031.052
 30
-388.000
 70
    32
  0
VERTEX
  8
W57LXLIFT
 62
6
 10
1081.278
 20
-6948.880
 30
-388.000
 70
    32
  0
SEQEND
  8
W57LXLIFT
  0
POLYLINE
  8
W57LXLIFT
 62
3
 66
     1
 70
     9
  0
VERTEX
  8
W57LXLIFT
 62
3
 10
1126.514
 20
-6820.114
 30
-500.888
 70
    32
  0
VERTEX
  8
W57LXLIFT
 62
3
 10
1129.825
 20
-6824.315
 30
-500.917
 70
    32
  0
VERTEX
  8
W57LXLIFT
 62
3
 10
1128.669
 20
-6825.462
 30
-500.917
 70
    32
  0
VERTEX
  8
W57LXLIFT
 62
3
 10
1139.362
 20
-6854.322
 30
-501.074
 70
    32
  0
VERTEX
  8
W57LXLIFT
 62
3
 10
1139.580
 20
-6859.301
 30
-501.095
 70
    32
  0
VERTEX
  8
W57LXLIFT
 62
3
 10
1153.406
 20
-6892.134
 30
-501.278
 70
    32
  0
VERTEX
  8
W57LXLIFT
 62
3
 10
1170.655
 20
-6924.270
 30
-501.472
 70
    32
  0
VERTEX
  8
W57LXLIFT
 62
3
 10
1175.485
 20
-6941.688
 30
-501.560
 70
    32
  0
VERTEX
  8
W57LXLIFT
 62
3
 10
1168.424
 20
-6948.796
 30
-501.563
 70
    32
  0
VERTEX
  8
W57LXLIFT
 62
3
 10
1156.694
 20
-6946.118
 30
-501.509
 70
    32
  0
VERTEX
  8
W57LXLIFT
 62
3
 10
1154.077
 20
-6943.210
 30
-501.487
 70
    32
  0
VERTEX
  8
W57LXLIFT
 62
3
 10
1143.128
 20
-6916.773
 30
-501.340
 70
    32
  0
VERTEX
  8
W57LXLIFT
 62
3
 10
1127.648
 20
-6886.492
 30
-501.160
 70
    32
  0
VERTEX
  8
W57LXLIFT
 62
3
 10
1125.094
 20
-6877.253
 30
-501.114
 70
    32
  0
VERTEX
  8
W57LXLIFT
 62
3
 10
1123.164
 20
-6866.739
 30
-501.064
 70
    32
  0
VERTEX
  8
W57LXLIFT
 62
3
 10
1121.400
 20
-6861.012
 30
-501.034
 70
    32
  0
VERTEX
  8
W57LXLIFT
 62
3
 10
1119.165
 20
-6857.099
 30
-501.010
 70
    32
  0
VERTEX
  8
W57LXLIFT
 62
3
 10
1116.611
 20
-6853.188
 30
-500.985
 70
    32
  0
VERTEX
  8
W57LXLIFT
 62
3
 10
1106.096
 20
-6847.127
 30
-500.922
 70
    32
  0
VERTEX
  8
W57LXLIFT
 62
3
 10
1101.476
 20
-6837.996
 30
-500.868
 70
    32
  0
VERTEX
  8
W57LXLIFT
 62
3
 10
1098.499
 20
-6830.315
 30
-500.869
 70
    32
  0
VERTEX
  8
W57LXLIFT
 62
3
 10
1098.499
 20
-6822.449
 30
-500.872
 70
    32
  0
VERTEX
  8
W57LXLIFT
 62
3
 10
1098.499
 20
-6814.841
 30
-500.875
 70
    32
  0
VERTEX
  8
W57LXLIFT
 62
3
 10
1103.002
 20
-6808.909
 30
-500.880
 70
    32
  0
VERTEX
  8
W57LXLIFT
 62
3
 10
1110.724
 20
-6809.683
 30
-500.883
 70
    32
  0
VERTEX
  8
W57LXLIFT
 62
3
 10
1118.445
 20
-6812.262
 30
-500.887
 70
    32
  0
VERTEX
  8
W57LXLIFT
 62
3
 10
1122.563
 20
-6815.873
 30
-500.887
 70
    32
  0
SEQEND
  8
W57LXLIFT
  0
POLYLINE
  8
W57LXLIFT
 62
2
 66
     1
 70
     9
  0
VERTEX
  8
W57LXLIFT
 62
2
 10
1007.908
 20
-6727.440
 30
-395.000
 70
    32
  0
VERTEX
  8
W57LXLIFT
 62
2
 10
993.975
 20
-6715.384
 30
-395.000
 70
    32
  0
VERTEX
  8
W57LXLIFT
 62
2
 10
986.820
 20
-6706.429
 30
-395.000
 70
    32
  0
VERTEX
  8
W57LXLIFT
 62
2
 10
985.481
 20
-6701.943
 30
-395.000
 70
    32
  0
VERTEX
  8
W57LXLIFT
 62
2
 10
992.159
 20
-6690.665
 30
-395.000
 70
    32
  0
VERTEX
  8
W57LXLIFT
 62
2
 10
990.469
 20
-6685.999
 30
-395.000
 70
    32
  0
VERTEX
  8
W57LXLIFT
 62
2
 10
987.483
 20
-6682.399
 30
-395.000
 70
    32
  0
VERTEX
  8
W57LXLIFT
 62
2
 10
984.501
 20
-6649.124
 30
-395.000
 70
    32
  0
VERTEX
  8
W57LXLIFT
 62
2
 10
981.921
 20
-6643.253
 30
-395.000
 70
    32
  0
VERTEX
  8
W57LXLIFT
 62
2
 10
979.624
 20
-6641.773
 30
-395.000
 70
    32
  0
VERTEX
  8
W57LXLIFT
 62
2
 10
967.513
 20
-6651.476
 30
-395.000
 70
    32
  0
VERTEX
  8
W57LXLIFT
 62
2
 10
969.021
 20
-6668.210
 30
-395.000
 70
    32
  0
VERTEX
  8
W57LXLIFT
 62
2
 10
969.904
 20
-6681.574
 30
-395.000
 70
    32
  0
VERTEX
  8
W57LXLIFT
 62
2
 10
965.136
 20
-6691.881
 30
-395.000
 70
    32
  0
VERTEX
  8
W57LXLIFT
 62
2
 10
963.493
 20
-6696.926
 30
-395.000
 70
    32
  0
VERTEX
  8
W57LXLIFT
 62
2
 10
965.605
 20
-6701.717
 30
-395.000
 70
    32
  0
VERTEX
  8
W57LXLIFT
 62
2
 10
965.450
 20
-6703.584
 30
-395.000
 70
    32
  0
VERTEX
  8
W57LXLIFT
 62
2
 10
966.938
 20
-6707.085
 30
-395.000
 70
    32
  0
VERTEX
  8
W57LXLIFT
 62
2
 10
963.978
 20
-6713.758
 30
-395.000
 70
    32
  0
VERTEX
  8
W57LXLIFT
 62
2
 10
961.375
 20
-6717.649
 30
-395.000
 70
    32
  0
VERTEX
  8
W57LXLIFT
 62
2
 10
963.172
 20
-6724.536
 30
-395.000
 70
    32
  0
VERTEX
  8
W57LXLIFT
 62
2
 10
971.111
 20
-6727.875
 30
-395.000
 70
    32
  0
VERTEX
  8
W57LXLIFT
 62
2
 10
974.472
 20
-6730.651
 30
-395.000
 70
    32
  0
VERTEX
  8
W57LXLIFT
 62
2
 10
977.083
 20
-6743.834
 30
-395.000
 70
    32
  0
VERTEX
  8
W57LXLIFT
 62
2
 10
981.741
 20
-6754.302
 30
-395.000
 70
    32
  0
VERTEX
  8
W57LXLIFT
 62
2
 10
989.415
 20
-6762.327
 30
-395.000
 70
    32
  0
VERTEX
  8
W57LXLIFT
 62
2
 10
995.593
 20
-6763.133
 30
-395.000
 70
    32
  0
VERTEX
  8
W57LXLIFT
 62
2
 10
1002.548
 20
-6757.126
 30
-395.000
 70
    32
  0
VERTEX
  8
W57LXLIFT
 62
2
 10
994.767
 20
-6744.800
 30
-395.000
 70
    32
  0
VERTEX
  8
W57LXLIFT
 62
2
 10
994.308
 20
-6738.242
 30
-395.000
 70
    32
  0
VERTEX
  8
W57LXLIFT
 62
2
 10
1003.812
 20
-6737.470
 30
-395.000
 70
    32
  0
SEQEND
  8
W57LXLIFT
  0
POINT
  8
W57LXLIFT
 62
2
 10
979.791
 20
-6711.222
 30
-395.000
  0
POLYLINE
  8
W57LXLIFT
 62
6
 66
     1
 70
     9
  0
VERTEX
  8
W57LXLIFT
 62
6
 10
746.812
 20
-5852.541
 30
-495.989
 70
    32
  0
VERTEX
  8
W57LXLIFT
 62
6
 10
742.339
 20
-5802.651
 30
-495.707
 70
    32
  0
VERTEX
  8
W57LXLIFT
 62
6
 10
746.907
 20
-5788.097
 30
-495.647
 70
    32
  0
VERTEX
  8
W57LXLIFT
 62
6
 10
755.329
 20
-5784.166
 30
-495.659
 70
    32
  0
VERTEX
  8
W57LXLIFT
 62
6
 10
763.296
 20
-5791.603
 30
-495.729
 70
    32
  0
VERTEX
  8
W57LXLIFT
 62
6
 10
765.556
 20
-5801.939
 30
-495.793
 70
    32
  0
VERTEX
  8
W57LXLIFT
 62
6
 10
769.401
 20
-5804.842
 30
-495.823
 70
    32
  0
VERTEX
  8
W57LXLIFT
 62
6
 10
788.520
 20
-5834.773
 30
-496.056
 70
    32
  0
VERTEX
  8
W57LXLIFT
 62
6
 10
794.361
 20
-5857.960
 30
-496.202
 70
    32
  0
VERTEX
  8
W57LXLIFT
 62
6
 10
807.265
 20
-5864.320
 30
-496.285
 70
    32
  0
VERTEX
  8
W57LXLIFT
 62
6
 10
812.892
 20
-5875.639
 30
-496.367
 70
    32
  0
VERTEX
  8
W57LXLIFT
 62
6
 10
813.928
 20
-5882.214
 30
-496.406
 70
    32
  0
VERTEX
  8
W57LXLIFT
 62
6
 10
812.822
 20
-5885.559
 30
-496.420
 70
    32
  0
VERTEX
  8
W57LXLIFT
 62
6
 10
814.200
 20
-5888.462
 30
-496.440
 70
    32
  0
VERTEX
  8
W57LXLIFT
 62
6
 10
810.580
 20
-5899.137
 30
-496.483
 70
    32
  0
VERTEX
  8
W57LXLIFT
 62
6
 10
801.586
 20
-5903.789
 30
-496.473
 70
    32
  0
VERTEX
  8
W57LXLIFT
 62
6
 10
783.911
 20
-5906.758
 30
-496.420
 70
    32
  0
VERTEX
  8
W57LXLIFT
 62
6
 10
774.971
 20
-5904.398
 30
-496.373
 70
    32
  0
VERTEX
  8
W57LXLIFT
 62
6
 10
758.116
 20
-5877.719
 30
-496.166
 70
    32
  0
VERTEX
  8
W57LXLIFT
 62
6
 10
752.475
 20
-5877.864
 30
-496.145
 70
    32
  0
SEQEND
  8
W57LXLIFT
  0
POLYLINE
  8
W57LXLIFT
 62
13
 66
     1
 70
     9
  0
VERTEX
  8
W57LXLIFT
 62
13
 10
349.015
 20
-5704.531
 30
-420.000
 70
    32
  0
VERTEX
  8
W57LXLIFT
 62
13
 10
354.465
 20
-5712.552
 30
-420.000
 70
    32
  0
VERTEX
  8
W57LXLIFT
 62
13
 10
364.985
 20
-5726.139
 30
-420.000
 70
    32
  0
VERTEX
  8
W57LXLIFT
 62
13
 10
372.874
 20
-5724.828
 30
-420.000
 70
    32
  0
VERTEX
  8
W57LXLIFT
 62
13
 10
378.991
 20
-5719.465
 30
-420.000
 70
    32
  0
VERTEX
  8
W57LXLIFT
 62
13
 10
380.006
 20
-5713.255
 30
-420.000
 70
    32
  0
VERTEX
  8
W57LXLIFT
 62
13
 10
376.740
 20
-5705.381
 30
-420.000
 70
    32
  0
VERTEX
  8
W57LXLIFT
 62
13
 10
373.367
 20
-5694.087
 30
-420.000
 70
    32
  0
VERTEX
  8
W57LXLIFT
 62
13
 10
370.188
 20
-5689.755
 30
-420.000
 70
    32
  0
VERTEX
  8
W57LXLIFT
 62
13
 10
359.529
 20
-5684.465
 30
-420.000
 70
    32
  0
VERTEX
  8
W57LXLIFT
 62
13
 10
354.013
 20
-5676.057
 30
-420.000
 70
    32
  0
VERTEX
  8
W57LXLIFT
 62
13
 10
358.156
 20
-5663.836
 30
-420.000
 70
    32
  0
VERTEX
  8
W57LXLIFT
 62
13
 10
358.923
 20
-5652.673
 30
-420.000
 70
    32
  0
VERTEX
  8
W57LXLIFT
 62
13
 10
356.967
 20
-5640.777
 30
-420.000
 70
    32
  0
VERTEX
  8
W57LXLIFT
 62
13
 10
351.202
 20
-5627.415
 30
-420.000
 70
    32
  0
VERTEX
  8
W57LXLIFT
 62
13
 10
345.965
 20
-5619.239
 30
-420.000
 70
    32
  0
VERTEX
  8
W57LXLIFT
 62
13
 10
340.871
 20
-5590.413
 30
-420.000
 70
    32
  0
VERTEX
  8
W57LXLIFT
 62
13
 10
334.992
 20
-5576.151
 30
-420.000
 70
    32
  0
VERTEX
  8
W57LXLIFT
 62
13
 10
328.891
 20
-5574.837
 30
-420.000
 70
    32
  0
VERTEX
  8
W57LXLIFT
 62
13
 10
324.498
 20
-5578.827
 30
-420.000
 70
    32
  0
VERTEX
  8
W57LXLIFT
 62
13
 10
321.765
 20
-5589.247
 30
-420.000
 70
    32
  0
VERTEX
  8
W57LXLIFT
 62
13
 10
322.256
 20
-5606.590
 30
-420.000
 70
    32
  0
VERTEX
  8
W57LXLIFT
 62
13
 10
317.243
 20
-5610.926
 30
-420.000
 70
    32
  0
VERTEX
  8
W57LXLIFT
 62
13
 10
319.330
 20
-5618.682
 30
-420.000
 70
    32
  0
VERTEX
  8
W57LXLIFT
 62
13
 10
317.865
 20
-5625.768
 30
-420.000
 70
    32
  0
VERTEX
  8
W57LXLIFT
 62
13
 10
318.592
 20
-5632.118
 30
-420.000
 70
    32
  0
VERTEX
  8
W57LXLIFT
 62
13
 10
322.473
 20
-5636.810
 30
-420.000
 70
    32
  0
VERTEX
  8
W57LXLIFT
 62
13
 10
329.215
 20
-5642.571
 30
-420.000
 70
    32
  0
VERTEX
  8
W57LXLIFT
 62
13
 10
333.294
 20
-5655.422
 30
-420.000
 70
    32
  0
VERTEX
  8
W57LXLIFT
 62
13
 10
335.748
 20
-5668.592
 30
-420.000
 70
    32
  0
VERTEX
  8
W57LXLIFT
 62
13
 10
340.806
 20
-5680.396
 30
-420.000
 70
    32
  0
SEQEND
  8
W57LXLIFT
  0
POLYLINE
  8
W57LXLIFT
 62
7
 66
     1
 70
     9
  0
VERTEX
  8
W57LXLIFT
 62
7
 10
296.693
 20
-5695.182
 30
-420.000
 70
    32
  0
VERTEX
  8
W57LXLIFT
 62
7
 10
301.740
 20
-5691.041
 30
-420.000
 70
    32
  0
VERTEX
  8
W57LXLIFT
 62
7
 10
300.219
 20
-5679.590
 30
-420.000
 70
    32
  0
VERTEX
  8
W57LXLIFT
 62
7
 10
296.808
 20
-5665.265
 30
-420.000
 70
    32
  0
VERTEX
  8
W57LXLIFT
 62
7
 10
289.956
 20
-5646.254
 30
-420.000
 70
    32
  0
VERTEX
  8
W57LXLIFT
 62
7
 10
300.586
 20
-5642.275
 30
-420.000
 70
    32
  0
VERTEX
  8
W57LXLIFT
 62
7
 10
302.323
 20
-5649.852
 30
-420.000
 70
    32
  0
VERTEX
  8
W57LXLIFT
 62
7
 10
307.049
 20
-5659.715
 30
-420.000
 70
    32
  0
VERTEX
  8
W57LXLIFT
 62
7
 10
311.140
 20
-5678.240
 30
-420.000
 70
    32
  0
VERTEX
  8
W57LXLIFT
 62
7
 10
314.718
 20
-5684.902
 30
-420.000
 70
    32
  0
VERTEX
  8
W57LXLIFT
 62
7
 10
321.398
 20
-5689.834
 30
-420.000
 70
    32
  0
VERTEX
  8
W57LXLIFT
 62
7
 10
328.964
 20
-5695.973
 30
-420.000
 70
    32
  0
VERTEX
  8
W57LXLIFT
 62
7
 10
332.441
 20
-5709.047
 30
-420.000
 70
    32
  0
VERTEX
  8
W57LXLIFT
 62
7
 10
329.078
 20
-5717.417
 30
-420.000
 70
    32
  0
VERTEX
  8
W57LXLIFT
 62
7
 10
332.391
 20
-5724.164
 30
-420.000
 70
    32
  0
VERTEX
  8
W57LXLIFT
 62
7
 10
345.844
 20
-5740.407
 30
-420.000
 70
    32
  0
VERTEX
  8
W57LXLIFT
 62
7
 10
357.757
 20
-5755.595
 30
-420.000
 70
    32
  0
VERTEX
  8
W57LXLIFT
 62
7
 10
352.578
 20
-5760.598
 30
-420.000
 70
    32
  0
VERTEX
  8
W57LXLIFT
 62
7
 10
349.424
 20
-5760.619
 30
-420.000
 70
    32
  0
VERTEX
  8
W57LXLIFT
 62
7
 10
340.886
 20
-5763.279
 30
-420.000
 70
    32
  0
VERTEX
  8
W57LXLIFT
 62
7
 10
333.021
 20
-5765.665
 30
-420.000
 70
    32
  0
VERTEX
  8
W57LXLIFT
 62
7
 10
328.701
 20
-5764.246
 30
-420.000
 70
    32
  0
VERTEX
  8
W57LXLIFT
 62
7
 10
323.404
 20
-5760.157
 30
-420.000
 70
    32
  0
VERTEX
  8
W57LXLIFT
 62
7
 10
318.995
 20
-5750.279
 30
-420.000
 70
    32
  0
VERTEX
  8
W57LXLIFT
 62
7
 10
315.548
 20
-5739.478
 30
-420.000
 70
    32
  0
VERTEX
  8
W57LXLIFT
 62
7
 10
312.839
 20
-5730.429
 30
-420.000
 70
    32
  0
VERTEX
  8
W57LXLIFT
 62
7
 10
308.384
 20
-5721.679
 30
-420.000
 70
    32
  0
VERTEX
  8
W57LXLIFT
 62
7
 10
298.851
 20
-5711.520
 30
-420.000
 70
    32
  0
SEQEND
  8
W57LXLIFT
  0
POLYLINE
  8
W57LXLIFT
 62
1
 66
     1
 70
     9
  0
VERTEX
  8
W57LXLIFT
 62
1
 10
297.693
 20
-5694.182
 30
-407.000
 70
    32
  0
VERTEX
  8
W57LXLIFT
 62
1
 10
302.740
 20
-5690.041
 30
-407.000
 70
    32
  0
VERTEX
  8
W57LXLIFT
 62
1
 10
301.219
 20
-5678.590
 30
-407.000
 70
    32
  0
VERTEX
  8
W57LXLIFT
 62
1
 10
297.808
 20
-5664.265
 30
-407.000
 70
    32
  0
VERTEX
  8
W57LXLIFT
 62
1
 10
290.956
 20
-5645.254
 30
-407.000
 70
    32
  0
VERTEX
  8
W57LXLIFT
 62
1
 10
301.586
 20
-5641.275
 30
-407.000
 70
    32
  0
VERTEX
  8
W57LXLIFT
 62
1
 10
303.323
 20
-5648.852
 30
-407.000
 70
    32
  0
VERTEX
  8
W57LXLIFT
 62
1
 10
308.049
 20
-5658.715
 30
-407.000
 70
    32
  0
VERTEX
  8
W57LXLIFT
 62
1
 10
312.140
 20
-5677.240
 30
-407.000
 70
    32
  0
VERTEX
  8
W57LXLIFT
 62
1
 10
315.718
 20
-5683.902
 30
-407.000
 70
    32
  0
VERTEX
  8
W57LXLIFT
 62
1
 10
322.398
 20
-5688.834
 30
-407.000
 70
    32
  0
VERTEX
  8
W57LXLIFT
 62
1
 10
329.964
 20
-5694.973
 30
-407.000
 70
    32
  0
VERTEX
  8
W57LXLIFT
 62
1
 10
333.441
 20
-5708.047
 30
-407.000
 70
    32
  0
VERTEX
  8
W57LXLIFT
 62
1
 10
330.078
 20
-5716.417
 30
-407.000
 70
    32
  0
VERTEX
  8
W57LXLIFT
 62
1
 10
333.391
 20
-5723.164
 30
-407.000
 70
    32
  0
VERTEX
  8
W57LXLIFT
 62
1
 10
346.844
 20
-5739.407
 30
-407.000
 70
    32
  0
VERTEX
  8
W57LXLIFT
 62
1
 10
358.757
 20
-5754.595
 30
-407.000
 70
    32
  0
VERTEX
  8
W57LXLIFT
 62
1
 10
353.578
 20
-5759.598
 30
-407.000
 70
    32
  0
VERTEX
  8
W57LXLIFT
 62
1
 10
350.424
 20
-5759.619
 30
-407.000
 70
    32
  0
VERTEX
  8
W57LXLIFT
 62
1
 10
341.886
 20
-5762.279
 30
-407.000
 70
    32
  0
VERTEX
  8
W57LXLIFT
 62
1
 10
334.021
 20
-5764.665
 30
-407.000
 70
    32
  0
VERTEX
  8
W57LXLIFT
 62
1
 10
329.701
 20
-5763.246
 30
-407.000
 70
    32
  0
VERTEX
  8
W57LXLIFT
 62
1
 10
324.404
 20
-5759.157
 30
-407.000
 70
    32
  0
VERTEX
  8
W57LXLIFT
 62
1
 10
319.995
 20
-5749.279
 30
-407.000
 70
    32
  0
VERTEX
  8
W57LXLIFT
 62
1
 10
316.548
 20
-5738.478
 30
-407.000
 70
    32
  0
VERTEX
  8
W57LXLIFT
 62
1
 10
313.839
 20
-5729.429
 30
-407.000
 70
    32
  0
VERTEX
  8
W57LXLIFT
 62
1
 10
309.384
 20
-5720.679
 30
-407.000
 70
    32
  0
VERTEX
  8
W57LXLIFT
 62
1
 10
299.851
 20
-5710.520
 30
-407.000
 70
    32
  0
SEQEND
  8
W57LXLIFT
  0
POLYLINE
  8
W57LXLIFT
 62
1
 66
     1
 70
     9
  0
VERTEX
  8
W57LXLIFT
 62
1
 10
341.806
 20
-5679.396
 30
-407.000
 70
    32
  0
VERTEX
  8
W57LXLIFT
 62
1
 10
336.748
 20
-5667.592
 30
-407.000
 70
    32
  0
VERTEX
  8
W57LXLIFT
 62
1
 10
334.294
 20
-5654.422
 30
-407.000
 70
    32
  0
VERTEX
  8
W57LXLIFT
 62
1
 10
330.215
 20
-5641.571
 30
-407.000
 70
    32
  0
VERTEX
  8
W57LXLIFT
 62
1
 10
323.473
 20
-5635.810
 30
-407.000
 70
    32
  0
VERTEX
  8
W57LXLIFT
 62
1
 10
319.592
 20
-5631.118
 30
-407.000
 70
    32
  0
VERTEX
  8
W57LXLIFT
 62
1
 10
318.865
 20
-5624.768
 30
-407.000
 70
    32
  0
VERTEX
  8
W57LXLIFT
 62
1
 10
320.330
 20
-5617.682
 30
-407.000
 70
    32
  0
VERTEX
  8
W57LXLIFT
 62
1
 10
318.243
 20
-5609.926
 30
-407.000
 70
    32
  0
VERTEX
  8
W57LXLIFT
 62
1
 10
323.256
 20
-5605.590
 30
-407.000
 70
    32
  0
VERTEX
  8
W57LXLIFT
 62
1
 10
322.765
 20
-5588.247
 30
-407.000
 70
    32
  0
VERTEX
  8
W57LXLIFT
 62
1
 10
325.498
 20
-5577.827
 30
-407.000
 70
    32
  0
VERTEX
  8
W57LXLIFT
 62
1
 10
329.891
 20
-5573.837
 30
-407.000
 70
    32
  0
VERTEX
  8
W57LXLIFT
 62
1
 10
335.992
 20
-5575.151
 30
-407.000
 70
    32
  0
VERTEX
  8
W57LXLIFT
 62
1
 10
341.871
 20
-5589.413
 30
-407.000
 70
    32
  0
VERTEX
  8
W57LXLIFT
 62
1
 10
346.965
 20
-5618.239
 30
-407.000
 70
    32
  0
VERTEX
  8
W57LXLIFT
 62
1
 10
352.202
 20
-5626.415
 30
-407.000
 70
    32
  0
VERTEX
  8
W57LXLIFT
 62
1
 10
357.967
 20
-5639.777
 30
-407.000
 70
    32
  0
VERTEX
  8
W57LXLIFT
 62
1
 10
359.923
 20
-5651.673
 30
-407.000
 70
    32
  0
VERTEX
  8
W57LXLIFT
 62
1
 10
359.156
 20
-5662.836
 30
-407.000
 70
    32
  0
VERTEX
  8
W57LXLIFT
 62
1
 10
355.013
 20
-5675.057
 30
-407.000
 70
    32
  0
VERTEX
  8
W57LXLIFT
 62
1
 10
360.529
 20
-5683.465
 30
-407.000
 70
    32
  0
VERTEX
  8
W57LXLIFT
 62
1
 10
371.188
 20
-5688.755
 30
-407.000
 70
    32
  0
VERTEX
  8
W57LXLIFT
 62
1
 10
374.367
 20
-5693.087
 30
-407.000
 70
    32
  0
VERTEX
  8
W57LXLIFT
 62
1
 10
377.740
 20
-5704.381
 30
-407.000
 70
    32
  0
VERTEX
  8
W57LXLIFT
 62
1
 10
381.006
 20
-5712.255
 30
-407.000
 70
    32
  0
VERTEX
  8
W57LXLIFT
 62
1
 10
379.991
 20
-5718.465
 30
-407.000
 70
    32
  0
VERTEX
  8
W57LXLIFT
 62
1
 10
373.874
 20
-5723.828
 30
-407.000
 70
    32
  0
VERTEX
  8
W57LXLIFT
 62
1
 10
365.985
 20
-5725.139
 30
-407.000
 70
    32
  0
VERTEX
  8
W57LXLIFT
 62
1
 10
355.465
 20
-5711.552
 30
-407.000
 70
    32
  0
VERTEX
  8
W57LXLIFT
 62
1
 10
350.015
 20
-5703.531
 30
-407.000
 70
    32
  0
SEQEND
  8
W57LXLIFT
  0
POLYLINE
  8
W57LXLIFT
 62
3
 66
     1
 70
     9
  0
VERTEX
  8
W57LXLIFT
 62
3
 10
382.548
 20
-5646.215
 30
-494.987
 70
    32
  0
VERTEX
  8
W57LXLIFT
 62
3
 10
381.099
 20
-5642.921
 30
-494.991
 70
    32
  0
VERTEX
  8
W57LXLIFT
 62
3
 10
380.925
 20
-5620.918
 30
-495.036
 70
    32
  0
VERTEX
  8
W57LXLIFT
 62
3
 10
371.009
 20
-5599.059
 30
-495.061
 70
    32
  0
VERTEX
  8
W57LXLIFT
 62
3
 10
356.146
 20
-5580.751
 30
-495.071
 70
    32
  0
VERTEX
  8
W57LXLIFT
 62
3
 10
351.819
 20
-5570.452
 30
-495.083
 70
    32
  0
VERTEX
  8
W57LXLIFT
 62
3
 10
353.673
 20
-5564.800
 30
-495.098
 70
    32
  0
VERTEX
  8
W57LXLIFT
 62
3
 10
353.650
 20
-5554.829
 30
-495.119
 70
    32
  0
VERTEX
  8
W57LXLIFT
 62
3
 10
368.410
 20
-5551.043
 30
-495.139
 70
    32
  0
VERTEX
  8
W57LXLIFT
 62
3
 10
371.229
 20
-5557.079
 30
-495.142
 70
    32
  0
VERTEX
  8
W57LXLIFT
 62
3
 10
381.030
 20
-5564.096
 30
-495.152
 70
    32
  0
VERTEX
  8
W57LXLIFT
 62
3
 10
383.712
 20
-5577.807
 30
-495.129
 70
    32
  0
VERTEX
  8
W57LXLIFT
 62
3
 10
389.168
 20
-5582.660
 30
-495.130
 70
    32
  0
VERTEX
  8
W57LXLIFT
 62
3
 10
395.185
 20
-5585.452
 30
-495.136
 70
    32
  0
VERTEX
  8
W57LXLIFT
 62
3
 10
399.366
 20
-5593.774
 30
-495.127
 70
    32
  0
VERTEX
  8
W57LXLIFT
 62
3
 10
405.021
 20
-5600.675
 30
-495.123
 70
    32
  0
VERTEX
  8
W57LXLIFT
 62
3
 10
401.978
 20
-5610.061
 30
-495.098
 70
    32
  0
VERTEX
  8
W57LXLIFT
 62
3
 10
401.501
 20
-5618.317
 30
-495.080
 70
    32
  0
VERTEX
  8
W57LXLIFT
 62
3
 10
403.633
 20
-5626.836
 30
-495.067
 70
    32
  0
VERTEX
  8
W57LXLIFT
 62
3
 10
407.672
 20
-5628.244
 30
-495.072
 70
    32
  0
VERTEX
  8
W57LXLIFT
 62
3
 10
414.726
 20
-5630.703
 30
-495.080
 70
    32
  0
VERTEX
  8
W57LXLIFT
 62
3
 10
415.827
 20
-5637.680
 30
-495.068
 70
    32
  0
VERTEX
  8
W57LXLIFT
 62
3
 10
421.921
 20
-5645.026
 30
-495.065
 70
    32
  0
VERTEX
  8
W57LXLIFT
 62
3
 10
426.911
 20
-5648.358
 30
-495.067
 70
    32
  0
VERTEX
  8
W57LXLIFT
 62
3
 10
431.308
 20
-5664.093
 30
-495.044
 70
    32
  0
VERTEX
  8
W57LXLIFT
 62
3
 10
437.403
 20
-5673.962
 30
-495.035
 70
    32
  0
VERTEX
  8
W57LXLIFT
 62
3
 10
438.763
 20
-5679.212
 30
-495.027
 70
    32
  0
VERTEX
  8
W57LXLIFT
 62
3
 10
447.360
 20
-5689.644
 30
-495.022
 70
    32
  0
VERTEX
  8
W57LXLIFT
 62
3
 10
456.785
 20
-5716.476
 30
-494.985
 70
    32
  0
VERTEX
  8
W57LXLIFT
 62
3
 10
457.004
 20
-5717.960
 30
-494.982
 70
    32
  0
VERTEX
  8
W57LXLIFT
 62
3
 10
453.122
 20
-5720.723
 30
-494.969
 70
    32
  0
VERTEX
  8
W57LXLIFT
 62
3
 10
438.019
 20
-5725.381
 30
-494.931
 70
    32
  0
VERTEX
  8
W57LXLIFT
 62
3
 10
433.155
 20
-5712.571
 30
-494.948
 70
    32
  0
VERTEX
  8
W57LXLIFT
 62
3
 10
428.604
 20
-5691.887
 30
-494.981
 70
    32
  0
VERTEX
  8
W57LXLIFT
 62
3
 10
412.857
 20
-5671.049
 30
-494.994
 70
    32
  0
VERTEX
  8
W57LXLIFT
 62
3
 10
407.481
 20
-5659.332
 30
-495.008
 70
    32
  0
VERTEX
  8
W57LXLIFT
 62
3
 10
407.515
 20
-5659.526
 30
-495.007
 70
    32
  0
VERTEX
  8
W57LXLIFT
 62
3
 10
404.913
 20
-5655.415
 30
-495.011
 70
    32
  0
VERTEX
  8
W57LXLIFT
 62
3
 10
396.379
 20
-5648.777
 30
-495.008
 70
    32
  0
VERTEX
  8
W57LXLIFT
 62
3
 10
392.663
 20
-5650.430
 30
-494.998
 70
    32
  0
SEQEND
  8
W57LXLIFT
  0
POLYLINE
  8
W57LXLIFT
 62
13
 66
     1
 70
     9
  0
VERTEX
  8
W57LXLIFT
 62
13
 10
389.766
 20
-5656.305
 30
-494.980
 70
    32
  0
VERTEX
  8
W57LXLIFT
 62
13
 10
390.156
 20
-5658.760
 30
-494.976
 70
    32
  0
VERTEX
  8
W57LXLIFT
 62
13
 10
397.737
 20
-5681.468
 30
-494.944
 70
    32
  0
VERTEX
  8
W57LXLIFT
 62
13
 10
402.748
 20
-5689.725
 30
-494.936
 70
    32
  0
VERTEX
  8
W57LXLIFT
 62
13
 10
410.379
 20
-5699.445
 30
-494.931
 70
    32
  0
VERTEX
  8
W57LXLIFT
 62
13
 10
418.266
 20
-5702.390
 30
-494.940
 70
    32
  0
VERTEX
  8
W57LXLIFT
 62
13
 10
419.156
 20
-5706.561
 30
-494.933
 70
    32
  0
VERTEX
  8
W57LXLIFT
 62
13
 10
424.117
 20
-5714.305
 30
-494.927
 70
    32
  0
VERTEX
  8
W57LXLIFT
 62
13
 10
430.813
 20
-5719.195
 30
-494.930
 70
    32
  0
VERTEX
  8
W57LXLIFT
 62
13
 10
433.738
 20
-5730.525
 30
-494.912
 70
    32
  0
VERTEX
  8
W57LXLIFT
 62
13
 10
435.928
 20
-5743.323
 30
-494.890
 70
    32
  0
VERTEX
  8
W57LXLIFT
 62
13
 10
445.051
 20
-5751.500
 30
-494.891
 70
    32
  0
VERTEX
  8
W57LXLIFT
 62
13
 10
460.945
 20
-5749.838
 30
-494.925
 70
    32
  0
VERTEX
  8
W57LXLIFT
 62
13
 10
467.206
 20
-5753.109
 30
-494.930
 70
    32
  0
VERTEX
  8
W57LXLIFT
 62
13
 10
468.276
 20
-5764.939
 30
-494.908
 70
    32
  0
VERTEX
  8
W57LXLIFT
 62
13
 10
466.037
 20
-5780.754
 30
-494.871
 70
    32
  0
VERTEX
  8
W57LXLIFT
 62
13
 10
481.351
 20
-5800.265
 30
-494.860
 70
    32
  0
VERTEX
  8
W57LXLIFT
 62
13
 10
483.851
 20
-5820.258
 30
-494.824
 70
    32
  0
VERTEX
  8
W57LXLIFT
 62
13
 10
474.685
 20
-5824.950
 30
-494.823
 70
    32
  0
VERTEX
  8
W57LXLIFT
 62
13
 10
448.033
 20
-5801.395
 30
-494.824
 70
    32
  0
VERTEX
  8
W57LXLIFT
 62
13
 10
416.350
 20
-5750.100
 30
-494.866
 70
    32
  0
VERTEX
  8
W57LXLIFT
 62
13
 10
406.641
 20
-5743.253
 30
-494.870
 70
    32
  0
VERTEX
  8
W57LXLIFT
 62
13
 10
405.900
 20
-5738.606
 30
-494.874
 70
    32
  0
VERTEX
  8
W57LXLIFT
 62
13
 10
404.098
 20
-5736.050
 30
-494.876
 70
    32
  0
VERTEX
  8
W57LXLIFT
 62
13
 10
400.664
 20
-5727.177
 30
-494.884
 70
    32
  0
VERTEX
  8
W57LXLIFT
 62
13
 10
394.060
 20
-5715.459
 30
-494.894
 70
    32
  0
VERTEX
  8
W57LXLIFT
 62
13
 10
388.435
 20
-5711.030
 30
-494.896
 70
    32
  0
VERTEX
  8
W57LXLIFT
 62
13
 10
380.575
 20
-5692.985
 30
-494.912
 70
    32
  0
VERTEX
  8
W57LXLIFT
 62
13
 10
369.608
 20
-5677.711
 30
-494.924
 70
    32
  0
VERTEX
  8
W57LXLIFT
 62
13
 10
354.110
 20
-5692.673
 30
-494.904
 70
    32
  0
VERTEX
  8
W57LXLIFT
 62
13
 10
344.064
 20
-5684.299
 30
-494.909
 70
    32
  0
VERTEX
  8
W57LXLIFT
 62
13
 10
346.393
 20
-5674.950
 30
-494.920
 70
    32
  0
VERTEX
  8
W57LXLIFT
 62
13
 10
345.230
 20
-5664.793
 30
-494.929
 70
    32
  0
VERTEX
  8
W57LXLIFT
 62
13
 10
347.510
 20
-5654.143
 30
-494.941
 70
    32
  0
VERTEX
  8
W57LXLIFT
 62
13
 10
336.715
 20
-5638.142
 30
-494.954
 70
    32
  0
VERTEX
  8
W57LXLIFT
 62
13
 10
335.135
 20
-5621.797
 30
-494.970
 70
    32
  0
VERTEX
  8
W57LXLIFT
 62
13
 10
343.963
 20
-5614.772
 30
-494.980
 70
    32
  0
VERTEX
  8
W57LXLIFT
 62
13
 10
353.859
 20
-5638.946
 30
-494.958
 70
    32
  0
VERTEX
  8
W57LXLIFT
 62
13
 10
362.176
 20
-5630.132
 30
-494.981
 70
    32
  0
VERTEX
  8
W57LXLIFT
 62
13
 10
367.458
 20
-5627.191
 30
-494.997
 70
    32
  0
VERTEX
  8
W57LXLIFT
 62
13
 10
379.209
 20
-5648.583
 30
-494.976
 70
    32
  0
SEQEND
  8
W57LXLIFT
  0
POINT
  8
W57LXLIFT
 62
8
 10
478.050
 20
-5734.819
 30
-358.082
  0
POINT
  8
W57LXLIFT
 62
8
 10
527.074
 20
-5722.797
 30
-358.074
  0
POINT
  8
W57LXLIFT
 62
8
 10
499.106
 20
-5726.652
 30
-495.045
  0
LINE
  8
W57LXLIFT
 62
8
 10
478.050
 20
-5734.819
 30
-358.082
 11
499.106
 21
-5726.652
 31
-495.045
  0
LINE
  8
W57LXLIFT
 62
8
 10
527.074
 20
-5722.797
 30
-358.074
 11
499.106
 21
-5726.652
 31
-495.045
  0
POLYLINE
  8
W57LXLIFT
 62
1
 66
     1
 70
     9
  0
VERTEX
  8
W57LXLIFT
 62
1
 10
749.276
 20
-5833.670
 30
-458.000
 70
    32
  0
VERTEX
  8
W57LXLIFT
 62
1
 10
764.007
 20
-5830.816
 30
-458.000
 70
    32
  0
VERTEX
  8
W57LXLIFT
 62
1
 10
774.540
 20
-5832.177
 30
-458.000
 70
    32
  0
VERTEX
  8
W57LXLIFT
 62
1
 10
777.092
 20
-5839.143
 30
-458.000
 70
    32
  0
VERTEX
  8
W57LXLIFT
 62
1
 10
786.206
 20
-5852.284
 30
-458.000
 70
    32
  0
VERTEX
  8
W57LXLIFT
 62
1
 10
805.684
 20
-5877.746
 30
-458.000
 70
    32
  0
VERTEX
  8
W57LXLIFT
 62
1
 10
815.626
 20
-5898.478
 30
-458.000
 70
    32
  0
VERTEX
  8
W57LXLIFT
 62
1
 10
817.236
 20
-5908.444
 30
-458.000
 70
    32
  0
VERTEX
  8
W57LXLIFT
 62
1
 10
816.955
 20
-5921.018
 30
-458.000
 70
    32
  0
VERTEX
  8
W57LXLIFT
 62
1
 10
813.574
 20
-5923.094
 30
-458.000
 70
    32
  0
VERTEX
  8
W57LXLIFT
 62
1
 10
806.431
 20
-5913.193
 30
-458.000
 70
    32
  0
VERTEX
  8
W57LXLIFT
 62
1
 10
801.862
 20
-5909.697
 30
-458.000
 70
    32
  0
VERTEX
  8
W57LXLIFT
 62
1
 10
782.674
 20
-5903.170
 30
-458.000
 70
    32
  0
VERTEX
  8
W57LXLIFT
 62
1
 10
770.474
 20
-5884.554
 30
-458.000
 70
    32
  0
VERTEX
  8
W57LXLIFT
 62
1
 10
764.369
 20
-5874.429
 30
-458.000
 70
    32
  0
VERTEX
  8
W57LXLIFT
 62
1
 10
745.958
 20
-5866.887
 30
-458.000
 70
    32
  0
VERTEX
  8
W57LXLIFT
 62
1
 10
736.701
 20
-5867.095
 30
-458.000
 70
    32
  0
VERTEX
  8
W57LXLIFT
 62
1
 10
732.849
 20
-5860.000
 30
-458.000
 70
    32
  0
VERTEX
  8
W57LXLIFT
 62
1
 10
753.924
 20
-5851.991
 30
-458.000
 70
    32
  0
SEQEND
  8
W57LXLIFT
  0
POINT
  8
W57LXLIFT
 62
6
 10
416.069
 20
-5728.420
 30
-494.870
  0
LINE
  8
W57LXLIFT
 62
13
 10
416.069
 20
-5728.420
 30
-494.870
 11
519.392
 21
-5739.461
 31
-572.319
  0
POINT
  8
W57LXLIFT
 62
6
 10
519.392
 20
-5739.461
 30
-572.319
  0
POLYLINE
  8
W57LXLIFT
 62
13
 66
     1
 70
     9
  0
VERTEX
  8
W57LXLIFT
 62
13
 10
1282.796
 20
-7572.465
 30
-506.052
 70
    32
  0
VERTEX
  8
W57LXLIFT
 62
13
 10
1274.365
 20
-7599.964
 30
-506.450
 70
    32
  0
VERTEX
  8
W57LXLIFT
 62
13
 10
1275.253
 20
-7627.631
 30
-506.806
 70
    32
  0
VERTEX
  8
W57LXLIFT
 62
13
 10
1272.678
 20
-7630.610
 30
-506.857
 70
    32
  0
VERTEX
  8
W57LXLIFT
 62
13
 10
1264.552
 20
-7632.400
 30
-506.919
 70
    32
  0
VERTEX
  8
W57LXLIFT
 62
13
 10
1260.275
 20
-7630.898
 30
-506.920
 70
    32
  0
VERTEX
  8
W57LXLIFT
 62
13
 10
1255.908
 20
-7626.069
 30
-506.878
 70
    32
  0
VERTEX
  8
W57LXLIFT
 62
13
 10
1256.852
 20
-7619.834
 30
-506.793
 70
    32
  0
VERTEX
  8
W57LXLIFT
 62
13
 10
1266.868
 20
-7594.564
 30
-506.416
 70
    32
  0
VERTEX
  8
W57LXLIFT
 62
13
 10
1268.634
 20
-7582.069
 30
-506.245
 70
    32
  0
VERTEX
  8
W57LXLIFT
 62
13
 10
1271.143
 20
-7576.278
 30
-506.158
 70
    32
  0
VERTEX
  8
W57LXLIFT
 62
13
 10
1274.355
 20
-7573.301
 30
-506.104
 70
    32
  0
VERTEX
  8
W57LXLIFT
 62
13
 10
1276.479
 20
-7564.696
 30
-505.982
 70
    32
  0
VERTEX
  8
W57LXLIFT
 62
13
 10
1266.820
 20
-7542.633
 30
-505.741
 70
    32
  0
VERTEX
  8
W57LXLIFT
 62
13
 10
1257.567
 20
-7535.224
 30
-505.690
 70
    32
  0
VERTEX
  8
W57LXLIFT
 62
13
 10
1249.258
 20
-7531.633
 30
-505.683
 70
    32
  0
VERTEX
  8
W57LXLIFT
 62
13
 10
1242.700
 20
-7532.596
 30
-505.727
 70
    32
  0
VERTEX
  8
W57LXLIFT
 62
13
 10
1236.992
 20
-7536.594
 30
-505.807
 70
    32
  0
VERTEX
  8
W57LXLIFT
 62
13
 10
1234.583
 20
-7541.260
 30
-505.879
 70
    32
  0
VERTEX
  8
W57LXLIFT
 62
13
 10
1235.894
 20
-7555.842
 30
-506.062
 70
    32
  0
VERTEX
  8
W57LXLIFT
 62
13
 10
1247.484
 20
-7578.423
 30
-506.300
 70
    32
  0
VERTEX
  8
W57LXLIFT
 62
13
 10
1243.204
 20
-7588.246
 30
-506.448
 70
    32
  0
VERTEX
  8
W57LXLIFT
 62
13
 10
1238.326
 20
-7592.858
 30
-506.531
 70
    32
  0
VERTEX
  8
W57LXLIFT
 62
13
 10
1232.577
 20
-7603.338
 30
-506.695
 70
    32
  0
VERTEX
  8
W57LXLIFT
 62
13
 10
1225.541
 20
-7599.750
 30
-506.683
 70
    32
  0
VERTEX
  8
W57LXLIFT
 62
13
 10
1228.729
 20
-7585.888
 30
-506.487
 70
    32
  0
VERTEX
  8
W57LXLIFT
 62
13
 10
1222.394
 20
-7565.008
 30
-506.246
 70
    32
  0
VERTEX
  8
W57LXLIFT
 62
13
 10
1226.472
 20
-7557.752
 30
-506.132
 70
    32
  0
VERTEX
  8
W57LXLIFT
 62
13
 10
1222.440
 20
-7524.867
 30
-505.724
 70
    32
  0
VERTEX
  8
W57LXLIFT
 62
13
 10
1215.482
 20
-7508.920
 30
-505.523
 70
    32
  0
VERTEX
  8
W57LXLIFT
 62
13
 10
1214.019
 20
-7501.239
 30
-505.362
 70
    32
  0
VERTEX
  8
W57LXLIFT
 62
13
 10
1212.828
 20
-7492.678
 30
-505.183
 70
    32
  0
VERTEX
  8
W57LXLIFT
 62
13
 10
1202.542
 20
-7476.607
 30
-504.823
 70
    32
  0
VERTEX
  8
W57LXLIFT
 62
13
 10
1202.394
 20
-7473.036
 30
-504.786
 70
    32
  0
VERTEX
  8
W57LXLIFT
 62
13
 10
1207.123
 20
-7464.288
 30
-504.728
 70
    32
  0
VERTEX
  8
W57LXLIFT
 62
13
 10
1220.716
 20
-7457.375
 30
-504.724
 70
    32
  0
VERTEX
  8
W57LXLIFT
 62
13
 10
1241.199
 20
-7479.151
 30
-505.009
 70
    32
  0
VERTEX
  8
W57LXLIFT
 62
13
 10
1254.292
 20
-7479.820
 30
-504.956
 70
    32
  0
VERTEX
  8
W57LXLIFT
 62
13
 10
1248.741
 20
-7494.167
 30
-505.198
 70
    32
  0
VERTEX
  8
W57LXLIFT
 62
13
 10
1252.368
 20
-7498.860
 30
-505.242
 70
    32
  0
VERTEX
  8
W57LXLIFT
 62
13
 10
1260.745
 20
-7503.379
 30
-505.248
 70
    32
  0
VERTEX
  8
W57LXLIFT
 62
13
 10
1276.553
 20
-7516.111
 30
-505.309
 70
    32
  0
VERTEX
  8
W57LXLIFT
 62
13
 10
1294.683
 20
-7540.214
 30
-505.517
 70
    32
  0
VERTEX
  8
W57LXLIFT
 62
13
 10
1292.339
 20
-7549.482
 30
-505.670
 70
    32
  0
VERTEX
  8
W57LXLIFT
 62
13
 10
1293.798
 20
-7556.981
 30
-505.767
 70
    32
  0
VERTEX
  8
W57LXLIFT
 62
13
 10
1295.493
 20
-7556.881
 30
-505.752
 70
    32
  0
VERTEX
  8
W57LXLIFT
 62
13
 10
1298.347
 20
-7560.797
 30
-505.787
 70
    32
  0
VERTEX
  8
W57LXLIFT
 62
13
 10
1287.954
 20
-7568.518
 30
-505.976
 70
    32
  0
SEQEND
  8
W57LXLIFT
  0
POLYLINE
  8
W57LXLIFT
 62
1
 66
     1
 70
     9
  0
VERTEX
  8
W57LXLIFT
 62
1
 10
1127.514
 20
-6819.114
 30
-490.888
 70
    32
  0
VERTEX
  8
W57LXLIFT
 62
1
 10
1130.825
 20
-6823.315
 30
-490.917
 70
    32
  0
VERTEX
  8
W57LXLIFT
 62
1
 10
1129.669
 20
-6824.462
 30
-490.917
 70
    32
  0
VERTEX
  8
W57LXLIFT
 62
1
 10
1140.362
 20
-6853.322
 30
-491.074
 70
    32
  0
VERTEX
  8
W57LXLIFT
 62
1
 10
1140.580
 20
-6858.301
 30
-491.095
 70
    32
  0
VERTEX
  8
W57LXLIFT
 62
1
 10
1154.406
 20
-6891.134
 30
-491.278
 70
    32
  0
VERTEX
  8
W57LXLIFT
 62
1
 10
1171.655
 20
-6923.270
 30
-491.472
 70
    32
  0
VERTEX
  8
W57LXLIFT
 62
1
 10
1176.485
 20
-6940.688
 30
-491.560
 70
    32
  0
VERTEX
  8
W57LXLIFT
 62
1
 10
1169.424
 20
-6947.796
 30
-491.563
 70
    32
  0
VERTEX
  8
W57LXLIFT
 62
1
 10
1157.694
 20
-6945.118
 30
-491.509
 70
    32
  0
VERTEX
  8
W57LXLIFT
 62
1
 10
1155.077
 20
-6942.210
 30
-491.487
 70
    32
  0
VERTEX
  8
W57LXLIFT
 62
1
 10
1144.128
 20
-6915.773
 30
-491.340
 70
    32
  0
VERTEX
  8
W57LXLIFT
 62
1
 10
1128.648
 20
-6885.492
 30
-491.160
 70
    32
  0
VERTEX
  8
W57LXLIFT
 62
1
 10
1126.094
 20
-6876.253
 30
-491.114
 70
    32
  0
VERTEX
  8
W57LXLIFT
 62
1
 10
1124.164
 20
-6865.739
 30
-491.064
 70
    32
  0
VERTEX
  8
W57LXLIFT
 62
1
 10
1122.400
 20
-6860.012
 30
-491.034
 70
    32
  0
VERTEX
  8
W57LXLIFT
 62
1
 10
1120.165
 20
-6856.099
 30
-491.010
 70
    32
  0
VERTEX
  8
W57LXLIFT
 62
1
 10
1117.611
 20
-6852.188
 30
-490.985
 70
    32
  0
VERTEX
  8
W57LXLIFT
 62
1
 10
1107.096
 20
-6846.127
 30
-490.922
 70
    32
  0
VERTEX
  8
W57LXLIFT
 62
1
 10
1102.476
 20
-6836.996
 30
-490.868
 70
    32
  0
VERTEX
  8
W57LXLIFT
 62
1
 10
1099.499
 20
-6829.315
 30
-490.869
 70
    32
  0
VERTEX
  8
W57LXLIFT
 62
1
 10
1099.499
 20
-6821.449
 30
-490.872
 70
    32
  0
VERTEX
  8
W57LXLIFT
 62
1
 10
1099.499
 20
-6813.841
 30
-490.875
 70
    32
  0
VERTEX
  8
W57LXLIFT
 62
1
 10
1104.002
 20
-6807.909
 30
-490.880
 70
    32
  0
VERTEX
  8
W57LXLIFT
 62
1
 10
1111.724
 20
-6808.683
 30
-490.883
 70
    32
  0
VERTEX
  8
W57LXLIFT
 62
1
 10
1119.445
 20
-6811.262
 30
-490.887
 70
    32
  0
VERTEX
  8
W57LXLIFT
 62
1
 10
1123.563
 20
-6814.873
 30
-490.887
 70
    32
  0
SEQEND
  8
W57LXLIFT
  0
POLYLINE
  8
W57LXLIFT
 62
2
 66
     1
 70
     9
  0
VERTEX
  8
W57LXLIFT
 62
2
 10
1033.402
 20
-6762.704
 30
-499.926
 70
    32
  0
VERTEX
  8
W57LXLIFT
 62
2
 10
1045.806
 20
-6753.710
 30
-500.321
 70
    32
  0
VERTEX
  8
W57LXLIFT
 62
2
 10
1039.158
 20
-6731.177
 30
-500.206
 70
    32
  0
VERTEX
  8
W57LXLIFT
 62
2
 10
1023.728
 20
-6708.029
 30
-500.055
 70
    32
  0
VERTEX
  8
W57LXLIFT
 62
2
 10
1017.858
 20
-6696.151
 30
-499.985
 70
    32
  0
VERTEX
  8
W57LXLIFT
 62
2
 10
1005.951
 20
-6663.030
 30
-499.807
 70
    32
  0
VERTEX
  8
W57LXLIFT
 62
2
 10
1006.894
 20
-6652.876
 30
-499.770
 70
    32
  0
VERTEX
  8
W57LXLIFT
 62
2
 10
1007.194
 20
-6651.541
 30
-499.766
 70
    32
  0
VERTEX
  8
W57LXLIFT
 62
2
 10
1008.895
 20
-6651.828
 30
-499.773
 70
    32
  0
VERTEX
  8
W57LXLIFT
 62
2
 10
1010.026
 20
-6648.821
 30
-499.765
 70
    32
  0
VERTEX
  8
W57LXLIFT
 62
2
 10
1005.953
 20
-6636.398
 30
-499.700
 70
    32
  0
VERTEX
  8
W57LXLIFT
 62
2
 10
1016.664
 20
-6629.089
 30
-499.710
 70
    32
  0
VERTEX
  8
W57LXLIFT
 62
2
 10
1019.358
 20
-6628.699
 30
-499.718
 70
    32
  0
VERTEX
  8
W57LXLIFT
 62
2
 10
1023.092
 20
-6632.159
 30
-499.746
 70
    32
  0
VERTEX
  8
W57LXLIFT
 62
2
 10
1026.137
 20
-6646.180
 30
-499.814
 70
    32
  0
VERTEX
  8
W57LXLIFT
 62
2
 10
1031.751
 20
-6652.520
 30
-499.860
 70
    32
  0
VERTEX
  8
W57LXLIFT
 62
2
 10
1032.528
 20
-6661.764
 30
-499.901
 70
    32
  0
VERTEX
  8
W57LXLIFT
 62
2
 10
1033.808
 20
-6668.673
 30
-499.933
 70
    32
  0
VERTEX
  8
W57LXLIFT
 62
2
 10
1033.902
 20
-6670.969
 30
-499.943
 70
    32
  0
VERTEX
  8
W57LXLIFT
 62
2
 10
1045.728
 20
-6693.230
 30
-500.077
 70
    32
  0
VERTEX
  8
W57LXLIFT
 62
2
 10
1055.262
 20
-6703.238
 30
-500.152
 70
    32
  0
VERTEX
  8
W57LXLIFT
 62
2
 10
1060.229
 20
-6721.036
 30
-500.242
 70
    32
  0
VERTEX
  8
W57LXLIFT
 62
2
 10
1067.754
 20
-6738.345
 30
-500.340
 70
    32
  0
VERTEX
  8
W57LXLIFT
 62
2
 10
1072.019
 20
-6745.637
 30
-500.385
 70
    32
  0
VERTEX
  8
W57LXLIFT
 62
2
 10
1073.371
 20
-6746.528
 30
-500.394
 70
    32
  0
VERTEX
  8
W57LXLIFT
 62
2
 10
1068.951
 20
-6752.092
 30
-500.400
 70
    32
  0
VERTEX
  8
W57LXLIFT
 62
2
 10
1075.387
 20
-6771.583
 30
-500.503
 70
    32
  0
VERTEX
  8
W57LXLIFT
 62
2
 10
1075.508
 20
-6781.943
 30
-500.545
 70
    32
  0
VERTEX
  8
W57LXLIFT
 62
2
 10
1079.024
 20
-6794.789
 30
-500.610
 70
    32
  0
VERTEX
  8
W57LXLIFT
 62
2
 10
1078.001
 20
-6797.828
 30
-500.619
 70
    32
  0
VERTEX
  8
W57LXLIFT
 62
2
 10
1071.875
 20
-6801.355
 30
-500.610
 70
    32
  0
VERTEX
  8
W57LXLIFT
 62
2
 10
1067.378
 20
-6793.333
 30
-500.561
 70
    32
  0
VERTEX
  8
W57LXLIFT
 62
2
 10
1068.013
 20
-6790.663
 30
-500.553
 70
    32
  0
VERTEX
  8
W57LXLIFT
 62
2
 10
1066.098
 20
-6784.400
 30
-500.520
 70
    32
  0
VERTEX
  8
W57LXLIFT
 62
2
 10
1063.982
 20
-6782.856
 30
-500.506
 70
    32
  0
VERTEX
  8
W57LXLIFT
 62
2
 10
1056.655
 20
-6783.364
 30
-500.481
 70
    32
  0
VERTEX
  8
W57LXLIFT
 62
2
 10
1048.628
 20
-6771.562
 30
-500.404
 70
    32
  0
VERTEX
  8
W57LXLIFT
 62
2
 10
1037.691
 20
-6770.050
 30
-500.357
 70
    32
  0
SEQEND
  8
W57LXLIFT
  0
POLYLINE
  8
W57LXLIFT
 62
1
 66
     1
 70
     9
  0
VERTEX
  8
W57LXLIFT
 62
1
 10
1038.691
 20
-6769.050
 30
-490.357
 70
    32
  0
VERTEX
  8
W57LXLIFT
 62
1
 10
1049.628
 20
-6770.562
 30
-490.404
 70
    32
  0
VERTEX
  8
W57LXLIFT
 62
1
 10
1057.655
 20
-6782.364
 30
-490.481
 70
    32
  0
VERTEX
  8
W57LXLIFT
 62
1
 10
1064.982
 20
-6781.856
 30
-490.506
 70
    32
  0
VERTEX
  8
W57LXLIFT
 62
1
 10
1067.098
 20
-6783.400
 30
-490.520
 70
    32
  0
VERTEX
  8
W57LXLIFT
 62
1
 10
1069.013
 20
-6789.663
 30
-490.553
 70
    32
  0
VERTEX
  8
W57LXLIFT
 62
1
 10
1068.378
 20
-6792.333
 30
-490.561
 70
    32
  0
VERTEX
  8
W57LXLIFT
 62
1
 10
1072.875
 20
-6800.355
 30
-490.610
 70
    32
  0
VERTEX
  8
W57LXLIFT
 62
1
 10
1079.001
 20
-6796.828
 30
-490.619
 70
    32
  0
VERTEX
  8
W57LXLIFT
 62
1
 10
1080.024
 20
-6793.789
 30
-490.610
 70
    32
  0
VERTEX
  8
W57LXLIFT
 62
1
 10
1076.508
 20
-6780.943
 30
-490.545
 70
    32
  0
VERTEX
  8
W57LXLIFT
 62
1
 10
1076.387
 20
-6770.583
 30
-490.503
 70
    32
  0
VERTEX
  8
W57LXLIFT
 62
1
 10
1069.951
 20
-6751.092
 30
-490.400
 70
    32
  0
VERTEX
  8
W57LXLIFT
 62
1
 10
1074.371
 20
-6745.528
 30
-490.394
 70
    32
  0
VERTEX
  8
W57LXLIFT
 62
1
 10
1073.019
 20
-6744.637
 30
-490.385
 70
    32
  0
VERTEX
  8
W57LXLIFT
 62
1
 10
1068.754
 20
-6737.345
 30
-490.340
 70
    32
  0
VERTEX
  8
W57LXLIFT
 62
1
 10
1061.229
 20
-6720.036
 30
-490.242
 70
    32
  0
VERTEX
  8
W57LXLIFT
 62
1
 10
1056.262
 20
-6702.238
 30
-490.152
 70
    32
  0
VERTEX
  8
W57LXLIFT
 62
1
 10
1046.728
 20
-6692.230
 30
-490.077
 70
    32
  0
VERTEX
  8
W57LXLIFT
 62
1
 10
1034.902
 20
-6669.969
 30
-489.943
 70
    32
  0
VERTEX
  8
W57LXLIFT
 62
1
 10
1034.808
 20
-6667.673
 30
-489.933
 70
    32
  0
VERTEX
  8
W57LXLIFT
 62
1
 10
1033.528
 20
-6660.764
 30
-489.901
 70
    32
  0
VERTEX
  8
W57LXLIFT
 62
1
 10
1032.751
 20
-6651.520
 30
-489.860
 70
    32
  0
VERTEX
  8
W57LXLIFT
 62
1
 10
1027.137
 20
-6645.180
 30
-489.814
 70
    32
  0
VERTEX
  8
W57LXLIFT
 62
1
 10
1024.092
 20
-6631.159
 30
-489.746
 70
    32
  0
VERTEX
  8
W57LXLIFT
 62
1
 10
1020.358
 20
-6627.699
 30
-489.718
 70
    32
  0
VERTEX
  8
W57LXLIFT
 62
1
 10
1017.664
 20
-6628.089
 30
-489.710
 70
    32
  0
VERTEX
  8
W57LXLIFT
 62
1
 10
1006.953
 20
-6635.398
 30
-489.700
 70
    32
  0
VERTEX
  8
W57LXLIFT
 62
1
 10
1011.026
 20
-6647.821
 30
-489.765
 70
    32
  0
VERTEX
  8
W57LXLIFT
 62
1
 10
1009.895
 20
-6650.828
 30
-489.773
 70
    32
  0
VERTEX
  8
W57LXLIFT
 62
1
 10
1008.194
 20
-6650.541
 30
-489.766
 70
    32
  0
VERTEX
  8
W57LXLIFT
 62
1
 10
1007.894
 20
-6651.876
 30
-489.770
 70
    32
  0
VERTEX
  8
W57LXLIFT
 62
1
 10
1006.951
 20
-6662.030
 30
-489.807
 70
    32
  0
VERTEX
  8
W57LXLIFT
 62
1
 10
1018.858
 20
-6695.151
 30
-489.985
 70
    32
  0
VERTEX
  8
W57LXLIFT
 62
1
 10
1024.728
 20
-6707.029
 30
-490.055
 70
    32
  0
VERTEX
  8
W57LXLIFT
 62
1
 10
1040.158
 20
-6730.177
 30
-490.206
 70
    32
  0
VERTEX
  8
W57LXLIFT
 62
1
 10
1046.806
 20
-6752.710
 30
-490.321
 70
    32
  0
VERTEX
  8
W57LXLIFT
 62
1
 10
1034.402
 20
-6761.704
 30
-489.926
 70
    32
  0
SEQEND
  8
W57LXLIFT
  0
POINT
  8
W57LXLIFT
 62
1
 10
1041.358
 20
-6706.927
 30
-490.082
  0
LINE
  8
W57LXLIFT
 62
2
 10
979.791
 20
-6711.222
 30
-395.000
 11
1041.358
 21
-6706.927
 31
-490.082
  0
POLYLINE
  8
W57LXLIFT
 62
8
 66
     1
 70
     9
  0
VERTEX
  8
W57LXLIFT
 62
8
 10
572.625
 20
-5777.954
 30
-494.912
 70
    32
  0
VERTEX
  8
W57LXLIFT
 62
8
 10
585.150
 20
-5795.029
 30
-495.051
 70
    32
  0
VERTEX
  8
W57LXLIFT
 62
8
 10
583.786
 20
-5801.197
 30
-495.079
 70
    32
  0
VERTEX
  8
W57LXLIFT
 62
8
 10
577.632
 20
-5808.604
 30
-495.094
 70
    32
  0
VERTEX
  8
W57LXLIFT
 62
8
 10
579.892
 20
-5813.736
 30
-495.130
 70
    32
  0
VERTEX
  8
W57LXLIFT
 62
8
 10
577.743
 20
-5821.363
 30
-495.162
 70
    32
  0
VERTEX
  8
W57LXLIFT
 62
8
 10
564.254
 20
-5838.587
 30
-495.200
 70
    32
  0
VERTEX
  8
W57LXLIFT
 62
8
 10
560.195
 20
-5846.749
 30
-495.227
 70
    32
  0
VERTEX
  8
W57LXLIFT
 62
8
 10
554.155
 20
-5847.486
 30
-495.207
 70
    32
  0
VERTEX
  8
W57LXLIFT
 62
8
 10
552.198
 20
-5839.056
 30
-495.155
 70
    32
  0
VERTEX
  8
W57LXLIFT
 62
8
 10
562.996
 20
-5820.420
 30
-495.099
 70
    32
  0
VERTEX
  8
W57LXLIFT
 62
8
 10
557.769
 20
-5812.763
 30
-495.038
 70
    32
  0
VERTEX
  8
W57LXLIFT
 62
8
 10
547.683
 20
-5811.444
 30
-494.991
 70
    32
  0
VERTEX
  8
W57LXLIFT
 62
8
 10
546.138
 20
-5804.905
 30
-494.951
 70
    32
  0
VERTEX
  8
W57LXLIFT
 62
8
 10
540.711
 20
-5798.163
 30
-494.894
 70
    32
  0
VERTEX
  8
W57LXLIFT
 62
8
 10
538.203
 20
-5784.982
 30
-494.969
 70
    32
  0
VERTEX
  8
W57LXLIFT
 62
8
 10
524.744
 20
-5767.830
 30
-495.010
 70
    32
  0
VERTEX
  8
W57LXLIFT
 62
8
 10
525.883
 20
-5763.585
 30
-495.021
 70
    32
  0
VERTEX
  8
W57LXLIFT
 62
8
 10
526.864
 20
-5762.291
 30
-495.025
 70
    32
  0
VERTEX
  8
W57LXLIFT
 62
8
 10
529.105
 20
-5759.335
 30
-495.036
 70
    32
  0
VERTEX
  8
W57LXLIFT
 62
8
 10
522.828
 20
-5747.735
 30
-495.048
 70
    32
  0
VERTEX
  8
W57LXLIFT
 62
8
 10
499.106
 20
-5726.652
 30
-495.045
 70
    32
  0
VERTEX
  8
W57LXLIFT
 62
8
 10
493.796
 20
-5718.288
 30
-495.052
 70
    32
  0
VERTEX
  8
W57LXLIFT
 62
8
 10
483.312
 20
-5688.837
 30
-495.093
 70
    32
  0
VERTEX
  8
W57LXLIFT
 62
8
 10
477.452
 20
-5680.770
 30
-495.098
 70
    32
  0
VERTEX
  8
W57LXLIFT
 62
8
 10
462.391
 20
-5654.925
 30
-495.122
 70
    32
  0
VERTEX
  8
W57LXLIFT
 62
8
 10
455.955
 20
-5646.077
 30
-495.128
 70
    32
  0
VERTEX
  8
W57LXLIFT
 62
8
 10
442.269
 20
-5612.300
 30
-495.171
 70
    32
  0
SEQEND
  8
W57LXLIFT
  0
POLYLINE
  8
W57LXLIFT
 62
8
 66
     1
 70
     9
  0
VERTEX
  8
W57LXLIFT
 62
8
 10
442.269
 20
-5612.300
 30
-495.171
 70
    32
  0
VERTEX
  8
W57LXLIFT
 62
8
 10
465.540
 20
-5607.704
 30
-495.225
 70
    32
  0
VERTEX
  8
W57LXLIFT
 62
8
 10
484.464
 20
-5628.386
 30
-495.219
 70
    32
  0
VERTEX
  8
W57LXLIFT
 62
8
 10
490.959
 20
-5636.423
 30
-495.215
 70
    32
  0
VERTEX
  8
W57LXLIFT
 62
8
 10
507.562
 20
-5661.237
 30
-495.196
 70
    32
  0
VERTEX
  8
W57LXLIFT
 62
8
 10
513.403
 20
-5669.427
 30
-495.190
 70
    32
  0
VERTEX
  8
W57LXLIFT
 62
8
 10
529.969
 20
-5694.488
 30
-495.170
 70
    32
  0
VERTEX
  8
W57LXLIFT
 62
8
 10
535.085
 20
-5702.886
 30
-495.163
 70
    32
  0
VERTEX
  8
W57LXLIFT
 62
8
 10
551.790
 20
-5728.283
 30
-495.143
 70
    32
  0
VERTEX
  8
W57LXLIFT
 62
8
 10
558.281
 20
-5736.760
 30
-495.138
 70
    32
  0
VERTEX
  8
W57LXLIFT
 62
8
 10
556.762
 20
-5745.239
 30
-495.118
 70
    32
  0
VERTEX
  8
W57LXLIFT
 62
8
 10
568.440
 20
-5748.562
 30
-495.133
 70
    32
  0
VERTEX
  8
W57LXLIFT
 62
8
 10
579.964
 20
-5751.231
 30
-495.130
 70
    32
  0
VERTEX
  8
W57LXLIFT
 62
8
 10
572.625
 20
-5777.954
 30
-494.912
 70
    32
  0
VERTEX
  8
W57LXLIFT
 62
8
 10
572.625
 20
-5777.954
 30
-494.912
 70
    32
  0
SEQEND
  8
W57LXLIFT
  0
POLYLINE
  8
W57LXLIFT
 62
1
 66
     1
 70
     9
  0
VERTEX
  8
W57LXLIFT
 62
1
 10
573.625
 20
-5776.954
 30
-484.912
 70
    32
  0
VERTEX
  8
W57LXLIFT
 62
1
 10
573.625
 20
-5776.954
 30
-484.912
 70
    32
  0
VERTEX
  8
W57LXLIFT
 62
1
 10
580.964
 20
-5750.231
 30
-485.130
 70
    32
  0
VERTEX
  8
W57LXLIFT
 62
1
 10
569.440
 20
-5747.562
 30
-485.133
 70
    32
  0
VERTEX
  8
W57LXLIFT
 62
1
 10
557.762
 20
-5744.239
 30
-485.118
 70
    32
  0
VERTEX
  8
W57LXLIFT
 62
1
 10
559.281
 20
-5735.760
 30
-485.138
 70
    32
  0
VERTEX
  8
W57LXLIFT
 62
1
 10
552.790
 20
-5727.283
 30
-485.143
 70
    32
  0
VERTEX
  8
W57LXLIFT
 62
1
 10
536.085
 20
-5701.886
 30
-485.163
 70
    32
  0
VERTEX
  8
W57LXLIFT
 62
1
 10
530.969
 20
-5693.488
 30
-485.170
 70
    32
  0
VERTEX
  8
W57LXLIFT
 62
1
 10
514.403
 20
-5668.427
 30
-485.190
 70
    32
  0
VERTEX
  8
W57LXLIFT
 62
1
 10
508.562
 20
-5660.237
 30
-485.196
 70
    32
  0
VERTEX
  8
W57LXLIFT
 62
1
 10
491.959
 20
-5635.423
 30
-485.215
 70
    32
  0
VERTEX
  8
W57LXLIFT
 62
1
 10
485.464
 20
-5627.386
 30
-485.219
 70
    32
  0
VERTEX
  8
W57LXLIFT
 62
1
 10
466.540
 20
-5606.704
 30
-485.225
 70
    32
  0
VERTEX
  8
W57LXLIFT
 62
1
 10
443.269
 20
-5611.300
 30
-485.171
 70
    32
  0
SEQEND
  8
W57LXLIFT
  0
POLYLINE
  8
W57LXLIFT
 62
1
 66
     1
 70
     9
  0
VERTEX
  8
W57LXLIFT
 62
1
 10
573.625
 20
-5776.954
 30
-484.912
 70
    32
  0
VERTEX
  8
W57LXLIFT
 62
1
 10
586.150
 20
-5794.029
 30
-485.051
 70
    32
  0
VERTEX
  8
W57LXLIFT
 62
1
 10
584.786
 20
-5800.197
 30
-485.079
 70
    32
  0
VERTEX
  8
W57LXLIFT
 62
1
 10
578.632
 20
-5807.604
 30
-485.094
 70
    32
  0
VERTEX
  8
W57LXLIFT
 62
1
 10
580.892
 20
-5812.736
 30
-485.130
 70
    32
  0
VERTEX
  8
W57LXLIFT
 62
1
 10
578.743
 20
-5820.363
 30
-485.162
 70
    32
  0
VERTEX
  8
W57LXLIFT
 62
1
 10
565.254
 20
-5837.587
 30
-485.200
 70
    32
  0
VERTEX
  8
W57LXLIFT
 62
1
 10
561.195
 20
-5845.749
 30
-485.227
 70
    32
  0
VERTEX
  8
W57LXLIFT
 62
1
 10
555.155
 20
-5846.486
 30
-485.207
 70
    32
  0
VERTEX
  8
W57LXLIFT
 62
1
 10
553.198
 20
-5838.056
 30
-485.155
 70
    32
  0
VERTEX
  8
W57LXLIFT
 62
1
 10
563.996
 20
-5819.420
 30
-485.099
 70
    32
  0
VERTEX
  8
W57LXLIFT
 62
1
 10
558.769
 20
-5811.763
 30
-485.038
 70
    32
  0
VERTEX
  8
W57LXLIFT
 62
1
 10
548.683
 20
-5810.444
 30
-484.991
 70
    32
  0
VERTEX
  8
W57LXLIFT
 62
1
 10
547.138
 20
-5803.905
 30
-484.951
 70
    32
  0
VERTEX
  8
W57LXLIFT
 62
1
 10
541.711
 20
-5797.163
 30
-484.894
 70
    32
  0
VERTEX
  8
W57LXLIFT
 62
1
 10
539.203
 20
-5783.982
 30
-484.969
 70
    32
  0
VERTEX
  8
W57LXLIFT
 62
1
 10
525.744
 20
-5766.830
 30
-485.010
 70
    32
  0
VERTEX
  8
W57LXLIFT
 62
1
 10
526.883
 20
-5762.585
 30
-485.021
 70
    32
  0
VERTEX
  8
W57LXLIFT
 62
1
 10
527.864
 20
-5761.291
 30
-485.025
 70
    32
  0
VERTEX
  8
W57LXLIFT
 62
1
 10
530.105
 20
-5758.335
 30
-485.036
 70
    32
  0
VERTEX
  8
W57LXLIFT
 62
1
 10
523.828
 20
-5746.735
 30
-485.048
 70
    32
  0
VERTEX
  8
W57LXLIFT
 62
1
 10
500.106
 20
-5725.652
 30
-485.045
 70
    32
  0
VERTEX
  8
W57LXLIFT
 62
1
 10
494.796
 20
-5717.288
 30
-485.052
 70
    32
  0
VERTEX
  8
W57LXLIFT
 62
1
 10
484.312
 20
-5687.837
 30
-485.093
 70
    32
  0
VERTEX
  8
W57LXLIFT
 62
1
 10
478.452
 20
-5679.770
 30
-485.098
 70
    32
  0
VERTEX
  8
W57LXLIFT
 62
1
 10
463.391
 20
-5653.925
 30
-485.122
 70
    32
  0
VERTEX
  8
W57LXLIFT
 62
1
 10
456.955
 20
-5645.077
 30
-485.128
 70
    32
  0
VERTEX
  8
W57LXLIFT
 62
1
 10
443.269
 20
-5611.300
 30
-485.171
 70
    32
  0
SEQEND
  8
W57LXLIFT
  0
POLYLINE
  8
W57LXLIFT
 62
13
 66
     1
 70
     9
  0
VERTEX
  8
W57LXLIFT
 62
13
 10
1343.163
 20
-7744.943
 30
-500.000
 70
    32
  0
VERTEX
  8
W57LXLIFT
 62
13
 10
1334.852
 20
-7750.907
 30
-500.000
 70
    32
  0
VERTEX
  8
W57LXLIFT
 62
13
 10
1329.348
 20
-7754.857
 30
-500.000
 70
    32
  0
VERTEX
  8
W57LXLIFT
 62
13
 10
1308.311
 20
-7725.545
 30
-500.000
 70
    32
  0
VERTEX
  8
W57LXLIFT
 62
13
 10
1300.195
 20
-7714.236
 30
-500.000
 70
    32
  0
VERTEX
  8
W57LXLIFT
 62
13
 10
1305.699
 20
-7710.285
 30
-500.000
 70
    32
  0
VERTEX
  8
W57LXLIFT
 62
13
 10
1314.010
 20
-7704.321
 30
-500.000
 70
    32
  0
VERTEX
  8
W57LXLIFT
 62
13
 10
1320.541
 20
-7699.634
 30
-500.000
 70
    32
  0
VERTEX
  8
W57LXLIFT
 62
13
 10
1328.682
 20
-7710.978
 30
-500.000
 70
    32
  0
VERTEX
  8
W57LXLIFT
 62
13
 10
1349.694
 20
-7740.255
 30
-500.000
 70
    32
  0
SEQEND
  8
W57LXLIFT
  0
POLYLINE
  8
W57LXLIFT
 62
13
 66
     1
 70
     9
  0
VERTEX
  8
W57LXLIFT
 62
13
 10
1351.970
 20
-7738.622
 30
-490.000
 70
    32
  0
VERTEX
  8
W57LXLIFT
 62
13
 10
1351.894
 20
-7738.676
 30
-490.000
 70
    32
  0
VERTEX
  8
W57LXLIFT
 62
13
 10
1335.187
 20
-7750.667
 30
-490.000
 70
    32
  0
VERTEX
  8
W57LXLIFT
 62
13
 10
1335.084
 20
-7750.741
 30
-490.000
 70
    32
  0
VERTEX
  8
W57LXLIFT
 62
13
 10
1334.957
 20
-7750.832
 30
-490.000
 70
    32
  0
VERTEX
  8
W57LXLIFT
 62
13
 10
1329.164
 20
-7754.990
 30
-490.000
 70
    32
  0
VERTEX
  8
W57LXLIFT
 62
13
 10
1309.565
 20
-7727.681
 30
-490.000
 70
    32
  0
VERTEX
  8
W57LXLIFT
 62
13
 10
1300.010
 20
-7714.368
 30
-490.000
 70
    32
  0
VERTEX
  8
W57LXLIFT
 62
13
 10
1305.804
 20
-7710.211
 30
-490.000
 70
    32
  0
VERTEX
  8
W57LXLIFT
 62
13
 10
1305.931
 20
-7710.119
 30
-490.000
 70
    32
  0
VERTEX
  8
W57LXLIFT
 62
13
 10
1306.034
 20
-7710.045
 30
-490.000
 70
    32
  0
VERTEX
  8
W57LXLIFT
 62
13
 10
1322.741
 20
-7698.055
 30
-490.000
 70
    32
  0
VERTEX
  8
W57LXLIFT
 62
13
 10
1322.817
 20
-7698.000
 30
-490.000
 70
    32
  0
VERTEX
  8
W57LXLIFT
 62
13
 10
1324.426
 20
-7696.846
 30
-490.000
 70
    32
  0
VERTEX
  8
W57LXLIFT
 62
13
 10
1324.974
 20
-7697.609
 30
-490.000
 70
    32
  0
VERTEX
  8
W57LXLIFT
 62
13
 10
1353.579
 20
-7737.467
 30
-490.000
 70
    32
  0
SEQEND
  8
W57LXLIFT
  0
POLYLINE
  8
W57LXLIFT
 62
13
 66
     1
 70
     9
  0
VERTEX
  8
W57LXLIFT
 62
13
 10
1277.953
 20
-7730.199
 30
-490.000
 70
    32
  0
VERTEX
  8
W57LXLIFT
 62
13
 10
1296.886
 20
-7716.610
 30
-490.000
 70
    32
  0
VERTEX
  8
W57LXLIFT
 62
13
 10
1326.270
 20
-7695.522
 30
-490.000
 70
    32
  0
VERTEX
  8
W57LXLIFT
 62
13
 10
1308.517
 20
-7670.786
 30
-490.000
 70
    32
  0
VERTEX
  8
W57LXLIFT
 62
13
 10
1297.117
 20
-7654.901
 30
-490.000
 70
    32
  0
VERTEX
  8
W57LXLIFT
 62
13
 10
1267.733
 20
-7675.989
 30
-490.000
 70
    32
  0
VERTEX
  8
W57LXLIFT
 62
13
 10
1248.800
 20
-7689.577
 30
-490.000
 70
    32
  0
VERTEX
  8
W57LXLIFT
 62
13
 10
1256.685
 20
-7700.565
 30
-490.000
 70
    32
  0
SEQEND
  8
W57LXLIFT
  0
POLYLINE
  8
W57LXLIFT
 62
13
 66
     1
 70
     9
  0
VERTEX
  8
W57LXLIFT
 62
13
 10
1277.924
 20
-7730.219
 30
-500.000
 70
    32
  0
VERTEX
  8
W57LXLIFT
 62
13
 10
1324.090
 20
-7697.087
 30
-500.000
 70
    32
  0
VERTEX
  8
W57LXLIFT
 62
13
 10
1326.201
 20
-7695.572
 30
-500.000
 70
    32
  0
VERTEX
  8
W57LXLIFT
 62
13
 10
1324.925
 20
-7693.795
 30
-500.000
 70
    32
  0
VERTEX
  8
W57LXLIFT
 62
13
 10
1297.048
 20
-7654.950
 30
-500.000
 70
    32
  0
VERTEX
  8
W57LXLIFT
 62
13
 10
1294.937
 20
-7656.465
 30
-500.000
 70
    32
  0
VERTEX
  8
W57LXLIFT
 62
13
 10
1248.771
 20
-7689.598
 30
-500.000
 70
    32
  0
VERTEX
  8
W57LXLIFT
 62
13
 10
1267.998
 20
-7716.389
 30
-500.000
 70
    32
  0
SEQEND
  8
W57LXLIFT
  0
POLYLINE
  8
W57LXLIFT
 62
13
 66
     1
 70
     9
  0
VERTEX
  8
W57LXLIFT
 62
13
 10
1333.496
 20
-7690.341
 30
-510.000
 70
    32
  0
VERTEX
  8
W57LXLIFT
 62
13
 10
1345.222
 20
-7681.925
 30
-510.000
 70
    32
  0
VERTEX
  8
W57LXLIFT
 62
13
 10
1320.903
 20
-7648.039
 30
-510.000
 70
    32
  0
VERTEX
  8
W57LXLIFT
 62
13
 10
1316.069
 20
-7641.304
 30
-510.000
 70
    32
  0
VERTEX
  8
W57LXLIFT
 62
13
 10
1304.343
 20
-7649.720
 30
-510.000
 70
    32
  0
VERTEX
  8
W57LXLIFT
 62
13
 10
1273.669
 20
-7671.733
 30
-510.000
 70
    32
  0
VERTEX
  8
W57LXLIFT
 62
13
 10
1270.179
 20
-7674.238
 30
-510.000
 70
    32
  0
VERTEX
  8
W57LXLIFT
 62
13
 10
1288.672
 20
-7700.005
 30
-510.000
 70
    32
  0
VERTEX
  8
W57LXLIFT
 62
13
 10
1299.333
 20
-7714.859
 30
-510.000
 70
    32
  0
VERTEX
  8
W57LXLIFT
 62
13
 10
1302.823
 20
-7712.355
 30
-510.000
 70
    32
  0
SEQEND
  8
W57LXLIFT
  0
POLYLINE
  8
W57LXLIFT
 62
13
 66
     1
 70
     9
  0
VERTEX
  8
W57LXLIFT
 62
13
 10
1178.967
 20
-7616.607
 30
-500.000
 70
    32
  0
VERTEX
  8
W57LXLIFT
 62
13
 10
1172.170
 20
-7621.485
 30
-500.000
 70
    32
  0
VERTEX
  8
W57LXLIFT
 62
13
 10
1169.690
 20
-7623.265
 30
-500.000
 70
    32
  0
VERTEX
  8
W57LXLIFT
 62
13
 10
1161.984
 20
-7612.528
 30
-500.000
 70
    32
  0
VERTEX
  8
W57LXLIFT
 62
13
 10
1140.537
 20
-7582.643
 30
-500.000
 70
    32
  0
VERTEX
  8
W57LXLIFT
 62
13
 10
1143.017
 20
-7580.863
 30
-500.000
 70
    32
  0
VERTEX
  8
W57LXLIFT
 62
13
 10
1149.814
 20
-7575.985
 30
-500.000
 70
    32
  0
VERTEX
  8
W57LXLIFT
 62
13
 10
1171.424
 20
-7606.096
 30
-500.000
 70
    32
  0
SEQEND
  8
W57LXLIFT
  0
POLYLINE
  8
W57LXLIFT
 62
13
 66
     1
 70
     9
  0
VERTEX
  8
W57LXLIFT
 62
13
 10
1196.735
 20
-7603.855
 30
-490.000
 70
    32
  0
VERTEX
  8
W57LXLIFT
 62
13
 10
1198.246
 20
-7602.770
 30
-490.000
 70
    32
  0
VERTEX
  8
W57LXLIFT
 62
13
 10
1207.253
 20
-7596.307
 30
-490.000
 70
    32
  0
VERTEX
  8
W57LXLIFT
 62
13
 10
1182.243
 20
-7561.458
 30
-490.000
 70
    32
  0
VERTEX
  8
W57LXLIFT
 62
13
 10
1178.100
 20
-7555.685
 30
-490.000
 70
    32
  0
VERTEX
  8
W57LXLIFT
 62
13
 10
1169.093
 20
-7562.149
 30
-490.000
 70
    32
  0
VERTEX
  8
W57LXLIFT
 62
13
 10
1167.582
 20
-7563.233
 30
-490.000
 70
    32
  0
VERTEX
  8
W57LXLIFT
 62
13
 10
1172.091
 20
-7569.515
 30
-490.000
 70
    32
  0
SEQEND
  8
W57LXLIFT
  0
POLYLINE
  8
W57LXLIFT
 62
13
 66
     1
 70
     9
  0
VERTEX
  8
W57LXLIFT
 62
13
 10
1178.624
 20
-7616.853
 30
-480.000
 70
    32
  0
VERTEX
  8
W57LXLIFT
 62
13
 10
1179.056
 20
-7616.542
 30
-480.000
 70
    32
  0
VERTEX
  8
W57LXLIFT
 62
13
 10
1188.620
 20
-7609.679
 30
-480.000
 70
    32
  0
VERTEX
  8
W57LXLIFT
 62
13
 10
1160.285
 20
-7570.197
 30
-480.000
 70
    32
  0
VERTEX
  8
W57LXLIFT
 62
13
 10
1159.467
 20
-7569.057
 30
-480.000
 70
    32
  0
VERTEX
  8
W57LXLIFT
 62
13
 10
1149.903
 20
-7575.921
 30
-480.000
 70
    32
  0
VERTEX
  8
W57LXLIFT
 62
13
 10
1149.471
 20
-7576.231
 30
-480.000
 70
    32
  0
VERTEX
  8
W57LXLIFT
 62
13
 10
1150.801
 20
-7578.085
 30
-480.000
 70
    32
  0
SEQEND
  8
W57LXLIFT
  0
POLYLINE
  8
W57LXLIFT
 62
13
 66
     1
 70
     9
  0
VERTEX
  8
W57LXLIFT
 62
13
 10
1162.548
 20
-7566.846
 30
-500.000
 70
    32
  0
VERTEX
  8
W57LXLIFT
 62
13
 10
1178.352
 20
-7555.504
 30
-500.000
 70
    32
  0
VERTEX
  8
W57LXLIFT
 62
13
 10
1180.356
 20
-7554.066
 30
-500.000
 70
    32
  0
VERTEX
  8
W57LXLIFT
 62
13
 10
1168.279
 20
-7537.239
 30
-500.000
 70
    32
  0
VERTEX
  8
W57LXLIFT
 62
13
 10
1151.203
 20
-7513.444
 30
-500.000
 70
    32
  0
VERTEX
  8
W57LXLIFT
 62
13
 10
1149.199
 20
-7514.883
 30
-500.000
 70
    32
  0
VERTEX
  8
W57LXLIFT
 62
13
 10
1133.395
 20
-7526.224
 30
-500.000
 70
    32
  0
VERTEX
  8
W57LXLIFT
 62
13
 10
1122.372
 20
-7534.135
 30
-500.000
 70
    32
  0
VERTEX
  8
W57LXLIFT
 62
13
 10
1115.198
 20
-7539.284
 30
-500.000
 70
    32
  0
VERTEX
  8
W57LXLIFT
 62
13
 10
1124.814
 20
-7552.683
 30
-500.000
 70
    32
  0
VERTEX
  8
W57LXLIFT
 62
13
 10
1144.351
 20
-7579.906
 30
-500.000
 70
    32
  0
VERTEX
  8
W57LXLIFT
 62
13
 10
1151.525
 20
-7574.757
 30
-500.000
 70
    32
  0
SEQEND
  8
W57LXLIFT
  0
POLYLINE
  8
W57LXLIFT
 62
13
 66
     1
 70
     9
  0
VERTEX
  8
W57LXLIFT
 62
13
 10
1154.859
 20
-7572.365
 30
-490.000
 70
    32
  0
VERTEX
  8
W57LXLIFT
 62
13
 10
1158.917
 20
-7569.452
 30
-490.000
 70
    32
  0
VERTEX
  8
W57LXLIFT
 62
13
 10
1174.398
 20
-7558.342
 30
-490.000
 70
    32
  0
VERTEX
  8
W57LXLIFT
 62
13
 10
1175.633
 20
-7557.455
 30
-490.000
 70
    32
  0
VERTEX
  8
W57LXLIFT
 62
13
 10
1180.387
 20
-7554.044
 30
-490.000
 70
    32
  0
VERTEX
  8
W57LXLIFT
 62
13
 10
1151.742
 20
-7514.130
 30
-490.000
 70
    32
  0
VERTEX
  8
W57LXLIFT
 62
13
 10
1151.234
 20
-7513.422
 30
-490.000
 70
    32
  0
VERTEX
  8
W57LXLIFT
 62
13
 10
1146.480
 20
-7516.834
 30
-490.000
 70
    32
  0
VERTEX
  8
W57LXLIFT
 62
13
 10
1145.245
 20
-7517.721
 30
-490.000
 70
    32
  0
VERTEX
  8
W57LXLIFT
 62
13
 10
1129.764
 20
-7528.830
 30
-490.000
 70
    32
  0
VERTEX
  8
W57LXLIFT
 62
13
 10
1125.705
 20
-7531.743
 30
-490.000
 70
    32
  0
VERTEX
  8
W57LXLIFT
 62
13
 10
1127.507
 20
-7534.253
 30
-490.000
 70
    32
  0
SEQEND
  8
W57LXLIFT
  0
POLYLINE
  8
W57LXLIFT
 62
13
 66
     1
 70
     9
  0
VERTEX
  8
W57LXLIFT
 62
13
 10
1165.203
 20
-7564.941
 30
-480.000
 70
    32
  0
VERTEX
  8
W57LXLIFT
 62
13
 10
1175.238
 20
-7557.739
 30
-480.000
 70
    32
  0
VERTEX
  8
W57LXLIFT
 62
13
 10
1176.018
 20
-7557.179
 30
-480.000
 70
    32
  0
VERTEX
  8
W57LXLIFT
 62
13
 10
1189.757
 20
-7547.319
 30
-480.000
 70
    32
  0
VERTEX
  8
W57LXLIFT
 62
13
 10
1189.814
 20
-7547.278
 30
-480.000
 70
    32
  0
VERTEX
  8
W57LXLIFT
 62
13
 10
1189.445
 20
-7546.763
 30
-480.000
 70
    32
  0
VERTEX
  8
W57LXLIFT
 62
13
 10
1160.661
 20
-7506.656
 30
-480.000
 70
    32
  0
VERTEX
  8
W57LXLIFT
 62
13
 10
1160.604
 20
-7506.697
 30
-480.000
 70
    32
  0
VERTEX
  8
W57LXLIFT
 62
13
 10
1146.865
 20
-7516.558
 30
-480.000
 70
    32
  0
VERTEX
  8
W57LXLIFT
 62
13
 10
1146.085
 20
-7517.117
 30
-480.000
 70
    32
  0
VERTEX
  8
W57LXLIFT
 62
13
 10
1136.050
 20
-7524.320
 30
-480.000
 70
    32
  0
VERTEX
  8
W57LXLIFT
 62
13
 10
1135.859
 20
-7524.457
 30
-480.000
 70
    32
  0
VERTEX
  8
W57LXLIFT
 62
13
 10
1137.050
 20
-7526.117
 30
-480.000
 70
    32
  0
VERTEX
  8
W57LXLIFT
 62
13
 10
1165.012
 20
-7565.078
 30
-480.000
 70
    32
  0
SEQEND
  8
W57LXLIFT
  0
POLYLINE
  8
W57LXLIFT
 62
13
 66
     1
 70
     9
  0
VERTEX
  8
W57LXLIFT
 62
13
 10
1156.219
 20
-7509.844
 30
-470.000
 70
    32
  0
VERTEX
  8
W57LXLIFT
 62
13
 10
1166.163
 20
-7523.699
 30
-470.000
 70
    32
  0
VERTEX
  8
W57LXLIFT
 62
13
 10
1185.372
 20
-7550.466
 30
-470.000
 70
    32
  0
VERTEX
  8
W57LXLIFT
 62
13
 10
1174.813
 20
-7558.044
 30
-470.000
 70
    32
  0
VERTEX
  8
W57LXLIFT
 62
13
 10
1169.791
 20
-7561.648
 30
-470.000
 70
    32
  0
VERTEX
  8
W57LXLIFT
 62
13
 10
1150.059
 20
-7534.153
 30
-470.000
 70
    32
  0
VERTEX
  8
W57LXLIFT
 62
13
 10
1140.638
 20
-7521.027
 30
-470.000
 70
    32
  0
VERTEX
  8
W57LXLIFT
 62
13
 10
1145.660
 20
-7517.423
 30
-470.000
 70
    32
  0
SEQEND
  8
W57LXLIFT
  0
POLYLINE
  8
W57LXLIFT
 62
13
 66
     1
 70
     9
  0
VERTEX
  8
W57LXLIFT
 62
13
 10
1170.716
 20
-7499.440
 30
-490.000
 70
    32
  0
VERTEX
  8
W57LXLIFT
 62
13
 10
1153.521
 20
-7511.781
 30
-490.000
 70
    32
  0
VERTEX
  8
W57LXLIFT
 62
13
 10
1150.955
 20
-7513.622
 30
-490.000
 70
    32
  0
VERTEX
  8
W57LXLIFT
 62
13
 10
1135.315
 20
-7524.847
 30
-490.000
 70
    32
  0
VERTEX
  8
W57LXLIFT
 62
13
 10
1134.129
 20
-7525.698
 30
-490.000
 70
    32
  0
VERTEX
  8
W57LXLIFT
 62
13
 10
1105.856
 20
-7486.303
 30
-490.000
 70
    32
  0
VERTEX
  8
W57LXLIFT
 62
13
 10
1104.976
 20
-7485.077
 30
-490.000
 70
    32
  0
VERTEX
  8
W57LXLIFT
 62
13
 10
1106.162
 20
-7484.226
 30
-490.000
 70
    32
  0
VERTEX
  8
W57LXLIFT
 62
13
 10
1121.802
 20
-7473.001
 30
-490.000
 70
    32
  0
VERTEX
  8
W57LXLIFT
 62
13
 10
1124.368
 20
-7471.160
 30
-490.000
 70
    32
  0
VERTEX
  8
W57LXLIFT
 62
13
 10
1141.563
 20
-7458.819
 30
-490.000
 70
    32
  0
VERTEX
  8
W57LXLIFT
 62
13
 10
1167.449
 20
-7494.888
 30
-490.000
 70
    32
  0
SEQEND
  8
W57LXLIFT
  0
POLYLINE
  8
W57LXLIFT
 62
13
 66
     1
 70
     9
  0
VERTEX
  8
W57LXLIFT
 62
13
 10
1151.458
 20
-7513.261
 30
-480.000
 70
    32
  0
VERTEX
  8
W57LXLIFT
 62
13
 10
1151.115
 20
-7513.507
 30
-480.000
 70
    32
  0
VERTEX
  8
W57LXLIFT
 62
13
 10
1146.011
 20
-7517.171
 30
-480.000
 70
    32
  0
VERTEX
  8
W57LXLIFT
 62
13
 10
1146.003
 20
-7517.176
 30
-480.000
 70
    32
  0
VERTEX
  8
W57LXLIFT
 62
13
 10
1145.937
 20
-7517.084
 30
-480.000
 70
    32
  0
VERTEX
  8
W57LXLIFT
 62
13
 10
1116.850
 20
-7476.555
 30
-480.000
 70
    32
  0
VERTEX
  8
W57LXLIFT
 62
13
 10
1116.858
 20
-7476.549
 30
-480.000
 70
    32
  0
VERTEX
  8
W57LXLIFT
 62
13
 10
1121.962
 20
-7472.886
 30
-480.000
 70
    32
  0
VERTEX
  8
W57LXLIFT
 62
13
 10
1122.305
 20
-7472.640
 30
-480.000
 70
    32
  0
VERTEX
  8
W57LXLIFT
 62
13
 10
1137.724
 20
-7461.574
 30
-480.000
 70
    32
  0
VERTEX
  8
W57LXLIFT
 62
13
 10
1138.171
 20
-7462.196
 30
-480.000
 70
    32
  0
VERTEX
  8
W57LXLIFT
 62
13
 10
1166.877
 20
-7502.195
 30
-480.000
 70
    32
  0
SEQEND
  8
W57LXLIFT
  0
POLYLINE
  8
W57LXLIFT
 62
13
 66
     1
 70
     9
  0
VERTEX
  8
W57LXLIFT
 62
13
 10
1169.066
 20
-7500.625
 30
-460.000
 70
    32
  0
VERTEX
  8
W57LXLIFT
 62
13
 10
1163.093
 20
-7504.911
 30
-460.000
 70
    32
  0
VERTEX
  8
W57LXLIFT
 62
13
 10
1154.336
 20
-7511.196
 30
-460.000
 70
    32
  0
VERTEX
  8
W57LXLIFT
 62
13
 10
1149.418
 20
-7514.725
 30
-460.000
 70
    32
  0
VERTEX
  8
W57LXLIFT
 62
13
 10
1134.597
 20
-7494.074
 30
-460.000
 70
    32
  0
VERTEX
  8
W57LXLIFT
 62
13
 10
1120.265
 20
-7474.104
 30
-460.000
 70
    32
  0
VERTEX
  8
W57LXLIFT
 62
13
 10
1125.183
 20
-7470.575
 30
-460.000
 70
    32
  0
VERTEX
  8
W57LXLIFT
 62
13
 10
1133.940
 20
-7464.290
 30
-460.000
 70
    32
  0
VERTEX
  8
W57LXLIFT
 62
13
 10
1139.913
 20
-7460.003
 30
-460.000
 70
    32
  0
VERTEX
  8
W57LXLIFT
 62
13
 10
1141.671
 20
-7458.741
 30
-460.000
 70
    32
  0
VERTEX
  8
W57LXLIFT
 62
13
 10
1155.598
 20
-7478.147
 30
-460.000
 70
    32
  0
VERTEX
  8
W57LXLIFT
 62
13
 10
1170.824
 20
-7499.363
 30
-460.000
 70
    32
  0
SEQEND
  8
W57LXLIFT
  0
POLYLINE
  8
W57LXLIFT
 62
13
 66
     1
 70
     9
  0
VERTEX
  8
W57LXLIFT
 62
13
 10
1175.949
 20
-7495.685
 30
-450.000
 70
    32
  0
VERTEX
  8
W57LXLIFT
 62
13
 10
1171.636
 20
-7498.780
 30
-450.000
 70
    32
  0
VERTEX
  8
W57LXLIFT
 62
13
 10
1170.660
 20
-7499.480
 30
-450.000
 70
    32
  0
VERTEX
  8
W57LXLIFT
 62
13
 10
1168.383
 20
-7501.114
 30
-450.000
 70
    32
  0
VERTEX
  8
W57LXLIFT
 62
13
 10
1159.383
 20
-7507.574
 30
-450.000
 70
    32
  0
VERTEX
  8
W57LXLIFT
 62
13
 10
1147.859
 20
-7491.517
 30
-450.000
 70
    32
  0
VERTEX
  8
W57LXLIFT
 62
13
 10
1130.230
 20
-7466.953
 30
-450.000
 70
    32
  0
VERTEX
  8
W57LXLIFT
 62
13
 10
1139.230
 20
-7460.493
 30
-450.000
 70
    32
  0
VERTEX
  8
W57LXLIFT
 62
13
 10
1141.507
 20
-7458.859
 30
-450.000
 70
    32
  0
VERTEX
  8
W57LXLIFT
 62
13
 10
1142.483
 20
-7458.158
 30
-450.000
 70
    32
  0
VERTEX
  8
W57LXLIFT
 62
13
 10
1146.796
 20
-7455.063
 30
-450.000
 70
    32
  0
VERTEX
  8
W57LXLIFT
 62
13
 10
1169.738
 20
-7487.030
 30
-450.000
 70
    32
  0
SEQEND
  8
W57LXLIFT
  0
POLYLINE
  8
W57LXLIFT
 62
13
 66
     1
 70
     9
  0
VERTEX
  8
W57LXLIFT
 62
13
 10
1161.548
 20
-7506.020
 30
-470.000
 70
    32
  0
VERTEX
  8
W57LXLIFT
 62
13
 10
1150.015
 20
-7514.297
 30
-470.000
 70
    32
  0
VERTEX
  8
W57LXLIFT
 62
13
 10
1148.142
 20
-7515.641
 30
-470.000
 70
    32
  0
VERTEX
  8
W57LXLIFT
 62
13
 10
1146.059
 20
-7517.136
 30
-470.000
 70
    32
  0
VERTEX
  8
W57LXLIFT
 62
13
 10
1127.165
 20
-7490.809
 30
-470.000
 70
    32
  0
VERTEX
  8
W57LXLIFT
 62
13
 10
1116.906
 20
-7476.515
 30
-470.000
 70
    32
  0
VERTEX
  8
W57LXLIFT
 62
13
 10
1118.989
 20
-7475.020
 30
-470.000
 70
    32
  0
VERTEX
  8
W57LXLIFT
 62
13
 10
1120.862
 20
-7473.675
 30
-470.000
 70
    32
  0
VERTEX
  8
W57LXLIFT
 62
13
 10
1132.395
 20
-7465.399
 30
-470.000
 70
    32
  0
VERTEX
  8
W57LXLIFT
 62
13
 10
1137.870
 20
-7461.469
 30
-470.000
 70
    32
  0
VERTEX
  8
W57LXLIFT
 62
13
 10
1156.829
 20
-7487.887
 30
-470.000
 70
    32
  0
VERTEX
  8
W57LXLIFT
 62
13
 10
1167.023
 20
-7502.091
 30
-470.000
 70
    32
  0
SEQEND
  8
W57LXLIFT
  0
POLYLINE
  8
W57LXLIFT
 62
13
 66
     1
 70
     9
  0
VERTEX
  8
W57LXLIFT
 62
13
 10
1134.119
 20
-7525.705
 30
-500.000
 70
    32
  0
VERTEX
  8
W57LXLIFT
 62
13
 10
1145.978
 20
-7517.194
 30
-500.000
 70
    32
  0
VERTEX
  8
W57LXLIFT
 62
13
 10
1150.148
 20
-7514.202
 30
-500.000
 70
    32
  0
VERTEX
  8
W57LXLIFT
 62
13
 10
1128.365
 20
-7483.850
 30
-500.000
 70
    32
  0
VERTEX
  8
W57LXLIFT
 62
13
 10
1120.995
 20
-7473.580
 30
-500.000
 70
    32
  0
VERTEX
  8
W57LXLIFT
 62
13
 10
1116.825
 20
-7476.573
 30
-500.000
 70
    32
  0
VERTEX
  8
W57LXLIFT
 62
13
 10
1104.966
 20
-7485.083
 30
-500.000
 70
    32
  0
VERTEX
  8
W57LXLIFT
 62
13
 10
1121.331
 20
-7507.886
 30
-500.000
 70
    32
  0
SEQEND
  8
W57LXLIFT
  0
POLYLINE
  8
W57LXLIFT
 62
13
 66
     1
 70
     9
  0
VERTEX
  8
W57LXLIFT
 62
13
 10
1121.463
 20
-7473.244
 30
-490.000
 70
    32
  0
VERTEX
  8
W57LXLIFT
 62
13
 10
1120.329
 20
-7474.058
 30
-490.000
 70
    32
  0
VERTEX
  8
W57LXLIFT
 62
13
 10
1111.341
 20
-7480.509
 30
-490.000
 70
    32
  0
VERTEX
  8
W57LXLIFT
 62
13
 10
1108.353
 20
-7476.345
 30
-490.000
 70
    32
  0
VERTEX
  8
W57LXLIFT
 62
13
 10
1082.188
 20
-7439.887
 30
-490.000
 70
    32
  0
VERTEX
  8
W57LXLIFT
 62
13
 10
1091.176
 20
-7433.436
 30
-490.000
 70
    32
  0
VERTEX
  8
W57LXLIFT
 62
13
 10
1092.310
 20
-7432.623
 30
-490.000
 70
    32
  0
VERTEX
  8
W57LXLIFT
 62
13
 10
1095.497
 20
-7437.063
 30
-490.000
 70
    32
  0
SEQEND
  8
W57LXLIFT
  0
POLYLINE
  8
W57LXLIFT
 62
13
 66
     1
 70
     9
  0
VERTEX
  8
W57LXLIFT
 62
13
 10
1130.986
 20
-7466.410
 30
-480.000
 70
    32
  0
VERTEX
  8
W57LXLIFT
 62
13
 10
1132.700
 20
-7465.180
 30
-480.000
 70
    32
  0
VERTEX
  8
W57LXLIFT
 62
13
 10
1141.447
 20
-7458.902
 30
-480.000
 70
    32
  0
VERTEX
  8
W57LXLIFT
 62
13
 10
1136.732
 20
-7452.333
 30
-480.000
 70
    32
  0
VERTEX
  8
W57LXLIFT
 62
13
 10
1112.294
 20
-7418.281
 30
-480.000
 70
    32
  0
VERTEX
  8
W57LXLIFT
 62
13
 10
1103.547
 20
-7424.558
 30
-480.000
 70
    32
  0
VERTEX
  8
W57LXLIFT
 62
13
 10
1101.833
 20
-7425.788
 30
-480.000
 70
    32
  0
VERTEX
  8
W57LXLIFT
 62
13
 10
1127.738
 20
-7461.884
 30
-480.000
 70
    32
  0
SEQEND
  8
W57LXLIFT
  0
POLYLINE
  8
W57LXLIFT
 62
13
 66
     1
 70
     9
  0
VERTEX
  8
W57LXLIFT
 62
13
 10
1131.196
 20
-7466.259
 30
-470.000
 70
    32
  0
VERTEX
  8
W57LXLIFT
 62
13
 10
1139.130
 20
-7460.565
 30
-470.000
 70
    32
  0
VERTEX
  8
W57LXLIFT
 62
13
 10
1141.469
 20
-7458.886
 30
-470.000
 70
    32
  0
VERTEX
  8
W57LXLIFT
 62
13
 10
1118.853
 20
-7427.373
 30
-470.000
 70
    32
  0
VERTEX
  8
W57LXLIFT
 62
13
 10
1112.316
 20
-7418.265
 30
-470.000
 70
    32
  0
VERTEX
  8
W57LXLIFT
 62
13
 10
1109.977
 20
-7419.944
 30
-470.000
 70
    32
  0
VERTEX
  8
W57LXLIFT
 62
13
 10
1102.043
 20
-7425.638
 30
-470.000
 70
    32
  0
VERTEX
  8
W57LXLIFT
 62
13
 10
1116.163
 20
-7445.313
 30
-470.000
 70
    32
  0
SEQEND
  8
W57LXLIFT
  0
POLYLINE
  8
W57LXLIFT
 62
13
 66
     1
 70
     9
  0
VERTEX
  8
W57LXLIFT
 62
13
 10
1147.440
 20
-7454.601
 30
-460.000
 70
    32
  0
VERTEX
  8
W57LXLIFT
 62
13
 10
1151.476
 20
-7451.704
 30
-460.000
 70
    32
  0
VERTEX
  8
W57LXLIFT
 62
13
 10
1129.152
 20
-7420.598
 30
-460.000
 70
    32
  0
VERTEX
  8
W57LXLIFT
 62
13
 10
1122.323
 20
-7411.083
 30
-460.000
 70
    32
  0
VERTEX
  8
W57LXLIFT
 62
13
 10
1118.287
 20
-7413.980
 30
-460.000
 70
    32
  0
VERTEX
  8
W57LXLIFT
 62
13
 10
1116.115
 20
-7415.538
 30
-460.000
 70
    32
  0
VERTEX
  8
W57LXLIFT
 62
13
 10
1108.407
 20
-7421.070
 30
-460.000
 70
    32
  0
VERTEX
  8
W57LXLIFT
 62
13
 10
1104.680
 20
-7423.745
 30
-460.000
 70
    32
  0
VERTEX
  8
W57LXLIFT
 62
13
 10
1102.253
 20
-7425.487
 30
-460.000
 70
    32
  0
VERTEX
  8
W57LXLIFT
 62
13
 10
1104.588
 20
-7428.741
 30
-460.000
 70
    32
  0
VERTEX
  8
W57LXLIFT
 62
13
 10
1131.406
 20
-7466.109
 30
-460.000
 70
    32
  0
VERTEX
  8
W57LXLIFT
 62
13
 10
1133.833
 20
-7464.366
 30
-460.000
 70
    32
  0
VERTEX
  8
W57LXLIFT
 62
13
 10
1137.560
 20
-7461.691
 30
-460.000
 70
    32
  0
VERTEX
  8
W57LXLIFT
 62
13
 10
1145.269
 20
-7456.160
 30
-460.000
 70
    32
  0
SEQEND
  8
W57LXLIFT
  0
POLYLINE
  8
W57LXLIFT
 62
13
 66
     1
 70
     9
  0
VERTEX
  8
W57LXLIFT
 62
13
 10
1136.483
 20
-7462.464
 30
-450.000
 70
    32
  0
VERTEX
  8
W57LXLIFT
 62
13
 10
1141.219
 20
-7459.066
 30
-450.000
 70
    32
  0
VERTEX
  8
W57LXLIFT
 62
13
 10
1141.517
 20
-7458.852
 30
-450.000
 70
    32
  0
VERTEX
  8
W57LXLIFT
 62
13
 10
1140.782
 20
-7457.827
 30
-450.000
 70
    32
  0
VERTEX
  8
W57LXLIFT
 62
13
 10
1112.364
 20
-7418.230
 30
-450.000
 70
    32
  0
VERTEX
  8
W57LXLIFT
 62
13
 10
1112.066
 20
-7418.445
 30
-450.000
 70
    32
  0
VERTEX
  8
W57LXLIFT
 62
13
 10
1107.330
 20
-7421.843
 30
-450.000
 70
    32
  0
VERTEX
  8
W57LXLIFT
 62
13
 10
1120.344
 20
-7439.975
 30
-450.000
 70
    32
  0
SEQEND
  8
W57LXLIFT
  0
POLYLINE
  8
W57LXLIFT
 62
13
 66
     1
 70
     9
  0
VERTEX
  8
W57LXLIFT
 62
13
 10
1134.978
 20
-7463.545
 30
-440.000
 70
    32
  0
VERTEX
  8
W57LXLIFT
 62
13
 10
1138.412
 20
-7461.081
 30
-440.000
 70
    32
  0
VERTEX
  8
W57LXLIFT
 62
13
 10
1141.583
 20
-7458.805
 30
-440.000
 70
    32
  0
VERTEX
  8
W57LXLIFT
 62
13
 10
1123.138
 20
-7433.104
 30
-440.000
 70
    32
  0
VERTEX
  8
W57LXLIFT
 62
13
 10
1112.430
 20
-7418.183
 30
-440.000
 70
    32
  0
VERTEX
  8
W57LXLIFT
 62
13
 10
1109.259
 20
-7420.459
 30
-440.000
 70
    32
  0
VERTEX
  8
W57LXLIFT
 62
13
 10
1105.825
 20
-7422.924
 30
-440.000
 70
    32
  0
VERTEX
  8
W57LXLIFT
 62
13
 10
1105.702
 20
-7423.012
 30
-440.000
 70
    32
  0
VERTEX
  8
W57LXLIFT
 62
13
 10
1102.803
 20
-7425.092
 30
-440.000
 70
    32
  0
VERTEX
  8
W57LXLIFT
 62
13
 10
1121.775
 20
-7451.528
 30
-440.000
 70
    32
  0
VERTEX
  8
W57LXLIFT
 62
13
 10
1131.956
 20
-7465.714
 30
-440.000
 70
    32
  0
VERTEX
  8
W57LXLIFT
 62
13
 10
1134.855
 20
-7463.633
 30
-440.000
 70
    32
  0
SEQEND
  8
W57LXLIFT
  0
POLYLINE
  8
W57LXLIFT
 62
13
 66
     1
 70
     9
  0
VERTEX
  8
W57LXLIFT
 62
13
 10
1091.935
 20
-7432.892
 30
-430.000
 70
    32
  0
VERTEX
  8
W57LXLIFT
 62
13
 10
1106.278
 20
-7452.879
 30
-430.000
 70
    32
  0
VERTEX
  8
W57LXLIFT
 62
13
 10
1121.088
 20
-7473.514
 30
-430.000
 70
    32
  0
VERTEX
  8
W57LXLIFT
 62
13
 10
1126.432
 20
-7469.678
 30
-430.000
 70
    32
  0
VERTEX
  8
W57LXLIFT
 62
13
 10
1131.924
 20
-7465.737
 30
-430.000
 70
    32
  0
VERTEX
  8
W57LXLIFT
 62
13
 10
1132.033
 20
-7465.658
 30
-430.000
 70
    32
  0
VERTEX
  8
W57LXLIFT
 62
13
 10
1117.870
 20
-7445.924
 30
-430.000
 70
    32
  0
VERTEX
  8
W57LXLIFT
 62
13
 10
1102.880
 20
-7425.037
 30
-430.000
 70
    32
  0
VERTEX
  8
W57LXLIFT
 62
13
 10
1102.771
 20
-7425.115
 30
-430.000
 70
    32
  0
VERTEX
  8
W57LXLIFT
 62
13
 10
1097.279
 20
-7429.056
 30
-430.000
 70
    32
  0
SEQEND
  8
W57LXLIFT
  0
POLYLINE
  8
W57LXLIFT
 62
13
 66
     1
 70
     9
  0
VERTEX
  8
W57LXLIFT
 62
13
 10
1107.070
 20
-7422.030
 30
-480.000
 70
    32
  0
VERTEX
  8
W57LXLIFT
 62
13
 10
1106.290
 20
-7422.589
 30
-480.000
 70
    32
  0
VERTEX
  8
W57LXLIFT
 62
13
 10
1078.556
 20
-7383.944
 30
-480.000
 70
    32
  0
VERTEX
  8
W57LXLIFT
 62
13
 10
1077.137
 20
-7381.968
 30
-480.000
 70
    32
  0
VERTEX
  8
W57LXLIFT
 62
13
 10
1077.917
 20
-7381.408
 30
-480.000
 70
    32
  0
VERTEX
  8
W57LXLIFT
 62
13
 10
1087.089
 20
-7374.826
 30
-480.000
 70
    32
  0
VERTEX
  8
W57LXLIFT
 62
13
 10
1113.775
 20
-7412.009
 30
-480.000
 70
    32
  0
VERTEX
  8
W57LXLIFT
 62
13
 10
1116.242
 20
-7415.447
 30
-480.000
 70
    32
  0
SEQEND
  8
W57LXLIFT
  0
POLYLINE
  8
W57LXLIFT
 62
13
 66
     1
 70
     9
  0
VERTEX
  8
W57LXLIFT
 62
13
 10
1113.658
 20
-7417.302
 30
-470.000
 70
    32
  0
VERTEX
  8
W57LXLIFT
 62
13
 10
1106.202
 20
-7422.653
 30
-470.000
 70
    32
  0
VERTEX
  8
W57LXLIFT
 62
13
 10
1090.609
 20
-7400.925
 30
-470.000
 70
    32
  0
VERTEX
  8
W57LXLIFT
 62
13
 10
1077.049
 20
-7382.031
 30
-470.000
 70
    32
  0
VERTEX
  8
W57LXLIFT
 62
13
 10
1084.505
 20
-7376.680
 30
-470.000
 70
    32
  0
VERTEX
  8
W57LXLIFT
 62
13
 10
1087.167
 20
-7374.770
 30
-470.000
 70
    32
  0
VERTEX
  8
W57LXLIFT
 62
13
 10
1094.910
 20
-7385.560
 30
-470.000
 70
    32
  0
VERTEX
  8
W57LXLIFT
 62
13
 10
1116.320
 20
-7415.391
 30
-470.000
 70
    32
  0
SEQEND
  8
W57LXLIFT
  0
POLYLINE
  8
W57LXLIFT
 62
13
 66
     1
 70
     9
  0
VERTEX
  8
W57LXLIFT
 62
13
 10
1109.422
 20
-7420.342
 30
-460.000
 70
    32
  0
VERTEX
  8
W57LXLIFT
 62
13
 10
1110.689
 20
-7419.433
 30
-460.000
 70
    32
  0
VERTEX
  8
W57LXLIFT
 62
13
 10
1117.607
 20
-7414.467
 30
-460.000
 70
    32
  0
VERTEX
  8
W57LXLIFT
 62
13
 10
1119.624
 20
-7413.020
 30
-460.000
 70
    32
  0
VERTEX
  8
W57LXLIFT
 62
13
 10
1122.206
 20
-7411.167
 30
-460.000
 70
    32
  0
VERTEX
  8
W57LXLIFT
 62
13
 10
1103.010
 20
-7384.419
 30
-460.000
 70
    32
  0
VERTEX
  8
W57LXLIFT
 62
13
 10
1093.053
 20
-7370.545
 30
-460.000
 70
    32
  0
VERTEX
  8
W57LXLIFT
 62
13
 10
1090.471
 20
-7372.398
 30
-460.000
 70
    32
  0
VERTEX
  8
W57LXLIFT
 62
13
 10
1088.454
 20
-7373.846
 30
-460.000
 70
    32
  0
VERTEX
  8
W57LXLIFT
 62
13
 10
1081.536
 20
-7378.811
 30
-460.000
 70
    32
  0
VERTEX
  8
W57LXLIFT
 62
13
 10
1080.269
 20
-7379.720
 30
-460.000
 70
    32
  0
VERTEX
  8
W57LXLIFT
 62
13
 10
1076.961
 20
-7382.094
 30
-460.000
 70
    32
  0
VERTEX
  8
W57LXLIFT
 62
13
 10
1102.662
 20
-7417.905
 30
-460.000
 70
    32
  0
VERTEX
  8
W57LXLIFT
 62
13
 10
1106.114
 20
-7422.716
 30
-460.000
 70
    32
  0
SEQEND
  8
W57LXLIFT
  0
POLYLINE
  8
W57LXLIFT
 62
13
 66
     1
 70
     9
  0
VERTEX
  8
W57LXLIFT
 62
13
 10
1112.494
 20
-7418.137
 30
-440.000
 70
    32
  0
VERTEX
  8
W57LXLIFT
 62
13
 10
1109.556
 20
-7420.246
 30
-440.000
 70
    32
  0
VERTEX
  8
W57LXLIFT
 62
13
 10
1107.857
 20
-7421.465
 30
-440.000
 70
    32
  0
VERTEX
  8
W57LXLIFT
 62
13
 10
1104.059
 20
-7424.191
 30
-440.000
 70
    32
  0
VERTEX
  8
W57LXLIFT
 62
13
 10
1097.239
 20
-7429.085
 30
-440.000
 70
    32
  0
VERTEX
  8
W57LXLIFT
 62
13
 10
1078.247
 20
-7402.623
 30
-440.000
 70
    32
  0
VERTEX
  8
W57LXLIFT
 62
13
 10
1068.086
 20
-7388.464
 30
-440.000
 70
    32
  0
VERTEX
  8
W57LXLIFT
 62
13
 10
1074.905
 20
-7383.570
 30
-440.000
 70
    32
  0
VERTEX
  8
W57LXLIFT
 62
13
 10
1078.704
 20
-7380.843
 30
-440.000
 70
    32
  0
VERTEX
  8
W57LXLIFT
 62
13
 10
1080.403
 20
-7379.625
 30
-440.000
 70
    32
  0
VERTEX
  8
W57LXLIFT
 62
13
 10
1083.341
 20
-7377.516
 30
-440.000
 70
    32
  0
VERTEX
  8
W57LXLIFT
 62
13
 10
1101.760
 20
-7403.181
 30
-440.000
 70
    32
  0
SEQEND
  8
W57LXLIFT
  0
POLYLINE
  8
W57LXLIFT
 62
13
 66
     1
 70
     9
  0
VERTEX
  8
W57LXLIFT
 62
13
 10
1078.666
 20
-7380.871
 30
-430.000
 70
    32
  0
VERTEX
  8
W57LXLIFT
 62
13
 10
1092.740
 20
-7400.481
 30
-430.000
 70
    32
  0
VERTEX
  8
W57LXLIFT
 62
13
 10
1107.819
 20
-7421.492
 30
-430.000
 70
    32
  0
VERTEX
  8
W57LXLIFT
 62
13
 10
1105.597
 20
-7423.087
 30
-430.000
 70
    32
  0
VERTEX
  8
W57LXLIFT
 62
13
 10
1100.067
 20
-7427.055
 30
-430.000
 70
    32
  0
VERTEX
  8
W57LXLIFT
 62
13
 10
1096.322
 20
-7429.744
 30
-430.000
 70
    32
  0
VERTEX
  8
W57LXLIFT
 62
13
 10
1092.723
 20
-7432.326
 30
-430.000
 70
    32
  0
VERTEX
  8
W57LXLIFT
 62
13
 10
1070.330
 20
-7401.124
 30
-430.000
 70
    32
  0
VERTEX
  8
W57LXLIFT
 62
13
 10
1063.570
 20
-7391.705
 30
-430.000
 70
    32
  0
VERTEX
  8
W57LXLIFT
 62
13
 10
1067.169
 20
-7389.122
 30
-430.000
 70
    32
  0
VERTEX
  8
W57LXLIFT
 62
13
 10
1070.914
 20
-7386.434
 30
-430.000
 70
    32
  0
VERTEX
  8
W57LXLIFT
 62
13
 10
1076.444
 20
-7382.466
 30
-430.000
 70
    32
  0
SEQEND
  8
W57LXLIFT
  0
POLYLINE
  8
W57LXLIFT
 62
13
 66
     1
 70
     9
  0
VERTEX
  8
W57LXLIFT
 62
13
 10
1103.060
 20
-7424.907
 30
-420.000
 70
    32
  0
VERTEX
  8
W57LXLIFT
 62
13
 10
1096.233
 20
-7429.807
 30
-420.000
 70
    32
  0
VERTEX
  8
W57LXLIFT
 62
13
 10
1093.507
 20
-7431.764
 30
-420.000
 70
    32
  0
VERTEX
  8
W57LXLIFT
 62
13
 10
1092.712
 20
-7432.334
 30
-420.000
 70
    32
  0
VERTEX
  8
W57LXLIFT
 62
13
 10
1087.764
 20
-7425.441
 30
-420.000
 70
    32
  0
VERTEX
  8
W57LXLIFT
 62
13
 10
1063.559
 20
-7391.713
 30
-420.000
 70
    32
  0
VERTEX
  8
W57LXLIFT
 62
13
 10
1064.354
 20
-7391.142
 30
-420.000
 70
    32
  0
VERTEX
  8
W57LXLIFT
 62
13
 10
1067.080
 20
-7389.186
 30
-420.000
 70
    32
  0
VERTEX
  8
W57LXLIFT
 62
13
 10
1073.907
 20
-7384.286
 30
-420.000
 70
    32
  0
VERTEX
  8
W57LXLIFT
 62
13
 10
1093.028
 20
-7410.929
 30
-420.000
 70
    32
  0
SEQEND
  8
W57LXLIFT
  0
POLYLINE
  8
W57LXLIFT
 62
13
 66
     1
 70
     9
  0
VERTEX
  8
W57LXLIFT
 62
13
 10
1112.334
 20
-7418.252
 30
-450.000
 70
    32
  0
VERTEX
  8
W57LXLIFT
 62
13
 10
1112.008
 20
-7418.486
 30
-450.000
 70
    32
  0
VERTEX
  8
W57LXLIFT
 62
13
 10
1107.826
 20
-7421.487
 30
-450.000
 70
    32
  0
VERTEX
  8
W57LXLIFT
 62
13
 10
1093.716
 20
-7401.826
 30
-450.000
 70
    32
  0
VERTEX
  8
W57LXLIFT
 62
13
 10
1078.673
 20
-7380.866
 30
-450.000
 70
    32
  0
VERTEX
  8
W57LXLIFT
 62
13
 10
1082.855
 20
-7377.865
 30
-450.000
 70
    32
  0
VERTEX
  8
W57LXLIFT
 62
13
 10
1083.181
 20
-7377.630
 30
-450.000
 70
    32
  0
VERTEX
  8
W57LXLIFT
 62
13
 10
1084.061
 20
-7378.856
 30
-450.000
 70
    32
  0
SEQEND
  8
W57LXLIFT
  0
POLYLINE
  8
W57LXLIFT
 62
1
 66
     1
 70
     9
  0
VERTEX
  8
W57LXLIFT
 62
1
 10
1082.839
 20
-6907.433
 30
-391.500
 70
    32
  0
VERTEX
  8
W57LXLIFT
 62
1
 10
1105.189
 20
-6897.386
 30
-391.500
 70
    32
  0
VERTEX
  8
W57LXLIFT
 62
1
 10
1101.921
 20
-6902.187
 30
-391.500
 70
    32
  0
VERTEX
  8
W57LXLIFT
 62
1
 10
1100.113
 20
-6907.738
 30
-391.500
 70
    32
  0
VERTEX
  8
W57LXLIFT
 62
1
 10
1096.588
 20
-6912.971
 30
-391.500
 70
    32
  0
VERTEX
  8
W57LXLIFT
 62
1
 10
1094.927
 20
-6929.460
 30
-391.500
 70
    32
  0
VERTEX
  8
W57LXLIFT
 62
1
 10
1099.814
 20
-6945.636
 30
-391.500
 70
    32
  0
VERTEX
  8
W57LXLIFT
 62
1
 10
1102.789
 20
-6944.646
 30
-391.500
 70
    32
  0
VERTEX
  8
W57LXLIFT
 62
1
 10
1104.323
 20
-6950.094
 30
-391.500
 70
    32
  0
VERTEX
  8
W57LXLIFT
 62
1
 10
1096.624
 20
-6953.267
 30
-391.500
 70
    32
  0
VERTEX
  8
W57LXLIFT
 62
1
 10
1088.841
 20
-6952.218
 30
-391.500
 70
    32
  0
VERTEX
  8
W57LXLIFT
 62
1
 10
1086.974
 20
-6944.301
 30
-391.500
 70
    32
  0
VERTEX
  8
W57LXLIFT
 62
1
 10
1080.082
 20
-6928.152
 30
-391.500
 70
    32
  0
VERTEX
  8
W57LXLIFT
 62
1
 10
1085.634
 20
-6918.639
 30
-391.500
 70
    32
  0
VERTEX
  8
W57LXLIFT
 62
1
 10
1087.467
 20
-6910.381
 30
-391.500
 70
    32
  0
VERTEX
  8
W57LXLIFT
 62
1
 10
1084.567
 20
-6907.927
 30
-391.500
 70
    32
  0
SEQEND
  8
W57LXLIFT
  0
POLYLINE
  8
W57LXLIFT
 62
13
 66
     1
 70
     9
  0
VERTEX
  8
W57LXLIFT
 62
13
 10
1131.607
 20
-7030.627
 30
-390.000
 70
    32
  0
VERTEX
  8
W57LXLIFT
 62
13
 10
1120.131
 20
-7035.446
 30
-390.000
 70
    32
  0
VERTEX
  8
W57LXLIFT
 62
13
 10
1106.966
 20
-7040.965
 30
-390.000
 70
    32
  0
VERTEX
  8
W57LXLIFT
 62
13
 10
1087.276
 20
-7008.395
 30
-390.000
 70
    32
  0
VERTEX
  8
W57LXLIFT
 62
13
 10
1080.761
 20
-6956.528
 30
-390.000
 70
    32
  0
VERTEX
  8
W57LXLIFT
 62
13
 10
1106.882
 20
-6950.137
 30
-390.000
 70
    32
  0
VERTEX
  8
W57LXLIFT
 62
13
 10
1103.448
 20
-6931.659
 30
-390.000
 70
    32
  0
VERTEX
  8
W57LXLIFT
 62
13
 10
1114.152
 20
-6927.747
 30
-390.000
 70
    32
  0
VERTEX
  8
W57LXLIFT
 62
13
 10
1144.059
 20
-7024.186
 30
-390.000
 70
    32
  0
SEQEND
  8
W57LXLIFT
  0
POLYLINE
  8
W57LXLIFT
 62
11
 66
     1
 70
     9
  0
VERTEX
  8
W57LXLIFT
 62
11
 10
1148.675
 20
-6964.391
 30
-401.000
 70
    32
  0
VERTEX
  8
W57LXLIFT
 62
11
 10
1156.502
 20
-6972.278
 30
-401.000
 70
    32
  0
VERTEX
  8
W57LXLIFT
 62
11
 10
1153.061
 20
-6974.643
 30
-401.000
 70
    32
  0
VERTEX
  8
W57LXLIFT
 62
11
 10
1150.583
 20
-6977.399
 30
-401.000
 70
    32
  0
VERTEX
  8
W57LXLIFT
 62
11
 10
1145.659
 20
-6989.623
 30
-401.000
 70
    32
  0
VERTEX
  8
W57LXLIFT
 62
11
 10
1142.233
 20
-7001.208
 30
-401.000
 70
    32
  0
VERTEX
  8
W57LXLIFT
 62
11
 10
1141.759
 20
-7010.241
 30
-401.000
 70
    32
  0
VERTEX
  8
W57LXLIFT
 62
11
 10
1142.727
 20
-7017.045
 30
-401.000
 70
    32
  0
VERTEX
  8
W57LXLIFT
 62
11
 10
1138.481
 20
-7019.003
 30
-401.000
 70
    32
  0
VERTEX
  8
W57LXLIFT
 62
11
 10
1132.456
 20
-7019.087
 30
-401.000
 70
    32
  0
VERTEX
  8
W57LXLIFT
 62
11
 10
1128.841
 20
-7017.986
 30
-401.000
 70
    32
  0
VERTEX
  8
W57LXLIFT
 62
11
 10
1128.247
 20
-7008.523
 30
-401.000
 70
    32
  0
VERTEX
  8
W57LXLIFT
 62
11
 10
1119.731
 20
-6994.529
 30
-401.000
 70
    32
  0
VERTEX
  8
W57LXLIFT
 62
11
 10
1132.535
 20
-6986.323
 30
-401.000
 70
    32
  0
VERTEX
  8
W57LXLIFT
 62
11
 10
1131.369
 20
-6978.032
 30
-401.000
 70
    32
  0
VERTEX
  8
W57LXLIFT
 62
11
 10
1148.341
 20
-6964.881
 30
-401.000
 70
    32
  0
SEQEND
  8
W57LXLIFT
  0
POLYLINE
  8
W57LXLIFT
 62
5
 66
     1
 70
     9
  0
VERTEX
  8
W57LXLIFT
 62
5
 10
1190.511
 20
-8131.290
 30
-423.000
 70
    32
  0
VERTEX
  8
W57LXLIFT
 62
5
 10
1195.130
 20
-8145.799
 30
-423.000
 70
    32
  0
VERTEX
  8
W57LXLIFT
 62
5
 10
1201.443
 20
-8164.659
 30
-423.000
 70
    32
  0
VERTEX
  8
W57LXLIFT
 62
5
 10
1210.607
 20
-8193.571
 30
-423.000
 70
    32
  0
VERTEX
  8
W57LXLIFT
 62
5
 10
1222.325
 20
-8197.994
 30
-423.000
 70
    32
  0
VERTEX
  8
W57LXLIFT
 62
5
 10
1236.582
 20
-8207.838
 30
-423.000
 70
    32
  0
VERTEX
  8
W57LXLIFT
 62
5
 10
1250.388
 20
-8191.452
 30
-423.000
 70
    32
  0
VERTEX
  8
W57LXLIFT
 62
5
 10
1238.227
 20
-8181.998
 30
-423.000
 70
    32
  0
VERTEX
  8
W57LXLIFT
 62
5
 10
1232.026
 20
-8167.369
 30
-423.000
 70
    32
  0
VERTEX
  8
W57LXLIFT
 62
5
 10
1220.803
 20
-8161.103
 30
-423.000
 70
    32
  0
VERTEX
  8
W57LXLIFT
 62
5
 10
1212.473
 20
-8145.769
 30
-423.000
 70
    32
  0
VERTEX
  8
W57LXLIFT
 62
5
 10
1204.039
 20
-8138.682
 30
-423.000
 70
    32
  0
SEQEND
  8
W57LXLIFT
  0
POLYLINE
  8
W57LXLIFT
 62
12
 66
     1
 70
     9
  0
VERTEX
  8
W57LXLIFT
 62
12
 10
1202.421
 20
-8135.134
 30
-400.000
 70
    32
  0
VERTEX
  8
W57LXLIFT
 62
12
 10
1206.445
 20
-8140.513
 30
-400.000
 70
    32
  0
VERTEX
  8
W57LXLIFT
 62
12
 10
1214.972
 20
-8145.355
 30
-400.000
 70
    32
  0
VERTEX
  8
W57LXLIFT
 62
12
 10
1222.187
 20
-8159.434
 30
-400.000
 70
    32
  0
VERTEX
  8
W57LXLIFT
 62
12
 10
1231.406
 20
-8163.222
 30
-400.000
 70
    32
  0
VERTEX
  8
W57LXLIFT
 62
12
 10
1239.918
 20
-8181.828
 30
-400.000
 70
    32
  0
VERTEX
  8
W57LXLIFT
 62
12
 10
1252.180
 20
-8190.454
 30
-400.000
 70
    32
  0
VERTEX
  8
W57LXLIFT
 62
12
 10
1249.482
 20
-8199.884
 30
-400.000
 70
    32
  0
VERTEX
  8
W57LXLIFT
 62
12
 10
1236.966
 20
-8213.283
 30
-400.000
 70
    32
  0
VERTEX
  8
W57LXLIFT
 62
12
 10
1232.605
 20
-8208.204
 30
-400.000
 70
    32
  0
VERTEX
  8
W57LXLIFT
 62
12
 10
1226.027
 20
-8208.435
 30
-400.000
 70
    32
  0
VERTEX
  8
W57LXLIFT
 62
12
 10
1214.723
 20
-8201.815
 30
-400.000
 70
    32
  0
VERTEX
  8
W57LXLIFT
 62
12
 10
1210.889
 20
-8195.098
 30
-400.000
 70
    32
  0
VERTEX
  8
W57LXLIFT
 62
12
 10
1204.078
 20
-8186.491
 30
-400.000
 70
    32
  0
VERTEX
  8
W57LXLIFT
 62
12
 10
1201.201
 20
-8181.298
 30
-400.000
 70
    32
  0
VERTEX
  8
W57LXLIFT
 62
12
 10
1194.748
 20
-8162.755
 30
-400.000
 70
    32
  0
VERTEX
  8
W57LXLIFT
 62
12
 10
1187.062
 20
-8150.373
 30
-400.000
 70
    32
  0
VERTEX
  8
W57LXLIFT
 62
12
 10
1167.606
 20
-8140.923
 30
-400.000
 70
    32
  0
VERTEX
  8
W57LXLIFT
 62
12
 10
1147.773
 20
-8133.004
 30
-400.000
 70
    32
  0
VERTEX
  8
W57LXLIFT
 62
12
 10
1137.142
 20
-8133.367
 30
-400.000
 70
    32
  0
VERTEX
  8
W57LXLIFT
 62
12
 10
1128.792
 20
-8134.316
 30
-400.000
 70
    32
  0
VERTEX
  8
W57LXLIFT
 62
12
 10
1128.360
 20
-8124.430
 30
-400.000
 70
    32
  0
VERTEX
  8
W57LXLIFT
 62
12
 10
1137.979
 20
-8124.014
 30
-400.000
 70
    32
  0
VERTEX
  8
W57LXLIFT
 62
12
 10
1144.314
 20
-8118.876
 30
-400.000
 70
    32
  0
VERTEX
  8
W57LXLIFT
 62
12
 10
1150.746
 20
-8122.153
 30
-400.000
 70
    32
  0
VERTEX
  8
W57LXLIFT
 62
12
 10
1163.330
 20
-8121.095
 30
-400.000
 70
    32
  0
VERTEX
  8
W57LXLIFT
 62
12
 10
1168.584
 20
-8131.198
 30
-400.000
 70
    32
  0
VERTEX
  8
W57LXLIFT
 62
12
 10
1188.238
 20
-8139.238
 30
-400.000
 70
    32
  0
VERTEX
  8
W57LXLIFT
 62
12
 10
1190.485
 20
-8134.000
 30
-400.000
 70
    32
  0
VERTEX
  8
W57LXLIFT
 62
12
 10
1189.275
 20
-8130.727
 30
-400.000
 70
    32
  0
SEQEND
  8
W57LXLIFT
  0
ENDSEC
  0
EOF
