999
********************************
999
*   DXF File - Entities Only   *
999
*        3D Data Format        *
999
*     Output from ENVISAGE     *
999
*     02-Jan-2008 11:00:50     *
999
********************************
  0
SECTION 
  2
HEADER
  9
$ACADVER
  1
AC1009
  9
$EXTMIN
 10
-290000.000
 20
-250000.000
 30
-4000.000
  9
$EXTMAX
 10
320000.000
 20
160000.000
 30
6000.000
  0
ENDSEC
  0
SECTION
  2
ENTITIES
  0
POLYLINE
  8
W60LXLIFT
 62
11
 66
     1
 70
     9
  0
VERTEX
  8
W60LXLIFT
 62
11
 10
1548.967
 20
-8458.828
 30
-737.000
 70
    32
  0
VERTEX
  8
W60LXLIFT
 62
11
 10
1549.806
 20
-8465.699
 30
-737.000
 70
    32
  0
VERTEX
  8
W60LXLIFT
 62
11
 10
1552.541
 20
-8471.745
 30
-737.000
 70
    32
  0
VERTEX
  8
W60LXLIFT
 62
11
 10
1559.713
 20
-8471.773
 30
-737.000
 70
    32
  0
VERTEX
  8
W60LXLIFT
 62
11
 10
1563.962
 20
-8480.518
 30
-737.000
 70
    32
  0
VERTEX
  8
W60LXLIFT
 62
11
 10
1570.657
 20
-8503.319
 30
-737.000
 70
    32
  0
VERTEX
  8
W60LXLIFT
 62
11
 10
1572.606
 20
-8513.833
 30
-737.000
 70
    32
  0
VERTEX
  8
W60LXLIFT
 62
11
 10
1577.626
 20
-8545.427
 30
-737.000
 70
    32
  0
VERTEX
  8
W60LXLIFT
 62
11
 10
1592.109
 20
-8595.550
 30
-737.000
 70
    32
  0
VERTEX
  8
W60LXLIFT
 62
11
 10
1601.112
 20
-8591.657
 30
-737.000
 70
    32
  0
VERTEX
  8
W60LXLIFT
 62
11
 10
1606.549
 20
-8592.285
 30
-737.000
 70
    32
  0
VERTEX
  8
W60LXLIFT
 62
11
 10
1617.581
 20
-8596.463
 30
-737.000
 70
    32
  0
VERTEX
  8
W60LXLIFT
 62
11
 10
1626.461
 20
-8605.770
 30
-737.000
 70
    32
  0
VERTEX
  8
W60LXLIFT
 62
11
 10
1631.597
 20
-8620.702
 30
-737.000
 70
    32
  0
VERTEX
  8
W60LXLIFT
 62
11
 10
1637.398
 20
-8635.804
 30
-737.000
 70
    32
  0
VERTEX
  8
W60LXLIFT
 62
11
 10
1640.204
 20
-8656.969
 30
-737.000
 70
    32
  0
VERTEX
  8
W60LXLIFT
 62
11
 10
1650.018
 20
-8651.948
 30
-737.000
 70
    32
  0
VERTEX
  8
W60LXLIFT
 62
11
 10
1644.054
 20
-8632.413
 30
-737.000
 70
    32
  0
VERTEX
  8
W60LXLIFT
 62
11
 10
1640.703
 20
-8616.951
 30
-737.000
 70
    32
  0
VERTEX
  8
W60LXLIFT
 62
11
 10
1637.641
 20
-8600.089
 30
-737.000
 70
    32
  0
VERTEX
  8
W60LXLIFT
 62
11
 10
1638.945
 20
-8597.090
 30
-737.000
 70
    32
  0
VERTEX
  8
W60LXLIFT
 62
11
 10
1635.107
 20
-8582.305
 30
-737.000
 70
    32
  0
VERTEX
  8
W60LXLIFT
 62
11
 10
1626.428
 20
-8574.479
 30
-737.000
 70
    32
  0
VERTEX
  8
W60LXLIFT
 62
11
 10
1622.986
 20
-8559.192
 30
-737.000
 70
    32
  0
VERTEX
  8
W60LXLIFT
 62
11
 10
1615.485
 20
-8560.810
 30
-737.000
 70
    32
  0
VERTEX
  8
W60LXLIFT
 62
11
 10
1615.519
 20
-8576.930
 30
-737.000
 70
    32
  0
VERTEX
  8
W60LXLIFT
 62
11
 10
1612.994
 20
-8583.194
 30
-737.000
 70
    32
  0
VERTEX
  8
W60LXLIFT
 62
11
 10
1596.093
 20
-8577.940
 30
-737.000
 70
    32
  0
VERTEX
  8
W60LXLIFT
 62
11
 10
1591.233
 20
-8558.583
 30
-737.000
 70
    32
  0
VERTEX
  8
W60LXLIFT
 62
11
 10
1593.214
 20
-8554.120
 30
-737.000
 70
    32
  0
VERTEX
  8
W60LXLIFT
 62
11
 10
1593.582
 20
-8547.570
 30
-737.000
 70
    32
  0
VERTEX
  8
W60LXLIFT
 62
11
 10
1587.846
 20
-8530.904
 30
-737.000
 70
    32
  0
VERTEX
  8
W60LXLIFT
 62
11
 10
1580.903
 20
-8485.527
 30
-737.000
 70
    32
  0
VERTEX
  8
W60LXLIFT
 62
11
 10
1575.014
 20
-8484.574
 30
-737.000
 70
    32
  0
VERTEX
  8
W60LXLIFT
 62
11
 10
1574.847
 20
-8479.385
 30
-737.000
 70
    32
  0
VERTEX
  8
W60LXLIFT
 62
11
 10
1582.144
 20
-8475.530
 30
-737.000
 70
    32
  0
VERTEX
  8
W60LXLIFT
 62
11
 10
1581.402
 20
-8471.948
 30
-737.000
 70
    32
  0
VERTEX
  8
W60LXLIFT
 62
11
 10
1578.295
 20
-8471.697
 30
-737.000
 70
    32
  0
VERTEX
  8
W60LXLIFT
 62
11
 10
1581.925
 20
-8463.661
 30
-737.000
 70
    32
  0
VERTEX
  8
W60LXLIFT
 62
11
 10
1580.501
 20
-8456.128
 30
-737.000
 70
    32
  0
VERTEX
  8
W60LXLIFT
 62
11
 10
1577.000
 20
-8452.477
 30
-737.000
 70
    32
  0
VERTEX
  8
W60LXLIFT
 62
11
 10
1577.752
 20
-8427.230
 30
-737.000
 70
    32
  0
VERTEX
  8
W60LXLIFT
 62
11
 10
1572.186
 20
-8423.119
 30
-737.000
 70
    32
  0
VERTEX
  8
W60LXLIFT
 62
11
 10
1566.030
 20
-8404.371
 30
-737.000
 70
    32
  0
VERTEX
  8
W60LXLIFT
 62
11
 10
1560.141
 20
-8372.320
 30
-737.000
 70
    32
  0
VERTEX
  8
W60LXLIFT
 62
11
 10
1561.083
 20
-8357.554
 30
-737.000
 70
    32
  0
VERTEX
  8
W60LXLIFT
 62
11
 10
1552.844
 20
-8329.908
 30
-737.000
 70
    32
  0
VERTEX
  8
W60LXLIFT
 62
11
 10
1544.586
 20
-8333.481
 30
-737.000
 70
    32
  0
VERTEX
  8
W60LXLIFT
 62
11
 10
1549.909
 20
-8360.088
 30
-737.000
 70
    32
  0
VERTEX
  8
W60LXLIFT
 62
11
 10
1548.750
 20
-8372.302
 30
-737.000
 70
    32
  0
VERTEX
  8
W60LXLIFT
 62
11
 10
1546.060
 20
-8376.084
 30
-737.000
 70
    32
  0
VERTEX
  8
W60LXLIFT
 62
11
 10
1552.811
 20
-8410.980
 30
-737.000
 70
    32
  0
VERTEX
  8
W60LXLIFT
 62
11
 10
1551.552
 20
-8412.539
 30
-737.000
 70
    32
  0
VERTEX
  8
W60LXLIFT
 62
11
 10
1557.720
 20
-8436.262
 30
-737.000
 70
    32
  0
VERTEX
  8
W60LXLIFT
 62
11
 10
1549.265
 20
-8443.769
 30
-737.000
 70
    32
  0
SEQEND
  8
W60LXLIFT
  0
POLYLINE
  8
W60LXLIFT
 62
13
 66
     1
 70
     9
  0
VERTEX
  8
W60LXLIFT
 62
13
 10
1488.257
 20
-8254.488
 30
-742.000
 70
    32
  0
VERTEX
  8
W60LXLIFT
 62
13
 10
1489.353
 20
-8248.497
 30
-742.000
 70
    32
  0
VERTEX
  8
W60LXLIFT
 62
13
 10
1503.319
 20
-8244.274
 30
-742.000
 70
    32
  0
VERTEX
  8
W60LXLIFT
 62
13
 10
1510.660
 20
-8258.808
 30
-742.000
 70
    32
  0
VERTEX
  8
W60LXLIFT
 62
13
 10
1517.218
 20
-8265.346
 30
-742.000
 70
    32
  0
VERTEX
  8
W60LXLIFT
 62
13
 10
1519.679
 20
-8293.693
 30
-742.000
 70
    32
  0
VERTEX
  8
W60LXLIFT
 62
13
 10
1528.052
 20
-8317.018
 30
-742.000
 70
    32
  0
VERTEX
  8
W60LXLIFT
 62
13
 10
1523.565
 20
-8321.013
 30
-742.000
 70
    32
  0
VERTEX
  8
W60LXLIFT
 62
13
 10
1518.308
 20
-8321.987
 30
-742.000
 70
    32
  0
VERTEX
  8
W60LXLIFT
 62
13
 10
1512.912
 20
-8319.162
 30
-742.000
 70
    32
  0
VERTEX
  8
W60LXLIFT
 62
13
 10
1507.121
 20
-8286.499
 30
-742.000
 70
    32
  0
VERTEX
  8
W60LXLIFT
 62
13
 10
1501.368
 20
-8277.321
 30
-742.000
 70
    32
  0
VERTEX
  8
W60LXLIFT
 62
13
 10
1480.331
 20
-8285.560
 30
-742.000
 70
    32
  0
VERTEX
  8
W60LXLIFT
 62
13
 10
1476.021
 20
-8279.134
 30
-742.000
 70
    32
  0
VERTEX
  8
W60LXLIFT
 62
13
 10
1472.109
 20
-8274.913
 30
-742.000
 70
    32
  0
VERTEX
  8
W60LXLIFT
 62
13
 10
1475.485
 20
-8269.227
 30
-742.000
 70
    32
  0
VERTEX
  8
W60LXLIFT
 62
13
 10
1487.341
 20
-8264.034
 30
-742.000
 70
    32
  0
SEQEND
  8
W60LXLIFT
  0
POLYLINE
  8
W60LXLIFT
 62
13
 66
     1
 70
     9
  0
VERTEX
  8
W60LXLIFT
 62
13
 10
1472.377
 20
-8303.975
 30
-703.000
 70
    32
  0
VERTEX
  8
W60LXLIFT
 62
13
 10
1476.496
 20
-8311.189
 30
-703.000
 70
    32
  0
VERTEX
  8
W60LXLIFT
 62
13
 10
1481.262
 20
-8316.745
 30
-703.000
 70
    32
  0
VERTEX
  8
W60LXLIFT
 62
13
 10
1482.801
 20
-8324.737
 30
-703.000
 70
    32
  0
VERTEX
  8
W60LXLIFT
 62
13
 10
1492.382
 20
-8326.602
 30
-703.000
 70
    32
  0
VERTEX
  8
W60LXLIFT
 62
13
 10
1499.230
 20
-8325.130
 30
-703.000
 70
    32
  0
VERTEX
  8
W60LXLIFT
 62
13
 10
1503.966
 20
-8319.980
 30
-703.000
 70
    32
  0
VERTEX
  8
W60LXLIFT
 62
13
 10
1507.466
 20
-8312.363
 30
-703.000
 70
    32
  0
VERTEX
  8
W60LXLIFT
 62
13
 10
1510.889
 20
-8299.384
 30
-703.000
 70
    32
  0
VERTEX
  8
W60LXLIFT
 62
13
 10
1509.550
 20
-8288.214
 30
-703.000
 70
    32
  0
VERTEX
  8
W60LXLIFT
 62
13
 10
1499.990
 20
-8290.884
 30
-703.000
 70
    32
  0
VERTEX
  8
W60LXLIFT
 62
13
 10
1500.418
 20
-8277.356
 30
-703.000
 70
    32
  0
VERTEX
  8
W60LXLIFT
 62
13
 10
1487.809
 20
-8256.870
 30
-703.000
 70
    32
  0
VERTEX
  8
W60LXLIFT
 62
13
 10
1479.567
 20
-8246.346
 30
-703.000
 70
    32
  0
VERTEX
  8
W60LXLIFT
 62
13
 10
1468.217
 20
-8244.130
 30
-703.000
 70
    32
  0
VERTEX
  8
W60LXLIFT
 62
13
 10
1464.421
 20
-8238.417
 30
-703.000
 70
    32
  0
VERTEX
  8
W60LXLIFT
 62
13
 10
1458.849
 20
-8237.452
 30
-703.000
 70
    32
  0
VERTEX
  8
W60LXLIFT
 62
13
 10
1456.976
 20
-8258.740
 30
-703.000
 70
    32
  0
VERTEX
  8
W60LXLIFT
 62
13
 10
1459.511
 20
-8261.354
 30
-703.000
 70
    32
  0
VERTEX
  8
W60LXLIFT
 62
13
 10
1457.037
 20
-8269.640
 30
-703.000
 70
    32
  0
VERTEX
  8
W60LXLIFT
 62
13
 10
1460.468
 20
-8276.050
 30
-703.000
 70
    32
  0
VERTEX
  8
W60LXLIFT
 62
13
 10
1467.857
 20
-8283.289
 30
-703.000
 70
    32
  0
VERTEX
  8
W60LXLIFT
 62
13
 10
1470.635
 20
-8291.796
 30
-703.000
 70
    32
  0
SEQEND
  8
W60LXLIFT
  0
POLYLINE
  8
W60LXLIFT
 62
7
 66
     1
 70
     9
  0
VERTEX
  8
W60LXLIFT
 62
7
 10
1293.845
 20
-8028.375
 30
-687.000
 70
    32
  0
VERTEX
  8
W60LXLIFT
 62
7
 10
1304.662
 20
-8028.049
 30
-687.000
 70
    32
  0
VERTEX
  8
W60LXLIFT
 62
7
 10
1319.072
 20
-8055.688
 30
-687.000
 70
    32
  0
VERTEX
  8
W60LXLIFT
 62
7
 10
1312.534
 20
-8060.295
 30
-687.000
 70
    32
  0
VERTEX
  8
W60LXLIFT
 62
7
 10
1312.149
 20
-8063.065
 30
-687.000
 70
    32
  0
VERTEX
  8
W60LXLIFT
 62
7
 10
1318.062
 20
-8069.310
 30
-687.000
 70
    32
  0
VERTEX
  8
W60LXLIFT
 62
7
 10
1323.839
 20
-8079.121
 30
-687.000
 70
    32
  0
VERTEX
  8
W60LXLIFT
 62
7
 10
1325.781
 20
-8088.122
 30
-687.000
 70
    32
  0
VERTEX
  8
W60LXLIFT
 62
7
 10
1325.073
 20
-8094.051
 30
-687.000
 70
    32
  0
VERTEX
  8
W60LXLIFT
 62
7
 10
1329.428
 20
-8097.085
 30
-687.000
 70
    32
  0
VERTEX
  8
W60LXLIFT
 62
7
 10
1332.789
 20
-8103.546
 30
-687.000
 70
    32
  0
VERTEX
  8
W60LXLIFT
 62
7
 10
1351.954
 20
-8121.253
 30
-687.000
 70
    32
  0
VERTEX
  8
W60LXLIFT
 62
7
 10
1355.196
 20
-8126.499
 30
-687.000
 70
    32
  0
VERTEX
  8
W60LXLIFT
 62
7
 10
1363.197
 20
-8142.399
 30
-687.000
 70
    32
  0
VERTEX
  8
W60LXLIFT
 62
7
 10
1371.524
 20
-8136.067
 30
-687.000
 70
    32
  0
VERTEX
  8
W60LXLIFT
 62
7
 10
1380.970
 20
-8146.157
 30
-687.000
 70
    32
  0
VERTEX
  8
W60LXLIFT
 62
7
 10
1388.093
 20
-8140.260
 30
-687.000
 70
    32
  0
VERTEX
  8
W60LXLIFT
 62
7
 10
1383.391
 20
-8135.093
 30
-687.000
 70
    32
  0
VERTEX
  8
W60LXLIFT
 62
7
 10
1385.718
 20
-8128.104
 30
-687.000
 70
    32
  0
VERTEX
  8
W60LXLIFT
 62
7
 10
1412.267
 20
-8107.979
 30
-687.000
 70
    32
  0
VERTEX
  8
W60LXLIFT
 62
7
 10
1432.179
 20
-8088.415
 30
-687.000
 70
    32
  0
VERTEX
  8
W60LXLIFT
 62
7
 10
1439.205
 20
-8094.400
 30
-687.000
 70
    32
  0
VERTEX
  8
W60LXLIFT
 62
7
 10
1443.820
 20
-8080.669
 30
-687.000
 70
    32
  0
VERTEX
  8
W60LXLIFT
 62
7
 10
1435.942
 20
-8076.057
 30
-687.000
 70
    32
  0
VERTEX
  8
W60LXLIFT
 62
7
 10
1409.735
 20
-8053.244
 30
-687.000
 70
    32
  0
VERTEX
  8
W60LXLIFT
 62
7
 10
1420.682
 20
-8034.621
 30
-687.000
 70
    32
  0
VERTEX
  8
W60LXLIFT
 62
7
 10
1405.002
 20
-8012.883
 30
-687.000
 70
    32
  0
VERTEX
  8
W60LXLIFT
 62
7
 10
1394.911
 20
-8017.670
 30
-687.000
 70
    32
  0
VERTEX
  8
W60LXLIFT
 62
7
 10
1387.460
 20
-8027.921
 30
-687.000
 70
    32
  0
VERTEX
  8
W60LXLIFT
 62
7
 10
1375.421
 20
-8033.462
 30
-687.000
 70
    32
  0
VERTEX
  8
W60LXLIFT
 62
7
 10
1368.428
 20
-8025.721
 30
-687.000
 70
    32
  0
VERTEX
  8
W60LXLIFT
 62
7
 10
1373.266
 20
-8002.835
 30
-687.000
 70
    32
  0
VERTEX
  8
W60LXLIFT
 62
7
 10
1367.116
 20
-7996.111
 30
-687.000
 70
    32
  0
VERTEX
  8
W60LXLIFT
 62
7
 10
1365.579
 20
-7990.827
 30
-687.000
 70
    32
  0
VERTEX
  8
W60LXLIFT
 62
7
 10
1360.733
 20
-7987.713
 30
-687.000
 70
    32
  0
VERTEX
  8
W60LXLIFT
 62
7
 10
1354.653
 20
-7982.888
 30
-687.000
 70
    32
  0
VERTEX
  8
W60LXLIFT
 62
7
 10
1345.622
 20
-7967.515
 30
-687.000
 70
    32
  0
VERTEX
  8
W60LXLIFT
 62
7
 10
1324.398
 20
-7970.688
 30
-687.000
 70
    32
  0
VERTEX
  8
W60LXLIFT
 62
7
 10
1307.889
 20
-7979.346
 30
-687.000
 70
    32
  0
VERTEX
  8
W60LXLIFT
 62
7
 10
1309.987
 20
-7991.268
 30
-687.000
 70
    32
  0
VERTEX
  8
W60LXLIFT
 62
7
 10
1302.572
 20
-8002.468
 30
-687.000
 70
    32
  0
VERTEX
  8
W60LXLIFT
 62
7
 10
1293.762
 20
-8001.672
 30
-687.000
 70
    32
  0
VERTEX
  8
W60LXLIFT
 62
7
 10
1289.528
 20
-8007.218
 30
-687.000
 70
    32
  0
VERTEX
  8
W60LXLIFT
 62
7
 10
1290.513
 20
-8014.742
 30
-687.000
 70
    32
  0
SEQEND
  8
W60LXLIFT
  0
POLYLINE
  8
W60LXLIFT
 62
7
 66
     1
 70
     9
  0
VERTEX
  8
W60LXLIFT
 62
7
 10
1398.807
 20
-8100.134
 30
-687.000
 70
    32
  0
VERTEX
  8
W60LXLIFT
 62
7
 10
1388.365
 20
-8088.813
 30
-687.000
 70
    32
  0
VERTEX
  8
W60LXLIFT
 62
7
 10
1382.778
 20
-8080.165
 30
-687.000
 70
    32
  0
VERTEX
  8
W60LXLIFT
 62
7
 10
1368.720
 20
-8060.075
 30
-687.000
 70
    32
  0
VERTEX
  8
W60LXLIFT
 62
7
 10
1362.741
 20
-8050.735
 30
-687.000
 70
    32
  0
VERTEX
  8
W60LXLIFT
 62
7
 10
1364.897
 20
-8046.363
 30
-687.000
 70
    32
  0
VERTEX
  8
W60LXLIFT
 62
7
 10
1358.813
 20
-8040.782
 30
-687.000
 70
    32
  0
VERTEX
  8
W60LXLIFT
 62
7
 10
1355.348
 20
-8031.471
 30
-687.000
 70
    32
  0
VERTEX
  8
W60LXLIFT
 62
7
 10
1338.857
 20
-8028.739
 30
-687.000
 70
    32
  0
VERTEX
  8
W60LXLIFT
 62
7
 10
1322.756
 20
-8023.991
 30
-687.000
 70
    32
  0
VERTEX
  8
W60LXLIFT
 62
7
 10
1317.605
 20
-8025.864
 30
-687.000
 70
    32
  0
VERTEX
  8
W60LXLIFT
 62
7
 10
1323.524
 20
-8042.182
 30
-687.000
 70
    32
  0
VERTEX
  8
W60LXLIFT
 62
7
 10
1327.095
 20
-8047.733
 30
-687.000
 70
    32
  0
VERTEX
  8
W60LXLIFT
 62
7
 10
1330.716
 20
-8048.697
 30
-687.000
 70
    32
  0
VERTEX
  8
W60LXLIFT
 62
7
 10
1334.278
 20
-8054.687
 30
-687.000
 70
    32
  0
VERTEX
  8
W60LXLIFT
 62
7
 10
1334.092
 20
-8060.889
 30
-687.000
 70
    32
  0
VERTEX
  8
W60LXLIFT
 62
7
 10
1336.939
 20
-8073.247
 30
-687.000
 70
    32
  0
VERTEX
  8
W60LXLIFT
 62
7
 10
1357.994
 20
-8093.275
 30
-687.000
 70
    32
  0
VERTEX
  8
W60LXLIFT
 62
7
 10
1371.881
 20
-8109.372
 30
-687.000
 70
    32
  0
VERTEX
  8
W60LXLIFT
 62
7
 10
1384.754
 20
-8118.506
 30
-687.000
 70
    32
  0
VERTEX
  8
W60LXLIFT
 62
7
 10
1391.117
 20
-8113.808
 30
-687.000
 70
    32
  0
VERTEX
  8
W60LXLIFT
 62
7
 10
1390.973
 20
-8109.252
 30
-687.000
 70
    32
  0
SEQEND
  8
W60LXLIFT
  0
POLYLINE
  8
W60LXLIFT
 62
8
 66
     1
 70
     9
  0
VERTEX
  8
W60LXLIFT
 62
8
 10
1352.847
 20
-8243.266
 30
-687.000
 70
    32
  0
VERTEX
  8
W60LXLIFT
 62
8
 10
1355.805
 20
-8240.157
 30
-687.000
 70
    32
  0
VERTEX
  8
W60LXLIFT
 62
8
 10
1352.001
 20
-8234.883
 30
-687.000
 70
    32
  0
VERTEX
  8
W60LXLIFT
 62
8
 10
1351.235
 20
-8224.057
 30
-687.000
 70
    32
  0
VERTEX
  8
W60LXLIFT
 62
8
 10
1358.267
 20
-8213.676
 30
-687.000
 70
    32
  0
VERTEX
  8
W60LXLIFT
 62
8
 10
1369.264
 20
-8210.295
 30
-687.000
 70
    32
  0
VERTEX
  8
W60LXLIFT
 62
8
 10
1382.151
 20
-8222.453
 30
-687.000
 70
    32
  0
VERTEX
  8
W60LXLIFT
 62
8
 10
1392.760
 20
-8245.573
 30
-687.000
 70
    32
  0
VERTEX
  8
W60LXLIFT
 62
8
 10
1389.481
 20
-8247.938
 30
-687.000
 70
    32
  0
VERTEX
  8
W60LXLIFT
 62
8
 10
1391.302
 20
-8261.578
 30
-687.000
 70
    32
  0
VERTEX
  8
W60LXLIFT
 62
8
 10
1398.138
 20
-8266.399
 30
-687.000
 70
    32
  0
VERTEX
  8
W60LXLIFT
 62
8
 10
1387.120
 20
-8271.854
 30
-687.000
 70
    32
  0
VERTEX
  8
W60LXLIFT
 62
8
 10
1383.604
 20
-8267.130
 30
-687.000
 70
    32
  0
VERTEX
  8
W60LXLIFT
 62
8
 10
1373.869
 20
-8265.050
 30
-687.000
 70
    32
  0
VERTEX
  8
W60LXLIFT
 62
8
 10
1366.375
 20
-8254.961
 30
-687.000
 70
    32
  0
VERTEX
  8
W60LXLIFT
 62
8
 10
1361.927
 20
-8254.052
 30
-687.000
 70
    32
  0
VERTEX
  8
W60LXLIFT
 62
8
 10
1355.737
 20
-8254.183
 30
-687.000
 70
    32
  0
SEQEND
  8
W60LXLIFT
  0
POLYLINE
  8
W60LXLIFT
 62
13
 66
     1
 70
     9
  0
VERTEX
  8
W60LXLIFT
 62
13
 10
1465.921
 20
-8304.189
 30
-692.000
 70
    32
  0
VERTEX
  8
W60LXLIFT
 62
13
 10
1489.731
 20
-8332.090
 30
-692.000
 70
    32
  0
VERTEX
  8
W60LXLIFT
 62
13
 10
1492.798
 20
-8339.197
 30
-692.000
 70
    32
  0
VERTEX
  8
W60LXLIFT
 62
13
 10
1503.556
 20
-8337.287
 30
-692.000
 70
    32
  0
VERTEX
  8
W60LXLIFT
 62
13
 10
1503.598
 20
-8326.530
 30
-692.000
 70
    32
  0
VERTEX
  8
W60LXLIFT
 62
13
 10
1506.205
 20
-8322.483
 30
-692.000
 70
    32
  0
VERTEX
  8
W60LXLIFT
 62
13
 10
1505.905
 20
-8308.397
 30
-692.000
 70
    32
  0
VERTEX
  8
W60LXLIFT
 62
13
 10
1498.819
 20
-8304.731
 30
-692.000
 70
    32
  0
VERTEX
  8
W60LXLIFT
 62
13
 10
1493.364
 20
-8291.762
 30
-692.000
 70
    32
  0
VERTEX
  8
W60LXLIFT
 62
13
 10
1491.557
 20
-8276.488
 30
-692.000
 70
    32
  0
VERTEX
  8
W60LXLIFT
 62
13
 10
1476.647
 20
-8257.770
 30
-692.000
 70
    32
  0
VERTEX
  8
W60LXLIFT
 62
13
 10
1466.100
 20
-8256.818
 30
-692.000
 70
    32
  0
VERTEX
  8
W60LXLIFT
 62
13
 10
1459.405
 20
-8273.674
 30
-692.000
 70
    32
  0
VERTEX
  8
W60LXLIFT
 62
13
 10
1469.745
 20
-8289.512
 30
-692.000
 70
    32
  0
VERTEX
  8
W60LXLIFT
 62
13
 10
1462.564
 20
-8291.874
 30
-692.000
 70
    32
  0
SEQEND
  8
W60LXLIFT
  0
POLYLINE
  8
W60LXLIFT
 62
13
 66
     1
 70
     9
  0
VERTEX
  8
W60LXLIFT
 62
13
 10
1457.797
 20
-8308.099
 30
-678.000
 70
    32
  0
VERTEX
  8
W60LXLIFT
 62
13
 10
1456.901
 20
-8310.912
 30
-678.000
 70
    32
  0
VERTEX
  8
W60LXLIFT
 62
13
 10
1467.940
 20
-8329.821
 30
-678.000
 70
    32
  0
VERTEX
  8
W60LXLIFT
 62
13
 10
1481.718
 20
-8329.093
 30
-678.000
 70
    32
  0
VERTEX
  8
W60LXLIFT
 62
13
 10
1488.275
 20
-8317.754
 30
-678.000
 70
    32
  0
VERTEX
  8
W60LXLIFT
 62
13
 10
1491.376
 20
-8301.323
 30
-678.000
 70
    32
  0
VERTEX
  8
W60LXLIFT
 62
13
 10
1484.054
 20
-8288.618
 30
-678.000
 70
    32
  0
VERTEX
  8
W60LXLIFT
 62
13
 10
1464.821
 20
-8278.328
 30
-678.000
 70
    32
  0
VERTEX
  8
W60LXLIFT
 62
13
 10
1461.301
 20
-8292.677
 30
-678.000
 70
    32
  0
SEQEND
  8
W60LXLIFT
  0
POLYLINE
  8
W60LXLIFT
 62
1
 66
     1
 70
     9
  0
VERTEX
  8
W60LXLIFT
 62
1
 10
1462.301
 20
-8291.677
 30
-670.000
 70
    32
  0
VERTEX
  8
W60LXLIFT
 62
1
 10
1465.821
 20
-8277.328
 30
-670.000
 70
    32
  0
VERTEX
  8
W60LXLIFT
 62
1
 10
1485.054
 20
-8287.618
 30
-670.000
 70
    32
  0
VERTEX
  8
W60LXLIFT
 62
1
 10
1492.376
 20
-8300.323
 30
-670.000
 70
    32
  0
VERTEX
  8
W60LXLIFT
 62
1
 10
1489.275
 20
-8316.754
 30
-670.000
 70
    32
  0
VERTEX
  8
W60LXLIFT
 62
1
 10
1482.718
 20
-8328.093
 30
-670.000
 70
    32
  0
VERTEX
  8
W60LXLIFT
 62
1
 10
1468.940
 20
-8328.821
 30
-670.000
 70
    32
  0
VERTEX
  8
W60LXLIFT
 62
1
 10
1457.901
 20
-8309.912
 30
-670.000
 70
    32
  0
VERTEX
  8
W60LXLIFT
 62
1
 10
1458.797
 20
-8307.099
 30
-670.000
 70
    32
  0
SEQEND
  8
W60LXLIFT
  0
POLYLINE
  8
W60LXLIFT
 62
8
 66
     1
 70
     9
  0
VERTEX
  8
W60LXLIFT
 62
8
 10
1453.687
 20
-8269.991
 30
-797.000
 70
    32
  0
VERTEX
  8
W60LXLIFT
 62
8
 10
1447.398
 20
-8270.523
 30
-797.000
 70
    32
  0
VERTEX
  8
W60LXLIFT
 62
8
 10
1447.310
 20
-8270.698
 30
-797.000
 70
    32
  0
VERTEX
  8
W60LXLIFT
 62
8
 10
1443.477
 20
-8272.904
 30
-797.000
 70
    32
  0
VERTEX
  8
W60LXLIFT
 62
8
 10
1424.872
 20
-8275.731
 30
-797.000
 70
    32
  0
VERTEX
  8
W60LXLIFT
 62
8
 10
1413.244
 20
-8276.306
 30
-797.000
 70
    32
  0
VERTEX
  8
W60LXLIFT
 62
8
 10
1409.303
 20
-8270.591
 30
-797.000
 70
    32
  0
VERTEX
  8
W60LXLIFT
 62
8
 10
1410.113
 20
-8260.669
 30
-797.000
 70
    32
  0
VERTEX
  8
W60LXLIFT
 62
8
 10
1403.981
 20
-8252.754
 30
-797.000
 70
    32
  0
VERTEX
  8
W60LXLIFT
 62
8
 10
1404.603
 20
-8248.891
 30
-797.000
 70
    32
  0
VERTEX
  8
W60LXLIFT
 62
8
 10
1398.718
 20
-8240.133
 30
-797.000
 70
    32
  0
VERTEX
  8
W60LXLIFT
 62
8
 10
1391.803
 20
-8228.528
 30
-797.000
 70
    32
  0
VERTEX
  8
W60LXLIFT
 62
8
 10
1385.739
 20
-8221.878
 30
-797.000
 70
    32
  0
VERTEX
  8
W60LXLIFT
 62
8
 10
1384.077
 20
-8218.186
 30
-797.000
 70
    32
  0
VERTEX
  8
W60LXLIFT
 62
8
 10
1379.709
 20
-8215.859
 30
-797.000
 70
    32
  0
VERTEX
  8
W60LXLIFT
 62
8
 10
1374.714
 20
-8210.054
 30
-797.000
 70
    32
  0
VERTEX
  8
W60LXLIFT
 62
8
 10
1371.505
 20
-8207.519
 30
-797.000
 70
    32
  0
VERTEX
  8
W60LXLIFT
 62
8
 10
1361.164
 20
-8205.707
 30
-797.000
 70
    32
  0
VERTEX
  8
W60LXLIFT
 62
8
 10
1362.088
 20
-8199.755
 30
-797.000
 70
    32
  0
VERTEX
  8
W60LXLIFT
 62
8
 10
1365.205
 20
-8195.564
 30
-797.000
 70
    32
  0
VERTEX
  8
W60LXLIFT
 62
8
 10
1374.555
 20
-8192.526
 30
-797.000
 70
    32
  0
VERTEX
  8
W60LXLIFT
 62
8
 10
1385.885
 20
-8191.406
 30
-797.000
 70
    32
  0
VERTEX
  8
W60LXLIFT
 62
8
 10
1389.729
 20
-8192.590
 30
-797.000
 70
    32
  0
VERTEX
  8
W60LXLIFT
 62
8
 10
1393.051
 20
-8191.314
 30
-797.000
 70
    32
  0
VERTEX
  8
W60LXLIFT
 62
8
 10
1396.608
 20
-8195.782
 30
-797.000
 70
    32
  0
VERTEX
  8
W60LXLIFT
 62
8
 10
1397.547
 20
-8200.561
 30
-797.000
 70
    32
  0
VERTEX
  8
W60LXLIFT
 62
8
 10
1392.749
 20
-8202.501
 30
-797.000
 70
    32
  0
VERTEX
  8
W60LXLIFT
 62
8
 10
1390.734
 20
-8209.048
 30
-797.000
 70
    32
  0
VERTEX
  8
W60LXLIFT
 62
8
 10
1394.800
 20
-8213.465
 30
-797.000
 70
    32
  0
VERTEX
  8
W60LXLIFT
 62
8
 10
1399.582
 20
-8220.306
 30
-797.000
 70
    32
  0
VERTEX
  8
W60LXLIFT
 62
8
 10
1404.613
 20
-8215.890
 30
-797.000
 70
    32
  0
VERTEX
  8
W60LXLIFT
 62
8
 10
1408.407
 20
-8216.125
 30
-797.000
 70
    32
  0
VERTEX
  8
W60LXLIFT
 62
8
 10
1415.312
 20
-8223.901
 30
-797.000
 70
    32
  0
VERTEX
  8
W60LXLIFT
 62
8
 10
1421.477
 20
-8232.449
 30
-797.000
 70
    32
  0
VERTEX
  8
W60LXLIFT
 62
8
 10
1428.680
 20
-8240.770
 30
-797.000
 70
    32
  0
VERTEX
  8
W60LXLIFT
 62
8
 10
1433.680
 20
-8243.941
 30
-797.000
 70
    32
  0
VERTEX
  8
W60LXLIFT
 62
8
 10
1439.812
 20
-8251.417
 30
-797.000
 70
    32
  0
VERTEX
  8
W60LXLIFT
 62
8
 10
1442.978
 20
-8258.150
 30
-797.000
 70
    32
  0
VERTEX
  8
W60LXLIFT
 62
8
 10
1451.913
 20
-8260.573
 30
-797.000
 70
    32
  0
SEQEND
  8
W60LXLIFT
  0
POLYLINE
  8
W60LXLIFT
 62
1
 66
     1
 70
     9
  0
VERTEX
  8
W60LXLIFT
 62
1
 10
1454.687
 20
-8268.991
 30
-781.000
 70
    32
  0
VERTEX
  8
W60LXLIFT
 62
1
 10
1448.398
 20
-8269.523
 30
-781.000
 70
    32
  0
VERTEX
  8
W60LXLIFT
 62
1
 10
1448.310
 20
-8269.698
 30
-781.000
 70
    32
  0
VERTEX
  8
W60LXLIFT
 62
1
 10
1444.477
 20
-8271.904
 30
-781.000
 70
    32
  0
VERTEX
  8
W60LXLIFT
 62
1
 10
1425.872
 20
-8274.731
 30
-781.000
 70
    32
  0
VERTEX
  8
W60LXLIFT
 62
1
 10
1414.244
 20
-8275.306
 30
-781.000
 70
    32
  0
VERTEX
  8
W60LXLIFT
 62
1
 10
1410.303
 20
-8269.591
 30
-781.000
 70
    32
  0
VERTEX
  8
W60LXLIFT
 62
1
 10
1411.113
 20
-8259.669
 30
-781.000
 70
    32
  0
VERTEX
  8
W60LXLIFT
 62
1
 10
1404.981
 20
-8251.754
 30
-781.000
 70
    32
  0
VERTEX
  8
W60LXLIFT
 62
1
 10
1405.603
 20
-8247.891
 30
-781.000
 70
    32
  0
VERTEX
  8
W60LXLIFT
 62
1
 10
1399.718
 20
-8239.133
 30
-781.000
 70
    32
  0
VERTEX
  8
W60LXLIFT
 62
1
 10
1392.803
 20
-8227.528
 30
-781.000
 70
    32
  0
VERTEX
  8
W60LXLIFT
 62
1
 10
1386.739
 20
-8220.878
 30
-781.000
 70
    32
  0
VERTEX
  8
W60LXLIFT
 62
1
 10
1385.077
 20
-8217.186
 30
-781.000
 70
    32
  0
VERTEX
  8
W60LXLIFT
 62
1
 10
1380.709
 20
-8214.859
 30
-781.000
 70
    32
  0
VERTEX
  8
W60LXLIFT
 62
1
 10
1375.714
 20
-8209.054
 30
-781.000
 70
    32
  0
VERTEX
  8
W60LXLIFT
 62
1
 10
1372.505
 20
-8206.519
 30
-781.000
 70
    32
  0
VERTEX
  8
W60LXLIFT
 62
1
 10
1362.164
 20
-8204.707
 30
-781.000
 70
    32
  0
VERTEX
  8
W60LXLIFT
 62
1
 10
1363.088
 20
-8198.755
 30
-781.000
 70
    32
  0
VERTEX
  8
W60LXLIFT
 62
1
 10
1366.205
 20
-8194.564
 30
-781.000
 70
    32
  0
VERTEX
  8
W60LXLIFT
 62
1
 10
1375.555
 20
-8191.526
 30
-781.000
 70
    32
  0
VERTEX
  8
W60LXLIFT
 62
1
 10
1386.885
 20
-8190.406
 30
-781.000
 70
    32
  0
VERTEX
  8
W60LXLIFT
 62
1
 10
1390.729
 20
-8191.590
 30
-781.000
 70
    32
  0
VERTEX
  8
W60LXLIFT
 62
1
 10
1394.051
 20
-8190.314
 30
-781.000
 70
    32
  0
VERTEX
  8
W60LXLIFT
 62
1
 10
1397.608
 20
-8194.782
 30
-781.000
 70
    32
  0
VERTEX
  8
W60LXLIFT
 62
1
 10
1398.547
 20
-8199.561
 30
-781.000
 70
    32
  0
VERTEX
  8
W60LXLIFT
 62
1
 10
1393.749
 20
-8201.501
 30
-781.000
 70
    32
  0
VERTEX
  8
W60LXLIFT
 62
1
 10
1391.734
 20
-8208.048
 30
-781.000
 70
    32
  0
VERTEX
  8
W60LXLIFT
 62
1
 10
1395.800
 20
-8212.465
 30
-781.000
 70
    32
  0
VERTEX
  8
W60LXLIFT
 62
1
 10
1400.582
 20
-8219.306
 30
-781.000
 70
    32
  0
VERTEX
  8
W60LXLIFT
 62
1
 10
1405.613
 20
-8214.890
 30
-781.000
 70
    32
  0
VERTEX
  8
W60LXLIFT
 62
1
 10
1409.407
 20
-8215.125
 30
-781.000
 70
    32
  0
VERTEX
  8
W60LXLIFT
 62
1
 10
1416.312
 20
-8222.901
 30
-781.000
 70
    32
  0
VERTEX
  8
W60LXLIFT
 62
1
 10
1422.477
 20
-8231.449
 30
-781.000
 70
    32
  0
VERTEX
  8
W60LXLIFT
 62
1
 10
1429.680
 20
-8239.770
 30
-781.000
 70
    32
  0
VERTEX
  8
W60LXLIFT
 62
1
 10
1434.680
 20
-8242.941
 30
-781.000
 70
    32
  0
VERTEX
  8
W60LXLIFT
 62
1
 10
1440.812
 20
-8250.417
 30
-781.000
 70
    32
  0
VERTEX
  8
W60LXLIFT
 62
1
 10
1443.978
 20
-8257.150
 30
-781.000
 70
    32
  0
VERTEX
  8
W60LXLIFT
 62
1
 10
1452.913
 20
-8259.573
 30
-781.000
 70
    32
  0
SEQEND
  8
W60LXLIFT
  0
POLYLINE
  8
W60LXLIFT
 62
2
 66
     1
 70
     9
  0
VERTEX
  8
W60LXLIFT
 62
2
 10
1314.149
 20
-7266.528
 30
-782.000
 70
    32
  0
VERTEX
  8
W60LXLIFT
 62
2
 10
1327.109
 20
-7264.229
 30
-782.000
 70
    32
  0
VERTEX
  8
W60LXLIFT
 62
2
 10
1330.385
 20
-7261.111
 30
-782.000
 70
    32
  0
VERTEX
  8
W60LXLIFT
 62
2
 10
1329.059
 20
-7234.023
 30
-782.000
 70
    32
  0
VERTEX
  8
W60LXLIFT
 62
2
 10
1324.808
 20
-7205.579
 30
-782.000
 70
    32
  0
VERTEX
  8
W60LXLIFT
 62
2
 10
1319.994
 20
-7194.539
 30
-782.000
 70
    32
  0
VERTEX
  8
W60LXLIFT
 62
2
 10
1318.921
 20
-7184.484
 30
-782.000
 70
    32
  0
VERTEX
  8
W60LXLIFT
 62
2
 10
1316.314
 20
-7181.166
 30
-782.000
 70
    32
  0
VERTEX
  8
W60LXLIFT
 62
2
 10
1313.471
 20
-7162.642
 30
-782.000
 70
    32
  0
VERTEX
  8
W60LXLIFT
 62
2
 10
1307.301
 20
-7147.165
 30
-782.000
 70
    32
  0
VERTEX
  8
W60LXLIFT
 62
2
 10
1305.630
 20
-7128.014
 30
-782.000
 70
    32
  0
VERTEX
  8
W60LXLIFT
 62
2
 10
1304.111
 20
-7111.027
 30
-782.000
 70
    32
  0
VERTEX
  8
W60LXLIFT
 62
2
 10
1309.935
 20
-7104.232
 30
-782.000
 70
    32
  0
VERTEX
  8
W60LXLIFT
 62
2
 10
1307.741
 20
-7089.464
 30
-782.000
 70
    32
  0
VERTEX
  8
W60LXLIFT
 62
2
 10
1302.627
 20
-7084.920
 30
-782.000
 70
    32
  0
VERTEX
  8
W60LXLIFT
 62
2
 10
1296.925
 20
-7071.596
 30
-782.000
 70
    32
  0
VERTEX
  8
W60LXLIFT
 62
2
 10
1289.920
 20
-7066.682
 30
-782.000
 70
    32
  0
VERTEX
  8
W60LXLIFT
 62
2
 10
1280.428
 20
-7070.489
 30
-782.000
 70
    32
  0
VERTEX
  8
W60LXLIFT
 62
2
 10
1276.631
 20
-7076.039
 30
-782.000
 70
    32
  0
VERTEX
  8
W60LXLIFT
 62
2
 10
1276.126
 20
-7084.956
 30
-782.000
 70
    32
  0
VERTEX
  8
W60LXLIFT
 62
2
 10
1278.815
 20
-7095.903
 30
-782.000
 70
    32
  0
VERTEX
  8
W60LXLIFT
 62
2
 10
1282.736
 20
-7103.148
 30
-782.000
 70
    32
  0
VERTEX
  8
W60LXLIFT
 62
2
 10
1288.550
 20
-7111.519
 30
-782.000
 70
    32
  0
VERTEX
  8
W60LXLIFT
 62
2
 10
1288.232
 20
-7126.256
 30
-782.000
 70
    32
  0
VERTEX
  8
W60LXLIFT
 62
2
 10
1288.267
 20
-7139.982
 30
-782.000
 70
    32
  0
VERTEX
  8
W60LXLIFT
 62
2
 10
1294.472
 20
-7149.045
 30
-782.000
 70
    32
  0
VERTEX
  8
W60LXLIFT
 62
2
 10
1297.300
 20
-7156.427
 30
-782.000
 70
    32
  0
VERTEX
  8
W60LXLIFT
 62
2
 10
1300.322
 20
-7171.141
 30
-782.000
 70
    32
  0
VERTEX
  8
W60LXLIFT
 62
2
 10
1304.841
 20
-7180.120
 30
-782.000
 70
    32
  0
VERTEX
  8
W60LXLIFT
 62
2
 10
1305.641
 20
-7183.333
 30
-782.000
 70
    32
  0
VERTEX
  8
W60LXLIFT
 62
2
 10
1294.673
 20
-7190.802
 30
-782.000
 70
    32
  0
VERTEX
  8
W60LXLIFT
 62
2
 10
1295.621
 20
-7195.424
 30
-782.000
 70
    32
  0
VERTEX
  8
W60LXLIFT
 62
2
 10
1305.468
 20
-7196.017
 30
-782.000
 70
    32
  0
VERTEX
  8
W60LXLIFT
 62
2
 10
1310.900
 20
-7223.395
 30
-782.000
 70
    32
  0
VERTEX
  8
W60LXLIFT
 62
2
 10
1310.726
 20
-7236.079
 30
-782.000
 70
    32
  0
VERTEX
  8
W60LXLIFT
 62
2
 10
1308.627
 20
-7242.031
 30
-782.000
 70
    32
  0
VERTEX
  8
W60LXLIFT
 62
2
 10
1312.715
 20
-7257.925
 30
-782.000
 70
    32
  0
SEQEND
  8
W60LXLIFT
  0
POLYLINE
  8
W60LXLIFT
 62
4
 66
     1
 70
     9
  0
VERTEX
  8
W60LXLIFT
 62
4
 10
1560.577
 20
-7321.234
 30
-788.000
 70
    32
  0
VERTEX
  8
W60LXLIFT
 62
4
 10
1553.920
 20
-7333.935
 30
-788.000
 70
    32
  0
VERTEX
  8
W60LXLIFT
 62
4
 10
1569.854
 20
-7352.446
 30
-788.000
 70
    32
  0
VERTEX
  8
W60LXLIFT
 62
4
 10
1569.987
 20
-7357.439
 30
-788.000
 70
    32
  0
VERTEX
  8
W60LXLIFT
 62
4
 10
1574.050
 20
-7354.512
 30
-788.000
 70
    32
  0
VERTEX
  8
W60LXLIFT
 62
4
 10
1582.694
 20
-7358.245
 30
-788.000
 70
    32
  0
VERTEX
  8
W60LXLIFT
 62
4
 10
1585.374
 20
-7356.856
 30
-788.000
 70
    32
  0
VERTEX
  8
W60LXLIFT
 62
4
 10
1589.353
 20
-7340.888
 30
-788.000
 70
    32
  0
VERTEX
  8
W60LXLIFT
 62
4
 10
1578.412
 20
-7332.313
 30
-788.000
 70
    32
  0
VERTEX
  8
W60LXLIFT
 62
4
 10
1567.131
 20
-7323.117
 30
-788.000
 70
    32
  0
SEQEND
  8
W60LXLIFT
  0
POLYLINE
  8
W60LXLIFT
 62
4
 66
     1
 70
     9
  0
VERTEX
  8
W60LXLIFT
 62
4
 10
1598.069
 20
-7354.639
 30
-773.000
 70
    32
  0
VERTEX
  8
W60LXLIFT
 62
4
 10
1586.374
 20
-7341.411
 30
-773.000
 70
    32
  0
VERTEX
  8
W60LXLIFT
 62
4
 10
1581.425
 20
-7319.965
 30
-773.000
 70
    32
  0
VERTEX
  8
W60LXLIFT
 62
4
 10
1577.841
 20
-7319.949
 30
-773.000
 70
    32
  0
VERTEX
  8
W60LXLIFT
 62
4
 10
1576.196
 20
-7332.394
 30
-773.000
 70
    32
  0
VERTEX
  8
W60LXLIFT
 62
4
 10
1564.113
 20
-7329.298
 30
-773.000
 70
    32
  0
VERTEX
  8
W60LXLIFT
 62
4
 10
1558.936
 20
-7327.072
 30
-773.000
 70
    32
  0
VERTEX
  8
W60LXLIFT
 62
4
 10
1553.539
 20
-7320.783
 30
-773.000
 70
    32
  0
VERTEX
  8
W60LXLIFT
 62
4
 10
1544.153
 20
-7305.349
 30
-773.000
 70
    32
  0
VERTEX
  8
W60LXLIFT
 62
4
 10
1543.441
 20
-7298.500
 30
-773.000
 70
    32
  0
VERTEX
  8
W60LXLIFT
 62
4
 10
1540.391
 20
-7294.417
 30
-773.000
 70
    32
  0
VERTEX
  8
W60LXLIFT
 62
4
 10
1536.541
 20
-7294.484
 30
-773.000
 70
    32
  0
VERTEX
  8
W60LXLIFT
 62
4
 10
1535.599
 20
-7291.373
 30
-773.000
 70
    32
  0
VERTEX
  8
W60LXLIFT
 62
4
 10
1531.202
 20
-7292.484
 30
-773.000
 70
    32
  0
VERTEX
  8
W60LXLIFT
 62
4
 10
1528.636
 20
-7301.695
 30
-773.000
 70
    32
  0
VERTEX
  8
W60LXLIFT
 62
4
 10
1533.394
 20
-7316.565
 30
-773.000
 70
    32
  0
VERTEX
  8
W60LXLIFT
 62
4
 10
1535.936
 20
-7321.447
 30
-773.000
 70
    32
  0
VERTEX
  8
W60LXLIFT
 62
4
 10
1548.109
 20
-7339.095
 30
-773.000
 70
    32
  0
VERTEX
  8
W60LXLIFT
 62
4
 10
1550.956
 20
-7340.942
 30
-773.000
 70
    32
  0
VERTEX
  8
W60LXLIFT
 62
4
 10
1555.205
 20
-7341.129
 30
-773.000
 70
    32
  0
VERTEX
  8
W60LXLIFT
 62
4
 10
1564.136
 20
-7350.069
 30
-773.000
 70
    32
  0
VERTEX
  8
W60LXLIFT
 62
4
 10
1575.317
 20
-7357.172
 30
-773.000
 70
    32
  0
VERTEX
  8
W60LXLIFT
 62
4
 10
1586.175
 20
-7362.775
 30
-773.000
 70
    32
  0
VERTEX
  8
W60LXLIFT
 62
4
 10
1589.768
 20
-7362.352
 30
-773.000
 70
    32
  0
SEQEND
  8
W60LXLIFT
  0
POLYLINE
  8
W60LXLIFT
 62
2
 66
     1
 70
     9
  0
VERTEX
  8
W60LXLIFT
 62
2
 10
1254.753
 20
-7044.920
 30
-777.000
 70
    32
  0
VERTEX
  8
W60LXLIFT
 62
2
 10
1254.055
 20
-7049.211
 30
-777.000
 70
    32
  0
VERTEX
  8
W60LXLIFT
 62
2
 10
1268.031
 20
-7078.229
 30
-777.000
 70
    32
  0
VERTEX
  8
W60LXLIFT
 62
2
 10
1272.370
 20
-7082.899
 30
-777.000
 70
    32
  0
VERTEX
  8
W60LXLIFT
 62
2
 10
1276.961
 20
-7084.463
 30
-777.000
 70
    32
  0
VERTEX
  8
W60LXLIFT
 62
2
 10
1289.955
 20
-7107.908
 30
-777.000
 70
    32
  0
VERTEX
  8
W60LXLIFT
 62
2
 10
1291.236
 20
-7139.142
 30
-777.000
 70
    32
  0
VERTEX
  8
W60LXLIFT
 62
2
 10
1295.681
 20
-7157.486
 30
-777.000
 70
    32
  0
VERTEX
  8
W60LXLIFT
 62
2
 10
1301.420
 20
-7172.515
 30
-777.000
 70
    32
  0
VERTEX
  8
W60LXLIFT
 62
2
 10
1302.883
 20
-7180.556
 30
-777.000
 70
    32
  0
VERTEX
  8
W60LXLIFT
 62
2
 10
1289.823
 20
-7193.538
 30
-777.000
 70
    32
  0
VERTEX
  8
W60LXLIFT
 62
2
 10
1289.773
 20
-7198.879
 30
-777.000
 70
    32
  0
VERTEX
  8
W60LXLIFT
 62
2
 10
1301.286
 20
-7192.317
 30
-777.000
 70
    32
  0
VERTEX
  8
W60LXLIFT
 62
2
 10
1305.236
 20
-7201.707
 30
-777.000
 70
    32
  0
VERTEX
  8
W60LXLIFT
 62
2
 10
1305.938
 20
-7243.860
 30
-777.000
 70
    32
  0
VERTEX
  8
W60LXLIFT
 62
2
 10
1308.667
 20
-7264.631
 30
-777.000
 70
    32
  0
VERTEX
  8
W60LXLIFT
 62
2
 10
1316.063
 20
-7270.238
 30
-777.000
 70
    32
  0
VERTEX
  8
W60LXLIFT
 62
2
 10
1324.154
 20
-7270.797
 30
-777.000
 70
    32
  0
VERTEX
  8
W60LXLIFT
 62
2
 10
1327.085
 20
-7260.889
 30
-777.000
 70
    32
  0
VERTEX
  8
W60LXLIFT
 62
2
 10
1326.654
 20
-7247.666
 30
-777.000
 70
    32
  0
VERTEX
  8
W60LXLIFT
 62
2
 10
1325.633
 20
-7237.683
 30
-777.000
 70
    32
  0
VERTEX
  8
W60LXLIFT
 62
2
 10
1324.480
 20
-7205.274
 30
-777.000
 70
    32
  0
VERTEX
  8
W60LXLIFT
 62
2
 10
1322.741
 20
-7199.705
 30
-777.000
 70
    32
  0
VERTEX
  8
W60LXLIFT
 62
2
 10
1321.063
 20
-7193.769
 30
-777.000
 70
    32
  0
VERTEX
  8
W60LXLIFT
 62
2
 10
1318.526
 20
-7187.693
 30
-777.000
 70
    32
  0
VERTEX
  8
W60LXLIFT
 62
2
 10
1317.189
 20
-7177.721
 30
-777.000
 70
    32
  0
VERTEX
  8
W60LXLIFT
 62
2
 10
1311.888
 20
-7170.063
 30
-777.000
 70
    32
  0
VERTEX
  8
W60LXLIFT
 62
2
 10
1309.335
 20
-7157.502
 30
-777.000
 70
    32
  0
VERTEX
  8
W60LXLIFT
 62
2
 10
1307.567
 20
-7147.082
 30
-777.000
 70
    32
  0
VERTEX
  8
W60LXLIFT
 62
2
 10
1309.187
 20
-7138.661
 30
-777.000
 70
    32
  0
VERTEX
  8
W60LXLIFT
 62
2
 10
1307.656
 20
-7131.427
 30
-777.000
 70
    32
  0
VERTEX
  8
W60LXLIFT
 62
2
 10
1304.196
 20
-7126.774
 30
-777.000
 70
    32
  0
VERTEX
  8
W60LXLIFT
 62
2
 10
1302.263
 20
-7108.461
 30
-777.000
 70
    32
  0
VERTEX
  8
W60LXLIFT
 62
2
 10
1299.329
 20
-7100.180
 30
-777.000
 70
    32
  0
VERTEX
  8
W60LXLIFT
 62
2
 10
1303.854
 20
-7087.826
 30
-777.000
 70
    32
  0
VERTEX
  8
W60LXLIFT
 62
2
 10
1296.050
 20
-7072.335
 30
-777.000
 70
    32
  0
VERTEX
  8
W60LXLIFT
 62
2
 10
1283.457
 20
-7061.919
 30
-777.000
 70
    32
  0
VERTEX
  8
W60LXLIFT
 62
2
 10
1280.382
 20
-7059.153
 30
-777.000
 70
    32
  0
VERTEX
  8
W60LXLIFT
 62
2
 10
1277.345
 20
-7050.730
 30
-777.000
 70
    32
  0
VERTEX
  8
W60LXLIFT
 62
2
 10
1273.715
 20
-7049.448
 30
-777.000
 70
    32
  0
VERTEX
  8
W60LXLIFT
 62
2
 10
1264.603
 20
-7038.905
 30
-777.000
 70
    32
  0
SEQEND
  8
W60LXLIFT
  0
POLYLINE
  8
W60LXLIFT
 62
4
 66
     1
 70
     9
  0
VERTEX
  8
W60LXLIFT
 62
4
 10
1590.515
 20
-7342.650
 30
-763.000
 70
    32
  0
VERTEX
  8
W60LXLIFT
 62
4
 10
1585.488
 20
-7327.107
 30
-763.000
 70
    32
  0
VERTEX
  8
W60LXLIFT
 62
4
 10
1585.169
 20
-7319.000
 30
-763.000
 70
    32
  0
VERTEX
  8
W60LXLIFT
 62
4
 10
1580.014
 20
-7319.358
 30
-763.000
 70
    32
  0
VERTEX
  8
W60LXLIFT
 62
4
 10
1578.300
 20
-7329.904
 30
-763.000
 70
    32
  0
VERTEX
  8
W60LXLIFT
 62
4
 10
1574.206
 20
-7332.637
 30
-763.000
 70
    32
  0
VERTEX
  8
W60LXLIFT
 62
4
 10
1568.291
 20
-7332.242
 30
-763.000
 70
    32
  0
VERTEX
  8
W60LXLIFT
 62
4
 10
1561.979
 20
-7326.937
 30
-763.000
 70
    32
  0
VERTEX
  8
W60LXLIFT
 62
4
 10
1548.262
 20
-7313.758
 30
-763.000
 70
    32
  0
VERTEX
  8
W60LXLIFT
 62
4
 10
1544.759
 20
-7301.231
 30
-763.000
 70
    32
  0
VERTEX
  8
W60LXLIFT
 62
4
 10
1541.646
 20
-7294.055
 30
-763.000
 70
    32
  0
VERTEX
  8
W60LXLIFT
 62
4
 10
1537.548
 20
-7293.326
 30
-763.000
 70
    32
  0
VERTEX
  8
W60LXLIFT
 62
4
 10
1532.644
 20
-7297.941
 30
-763.000
 70
    32
  0
VERTEX
  8
W60LXLIFT
 62
4
 10
1532.387
 20
-7304.948
 30
-763.000
 70
    32
  0
VERTEX
  8
W60LXLIFT
 62
4
 10
1540.940
 20
-7328.994
 30
-763.000
 70
    32
  0
VERTEX
  8
W60LXLIFT
 62
4
 10
1544.778
 20
-7335.973
 30
-763.000
 70
    32
  0
VERTEX
  8
W60LXLIFT
 62
4
 10
1562.335
 20
-7344.113
 30
-763.000
 70
    32
  0
VERTEX
  8
W60LXLIFT
 62
4
 10
1577.608
 20
-7353.139
 30
-763.000
 70
    32
  0
VERTEX
  8
W60LXLIFT
 62
4
 10
1583.651
 20
-7352.359
 30
-763.000
 70
    32
  0
VERTEX
  8
W60LXLIFT
 62
4
 10
1586.170
 20
-7346.538
 30
-763.000
 70
    32
  0
VERTEX
  8
W60LXLIFT
 62
4
 10
1587.011
 20
-7344.850
 30
-763.000
 70
    32
  0
SEQEND
  8
W60LXLIFT
  0
POLYLINE
  8
W60LXLIFT
 62
2
 66
     1
 70
     9
  0
VERTEX
  8
W60LXLIFT
 62
2
 10
1254.904
 20
-7047.084
 30
-767.000
 70
    32
  0
VERTEX
  8
W60LXLIFT
 62
2
 10
1255.644
 20
-7050.665
 30
-767.000
 70
    32
  0
VERTEX
  8
W60LXLIFT
 62
2
 10
1257.890
 20
-7075.574
 30
-767.000
 70
    32
  0
VERTEX
  8
W60LXLIFT
 62
2
 10
1261.527
 20
-7081.074
 30
-767.000
 70
    32
  0
VERTEX
  8
W60LXLIFT
 62
2
 10
1265.777
 20
-7083.967
 30
-767.000
 70
    32
  0
VERTEX
  8
W60LXLIFT
 62
2
 10
1273.680
 20
-7088.776
 30
-767.000
 70
    32
  0
VERTEX
  8
W60LXLIFT
 62
2
 10
1279.186
 20
-7094.012
 30
-767.000
 70
    32
  0
VERTEX
  8
W60LXLIFT
 62
2
 10
1281.520
 20
-7100.559
 30
-767.000
 70
    32
  0
VERTEX
  8
W60LXLIFT
 62
2
 10
1281.588
 20
-7117.184
 30
-767.000
 70
    32
  0
VERTEX
  8
W60LXLIFT
 62
2
 10
1281.722
 20
-7127.590
 30
-767.000
 70
    32
  0
VERTEX
  8
W60LXLIFT
 62
2
 10
1281.977
 20
-7142.672
 30
-767.000
 70
    32
  0
VERTEX
  8
W60LXLIFT
 62
2
 10
1285.252
 20
-7156.987
 30
-767.000
 70
    32
  0
VERTEX
  8
W60LXLIFT
 62
2
 10
1288.870
 20
-7162.609
 30
-767.000
 70
    32
  0
VERTEX
  8
W60LXLIFT
 62
2
 10
1292.003
 20
-7179.733
 30
-767.000
 70
    32
  0
VERTEX
  8
W60LXLIFT
 62
2
 10
1290.584
 20
-7192.340
 30
-767.000
 70
    32
  0
VERTEX
  8
W60LXLIFT
 62
2
 10
1280.702
 20
-7200.867
 30
-767.000
 70
    32
  0
VERTEX
  8
W60LXLIFT
 62
2
 10
1270.455
 20
-7207.383
 30
-767.000
 70
    32
  0
VERTEX
  8
W60LXLIFT
 62
2
 10
1268.537
 20
-7210.281
 30
-767.000
 70
    32
  0
VERTEX
  8
W60LXLIFT
 62
2
 10
1270.922
 20
-7214.193
 30
-767.000
 70
    32
  0
VERTEX
  8
W60LXLIFT
 62
2
 10
1287.878
 20
-7205.117
 30
-767.000
 70
    32
  0
VERTEX
  8
W60LXLIFT
 62
2
 10
1297.511
 20
-7203.158
 30
-767.000
 70
    32
  0
VERTEX
  8
W60LXLIFT
 62
2
 10
1298.877
 20
-7205.205
 30
-767.000
 70
    32
  0
VERTEX
  8
W60LXLIFT
 62
2
 10
1299.630
 20
-7242.017
 30
-767.000
 70
    32
  0
VERTEX
  8
W60LXLIFT
 62
2
 10
1308.539
 20
-7265.805
 30
-767.000
 70
    32
  0
VERTEX
  8
W60LXLIFT
 62
2
 10
1312.461
 20
-7268.394
 30
-767.000
 70
    32
  0
VERTEX
  8
W60LXLIFT
 62
2
 10
1316.885
 20
-7261.309
 30
-767.000
 70
    32
  0
VERTEX
  8
W60LXLIFT
 62
2
 10
1317.141
 20
-7248.890
 30
-767.000
 70
    32
  0
VERTEX
  8
W60LXLIFT
 62
2
 10
1316.282
 20
-7238.681
 30
-767.000
 70
    32
  0
VERTEX
  8
W60LXLIFT
 62
2
 10
1318.450
 20
-7229.216
 30
-767.000
 70
    32
  0
VERTEX
  8
W60LXLIFT
 62
2
 10
1319.474
 20
-7222.523
 30
-767.000
 70
    32
  0
VERTEX
  8
W60LXLIFT
 62
2
 10
1318.077
 20
-7212.918
 30
-767.000
 70
    32
  0
VERTEX
  8
W60LXLIFT
 62
2
 10
1315.030
 20
-7199.522
 30
-767.000
 70
    32
  0
VERTEX
  8
W60LXLIFT
 62
2
 10
1310.492
 20
-7186.010
 30
-767.000
 70
    32
  0
VERTEX
  8
W60LXLIFT
 62
2
 10
1305.936
 20
-7167.963
 30
-767.000
 70
    32
  0
VERTEX
  8
W60LXLIFT
 62
2
 10
1302.007
 20
-7151.088
 30
-767.000
 70
    32
  0
VERTEX
  8
W60LXLIFT
 62
2
 10
1299.666
 20
-7132.960
 30
-767.000
 70
    32
  0
VERTEX
  8
W60LXLIFT
 62
2
 10
1295.648
 20
-7104.239
 30
-767.000
 70
    32
  0
VERTEX
  8
W60LXLIFT
 62
2
 10
1292.777
 20
-7096.347
 30
-767.000
 70
    32
  0
VERTEX
  8
W60LXLIFT
 62
2
 10
1290.744
 20
-7086.010
 30
-767.000
 70
    32
  0
VERTEX
  8
W60LXLIFT
 62
2
 10
1284.999
 20
-7069.469
 30
-767.000
 70
    32
  0
VERTEX
  8
W60LXLIFT
 62
2
 10
1270.193
 20
-7049.820
 30
-767.000
 70
    32
  0
VERTEX
  8
W60LXLIFT
 62
2
 10
1262.973
 20
-7042.353
 30
-767.000
 70
    32
  0
SEQEND
  8
W60LXLIFT
  0
POLYLINE
  8
W60LXLIFT
 62
8
 66
     1
 70
     9
  0
VERTEX
  8
W60LXLIFT
 62
8
 10
1388.582
 20
-7604.740
 30
-767.000
 70
    32
  0
VERTEX
  8
W60LXLIFT
 62
8
 10
1380.684
 20
-7591.374
 30
-767.000
 70
    32
  0
VERTEX
  8
W60LXLIFT
 62
8
 10
1385.151
 20
-7584.799
 30
-767.000
 70
    32
  0
VERTEX
  8
W60LXLIFT
 62
8
 10
1394.261
 20
-7582.567
 30
-767.000
 70
    32
  0
VERTEX
  8
W60LXLIFT
 62
8
 10
1395.244
 20
-7568.000
 30
-767.000
 70
    32
  0
VERTEX
  8
W60LXLIFT
 62
8
 10
1387.994
 20
-7565.752
 30
-767.000
 70
    32
  0
VERTEX
  8
W60LXLIFT
 62
8
 10
1371.625
 20
-7533.262
 30
-767.000
 70
    32
  0
VERTEX
  8
W60LXLIFT
 62
8
 10
1369.939
 20
-7530.471
 30
-767.000
 70
    32
  0
VERTEX
  8
W60LXLIFT
 62
8
 10
1354.993
 20
-7531.818
 30
-767.000
 70
    32
  0
VERTEX
  8
W60LXLIFT
 62
8
 10
1341.196
 20
-7536.562
 30
-767.000
 70
    32
  0
VERTEX
  8
W60LXLIFT
 62
8
 10
1356.395
 20
-7557.660
 30
-767.000
 70
    32
  0
VERTEX
  8
W60LXLIFT
 62
8
 10
1357.340
 20
-7561.526
 30
-767.000
 70
    32
  0
VERTEX
  8
W60LXLIFT
 62
8
 10
1354.544
 20
-7564.407
 30
-767.000
 70
    32
  0
VERTEX
  8
W60LXLIFT
 62
8
 10
1341.092
 20
-7573.990
 30
-767.000
 70
    32
  0
VERTEX
  8
W60LXLIFT
 62
8
 10
1346.446
 20
-7587.132
 30
-767.000
 70
    32
  0
VERTEX
  8
W60LXLIFT
 62
8
 10
1357.758
 20
-7603.885
 30
-767.000
 70
    32
  0
VERTEX
  8
W60LXLIFT
 62
8
 10
1366.959
 20
-7608.841
 30
-767.000
 70
    32
  0
VERTEX
  8
W60LXLIFT
 62
8
 10
1374.581
 20
-7609.954
 30
-767.000
 70
    32
  0
VERTEX
  8
W60LXLIFT
 62
8
 10
1378.985
 20
-7613.061
 30
-767.000
 70
    32
  0
SEQEND
  8
W60LXLIFT
  0
POLYLINE
  8
W60LXLIFT
 62
13
 66
     1
 70
     9
  0
VERTEX
  8
W60LXLIFT
 62
13
 10
1077.964
 20
-6546.149
 30
-781.000
 70
    32
  0
VERTEX
  8
W60LXLIFT
 62
13
 10
1079.787
 20
-6539.963
 30
-781.000
 70
    32
  0
VERTEX
  8
W60LXLIFT
 62
13
 10
1083.395
 20
-6533.249
 30
-781.000
 70
    32
  0
VERTEX
  8
W60LXLIFT
 62
13
 10
1090.597
 20
-6528.818
 30
-781.000
 70
    32
  0
VERTEX
  8
W60LXLIFT
 62
13
 10
1092.263
 20
-6521.663
 30
-781.000
 70
    32
  0
VERTEX
  8
W60LXLIFT
 62
13
 10
1100.193
 20
-6517.791
 30
-781.000
 70
    32
  0
VERTEX
  8
W60LXLIFT
 62
13
 10
1110.254
 20
-6520.936
 30
-781.000
 70
    32
  0
VERTEX
  8
W60LXLIFT
 62
13
 10
1113.975
 20
-6529.407
 30
-781.000
 70
    32
  0
VERTEX
  8
W60LXLIFT
 62
13
 10
1109.304
 20
-6555.835
 30
-781.000
 70
    32
  0
VERTEX
  8
W60LXLIFT
 62
13
 10
1114.373
 20
-6564.526
 30
-781.000
 70
    32
  0
VERTEX
  8
W60LXLIFT
 62
13
 10
1116.466
 20
-6571.788
 30
-781.000
 70
    32
  0
VERTEX
  8
W60LXLIFT
 62
13
 10
1115.791
 20
-6576.713
 30
-781.000
 70
    32
  0
VERTEX
  8
W60LXLIFT
 62
13
 10
1105.853
 20
-6583.657
 30
-781.000
 70
    32
  0
VERTEX
  8
W60LXLIFT
 62
13
 10
1100.271
 20
-6569.597
 30
-781.000
 70
    32
  0
VERTEX
  8
W60LXLIFT
 62
13
 10
1093.318
 20
-6550.028
 30
-781.000
 70
    32
  0
SEQEND
  8
W60LXLIFT
  0
POLYLINE
  8
W60LXLIFT
 62
4
 66
     1
 70
     9
  0
VERTEX
  8
W60LXLIFT
 62
4
 10
1600.903
 20
-7340.688
 30
-753.000
 70
    32
  0
VERTEX
  8
W60LXLIFT
 62
4
 10
1599.955
 20
-7336.066
 30
-753.000
 70
    32
  0
VERTEX
  8
W60LXLIFT
 62
4
 10
1596.224
 20
-7332.690
 30
-753.000
 70
    32
  0
VERTEX
  8
W60LXLIFT
 62
4
 10
1588.326
 20
-7326.687
 30
-753.000
 70
    32
  0
VERTEX
  8
W60LXLIFT
 62
4
 10
1578.902
 20
-7312.255
 30
-753.000
 70
    32
  0
VERTEX
  8
W60LXLIFT
 62
4
 10
1576.691
 20
-7315.797
 30
-753.000
 70
    32
  0
VERTEX
  8
W60LXLIFT
 62
4
 10
1575.900
 20
-7322.214
 30
-753.000
 70
    32
  0
VERTEX
  8
W60LXLIFT
 62
4
 10
1576.689
 20
-7330.523
 30
-753.000
 70
    32
  0
VERTEX
  8
W60LXLIFT
 62
4
 10
1566.867
 20
-7328.612
 30
-753.000
 70
    32
  0
VERTEX
  8
W60LXLIFT
 62
4
 10
1559.304
 20
-7324.426
 30
-753.000
 70
    32
  0
VERTEX
  8
W60LXLIFT
 62
4
 10
1550.830
 20
-7309.959
 30
-753.000
 70
    32
  0
VERTEX
  8
W60LXLIFT
 62
4
 10
1544.347
 20
-7295.249
 30
-753.000
 70
    32
  0
VERTEX
  8
W60LXLIFT
 62
4
 10
1543.103
 20
-7285.859
 30
-753.000
 70
    32
  0
VERTEX
  8
W60LXLIFT
 62
4
 10
1530.105
 20
-7283.746
 30
-753.000
 70
    32
  0
VERTEX
  8
W60LXLIFT
 62
4
 10
1527.747
 20
-7286.636
 30
-753.000
 70
    32
  0
VERTEX
  8
W60LXLIFT
 62
4
 10
1531.764
 20
-7299.875
 30
-753.000
 70
    32
  0
VERTEX
  8
W60LXLIFT
 62
4
 10
1535.593
 20
-7310.000
 30
-753.000
 70
    32
  0
VERTEX
  8
W60LXLIFT
 62
4
 10
1538.706
 20
-7324.540
 30
-753.000
 70
    32
  0
VERTEX
  8
W60LXLIFT
 62
4
 10
1536.683
 20
-7331.952
 30
-753.000
 70
    32
  0
VERTEX
  8
W60LXLIFT
 62
4
 10
1539.727
 20
-7334.523
 30
-753.000
 70
    32
  0
VERTEX
  8
W60LXLIFT
 62
4
 10
1548.770
 20
-7335.804
 30
-753.000
 70
    32
  0
VERTEX
  8
W60LXLIFT
 62
4
 10
1559.471
 20
-7340.438
 30
-753.000
 70
    32
  0
VERTEX
  8
W60LXLIFT
 62
4
 10
1564.941
 20
-7344.725
 30
-753.000
 70
    32
  0
VERTEX
  8
W60LXLIFT
 62
4
 10
1565.897
 20
-7346.202
 30
-753.000
 70
    32
  0
VERTEX
  8
W60LXLIFT
 62
4
 10
1582.063
 20
-7353.611
 30
-753.000
 70
    32
  0
VERTEX
  8
W60LXLIFT
 62
4
 10
1595.441
 20
-7358.806
 30
-753.000
 70
    32
  0
VERTEX
  8
W60LXLIFT
 62
4
 10
1599.227
 20
-7352.939
 30
-753.000
 70
    32
  0
SEQEND
  8
W60LXLIFT
  0
POLYLINE
  8
W60LXLIFT
 62
2
 66
     1
 70
     9
  0
VERTEX
  8
W60LXLIFT
 62
2
 10
1313.208
 20
-7256.054
 30
-759.000
 70
    32
  0
VERTEX
  8
W60LXLIFT
 62
2
 10
1313.996
 20
-7241.519
 30
-759.000
 70
    32
  0
VERTEX
  8
W60LXLIFT
 62
2
 10
1314.069
 20
-7219.379
 30
-759.000
 70
    32
  0
VERTEX
  8
W60LXLIFT
 62
2
 10
1309.191
 20
-7192.469
 30
-759.000
 70
    32
  0
VERTEX
  8
W60LXLIFT
 62
2
 10
1302.942
 20
-7177.482
 30
-759.000
 70
    32
  0
VERTEX
  8
W60LXLIFT
 62
2
 10
1300.187
 20
-7168.098
 30
-759.000
 70
    32
  0
VERTEX
  8
W60LXLIFT
 62
2
 10
1301.466
 20
-7153.643
 30
-759.000
 70
    32
  0
VERTEX
  8
W60LXLIFT
 62
2
 10
1305.806
 20
-7143.587
 30
-759.000
 70
    32
  0
VERTEX
  8
W60LXLIFT
 62
2
 10
1295.239
 20
-7129.220
 30
-759.000
 70
    32
  0
VERTEX
  8
W60LXLIFT
 62
2
 10
1295.314
 20
-7122.561
 30
-759.000
 70
    32
  0
VERTEX
  8
W60LXLIFT
 62
2
 10
1289.125
 20
-7089.775
 30
-759.000
 70
    32
  0
VERTEX
  8
W60LXLIFT
 62
2
 10
1280.360
 20
-7071.296
 30
-759.000
 70
    32
  0
VERTEX
  8
W60LXLIFT
 62
2
 10
1274.286
 20
-7061.813
 30
-759.000
 70
    32
  0
VERTEX
  8
W60LXLIFT
 62
2
 10
1269.449
 20
-7052.846
 30
-759.000
 70
    32
  0
VERTEX
  8
W60LXLIFT
 62
2
 10
1260.872
 20
-7042.893
 30
-759.000
 70
    32
  0
VERTEX
  8
W60LXLIFT
 62
2
 10
1254.705
 20
-7038.241
 30
-759.000
 70
    32
  0
VERTEX
  8
W60LXLIFT
 62
2
 10
1248.565
 20
-7037.684
 30
-759.000
 70
    32
  0
VERTEX
  8
W60LXLIFT
 62
2
 10
1242.875
 20
-7042.108
 30
-759.000
 70
    32
  0
VERTEX
  8
W60LXLIFT
 62
2
 10
1240.401
 20
-7049.195
 30
-759.000
 70
    32
  0
VERTEX
  8
W60LXLIFT
 62
2
 10
1251.338
 20
-7061.671
 30
-759.000
 70
    32
  0
VERTEX
  8
W60LXLIFT
 62
2
 10
1262.264
 20
-7073.830
 30
-759.000
 70
    32
  0
VERTEX
  8
W60LXLIFT
 62
2
 10
1276.141
 20
-7106.167
 30
-759.000
 70
    32
  0
VERTEX
  8
W60LXLIFT
 62
2
 10
1273.347
 20
-7119.873
 30
-759.000
 70
    32
  0
VERTEX
  8
W60LXLIFT
 62
2
 10
1274.745
 20
-7129.477
 30
-759.000
 70
    32
  0
VERTEX
  8
W60LXLIFT
 62
2
 10
1279.946
 20
-7160.593
 30
-759.000
 70
    32
  0
VERTEX
  8
W60LXLIFT
 62
2
 10
1285.928
 20
-7184.976
 30
-759.000
 70
    32
  0
VERTEX
  8
W60LXLIFT
 62
2
 10
1283.174
 20
-7198.436
 30
-759.000
 70
    32
  0
VERTEX
  8
W60LXLIFT
 62
2
 10
1271.405
 20
-7207.349
 30
-759.000
 70
    32
  0
VERTEX
  8
W60LXLIFT
 62
2
 10
1270.659
 20
-7212.325
 30
-759.000
 70
    32
  0
VERTEX
  8
W60LXLIFT
 62
2
 10
1272.536
 20
-7214.329
 30
-759.000
 70
    32
  0
VERTEX
  8
W60LXLIFT
 62
2
 10
1278.222
 20
-7211.099
 30
-759.000
 70
    32
  0
VERTEX
  8
W60LXLIFT
 62
2
 10
1280.571
 20
-7208.649
 30
-759.000
 70
    32
  0
VERTEX
  8
W60LXLIFT
 62
2
 10
1287.126
 20
-7205.875
 30
-759.000
 70
    32
  0
VERTEX
  8
W60LXLIFT
 62
2
 10
1292.930
 20
-7209.273
 30
-759.000
 70
    32
  0
VERTEX
  8
W60LXLIFT
 62
2
 10
1294.116
 20
-7227.150
 30
-759.000
 70
    32
  0
VERTEX
  8
W60LXLIFT
 62
2
 10
1294.676
 20
-7241.904
 30
-759.000
 70
    32
  0
VERTEX
  8
W60LXLIFT
 62
2
 10
1294.280
 20
-7252.475
 30
-759.000
 70
    32
  0
VERTEX
  8
W60LXLIFT
 62
2
 10
1303.159
 20
-7258.638
 30
-759.000
 70
    32
  0
SEQEND
  8
W60LXLIFT
  0
POLYLINE
  8
W60LXLIFT
 62
4
 66
     1
 70
     9
  0
VERTEX
  8
W60LXLIFT
 62
4
 10
1609.237
 20
-7335.875
 30
-744.000
 70
    32
  0
VERTEX
  8
W60LXLIFT
 62
4
 10
1602.829
 20
-7334.645
 30
-744.000
 70
    32
  0
VERTEX
  8
W60LXLIFT
 62
4
 10
1593.106
 20
-7329.415
 30
-744.000
 70
    32
  0
VERTEX
  8
W60LXLIFT
 62
4
 10
1583.194
 20
-7320.315
 30
-744.000
 70
    32
  0
VERTEX
  8
W60LXLIFT
 62
4
 10
1578.688
 20
-7302.339
 30
-744.000
 70
    32
  0
VERTEX
  8
W60LXLIFT
 62
4
 10
1573.291
 20
-7303.413
 30
-744.000
 70
    32
  0
VERTEX
  8
W60LXLIFT
 62
4
 10
1574.785
 20
-7314.355
 30
-744.000
 70
    32
  0
VERTEX
  8
W60LXLIFT
 62
4
 10
1557.538
 20
-7322.125
 30
-744.000
 70
    32
  0
VERTEX
  8
W60LXLIFT
 62
4
 10
1552.093
 20
-7319.226
 30
-744.000
 70
    32
  0
VERTEX
  8
W60LXLIFT
 62
4
 10
1544.351
 20
-7311.486
 30
-744.000
 70
    32
  0
VERTEX
  8
W60LXLIFT
 62
4
 10
1541.940
 20
-7306.186
 30
-744.000
 70
    32
  0
VERTEX
  8
W60LXLIFT
 62
4
 10
1536.008
 20
-7283.825
 30
-744.000
 70
    32
  0
VERTEX
  8
W60LXLIFT
 62
4
 10
1529.492
 20
-7283.647
 30
-744.000
 70
    32
  0
VERTEX
  8
W60LXLIFT
 62
4
 10
1524.394
 20
-7288.294
 30
-744.000
 70
    32
  0
VERTEX
  8
W60LXLIFT
 62
4
 10
1526.379
 20
-7296.609
 30
-744.000
 70
    32
  0
VERTEX
  8
W60LXLIFT
 62
4
 10
1525.785
 20
-7303.749
 30
-744.000
 70
    32
  0
VERTEX
  8
W60LXLIFT
 62
4
 10
1528.613
 20
-7311.131
 30
-744.000
 70
    32
  0
VERTEX
  8
W60LXLIFT
 62
4
 10
1536.325
 20
-7324.090
 30
-744.000
 70
    32
  0
VERTEX
  8
W60LXLIFT
 62
4
 10
1528.779
 20
-7324.437
 30
-744.000
 70
    32
  0
VERTEX
  8
W60LXLIFT
 62
4
 10
1528.926
 20
-7330.503
 30
-744.000
 70
    32
  0
VERTEX
  8
W60LXLIFT
 62
4
 10
1534.603
 20
-7335.075
 30
-744.000
 70
    32
  0
VERTEX
  8
W60LXLIFT
 62
4
 10
1540.552
 20
-7336.419
 30
-744.000
 70
    32
  0
VERTEX
  8
W60LXLIFT
 62
4
 10
1547.114
 20
-7337.863
 30
-744.000
 70
    32
  0
VERTEX
  8
W60LXLIFT
 62
4
 10
1555.898
 20
-7343.444
 30
-744.000
 70
    32
  0
VERTEX
  8
W60LXLIFT
 62
4
 10
1575.283
 20
-7348.860
 30
-744.000
 70
    32
  0
VERTEX
  8
W60LXLIFT
 62
4
 10
1583.654
 20
-7345.752
 30
-744.000
 70
    32
  0
VERTEX
  8
W60LXLIFT
 62
4
 10
1587.880
 20
-7345.306
 30
-744.000
 70
    32
  0
VERTEX
  8
W60LXLIFT
 62
4
 10
1601.153
 20
-7346.896
 30
-744.000
 70
    32
  0
VERTEX
  8
W60LXLIFT
 62
4
 10
1603.596
 20
-7345.027
 30
-744.000
 70
    32
  0
SEQEND
  8
W60LXLIFT
  0
POLYLINE
  8
W60LXLIFT
 62
2
 66
     1
 70
     9
  0
VERTEX
  8
W60LXLIFT
 62
2
 10
1309.160
 20
-7242.621
 30
-749.000
 70
    32
  0
VERTEX
  8
W60LXLIFT
 62
2
 10
1312.127
 20
-7236.369
 30
-749.000
 70
    32
  0
VERTEX
  8
W60LXLIFT
 62
2
 10
1308.168
 20
-7214.644
 30
-749.000
 70
    32
  0
VERTEX
  8
W60LXLIFT
 62
2
 10
1307.529
 20
-7185.654
 30
-749.000
 70
    32
  0
VERTEX
  8
W60LXLIFT
 62
2
 10
1301.911
 20
-7172.595
 30
-749.000
 70
    32
  0
VERTEX
  8
W60LXLIFT
 62
2
 10
1300.708
 20
-7165.666
 30
-749.000
 70
    32
  0
VERTEX
  8
W60LXLIFT
 62
2
 10
1301.383
 20
-7153.378
 30
-749.000
 70
    32
  0
VERTEX
  8
W60LXLIFT
 62
2
 10
1300.581
 20
-7149.408
 30
-749.000
 70
    32
  0
VERTEX
  8
W60LXLIFT
 62
2
 10
1293.330
 20
-7141.748
 30
-749.000
 70
    32
  0
VERTEX
  8
W60LXLIFT
 62
2
 10
1285.830
 20
-7133.292
 30
-749.000
 70
    32
  0
VERTEX
  8
W60LXLIFT
 62
2
 10
1283.618
 20
-7126.765
 30
-749.000
 70
    32
  0
VERTEX
  8
W60LXLIFT
 62
2
 10
1283.523
 20
-7113.408
 30
-749.000
 70
    32
  0
VERTEX
  8
W60LXLIFT
 62
2
 10
1284.484
 20
-7103.621
 30
-749.000
 70
    32
  0
VERTEX
  8
W60LXLIFT
 62
2
 10
1280.393
 20
-7086.971
 30
-749.000
 70
    32
  0
VERTEX
  8
W60LXLIFT
 62
2
 10
1269.555
 20
-7063.813
 30
-749.000
 70
    32
  0
VERTEX
  8
W60LXLIFT
 62
2
 10
1254.714
 20
-7050.577
 30
-749.000
 70
    32
  0
VERTEX
  8
W60LXLIFT
 62
2
 10
1245.490
 20
-7042.282
 30
-749.000
 70
    32
  0
VERTEX
  8
W60LXLIFT
 62
2
 10
1236.119
 20
-7053.471
 30
-749.000
 70
    32
  0
VERTEX
  8
W60LXLIFT
 62
2
 10
1249.963
 20
-7070.132
 30
-749.000
 70
    32
  0
VERTEX
  8
W60LXLIFT
 62
2
 10
1258.280
 20
-7083.630
 30
-749.000
 70
    32
  0
VERTEX
  8
W60LXLIFT
 62
2
 10
1266.641
 20
-7092.981
 30
-749.000
 70
    32
  0
VERTEX
  8
W60LXLIFT
 62
2
 10
1269.946
 20
-7122.215
 30
-749.000
 70
    32
  0
VERTEX
  8
W60LXLIFT
 62
2
 10
1275.689
 20
-7150.776
 30
-749.000
 70
    32
  0
VERTEX
  8
W60LXLIFT
 62
2
 10
1275.435
 20
-7161.244
 30
-749.000
 70
    32
  0
VERTEX
  8
W60LXLIFT
 62
2
 10
1282.251
 20
-7199.860
 30
-749.000
 70
    32
  0
VERTEX
  8
W60LXLIFT
 62
2
 10
1272.360
 20
-7206.119
 30
-749.000
 70
    32
  0
VERTEX
  8
W60LXLIFT
 62
2
 10
1273.871
 20
-7213.476
 30
-749.000
 70
    32
  0
VERTEX
  8
W60LXLIFT
 62
2
 10
1285.382
 20
-7211.571
 30
-749.000
 70
    32
  0
VERTEX
  8
W60LXLIFT
 62
2
 10
1292.486
 20
-7240.667
 30
-749.000
 70
    32
  0
VERTEX
  8
W60LXLIFT
 62
2
 10
1298.527
 20
-7247.250
 30
-749.000
 70
    32
  0
SEQEND
  8
W60LXLIFT
  0
POLYLINE
  8
W60LXLIFT
 62
3
 66
     1
 70
     9
  0
VERTEX
  8
W60LXLIFT
 62
3
 10
1463.440
 20
-7924.456
 30
-745.000
 70
    32
  0
VERTEX
  8
W60LXLIFT
 62
3
 10
1462.851
 20
-7930.402
 30
-745.000
 70
    32
  0
VERTEX
  8
W60LXLIFT
 62
3
 10
1480.894
 20
-7952.591
 30
-745.000
 70
    32
  0
VERTEX
  8
W60LXLIFT
 62
3
 10
1490.266
 20
-7956.883
 30
-745.000
 70
    32
  0
VERTEX
  8
W60LXLIFT
 62
3
 10
1500.832
 20
-7978.612
 30
-745.000
 70
    32
  0
VERTEX
  8
W60LXLIFT
 62
3
 10
1487.625
 20
-7985.529
 30
-745.000
 70
    32
  0
VERTEX
  8
W60LXLIFT
 62
3
 10
1482.437
 20
-7980.280
 30
-745.000
 70
    32
  0
VERTEX
  8
W60LXLIFT
 62
3
 10
1476.747
 20
-7980.048
 30
-745.000
 70
    32
  0
VERTEX
  8
W60LXLIFT
 62
3
 10
1458.529
 20
-7955.061
 30
-745.000
 70
    32
  0
VERTEX
  8
W60LXLIFT
 62
3
 10
1449.100
 20
-7939.117
 30
-745.000
 70
    32
  0
VERTEX
  8
W60LXLIFT
 62
3
 10
1446.284
 20
-7924.689
 30
-745.000
 70
    32
  0
VERTEX
  8
W60LXLIFT
 62
3
 10
1439.194
 20
-7911.391
 30
-745.000
 70
    32
  0
VERTEX
  8
W60LXLIFT
 62
3
 10
1427.104
 20
-7876.575
 30
-745.000
 70
    32
  0
VERTEX
  8
W60LXLIFT
 62
3
 10
1420.644
 20
-7852.429
 30
-745.000
 70
    32
  0
VERTEX
  8
W60LXLIFT
 62
3
 10
1420.407
 20
-7821.743
 30
-745.000
 70
    32
  0
VERTEX
  8
W60LXLIFT
 62
3
 10
1421.624
 20
-7809.606
 30
-745.000
 70
    32
  0
VERTEX
  8
W60LXLIFT
 62
3
 10
1432.158
 20
-7811.003
 30
-745.000
 70
    32
  0
VERTEX
  8
W60LXLIFT
 62
3
 10
1441.184
 20
-7853.439
 30
-745.000
 70
    32
  0
VERTEX
  8
W60LXLIFT
 62
3
 10
1439.834
 20
-7857.876
 30
-745.000
 70
    32
  0
VERTEX
  8
W60LXLIFT
 62
3
 10
1442.669
 20
-7869.476
 30
-745.000
 70
    32
  0
VERTEX
  8
W60LXLIFT
 62
3
 10
1451.495
 20
-7887.587
 30
-745.000
 70
    32
  0
SEQEND
  8
W60LXLIFT
  0
POLYLINE
  8
W60LXLIFT
 62
4
 66
     1
 70
     9
  0
VERTEX
  8
W60LXLIFT
 62
4
 10
1530.056
 20
-7291.794
 30
-734.000
 70
    32
  0
VERTEX
  8
W60LXLIFT
 62
4
 10
1525.126
 20
-7305.090
 30
-734.000
 70
    32
  0
VERTEX
  8
W60LXLIFT
 62
4
 10
1525.151
 20
-7311.135
 30
-734.000
 70
    32
  0
VERTEX
  8
W60LXLIFT
 62
4
 10
1532.359
 20
-7318.285
 30
-734.000
 70
    32
  0
VERTEX
  8
W60LXLIFT
 62
4
 10
1535.503
 20
-7322.950
 30
-734.000
 70
    32
  0
VERTEX
  8
W60LXLIFT
 62
4
 10
1532.198
 20
-7323.923
 30
-734.000
 70
    32
  0
VERTEX
  8
W60LXLIFT
 62
4
 10
1522.991
 20
-7324.818
 30
-734.000
 70
    32
  0
VERTEX
  8
W60LXLIFT
 62
4
 10
1522.436
 20
-7329.007
 30
-734.000
 70
    32
  0
VERTEX
  8
W60LXLIFT
 62
4
 10
1527.005
 20
-7332.645
 30
-734.000
 70
    32
  0
VERTEX
  8
W60LXLIFT
 62
4
 10
1533.373
 20
-7334.120
 30
-734.000
 70
    32
  0
VERTEX
  8
W60LXLIFT
 62
4
 10
1538.789
 20
-7334.874
 30
-734.000
 70
    32
  0
VERTEX
  8
W60LXLIFT
 62
4
 10
1549.129
 20
-7343.666
 30
-734.000
 70
    32
  0
VERTEX
  8
W60LXLIFT
 62
4
 10
1558.972
 20
-7350.866
 30
-734.000
 70
    32
  0
VERTEX
  8
W60LXLIFT
 62
4
 10
1569.455
 20
-7352.192
 30
-734.000
 70
    32
  0
VERTEX
  8
W60LXLIFT
 62
4
 10
1591.149
 20
-7348.039
 30
-734.000
 70
    32
  0
VERTEX
  8
W60LXLIFT
 62
4
 10
1603.887
 20
-7346.333
 30
-734.000
 70
    32
  0
VERTEX
  8
W60LXLIFT
 62
4
 10
1606.462
 20
-7344.046
 30
-734.000
 70
    32
  0
VERTEX
  8
W60LXLIFT
 62
4
 10
1604.235
 20
-7336.447
 30
-734.000
 70
    32
  0
VERTEX
  8
W60LXLIFT
 62
4
 10
1596.542
 20
-7330.728
 30
-734.000
 70
    32
  0
VERTEX
  8
W60LXLIFT
 62
4
 10
1585.734
 20
-7319.784
 30
-734.000
 70
    32
  0
VERTEX
  8
W60LXLIFT
 62
4
 10
1580.122
 20
-7300.873
 30
-734.000
 70
    32
  0
VERTEX
  8
W60LXLIFT
 62
4
 10
1575.512
 20
-7302.138
 30
-734.000
 70
    32
  0
VERTEX
  8
W60LXLIFT
 62
4
 10
1576.868
 20
-7309.281
 30
-734.000
 70
    32
  0
VERTEX
  8
W60LXLIFT
 62
4
 10
1575.079
 20
-7316.416
 30
-734.000
 70
    32
  0
VERTEX
  8
W60LXLIFT
 62
4
 10
1570.130
 20
-7319.766
 30
-734.000
 70
    32
  0
VERTEX
  8
W60LXLIFT
 62
4
 10
1563.400
 20
-7319.742
 30
-734.000
 70
    32
  0
VERTEX
  8
W60LXLIFT
 62
4
 10
1549.643
 20
-7316.877
 30
-734.000
 70
    32
  0
VERTEX
  8
W60LXLIFT
 62
4
 10
1537.589
 20
-7308.562
 30
-734.000
 70
    32
  0
VERTEX
  8
W60LXLIFT
 62
4
 10
1537.739
 20
-7295.245
 30
-734.000
 70
    32
  0
SEQEND
  8
W60LXLIFT
  0
POLYLINE
  8
W60LXLIFT
 62
2
 66
     1
 70
     9
  0
VERTEX
  8
W60LXLIFT
 62
2
 10
1232.933
 20
-7051.003
 30
-739.000
 70
    32
  0
VERTEX
  8
W60LXLIFT
 62
2
 10
1242.623
 20
-7068.059
 30
-739.000
 70
    32
  0
VERTEX
  8
W60LXLIFT
 62
2
 10
1251.394
 20
-7077.980
 30
-739.000
 70
    32
  0
VERTEX
  8
W60LXLIFT
 62
2
 10
1261.464
 20
-7088.049
 30
-739.000
 70
    32
  0
VERTEX
  8
W60LXLIFT
 62
2
 10
1266.376
 20
-7095.770
 30
-739.000
 70
    32
  0
VERTEX
  8
W60LXLIFT
 62
2
 10
1263.742
 20
-7108.495
 30
-739.000
 70
    32
  0
VERTEX
  8
W60LXLIFT
 62
2
 10
1264.341
 20
-7127.661
 30
-739.000
 70
    32
  0
VERTEX
  8
W60LXLIFT
 62
2
 10
1269.052
 20
-7148.628
 30
-739.000
 70
    32
  0
VERTEX
  8
W60LXLIFT
 62
2
 10
1269.784
 20
-7162.718
 30
-739.000
 70
    32
  0
VERTEX
  8
W60LXLIFT
 62
2
 10
1276.148
 20
-7188.232
 30
-739.000
 70
    32
  0
VERTEX
  8
W60LXLIFT
 62
2
 10
1274.094
 20
-7205.520
 30
-739.000
 70
    32
  0
VERTEX
  8
W60LXLIFT
 62
2
 10
1267.630
 20
-7210.826
 30
-739.000
 70
    32
  0
VERTEX
  8
W60LXLIFT
 62
2
 10
1268.502
 20
-7216.694
 30
-739.000
 70
    32
  0
VERTEX
  8
W60LXLIFT
 62
2
 10
1275.919
 20
-7214.816
 30
-739.000
 70
    32
  0
VERTEX
  8
W60LXLIFT
 62
2
 10
1279.353
 20
-7218.080
 30
-739.000
 70
    32
  0
VERTEX
  8
W60LXLIFT
 62
2
 10
1285.406
 20
-7242.411
 30
-739.000
 70
    32
  0
VERTEX
  8
W60LXLIFT
 62
2
 10
1288.400
 20
-7253.030
 30
-739.000
 70
    32
  0
VERTEX
  8
W60LXLIFT
 62
2
 10
1293.844
 20
-7253.222
 30
-739.000
 70
    32
  0
VERTEX
  8
W60LXLIFT
 62
2
 10
1297.930
 20
-7243.566
 30
-739.000
 70
    32
  0
VERTEX
  8
W60LXLIFT
 62
2
 10
1297.329
 20
-7226.350
 30
-739.000
 70
    32
  0
VERTEX
  8
W60LXLIFT
 62
2
 10
1296.018
 20
-7207.698
 30
-739.000
 70
    32
  0
VERTEX
  8
W60LXLIFT
 62
2
 10
1292.275
 20
-7191.231
 30
-739.000
 70
    32
  0
VERTEX
  8
W60LXLIFT
 62
2
 10
1287.582
 20
-7177.504
 30
-739.000
 70
    32
  0
VERTEX
  8
W60LXLIFT
 62
2
 10
1286.474
 20
-7171.156
 30
-739.000
 70
    32
  0
VERTEX
  8
W60LXLIFT
 62
2
 10
1289.799
 20
-7159.991
 30
-739.000
 70
    32
  0
VERTEX
  8
W60LXLIFT
 62
2
 10
1288.040
 20
-7151.839
 30
-739.000
 70
    32
  0
VERTEX
  8
W60LXLIFT
 62
2
 10
1286.315
 20
-7144.636
 30
-739.000
 70
    32
  0
VERTEX
  8
W60LXLIFT
 62
2
 10
1279.048
 20
-7130.491
 30
-739.000
 70
    32
  0
VERTEX
  8
W60LXLIFT
 62
2
 10
1276.324
 20
-7118.595
 30
-739.000
 70
    32
  0
VERTEX
  8
W60LXLIFT
 62
2
 10
1277.582
 20
-7098.849
 30
-739.000
 70
    32
  0
VERTEX
  8
W60LXLIFT
 62
2
 10
1277.842
 20
-7092.598
 30
-739.000
 70
    32
  0
VERTEX
  8
W60LXLIFT
 62
2
 10
1269.687
 20
-7076.169
 30
-739.000
 70
    32
  0
VERTEX
  8
W60LXLIFT
 62
2
 10
1260.154
 20
-7067.446
 30
-739.000
 70
    32
  0
VERTEX
  8
W60LXLIFT
 62
2
 10
1243.718
 20
-7048.539
 30
-739.000
 70
    32
  0
SEQEND
  8
W60LXLIFT
  0
POLYLINE
  8
W60LXLIFT
 62
6
 66
     1
 70
     9
  0
VERTEX
  8
W60LXLIFT
 62
6
 10
1287.985
 20
-7452.333
 30
-750.000
 70
    32
  0
VERTEX
  8
W60LXLIFT
 62
6
 10
1274.787
 20
-7431.309
 30
-750.000
 70
    32
  0
VERTEX
  8
W60LXLIFT
 62
6
 10
1286.253
 20
-7420.774
 30
-750.000
 70
    32
  0
VERTEX
  8
W60LXLIFT
 62
6
 10
1290.234
 20
-7410.219
 30
-750.000
 70
    32
  0
VERTEX
  8
W60LXLIFT
 62
6
 10
1290.821
 20
-7398.861
 30
-750.000
 70
    32
  0
VERTEX
  8
W60LXLIFT
 62
6
 10
1301.977
 20
-7389.849
 30
-750.000
 70
    32
  0
VERTEX
  8
W60LXLIFT
 62
6
 10
1311.110
 20
-7388.250
 30
-750.000
 70
    32
  0
VERTEX
  8
W60LXLIFT
 62
6
 10
1319.069
 20
-7399.298
 30
-750.000
 70
    32
  0
VERTEX
  8
W60LXLIFT
 62
6
 10
1320.971
 20
-7407.347
 30
-750.000
 70
    32
  0
VERTEX
  8
W60LXLIFT
 62
6
 10
1322.828
 20
-7419.543
 30
-750.000
 70
    32
  0
VERTEX
  8
W60LXLIFT
 62
6
 10
1325.429
 20
-7431.420
 30
-750.000
 70
    32
  0
VERTEX
  8
W60LXLIFT
 62
6
 10
1321.277
 20
-7439.933
 30
-750.000
 70
    32
  0
VERTEX
  8
W60LXLIFT
 62
6
 10
1315.380
 20
-7441.366
 30
-750.000
 70
    32
  0
VERTEX
  8
W60LXLIFT
 62
6
 10
1305.290
 20
-7438.783
 30
-750.000
 70
    32
  0
VERTEX
  8
W60LXLIFT
 62
6
 10
1299.509
 20
-7446.088
 30
-750.000
 70
    32
  0
SEQEND
  8
W60LXLIFT
  0
POLYLINE
  8
W60LXLIFT
 62
1
 66
     1
 70
     9
  0
VERTEX
  8
W60LXLIFT
 62
1
 10
1300.509
 20
-7445.088
 30
-739.000
 70
    32
  0
VERTEX
  8
W60LXLIFT
 62
1
 10
1306.290
 20
-7437.783
 30
-739.000
 70
    32
  0
VERTEX
  8
W60LXLIFT
 62
1
 10
1316.380
 20
-7440.366
 30
-739.000
 70
    32
  0
VERTEX
  8
W60LXLIFT
 62
1
 10
1322.277
 20
-7438.933
 30
-739.000
 70
    32
  0
VERTEX
  8
W60LXLIFT
 62
1
 10
1326.429
 20
-7430.420
 30
-739.000
 70
    32
  0
VERTEX
  8
W60LXLIFT
 62
1
 10
1323.828
 20
-7418.543
 30
-739.000
 70
    32
  0
VERTEX
  8
W60LXLIFT
 62
1
 10
1321.971
 20
-7406.347
 30
-739.000
 70
    32
  0
VERTEX
  8
W60LXLIFT
 62
1
 10
1320.069
 20
-7398.298
 30
-739.000
 70
    32
  0
VERTEX
  8
W60LXLIFT
 62
1
 10
1312.110
 20
-7387.250
 30
-739.000
 70
    32
  0
VERTEX
  8
W60LXLIFT
 62
1
 10
1302.977
 20
-7388.849
 30
-739.000
 70
    32
  0
VERTEX
  8
W60LXLIFT
 62
1
 10
1291.821
 20
-7397.861
 30
-739.000
 70
    32
  0
VERTEX
  8
W60LXLIFT
 62
1
 10
1291.234
 20
-7409.219
 30
-739.000
 70
    32
  0
VERTEX
  8
W60LXLIFT
 62
1
 10
1287.253
 20
-7419.774
 30
-739.000
 70
    32
  0
VERTEX
  8
W60LXLIFT
 62
1
 10
1275.787
 20
-7430.309
 30
-739.000
 70
    32
  0
VERTEX
  8
W60LXLIFT
 62
1
 10
1288.985
 20
-7451.333
 30
-739.000
 70
    32
  0
SEQEND
  8
W60LXLIFT
  0
POLYLINE
  8
W60LXLIFT
 62
4
 66
     1
 70
     9
  0
VERTEX
  8
W60LXLIFT
 62
4
 10
1518.908
 20
-7290.297
 30
-724.000
 70
    32
  0
VERTEX
  8
W60LXLIFT
 62
4
 10
1517.986
 20
-7307.202
 30
-724.000
 70
    32
  0
VERTEX
  8
W60LXLIFT
 62
4
 10
1525.695
 20
-7319.405
 30
-724.000
 70
    32
  0
VERTEX
  8
W60LXLIFT
 62
4
 10
1522.933
 20
-7323.236
 30
-724.000
 70
    32
  0
VERTEX
  8
W60LXLIFT
 62
4
 10
1513.367
 20
-7326.338
 30
-724.000
 70
    32
  0
VERTEX
  8
W60LXLIFT
 62
4
 10
1514.711
 20
-7330.458
 30
-724.000
 70
    32
  0
VERTEX
  8
W60LXLIFT
 62
4
 10
1526.213
 20
-7333.649
 30
-724.000
 70
    32
  0
VERTEX
  8
W60LXLIFT
 62
4
 10
1536.581
 20
-7331.809
 30
-724.000
 70
    32
  0
VERTEX
  8
W60LXLIFT
 62
4
 10
1545.762
 20
-7336.888
 30
-724.000
 70
    32
  0
VERTEX
  8
W60LXLIFT
 62
4
 10
1564.544
 20
-7342.521
 30
-724.000
 70
    32
  0
VERTEX
  8
W60LXLIFT
 62
4
 10
1580.423
 20
-7344.723
 30
-724.000
 70
    32
  0
VERTEX
  8
W60LXLIFT
 62
4
 10
1591.429
 20
-7338.960
 30
-724.000
 70
    32
  0
VERTEX
  8
W60LXLIFT
 62
4
 10
1590.925
 20
-7333.151
 30
-724.000
 70
    32
  0
VERTEX
  8
W60LXLIFT
 62
4
 10
1582.282
 20
-7322.055
 30
-724.000
 70
    32
  0
VERTEX
  8
W60LXLIFT
 62
4
 10
1579.017
 20
-7315.420
 30
-724.000
 70
    32
  0
VERTEX
  8
W60LXLIFT
 62
4
 10
1572.869
 20
-7295.163
 30
-724.000
 70
    32
  0
VERTEX
  8
W60LXLIFT
 62
4
 10
1569.353
 20
-7297.047
 30
-724.000
 70
    32
  0
VERTEX
  8
W60LXLIFT
 62
4
 10
1572.004
 20
-7310.945
 30
-724.000
 70
    32
  0
VERTEX
  8
W60LXLIFT
 62
4
 10
1571.533
 20
-7318.106
 30
-724.000
 70
    32
  0
VERTEX
  8
W60LXLIFT
 62
4
 10
1569.495
 20
-7321.739
 30
-724.000
 70
    32
  0
VERTEX
  8
W60LXLIFT
 62
4
 10
1557.692
 20
-7314.976
 30
-724.000
 70
    32
  0
VERTEX
  8
W60LXLIFT
 62
4
 10
1552.095
 20
-7314.569
 30
-724.000
 70
    32
  0
VERTEX
  8
W60LXLIFT
 62
4
 10
1541.176
 20
-7316.697
 30
-724.000
 70
    32
  0
VERTEX
  8
W60LXLIFT
 62
4
 10
1531.886
 20
-7309.964
 30
-724.000
 70
    32
  0
VERTEX
  8
W60LXLIFT
 62
4
 10
1530.194
 20
-7295.592
 30
-724.000
 70
    32
  0
SEQEND
  8
W60LXLIFT
  0
POLYLINE
  8
W60LXLIFT
 62
2
 66
     1
 70
     9
  0
VERTEX
  8
W60LXLIFT
 62
2
 10
1309.948
 20
-7275.726
 30
-720.000
 70
    32
  0
VERTEX
  8
W60LXLIFT
 62
2
 10
1299.253
 20
-7252.465
 30
-720.000
 70
    32
  0
VERTEX
  8
W60LXLIFT
 62
2
 10
1290.744
 20
-7241.705
 30
-720.000
 70
    32
  0
VERTEX
  8
W60LXLIFT
 62
2
 10
1285.344
 20
-7237.367
 30
-720.000
 70
    32
  0
VERTEX
  8
W60LXLIFT
 62
2
 10
1274.403
 20
-7231.498
 30
-720.000
 70
    32
  0
VERTEX
  8
W60LXLIFT
 62
2
 10
1264.688
 20
-7192.915
 30
-720.000
 70
    32
  0
VERTEX
  8
W60LXLIFT
 62
2
 10
1261.123
 20
-7182.707
 30
-720.000
 70
    32
  0
VERTEX
  8
W60LXLIFT
 62
2
 10
1255.570
 20
-7168.086
 30
-720.000
 70
    32
  0
VERTEX
  8
W60LXLIFT
 62
2
 10
1254.366
 20
-7155.744
 30
-720.000
 70
    32
  0
VERTEX
  8
W60LXLIFT
 62
2
 10
1250.596
 20
-7137.888
 30
-720.000
 70
    32
  0
VERTEX
  8
W60LXLIFT
 62
2
 10
1251.550
 20
-7123.883
 30
-720.000
 70
    32
  0
VERTEX
  8
W60LXLIFT
 62
2
 10
1253.242
 20
-7108.047
 30
-720.000
 70
    32
  0
VERTEX
  8
W60LXLIFT
 62
2
 10
1248.143
 20
-7097.212
 30
-720.000
 70
    32
  0
VERTEX
  8
W60LXLIFT
 62
2
 10
1235.704
 20
-7076.941
 30
-720.000
 70
    32
  0
VERTEX
  8
W60LXLIFT
 62
2
 10
1216.416
 20
-7060.087
 30
-720.000
 70
    32
  0
VERTEX
  8
W60LXLIFT
 62
2
 10
1207.183
 20
-7062.300
 30
-720.000
 70
    32
  0
VERTEX
  8
W60LXLIFT
 62
2
 10
1202.698
 20
-7074.409
 30
-720.000
 70
    32
  0
VERTEX
  8
W60LXLIFT
 62
2
 10
1208.091
 20
-7084.600
 30
-720.000
 70
    32
  0
VERTEX
  8
W60LXLIFT
 62
2
 10
1223.957
 20
-7091.143
 30
-720.000
 70
    32
  0
VERTEX
  8
W60LXLIFT
 62
2
 10
1230.469
 20
-7097.928
 30
-720.000
 70
    32
  0
VERTEX
  8
W60LXLIFT
 62
2
 10
1236.446
 20
-7116.142
 30
-720.000
 70
    32
  0
VERTEX
  8
W60LXLIFT
 62
2
 10
1235.987
 20
-7129.032
 30
-720.000
 70
    32
  0
VERTEX
  8
W60LXLIFT
 62
2
 10
1234.169
 20
-7141.386
 30
-720.000
 70
    32
  0
VERTEX
  8
W60LXLIFT
 62
2
 10
1237.121
 20
-7164.270
 30
-720.000
 70
    32
  0
VERTEX
  8
W60LXLIFT
 62
2
 10
1238.273
 20
-7183.903
 30
-720.000
 70
    32
  0
VERTEX
  8
W60LXLIFT
 62
2
 10
1240.972
 20
-7207.186
 30
-720.000
 70
    32
  0
VERTEX
  8
W60LXLIFT
 62
2
 10
1250.203
 20
-7237.132
 30
-720.000
 70
    32
  0
VERTEX
  8
W60LXLIFT
 62
2
 10
1268.450
 20
-7244.124
 30
-720.000
 70
    32
  0
VERTEX
  8
W60LXLIFT
 62
2
 10
1276.166
 20
-7250.476
 30
-720.000
 70
    32
  0
VERTEX
  8
W60LXLIFT
 62
2
 10
1293.826
 20
-7278.896
 30
-720.000
 70
    32
  0
SEQEND
  8
W60LXLIFT
  0
POLYLINE
  8
W60LXLIFT
 62
4
 66
     1
 70
     9
  0
VERTEX
  8
W60LXLIFT
 62
4
 10
1582.135
 20
-7308.626
 30
-714.000
 70
    32
  0
VERTEX
  8
W60LXLIFT
 62
4
 10
1576.885
 20
-7298.333
 30
-714.000
 70
    32
  0
VERTEX
  8
W60LXLIFT
 62
4
 10
1567.109
 20
-7287.620
 30
-714.000
 70
    32
  0
VERTEX
  8
W60LXLIFT
 62
4
 10
1564.267
 20
-7289.235
 30
-714.000
 70
    32
  0
VERTEX
  8
W60LXLIFT
 62
4
 10
1570.393
 20
-7304.201
 30
-714.000
 70
    32
  0
VERTEX
  8
W60LXLIFT
 62
4
 10
1564.345
 20
-7313.539
 30
-714.000
 70
    32
  0
VERTEX
  8
W60LXLIFT
 62
4
 10
1552.364
 20
-7317.949
 30
-714.000
 70
    32
  0
VERTEX
  8
W60LXLIFT
 62
4
 10
1542.561
 20
-7313.209
 30
-714.000
 70
    32
  0
VERTEX
  8
W60LXLIFT
 62
4
 10
1533.523
 20
-7310.734
 30
-714.000
 70
    32
  0
VERTEX
  8
W60LXLIFT
 62
4
 10
1528.815
 20
-7300.592
 30
-714.000
 70
    32
  0
VERTEX
  8
W60LXLIFT
 62
4
 10
1528.658
 20
-7289.553
 30
-714.000
 70
    32
  0
VERTEX
  8
W60LXLIFT
 62
4
 10
1525.850
 20
-7284.754
 30
-714.000
 70
    32
  0
VERTEX
  8
W60LXLIFT
 62
4
 10
1514.952
 20
-7296.829
 30
-714.000
 70
    32
  0
VERTEX
  8
W60LXLIFT
 62
4
 10
1514.601
 20
-7305.960
 30
-714.000
 70
    32
  0
VERTEX
  8
W60LXLIFT
 62
4
 10
1519.799
 20
-7323.544
 30
-714.000
 70
    32
  0
VERTEX
  8
W60LXLIFT
 62
4
 10
1510.358
 20
-7324.716
 30
-714.000
 70
    32
  0
VERTEX
  8
W60LXLIFT
 62
4
 10
1503.794
 20
-7327.929
 30
-714.000
 70
    32
  0
VERTEX
  8
W60LXLIFT
 62
4
 10
1504.708
 20
-7331.602
 30
-714.000
 70
    32
  0
VERTEX
  8
W60LXLIFT
 62
4
 10
1510.389
 20
-7334.980
 30
-714.000
 70
    32
  0
VERTEX
  8
W60LXLIFT
 62
4
 10
1525.328
 20
-7332.121
 30
-714.000
 70
    32
  0
VERTEX
  8
W60LXLIFT
 62
4
 10
1532.729
 20
-7333.827
 30
-714.000
 70
    32
  0
VERTEX
  8
W60LXLIFT
 62
4
 10
1541.454
 20
-7339.776
 30
-714.000
 70
    32
  0
VERTEX
  8
W60LXLIFT
 62
4
 10
1560.965
 20
-7341.310
 30
-714.000
 70
    32
  0
VERTEX
  8
W60LXLIFT
 62
4
 10
1577.098
 20
-7343.113
 30
-714.000
 70
    32
  0
VERTEX
  8
W60LXLIFT
 62
4
 10
1595.142
 20
-7340.507
 30
-714.000
 70
    32
  0
VERTEX
  8
W60LXLIFT
 62
4
 10
1608.122
 20
-7335.379
 30
-714.000
 70
    32
  0
VERTEX
  8
W60LXLIFT
 62
4
 10
1611.712
 20
-7326.837
 30
-714.000
 70
    32
  0
SEQEND
  8
W60LXLIFT
  0
POLYLINE
  8
W60LXLIFT
 62
3
 66
     1
 70
     9
  0
VERTEX
  8
W60LXLIFT
 62
3
 10
1454.356
 20
-7842.866
 30
-727.000
 70
    32
  0
VERTEX
  8
W60LXLIFT
 62
3
 10
1456.783
 20
-7854.652
 30
-727.000
 70
    32
  0
VERTEX
  8
W60LXLIFT
 62
3
 10
1451.885
 20
-7878.211
 30
-727.000
 70
    32
  0
VERTEX
  8
W60LXLIFT
 62
3
 10
1447.916
 20
-7879.013
 30
-727.000
 70
    32
  0
VERTEX
  8
W60LXLIFT
 62
3
 10
1442.636
 20
-7873.939
 30
-727.000
 70
    32
  0
VERTEX
  8
W60LXLIFT
 62
3
 10
1435.545
 20
-7857.934
 30
-727.000
 70
    32
  0
VERTEX
  8
W60LXLIFT
 62
3
 10
1435.515
 20
-7853.084
 30
-727.000
 70
    32
  0
VERTEX
  8
W60LXLIFT
 62
3
 10
1428.276
 20
-7848.446
 30
-727.000
 70
    32
  0
VERTEX
  8
W60LXLIFT
 62
3
 10
1417.505
 20
-7866.709
 30
-727.000
 70
    32
  0
VERTEX
  8
W60LXLIFT
 62
3
 10
1419.961
 20
-7877.932
 30
-727.000
 70
    32
  0
VERTEX
  8
W60LXLIFT
 62
3
 10
1442.288
 20
-7901.258
 30
-727.000
 70
    32
  0
VERTEX
  8
W60LXLIFT
 62
3
 10
1445.632
 20
-7910.108
 30
-727.000
 70
    32
  0
VERTEX
  8
W60LXLIFT
 62
3
 10
1448.171
 20
-7931.666
 30
-727.000
 70
    32
  0
VERTEX
  8
W60LXLIFT
 62
3
 10
1442.558
 20
-7947.620
 30
-727.000
 70
    32
  0
VERTEX
  8
W60LXLIFT
 62
3
 10
1446.707
 20
-7958.490
 30
-727.000
 70
    32
  0
VERTEX
  8
W60LXLIFT
 62
3
 10
1458.717
 20
-7973.657
 30
-727.000
 70
    32
  0
VERTEX
  8
W60LXLIFT
 62
3
 10
1467.155
 20
-7971.692
 30
-727.000
 70
    32
  0
VERTEX
  8
W60LXLIFT
 62
3
 10
1485.725
 20
-7992.961
 30
-727.000
 70
    32
  0
VERTEX
  8
W60LXLIFT
 62
3
 10
1492.435
 20
-7990.401
 30
-727.000
 70
    32
  0
VERTEX
  8
W60LXLIFT
 62
3
 10
1499.586
 20
-7998.674
 30
-727.000
 70
    32
  0
VERTEX
  8
W60LXLIFT
 62
3
 10
1502.357
 20
-7997.111
 30
-727.000
 70
    32
  0
VERTEX
  8
W60LXLIFT
 62
3
 10
1507.844
 20
-7987.744
 30
-727.000
 70
    32
  0
VERTEX
  8
W60LXLIFT
 62
3
 10
1506.037
 20
-7980.276
 30
-727.000
 70
    32
  0
VERTEX
  8
W60LXLIFT
 62
3
 10
1507.748
 20
-7968.974
 30
-727.000
 70
    32
  0
VERTEX
  8
W60LXLIFT
 62
3
 10
1498.402
 20
-7956.002
 30
-727.000
 70
    32
  0
VERTEX
  8
W60LXLIFT
 62
3
 10
1489.638
 20
-7953.005
 30
-727.000
 70
    32
  0
VERTEX
  8
W60LXLIFT
 62
3
 10
1481.055
 20
-7957.022
 30
-727.000
 70
    32
  0
VERTEX
  8
W60LXLIFT
 62
3
 10
1473.478
 20
-7954.469
 30
-727.000
 70
    32
  0
VERTEX
  8
W60LXLIFT
 62
3
 10
1466.569
 20
-7948.186
 30
-727.000
 70
    32
  0
VERTEX
  8
W60LXLIFT
 62
3
 10
1464.014
 20
-7937.576
 30
-727.000
 70
    32
  0
VERTEX
  8
W60LXLIFT
 62
3
 10
1471.725
 20
-7920.327
 30
-727.000
 70
    32
  0
VERTEX
  8
W60LXLIFT
 62
3
 10
1468.743
 20
-7912.731
 30
-727.000
 70
    32
  0
VERTEX
  8
W60LXLIFT
 62
3
 10
1471.304
 20
-7904.714
 30
-727.000
 70
    32
  0
VERTEX
  8
W60LXLIFT
 62
3
 10
1478.864
 20
-7892.664
 30
-727.000
 70
    32
  0
VERTEX
  8
W60LXLIFT
 62
3
 10
1478.640
 20
-7877.775
 30
-727.000
 70
    32
  0
VERTEX
  8
W60LXLIFT
 62
3
 10
1472.493
 20
-7852.862
 30
-727.000
 70
    32
  0
VERTEX
  8
W60LXLIFT
 62
3
 10
1470.132
 20
-7834.857
 30
-727.000
 70
    32
  0
SEQEND
  8
W60LXLIFT
  0
POLYLINE
  8
W60LXLIFT
 62
1
 66
     1
 70
     9
  0
VERTEX
  8
W60LXLIFT
 62
1
 10
1471.132
 20
-7833.857
 30
-715.000
 70
    32
  0
VERTEX
  8
W60LXLIFT
 62
1
 10
1473.493
 20
-7851.862
 30
-715.000
 70
    32
  0
VERTEX
  8
W60LXLIFT
 62
1
 10
1479.640
 20
-7876.775
 30
-715.000
 70
    32
  0
VERTEX
  8
W60LXLIFT
 62
1
 10
1479.864
 20
-7891.664
 30
-715.000
 70
    32
  0
VERTEX
  8
W60LXLIFT
 62
1
 10
1472.304
 20
-7903.714
 30
-715.000
 70
    32
  0
VERTEX
  8
W60LXLIFT
 62
1
 10
1469.743
 20
-7911.731
 30
-715.000
 70
    32
  0
VERTEX
  8
W60LXLIFT
 62
1
 10
1472.725
 20
-7919.327
 30
-715.000
 70
    32
  0
VERTEX
  8
W60LXLIFT
 62
1
 10
1465.014
 20
-7936.576
 30
-715.000
 70
    32
  0
VERTEX
  8
W60LXLIFT
 62
1
 10
1467.569
 20
-7947.186
 30
-715.000
 70
    32
  0
VERTEX
  8
W60LXLIFT
 62
1
 10
1474.478
 20
-7953.469
 30
-715.000
 70
    32
  0
VERTEX
  8
W60LXLIFT
 62
1
 10
1482.055
 20
-7956.022
 30
-715.000
 70
    32
  0
VERTEX
  8
W60LXLIFT
 62
1
 10
1490.638
 20
-7952.005
 30
-715.000
 70
    32
  0
VERTEX
  8
W60LXLIFT
 62
1
 10
1499.402
 20
-7955.002
 30
-715.000
 70
    32
  0
VERTEX
  8
W60LXLIFT
 62
1
 10
1508.748
 20
-7967.974
 30
-715.000
 70
    32
  0
VERTEX
  8
W60LXLIFT
 62
1
 10
1507.037
 20
-7979.276
 30
-715.000
 70
    32
  0
VERTEX
  8
W60LXLIFT
 62
1
 10
1508.844
 20
-7986.744
 30
-715.000
 70
    32
  0
VERTEX
  8
W60LXLIFT
 62
1
 10
1503.357
 20
-7996.111
 30
-715.000
 70
    32
  0
VERTEX
  8
W60LXLIFT
 62
1
 10
1500.586
 20
-7997.674
 30
-715.000
 70
    32
  0
VERTEX
  8
W60LXLIFT
 62
1
 10
1493.435
 20
-7989.401
 30
-715.000
 70
    32
  0
VERTEX
  8
W60LXLIFT
 62
1
 10
1486.725
 20
-7991.961
 30
-715.000
 70
    32
  0
VERTEX
  8
W60LXLIFT
 62
1
 10
1468.155
 20
-7970.692
 30
-715.000
 70
    32
  0
VERTEX
  8
W60LXLIFT
 62
1
 10
1459.717
 20
-7972.657
 30
-715.000
 70
    32
  0
VERTEX
  8
W60LXLIFT
 62
1
 10
1447.707
 20
-7957.490
 30
-715.000
 70
    32
  0
VERTEX
  8
W60LXLIFT
 62
1
 10
1443.558
 20
-7946.620
 30
-715.000
 70
    32
  0
VERTEX
  8
W60LXLIFT
 62
1
 10
1449.171
 20
-7930.666
 30
-715.000
 70
    32
  0
VERTEX
  8
W60LXLIFT
 62
1
 10
1446.632
 20
-7909.108
 30
-715.000
 70
    32
  0
VERTEX
  8
W60LXLIFT
 62
1
 10
1443.288
 20
-7900.258
 30
-715.000
 70
    32
  0
VERTEX
  8
W60LXLIFT
 62
1
 10
1420.961
 20
-7876.932
 30
-715.000
 70
    32
  0
VERTEX
  8
W60LXLIFT
 62
1
 10
1418.505
 20
-7865.709
 30
-715.000
 70
    32
  0
VERTEX
  8
W60LXLIFT
 62
1
 10
1429.276
 20
-7847.446
 30
-715.000
 70
    32
  0
VERTEX
  8
W60LXLIFT
 62
1
 10
1436.515
 20
-7852.084
 30
-715.000
 70
    32
  0
VERTEX
  8
W60LXLIFT
 62
1
 10
1436.545
 20
-7856.934
 30
-715.000
 70
    32
  0
VERTEX
  8
W60LXLIFT
 62
1
 10
1443.636
 20
-7872.939
 30
-715.000
 70
    32
  0
VERTEX
  8
W60LXLIFT
 62
1
 10
1448.916
 20
-7878.013
 30
-715.000
 70
    32
  0
VERTEX
  8
W60LXLIFT
 62
1
 10
1452.885
 20
-7877.211
 30
-715.000
 70
    32
  0
VERTEX
  8
W60LXLIFT
 62
1
 10
1457.783
 20
-7853.652
 30
-715.000
 70
    32
  0
VERTEX
  8
W60LXLIFT
 62
1
 10
1455.356
 20
-7841.866
 30
-715.000
 70
    32
  0
SEQEND
  8
W60LXLIFT
  0
POLYLINE
  8
W60LXLIFT
 62
4
 66
     1
 70
     9
  0
VERTEX
  8
W60LXLIFT
 62
4
 10
1514.599
 20
-7297.841
 30
-706.000
 70
    32
  0
VERTEX
  8
W60LXLIFT
 62
4
 10
1516.083
 20
-7311.172
 30
-706.000
 70
    32
  0
VERTEX
  8
W60LXLIFT
 62
4
 10
1511.966
 20
-7323.341
 30
-706.000
 70
    32
  0
VERTEX
  8
W60LXLIFT
 62
4
 10
1505.450
 20
-7325.870
 30
-706.000
 70
    32
  0
VERTEX
  8
W60LXLIFT
 62
4
 10
1497.098
 20
-7326.149
 30
-706.000
 70
    32
  0
VERTEX
  8
W60LXLIFT
 62
4
 10
1495.711
 20
-7331.587
 30
-706.000
 70
    32
  0
VERTEX
  8
W60LXLIFT
 62
4
 10
1500.559
 20
-7333.508
 30
-706.000
 70
    32
  0
VERTEX
  8
W60LXLIFT
 62
4
 10
1514.477
 20
-7330.735
 30
-706.000
 70
    32
  0
VERTEX
  8
W60LXLIFT
 62
4
 10
1524.002
 20
-7332.535
 30
-706.000
 70
    32
  0
VERTEX
  8
W60LXLIFT
 62
4
 10
1532.872
 20
-7336.430
 30
-706.000
 70
    32
  0
VERTEX
  8
W60LXLIFT
 62
4
 10
1550.415
 20
-7336.134
 30
-706.000
 70
    32
  0
VERTEX
  8
W60LXLIFT
 62
4
 10
1574.286
 20
-7334.853
 30
-706.000
 70
    32
  0
VERTEX
  8
W60LXLIFT
 62
4
 10
1586.650
 20
-7331.575
 30
-706.000
 70
    32
  0
VERTEX
  8
W60LXLIFT
 62
4
 10
1591.565
 20
-7327.276
 30
-706.000
 70
    32
  0
VERTEX
  8
W60LXLIFT
 62
4
 10
1592.847
 20
-7320.940
 30
-706.000
 70
    32
  0
VERTEX
  8
W60LXLIFT
 62
4
 10
1590.624
 20
-7316.802
 30
-706.000
 70
    32
  0
VERTEX
  8
W60LXLIFT
 62
4
 10
1586.497
 20
-7313.929
 30
-706.000
 70
    32
  0
VERTEX
  8
W60LXLIFT
 62
4
 10
1580.217
 20
-7301.455
 30
-706.000
 70
    32
  0
VERTEX
  8
W60LXLIFT
 62
4
 10
1575.165
 20
-7297.299
 30
-706.000
 70
    32
  0
VERTEX
  8
W60LXLIFT
 62
4
 10
1566.685
 20
-7278.614
 30
-706.000
 70
    32
  0
VERTEX
  8
W60LXLIFT
 62
4
 10
1561.053
 20
-7279.965
 30
-706.000
 70
    32
  0
VERTEX
  8
W60LXLIFT
 62
4
 10
1562.029
 20
-7291.388
 30
-706.000
 70
    32
  0
VERTEX
  8
W60LXLIFT
 62
4
 10
1558.837
 20
-7300.184
 30
-706.000
 70
    32
  0
VERTEX
  8
W60LXLIFT
 62
4
 10
1549.263
 20
-7303.725
 30
-706.000
 70
    32
  0
VERTEX
  8
W60LXLIFT
 62
4
 10
1524.680
 20
-7298.157
 30
-706.000
 70
    32
  0
VERTEX
  8
W60LXLIFT
 62
4
 10
1522.440
 20
-7294.899
 30
-706.000
 70
    32
  0
SEQEND
  8
W60LXLIFT
  0
POLYLINE
  8
W60LXLIFT
 62
4
 66
     1
 70
     9
  0
VERTEX
  8
W60LXLIFT
 62
4
 10
1610.878
 20
-7312.605
 30
-693.000
 70
    32
  0
VERTEX
  8
W60LXLIFT
 62
4
 10
1599.552
 20
-7314.918
 30
-693.000
 70
    32
  0
VERTEX
  8
W60LXLIFT
 62
4
 10
1593.900
 20
-7313.685
 30
-693.000
 70
    32
  0
VERTEX
  8
W60LXLIFT
 62
4
 10
1583.701
 20
-7309.447
 30
-693.000
 70
    32
  0
VERTEX
  8
W60LXLIFT
 62
4
 10
1572.640
 20
-7291.539
 30
-693.000
 70
    32
  0
VERTEX
  8
W60LXLIFT
 62
4
 10
1564.155
 20
-7276.756
 30
-693.000
 70
    32
  0
VERTEX
  8
W60LXLIFT
 62
4
 10
1559.509
 20
-7277.071
 30
-693.000
 70
    32
  0
VERTEX
  8
W60LXLIFT
 62
4
 10
1561.381
 20
-7290.339
 30
-693.000
 70
    32
  0
VERTEX
  8
W60LXLIFT
 62
4
 10
1556.986
 20
-7299.568
 30
-693.000
 70
    32
  0
VERTEX
  8
W60LXLIFT
 62
4
 10
1545.835
 20
-7304.679
 30
-693.000
 70
    32
  0
VERTEX
  8
W60LXLIFT
 62
4
 10
1536.661
 20
-7303.817
 30
-693.000
 70
    32
  0
VERTEX
  8
W60LXLIFT
 62
4
 10
1526.990
 20
-7301.365
 30
-693.000
 70
    32
  0
VERTEX
  8
W60LXLIFT
 62
4
 10
1519.934
 20
-7296.379
 30
-693.000
 70
    32
  0
VERTEX
  8
W60LXLIFT
 62
4
 10
1511.587
 20
-7285.394
 30
-693.000
 70
    32
  0
VERTEX
  8
W60LXLIFT
 62
4
 10
1511.587
 20
-7285.394
 30
-693.000
 70
    32
  0
VERTEX
  8
W60LXLIFT
 62
4
 10
1499.685
 20
-7269.175
 30
-693.000
 70
    32
  0
VERTEX
  8
W60LXLIFT
 62
4
 10
1491.821
 20
-7274.190
 30
-693.000
 70
    32
  0
VERTEX
  8
W60LXLIFT
 62
4
 10
1497.429
 20
-7289.639
 30
-693.000
 70
    32
  0
VERTEX
  8
W60LXLIFT
 62
4
 10
1508.228
 20
-7305.679
 30
-693.000
 70
    32
  0
VERTEX
  8
W60LXLIFT
 62
4
 10
1513.924
 20
-7320.198
 30
-693.000
 70
    32
  0
VERTEX
  8
W60LXLIFT
 62
4
 10
1494.779
 20
-7326.087
 30
-693.000
 70
    32
  0
VERTEX
  8
W60LXLIFT
 62
4
 10
1495.151
 20
-7329.609
 30
-693.000
 70
    32
  0
VERTEX
  8
W60LXLIFT
 62
4
 10
1508.269
 20
-7330.985
 30
-693.000
 70
    32
  0
VERTEX
  8
W60LXLIFT
 62
4
 10
1539.518
 20
-7330.776
 30
-693.000
 70
    32
  0
VERTEX
  8
W60LXLIFT
 62
4
 10
1570.390
 20
-7330.947
 30
-693.000
 70
    32
  0
VERTEX
  8
W60LXLIFT
 62
4
 10
1591.580
 20
-7328.349
 30
-693.000
 70
    32
  0
VERTEX
  8
W60LXLIFT
 62
4
 10
1615.415
 20
-7320.705
 30
-693.000
 70
    32
  0
SEQEND
  8
W60LXLIFT
  0
POLYLINE
  8
W60LXLIFT
 62
2
 66
     1
 70
     9
  0
VERTEX
  8
W60LXLIFT
 62
2
 10
1323.628
 20
-7307.338
 30
-708.000
 70
    32
  0
VERTEX
  8
W60LXLIFT
 62
2
 10
1313.992
 20
-7285.697
 30
-708.000
 70
    32
  0
VERTEX
  8
W60LXLIFT
 62
2
 10
1307.939
 20
-7271.435
 30
-708.000
 70
    32
  0
VERTEX
  8
W60LXLIFT
 62
2
 10
1287.689
 20
-7248.887
 30
-708.000
 70
    32
  0
VERTEX
  8
W60LXLIFT
 62
2
 10
1280.189
 20
-7240.431
 30
-708.000
 70
    32
  0
VERTEX
  8
W60LXLIFT
 62
2
 10
1274.352
 20
-7231.427
 30
-708.000
 70
    32
  0
VERTEX
  8
W60LXLIFT
 62
2
 10
1270.066
 20
-7229.535
 30
-708.000
 70
    32
  0
VERTEX
  8
W60LXLIFT
 62
2
 10
1252.851
 20
-7202.634
 30
-708.000
 70
    32
  0
VERTEX
  8
W60LXLIFT
 62
2
 10
1248.399
 20
-7192.849
 30
-708.000
 70
    32
  0
VERTEX
  8
W60LXLIFT
 62
2
 10
1245.720
 20
-7159.374
 30
-708.000
 70
    32
  0
VERTEX
  8
W60LXLIFT
 62
2
 10
1245.266
 20
-7128.085
 30
-708.000
 70
    32
  0
VERTEX
  8
W60LXLIFT
 62
2
 10
1243.547
 20
-7109.619
 30
-708.000
 70
    32
  0
VERTEX
  8
W60LXLIFT
 62
2
 10
1237.392
 20
-7095.214
 30
-708.000
 70
    32
  0
VERTEX
  8
W60LXLIFT
 62
2
 10
1220.350
 20
-7073.061
 30
-708.000
 70
    32
  0
VERTEX
  8
W60LXLIFT
 62
2
 10
1209.962
 20
-7075.023
 30
-708.000
 70
    32
  0
VERTEX
  8
W60LXLIFT
 62
2
 10
1206.860
 20
-7098.371
 30
-708.000
 70
    32
  0
VERTEX
  8
W60LXLIFT
 62
2
 10
1220.916
 20
-7106.759
 30
-708.000
 70
    32
  0
VERTEX
  8
W60LXLIFT
 62
2
 10
1222.387
 20
-7127.137
 30
-708.000
 70
    32
  0
VERTEX
  8
W60LXLIFT
 62
2
 10
1222.125
 20
-7138.045
 30
-708.000
 70
    32
  0
VERTEX
  8
W60LXLIFT
 62
2
 10
1218.796
 20
-7143.042
 30
-708.000
 70
    32
  0
VERTEX
  8
W60LXLIFT
 62
2
 10
1220.138
 20
-7149.112
 30
-708.000
 70
    32
  0
VERTEX
  8
W60LXLIFT
 62
2
 10
1226.657
 20
-7160.115
 30
-708.000
 70
    32
  0
VERTEX
  8
W60LXLIFT
 62
2
 10
1231.034
 20
-7179.266
 30
-708.000
 70
    32
  0
VERTEX
  8
W60LXLIFT
 62
2
 10
1229.665
 20
-7186.532
 30
-708.000
 70
    32
  0
VERTEX
  8
W60LXLIFT
 62
2
 10
1228.883
 20
-7195.216
 30
-708.000
 70
    32
  0
VERTEX
  8
W60LXLIFT
 62
2
 10
1235.980
 20
-7220.094
 30
-708.000
 70
    32
  0
VERTEX
  8
W60LXLIFT
 62
2
 10
1239.731
 20
-7226.053
 30
-708.000
 70
    32
  0
VERTEX
  8
W60LXLIFT
 62
2
 10
1242.627
 20
-7229.922
 30
-708.000
 70
    32
  0
VERTEX
  8
W60LXLIFT
 62
2
 10
1243.898
 20
-7238.751
 30
-708.000
 70
    32
  0
VERTEX
  8
W60LXLIFT
 62
2
 10
1265.168
 20
-7245.731
 30
-708.000
 70
    32
  0
VERTEX
  8
W60LXLIFT
 62
2
 10
1279.317
 20
-7262.064
 30
-708.000
 70
    32
  0
VERTEX
  8
W60LXLIFT
 62
2
 10
1300.436
 20
-7289.725
 30
-708.000
 70
    32
  0
VERTEX
  8
W60LXLIFT
 62
2
 10
1312.757
 20
-7313.438
 30
-708.000
 70
    32
  0
VERTEX
  8
W60LXLIFT
 62
2
 10
1316.910
 20
-7317.701
 30
-708.000
 70
    32
  0
SEQEND
  8
W60LXLIFT
  0
POLYLINE
  8
W60LXLIFT
 62
2
 66
     1
 70
     9
  0
VERTEX
  8
W60LXLIFT
 62
2
 10
1245.913
 20
-7241.847
 30
-684.000
 70
    32
  0
VERTEX
  8
W60LXLIFT
 62
2
 10
1239.409
 20
-7227.260
 30
-684.000
 70
    32
  0
VERTEX
  8
W60LXLIFT
 62
2
 10
1232.400
 20
-7216.177
 30
-684.000
 70
    32
  0
VERTEX
  8
W60LXLIFT
 62
2
 10
1229.876
 20
-7205.761
 30
-684.000
 70
    32
  0
VERTEX
  8
W60LXLIFT
 62
2
 10
1225.735
 20
-7184.383
 30
-684.000
 70
    32
  0
VERTEX
  8
W60LXLIFT
 62
2
 10
1225.532
 20
-7174.784
 30
-684.000
 70
    32
  0
VERTEX
  8
W60LXLIFT
 62
2
 10
1219.054
 20
-7166.243
 30
-684.000
 70
    32
  0
VERTEX
  8
W60LXLIFT
 62
2
 10
1218.535
 20
-7159.362
 30
-684.000
 70
    32
  0
VERTEX
  8
W60LXLIFT
 62
2
 10
1212.812
 20
-7140.748
 30
-684.000
 70
    32
  0
VERTEX
  8
W60LXLIFT
 62
2
 10
1208.615
 20
-7130.563
 30
-684.000
 70
    32
  0
VERTEX
  8
W60LXLIFT
 62
2
 10
1197.377
 20
-7114.514
 30
-684.000
 70
    32
  0
VERTEX
  8
W60LXLIFT
 62
2
 10
1194.199
 20
-7108.900
 30
-684.000
 70
    32
  0
VERTEX
  8
W60LXLIFT
 62
2
 10
1198.702
 20
-7098.618
 30
-684.000
 70
    32
  0
VERTEX
  8
W60LXLIFT
 62
2
 10
1201.451
 20
-7101.834
 30
-684.000
 70
    32
  0
VERTEX
  8
W60LXLIFT
 62
2
 10
1204.349
 20
-7101.046
 30
-684.000
 70
    32
  0
VERTEX
  8
W60LXLIFT
 62
2
 10
1208.600
 20
-7109.352
 30
-684.000
 70
    32
  0
VERTEX
  8
W60LXLIFT
 62
2
 10
1218.974
 20
-7119.093
 30
-684.000
 70
    32
  0
VERTEX
  8
W60LXLIFT
 62
2
 10
1230.934
 20
-7129.533
 30
-684.000
 70
    32
  0
VERTEX
  8
W60LXLIFT
 62
2
 10
1233.023
 20
-7133.333
 30
-684.000
 70
    32
  0
VERTEX
  8
W60LXLIFT
 62
2
 10
1236.693
 20
-7151.802
 30
-684.000
 70
    32
  0
VERTEX
  8
W60LXLIFT
 62
2
 10
1237.951
 20
-7182.403
 30
-684.000
 70
    32
  0
VERTEX
  8
W60LXLIFT
 62
2
 10
1240.711
 20
-7193.299
 30
-684.000
 70
    32
  0
VERTEX
  8
W60LXLIFT
 62
2
 10
1251.243
 20
-7214.079
 30
-684.000
 70
    32
  0
VERTEX
  8
W60LXLIFT
 62
2
 10
1264.143
 20
-7232.286
 30
-684.000
 70
    32
  0
SEQEND
  8
W60LXLIFT
  0
POLYLINE
  8
W60LXLIFT
 62
1
 66
     1
 70
     9
  0
VERTEX
  8
W60LXLIFT
 62
1
 10
1246.913
 20
-7240.847
 30
-674.000
 70
    32
  0
VERTEX
  8
W60LXLIFT
 62
1
 10
1240.409
 20
-7226.260
 30
-674.000
 70
    32
  0
VERTEX
  8
W60LXLIFT
 62
1
 10
1233.400
 20
-7215.177
 30
-674.000
 70
    32
  0
VERTEX
  8
W60LXLIFT
 62
1
 10
1230.876
 20
-7204.761
 30
-674.000
 70
    32
  0
VERTEX
  8
W60LXLIFT
 62
1
 10
1226.735
 20
-7183.383
 30
-674.000
 70
    32
  0
VERTEX
  8
W60LXLIFT
 62
1
 10
1226.532
 20
-7173.784
 30
-674.000
 70
    32
  0
VERTEX
  8
W60LXLIFT
 62
1
 10
1220.054
 20
-7165.243
 30
-674.000
 70
    32
  0
VERTEX
  8
W60LXLIFT
 62
1
 10
1219.535
 20
-7158.362
 30
-674.000
 70
    32
  0
VERTEX
  8
W60LXLIFT
 62
1
 10
1213.812
 20
-7139.748
 30
-674.000
 70
    32
  0
VERTEX
  8
W60LXLIFT
 62
1
 10
1209.615
 20
-7129.563
 30
-674.000
 70
    32
  0
VERTEX
  8
W60LXLIFT
 62
1
 10
1198.377
 20
-7113.514
 30
-674.000
 70
    32
  0
VERTEX
  8
W60LXLIFT
 62
1
 10
1195.199
 20
-7107.900
 30
-674.000
 70
    32
  0
VERTEX
  8
W60LXLIFT
 62
1
 10
1199.702
 20
-7097.618
 30
-674.000
 70
    32
  0
VERTEX
  8
W60LXLIFT
 62
1
 10
1202.451
 20
-7100.834
 30
-674.000
 70
    32
  0
VERTEX
  8
W60LXLIFT
 62
1
 10
1205.349
 20
-7100.046
 30
-674.000
 70
    32
  0
VERTEX
  8
W60LXLIFT
 62
1
 10
1209.600
 20
-7108.352
 30
-674.000
 70
    32
  0
VERTEX
  8
W60LXLIFT
 62
1
 10
1219.974
 20
-7118.093
 30
-674.000
 70
    32
  0
VERTEX
  8
W60LXLIFT
 62
1
 10
1231.934
 20
-7128.533
 30
-674.000
 70
    32
  0
VERTEX
  8
W60LXLIFT
 62
1
 10
1234.023
 20
-7132.333
 30
-674.000
 70
    32
  0
VERTEX
  8
W60LXLIFT
 62
1
 10
1237.693
 20
-7150.802
 30
-674.000
 70
    32
  0
VERTEX
  8
W60LXLIFT
 62
1
 10
1238.951
 20
-7181.403
 30
-674.000
 70
    32
  0
VERTEX
  8
W60LXLIFT
 62
1
 10
1241.711
 20
-7192.299
 30
-674.000
 70
    32
  0
VERTEX
  8
W60LXLIFT
 62
1
 10
1252.243
 20
-7213.079
 30
-674.000
 70
    32
  0
VERTEX
  8
W60LXLIFT
 62
1
 10
1265.143
 20
-7231.286
 30
-674.000
 70
    32
  0
SEQEND
  8
W60LXLIFT
  0
POLYLINE
  8
W60LXLIFT
 62
6
 66
     1
 70
     9
  0
VERTEX
  8
W60LXLIFT
 62
6
 10
1306.160
 20
-7459.377
 30
-694.000
 70
    32
  0
VERTEX
  8
W60LXLIFT
 62
6
 10
1290.574
 20
-7471.256
 30
-694.000
 70
    32
  0
VERTEX
  8
W60LXLIFT
 62
6
 10
1286.981
 20
-7491.818
 30
-694.000
 70
    32
  0
VERTEX
  8
W60LXLIFT
 62
6
 10
1274.673
 20
-7491.265
 30
-694.000
 70
    32
  0
VERTEX
  8
W60LXLIFT
 62
6
 10
1275.045
 20
-7474.649
 30
-694.000
 70
    32
  0
VERTEX
  8
W60LXLIFT
 62
6
 10
1275.037
 20
-7467.725
 30
-694.000
 70
    32
  0
VERTEX
  8
W60LXLIFT
 62
6
 10
1271.508
 20
-7453.810
 30
-694.000
 70
    32
  0
VERTEX
  8
W60LXLIFT
 62
6
 10
1266.112
 20
-7440.157
 30
-694.000
 70
    32
  0
VERTEX
  8
W60LXLIFT
 62
6
 10
1267.112
 20
-7430.125
 30
-694.000
 70
    32
  0
VERTEX
  8
W60LXLIFT
 62
6
 10
1262.546
 20
-7417.174
 30
-694.000
 70
    32
  0
VERTEX
  8
W60LXLIFT
 62
6
 10
1254.928
 20
-7402.091
 30
-694.000
 70
    32
  0
VERTEX
  8
W60LXLIFT
 62
6
 10
1250.000
 20
-7390.591
 30
-694.000
 70
    32
  0
VERTEX
  8
W60LXLIFT
 62
6
 10
1247.673
 20
-7383.606
 30
-694.000
 70
    32
  0
VERTEX
  8
W60LXLIFT
 62
6
 10
1247.653
 20
-7360.884
 30
-694.000
 70
    32
  0
VERTEX
  8
W60LXLIFT
 62
6
 10
1260.017
 20
-7360.312
 30
-694.000
 70
    32
  0
VERTEX
  8
W60LXLIFT
 62
6
 10
1260.748
 20
-7364.333
 30
-694.000
 70
    32
  0
VERTEX
  8
W60LXLIFT
 62
6
 10
1263.584
 20
-7368.570
 30
-694.000
 70
    32
  0
VERTEX
  8
W60LXLIFT
 62
6
 10
1264.066
 20
-7389.227
 30
-694.000
 70
    32
  0
VERTEX
  8
W60LXLIFT
 62
6
 10
1268.964
 20
-7403.239
 30
-694.000
 70
    32
  0
VERTEX
  8
W60LXLIFT
 62
6
 10
1272.995
 20
-7407.481
 30
-694.000
 70
    32
  0
VERTEX
  8
W60LXLIFT
 62
6
 10
1275.184
 20
-7416.081
 30
-694.000
 70
    32
  0
VERTEX
  8
W60LXLIFT
 62
6
 10
1278.716
 20
-7420.682
 30
-694.000
 70
    32
  0
VERTEX
  8
W60LXLIFT
 62
6
 10
1288.090
 20
-7440.456
 30
-694.000
 70
    32
  0
VERTEX
  8
W60LXLIFT
 62
6
 10
1296.430
 20
-7447.224
 30
-694.000
 70
    32
  0
VERTEX
  8
W60LXLIFT
 62
6
 10
1305.057
 20
-7449.129
 30
-694.000
 70
    32
  0
SEQEND
  8
W60LXLIFT
  0
POLYLINE
  8
W60LXLIFT
 62
1
 66
     1
 70
     9
  0
VERTEX
  8
W60LXLIFT
 62
1
 10
1307.160
 20
-7458.377
 30
-682.000
 70
    32
  0
VERTEX
  8
W60LXLIFT
 62
1
 10
1291.574
 20
-7470.256
 30
-682.000
 70
    32
  0
VERTEX
  8
W60LXLIFT
 62
1
 10
1287.981
 20
-7490.818
 30
-682.000
 70
    32
  0
VERTEX
  8
W60LXLIFT
 62
1
 10
1275.673
 20
-7490.265
 30
-682.000
 70
    32
  0
VERTEX
  8
W60LXLIFT
 62
1
 10
1276.045
 20
-7473.649
 30
-682.000
 70
    32
  0
VERTEX
  8
W60LXLIFT
 62
1
 10
1276.037
 20
-7466.725
 30
-682.000
 70
    32
  0
VERTEX
  8
W60LXLIFT
 62
1
 10
1272.508
 20
-7452.810
 30
-682.000
 70
    32
  0
VERTEX
  8
W60LXLIFT
 62
1
 10
1267.112
 20
-7439.157
 30
-682.000
 70
    32
  0
VERTEX
  8
W60LXLIFT
 62
1
 10
1268.112
 20
-7429.125
 30
-682.000
 70
    32
  0
VERTEX
  8
W60LXLIFT
 62
1
 10
1263.546
 20
-7416.174
 30
-682.000
 70
    32
  0
VERTEX
  8
W60LXLIFT
 62
1
 10
1255.928
 20
-7401.091
 30
-682.000
 70
    32
  0
VERTEX
  8
W60LXLIFT
 62
1
 10
1251.000
 20
-7389.591
 30
-682.000
 70
    32
  0
VERTEX
  8
W60LXLIFT
 62
1
 10
1248.673
 20
-7382.606
 30
-682.000
 70
    32
  0
VERTEX
  8
W60LXLIFT
 62
1
 10
1248.653
 20
-7359.884
 30
-682.000
 70
    32
  0
VERTEX
  8
W60LXLIFT
 62
1
 10
1261.017
 20
-7359.312
 30
-682.000
 70
    32
  0
VERTEX
  8
W60LXLIFT
 62
1
 10
1261.748
 20
-7363.333
 30
-682.000
 70
    32
  0
VERTEX
  8
W60LXLIFT
 62
1
 10
1264.584
 20
-7367.570
 30
-682.000
 70
    32
  0
VERTEX
  8
W60LXLIFT
 62
1
 10
1265.066
 20
-7388.227
 30
-682.000
 70
    32
  0
VERTEX
  8
W60LXLIFT
 62
1
 10
1269.964
 20
-7402.239
 30
-682.000
 70
    32
  0
VERTEX
  8
W60LXLIFT
 62
1
 10
1273.995
 20
-7406.481
 30
-682.000
 70
    32
  0
VERTEX
  8
W60LXLIFT
 62
1
 10
1276.184
 20
-7415.081
 30
-682.000
 70
    32
  0
VERTEX
  8
W60LXLIFT
 62
1
 10
1279.716
 20
-7419.682
 30
-682.000
 70
    32
  0
VERTEX
  8
W60LXLIFT
 62
1
 10
1289.090
 20
-7439.456
 30
-682.000
 70
    32
  0
VERTEX
  8
W60LXLIFT
 62
1
 10
1297.430
 20
-7446.224
 30
-682.000
 70
    32
  0
VERTEX
  8
W60LXLIFT
 62
1
 10
1306.057
 20
-7448.129
 30
-682.000
 70
    32
  0
SEQEND
  8
W60LXLIFT
  0
POLYLINE
  8
W60LXLIFT
 62
3
 66
     1
 70
     9
  0
VERTEX
  8
W60LXLIFT
 62
3
 10
1233.231
 20
-6752.499
 30
-697.000
 70
    32
  0
VERTEX
  8
W60LXLIFT
 62
3
 10
1229.694
 20
-6746.386
 30
-697.000
 70
    32
  0
VERTEX
  8
W60LXLIFT
 62
3
 10
1229.788
 20
-6719.466
 30
-697.000
 70
    32
  0
VERTEX
  8
W60LXLIFT
 62
3
 10
1243.431
 20
-6709.096
 30
-697.000
 70
    32
  0
VERTEX
  8
W60LXLIFT
 62
3
 10
1247.158
 20
-6698.940
 30
-697.000
 70
    32
  0
VERTEX
  8
W60LXLIFT
 62
3
 10
1243.050
 20
-6693.238
 30
-697.000
 70
    32
  0
VERTEX
  8
W60LXLIFT
 62
3
 10
1229.869
 20
-6661.266
 30
-697.000
 70
    32
  0
VERTEX
  8
W60LXLIFT
 62
3
 10
1234.176
 20
-6645.604
 30
-697.000
 70
    32
  0
VERTEX
  8
W60LXLIFT
 62
3
 10
1226.369
 20
-6639.426
 30
-697.000
 70
    32
  0
VERTEX
  8
W60LXLIFT
 62
3
 10
1222.966
 20
-6636.356
 30
-697.000
 70
    32
  0
VERTEX
  8
W60LXLIFT
 62
3
 10
1213.655
 20
-6606.901
 30
-697.000
 70
    32
  0
VERTEX
  8
W60LXLIFT
 62
3
 10
1207.800
 20
-6575.931
 30
-697.000
 70
    32
  0
VERTEX
  8
W60LXLIFT
 62
3
 10
1205.519
 20
-6564.799
 30
-697.000
 70
    32
  0
VERTEX
  8
W60LXLIFT
 62
3
 10
1203.596
 20
-6561.528
 30
-697.000
 70
    32
  0
VERTEX
  8
W60LXLIFT
 62
3
 10
1200.689
 20
-6549.980
 30
-697.000
 70
    32
  0
VERTEX
  8
W60LXLIFT
 62
3
 10
1183.041
 20
-6552.084
 30
-697.000
 70
    32
  0
VERTEX
  8
W60LXLIFT
 62
3
 10
1176.907
 20
-6560.401
 30
-697.000
 70
    32
  0
VERTEX
  8
W60LXLIFT
 62
3
 10
1179.551
 20
-6565.425
 30
-697.000
 70
    32
  0
VERTEX
  8
W60LXLIFT
 62
3
 10
1180.146
 20
-6578.423
 30
-697.000
 70
    32
  0
VERTEX
  8
W60LXLIFT
 62
3
 10
1192.228
 20
-6609.020
 30
-697.000
 70
    32
  0
VERTEX
  8
W60LXLIFT
 62
3
 10
1198.854
 20
-6630.991
 30
-697.000
 70
    32
  0
VERTEX
  8
W60LXLIFT
 62
3
 10
1201.912
 20
-6644.703
 30
-697.000
 70
    32
  0
VERTEX
  8
W60LXLIFT
 62
3
 10
1205.893
 20
-6654.287
 30
-697.000
 70
    32
  0
VERTEX
  8
W60LXLIFT
 62
3
 10
1204.391
 20
-6669.335
 30
-697.000
 70
    32
  0
VERTEX
  8
W60LXLIFT
 62
3
 10
1206.457
 20
-6672.503
 30
-697.000
 70
    32
  0
VERTEX
  8
W60LXLIFT
 62
3
 10
1208.415
 20
-6699.568
 30
-697.000
 70
    32
  0
VERTEX
  8
W60LXLIFT
 62
3
 10
1202.148
 20
-6712.961
 30
-697.000
 70
    32
  0
VERTEX
  8
W60LXLIFT
 62
3
 10
1204.878
 20
-6726.369
 30
-697.000
 70
    32
  0
VERTEX
  8
W60LXLIFT
 62
3
 10
1192.365
 20
-6745.669
 30
-697.000
 70
    32
  0
VERTEX
  8
W60LXLIFT
 62
3
 10
1201.236
 20
-6752.271
 30
-697.000
 70
    32
  0
VERTEX
  8
W60LXLIFT
 62
3
 10
1206.614
 20
-6743.957
 30
-697.000
 70
    32
  0
VERTEX
  8
W60LXLIFT
 62
3
 10
1208.548
 20
-6744.838
 30
-697.000
 70
    32
  0
VERTEX
  8
W60LXLIFT
 62
3
 10
1220.842
 20
-6764.456
 30
-697.000
 70
    32
  0
SEQEND
  8
W60LXLIFT
  0
POLYLINE
  8
W60LXLIFT
 62
8
 66
     1
 70
     9
  0
VERTEX
  8
W60LXLIFT
 62
8
 10
1320.678
 20
-7593.000
 30
-727.000
 70
    32
  0
VERTEX
  8
W60LXLIFT
 62
8
 10
1330.193
 20
-7589.104
 30
-727.000
 70
    32
  0
VERTEX
  8
W60LXLIFT
 62
8
 10
1336.956
 20
-7587.401
 30
-727.000
 70
    32
  0
VERTEX
  8
W60LXLIFT
 62
8
 10
1347.854
 20
-7585.768
 30
-727.000
 70
    32
  0
VERTEX
  8
W60LXLIFT
 62
8
 10
1357.997
 20
-7584.595
 30
-727.000
 70
    32
  0
VERTEX
  8
W60LXLIFT
 62
8
 10
1363.399
 20
-7581.386
 30
-727.000
 70
    32
  0
VERTEX
  8
W60LXLIFT
 62
8
 10
1370.771
 20
-7574.369
 30
-727.000
 70
    32
  0
VERTEX
  8
W60LXLIFT
 62
8
 10
1375.051
 20
-7567.929
 30
-727.000
 70
    32
  0
VERTEX
  8
W60LXLIFT
 62
8
 10
1376.455
 20
-7563.666
 30
-727.000
 70
    32
  0
VERTEX
  8
W60LXLIFT
 62
8
 10
1374.607
 20
-7555.690
 30
-727.000
 70
    32
  0
VERTEX
  8
W60LXLIFT
 62
8
 10
1372.033
 20
-7550.689
 30
-727.000
 70
    32
  0
VERTEX
  8
W60LXLIFT
 62
8
 10
1364.881
 20
-7548.383
 30
-727.000
 70
    32
  0
VERTEX
  8
W60LXLIFT
 62
8
 10
1359.724
 20
-7547.545
 30
-727.000
 70
    32
  0
VERTEX
  8
W60LXLIFT
 62
8
 10
1351.698
 20
-7553.844
 30
-727.000
 70
    32
  0
VERTEX
  8
W60LXLIFT
 62
8
 10
1349.927
 20
-7551.214
 30
-727.000
 70
    32
  0
VERTEX
  8
W60LXLIFT
 62
8
 10
1343.980
 20
-7554.724
 30
-727.000
 70
    32
  0
VERTEX
  8
W60LXLIFT
 62
8
 10
1335.122
 20
-7556.137
 30
-727.000
 70
    32
  0
VERTEX
  8
W60LXLIFT
 62
8
 10
1333.065
 20
-7560.122
 30
-727.000
 70
    32
  0
VERTEX
  8
W60LXLIFT
 62
8
 10
1329.604
 20
-7568.370
 30
-727.000
 70
    32
  0
VERTEX
  8
W60LXLIFT
 62
8
 10
1325.318
 20
-7573.490
 30
-727.000
 70
    32
  0
VERTEX
  8
W60LXLIFT
 62
8
 10
1319.414
 20
-7578.513
 30
-727.000
 70
    32
  0
VERTEX
  8
W60LXLIFT
 62
8
 10
1315.650
 20
-7582.136
 30
-727.000
 70
    32
  0
SEQEND
  8
W60LXLIFT
  0
POLYLINE
  8
W60LXLIFT
 62
3
 66
     1
 70
     9
  0
VERTEX
  8
W60LXLIFT
 62
3
 10
1097.481
 20
-6142.808
 30
-793.000
 70
    32
  0
VERTEX
  8
W60LXLIFT
 62
3
 10
1087.082
 20
-6129.794
 30
-793.000
 70
    32
  0
VERTEX
  8
W60LXLIFT
 62
3
 10
1072.547
 20
-6106.319
 30
-793.000
 70
    32
  0
VERTEX
  8
W60LXLIFT
 62
3
 10
1082.962
 20
-6096.372
 30
-793.000
 70
    32
  0
VERTEX
  8
W60LXLIFT
 62
3
 10
1088.107
 20
-6085.869
 30
-793.000
 70
    32
  0
VERTEX
  8
W60LXLIFT
 62
3
 10
1081.605
 20
-6071.797
 30
-793.000
 70
    32
  0
VERTEX
  8
W60LXLIFT
 62
3
 10
1075.230
 20
-6061.532
 30
-793.000
 70
    32
  0
VERTEX
  8
W60LXLIFT
 62
3
 10
1071.649
 20
-6053.054
 30
-793.000
 70
    32
  0
VERTEX
  8
W60LXLIFT
 62
3
 10
1065.189
 20
-6039.494
 30
-793.000
 70
    32
  0
VERTEX
  8
W60LXLIFT
 62
3
 10
1058.094
 20
-6036.238
 30
-793.000
 70
    32
  0
VERTEX
  8
W60LXLIFT
 62
3
 10
1053.551
 20
-6026.717
 30
-793.000
 70
    32
  0
VERTEX
  8
W60LXLIFT
 62
3
 10
1046.879
 20
-6006.814
 30
-793.000
 70
    32
  0
VERTEX
  8
W60LXLIFT
 62
3
 10
1049.017
 20
-5997.705
 30
-793.000
 70
    32
  0
VERTEX
  8
W60LXLIFT
 62
3
 10
1062.292
 20
-5982.681
 30
-793.000
 70
    32
  0
VERTEX
  8
W60LXLIFT
 62
3
 10
1067.515
 20
-5996.477
 30
-793.000
 70
    32
  0
VERTEX
  8
W60LXLIFT
 62
3
 10
1068.748
 20
-6010.749
 30
-793.000
 70
    32
  0
VERTEX
  8
W60LXLIFT
 62
3
 10
1072.154
 20
-6019.135
 30
-793.000
 70
    32
  0
VERTEX
  8
W60LXLIFT
 62
3
 10
1071.718
 20
-6022.154
 30
-793.000
 70
    32
  0
VERTEX
  8
W60LXLIFT
 62
3
 10
1081.895
 20
-6047.558
 30
-793.000
 70
    32
  0
VERTEX
  8
W60LXLIFT
 62
3
 10
1094.568
 20
-6052.558
 30
-793.000
 70
    32
  0
VERTEX
  8
W60LXLIFT
 62
3
 10
1103.642
 20
-6060.242
 30
-793.000
 70
    32
  0
VERTEX
  8
W60LXLIFT
 62
3
 10
1101.934
 20
-6080.083
 30
-793.000
 70
    32
  0
VERTEX
  8
W60LXLIFT
 62
3
 10
1102.948
 20
-6089.966
 30
-793.000
 70
    32
  0
VERTEX
  8
W60LXLIFT
 62
3
 10
1102.272
 20
-6098.244
 30
-793.000
 70
    32
  0
VERTEX
  8
W60LXLIFT
 62
3
 10
1103.423
 20
-6103.481
 30
-793.000
 70
    32
  0
VERTEX
  8
W60LXLIFT
 62
3
 10
1103.170
 20
-6114.920
 30
-793.000
 70
    32
  0
VERTEX
  8
W60LXLIFT
 62
3
 10
1104.452
 20
-6126.992
 30
-793.000
 70
    32
  0
VERTEX
  8
W60LXLIFT
 62
3
 10
1101.508
 20
-6129.533
 30
-793.000
 70
    32
  0
VERTEX
  8
W60LXLIFT
 62
3
 10
1102.887
 20
-6136.448
 30
-793.000
 70
    32
  0
SEQEND
  8
W60LXLIFT
  0
POLYLINE
  8
W60LXLIFT
 62
3
 66
     1
 70
     9
  0
VERTEX
  8
W60LXLIFT
 62
3
 10
1108.529
 20
-6122.557
 30
-780.000
 70
    32
  0
VERTEX
  8
W60LXLIFT
 62
3
 10
1102.714
 20
-6090.999
 30
-780.000
 70
    32
  0
VERTEX
  8
W60LXLIFT
 62
3
 10
1108.263
 20
-6085.294
 30
-780.000
 70
    32
  0
VERTEX
  8
W60LXLIFT
 62
3
 10
1105.246
 20
-6058.552
 30
-780.000
 70
    32
  0
VERTEX
  8
W60LXLIFT
 62
3
 10
1096.406
 20
-6049.834
 30
-780.000
 70
    32
  0
VERTEX
  8
W60LXLIFT
 62
3
 10
1097.535
 20
-6043.397
 30
-780.000
 70
    32
  0
VERTEX
  8
W60LXLIFT
 62
3
 10
1082.543
 20
-6031.832
 30
-780.000
 70
    32
  0
VERTEX
  8
W60LXLIFT
 62
3
 10
1074.089
 20
-6020.023
 30
-780.000
 70
    32
  0
VERTEX
  8
W60LXLIFT
 62
3
 10
1059.414
 20
-5998.921
 30
-780.000
 70
    32
  0
VERTEX
  8
W60LXLIFT
 62
3
 10
1051.917
 20
-5982.856
 30
-780.000
 70
    32
  0
VERTEX
  8
W60LXLIFT
 62
3
 10
1049.252
 20
-5969.609
 30
-780.000
 70
    32
  0
VERTEX
  8
W60LXLIFT
 62
3
 10
1037.313
 20
-5952.177
 30
-780.000
 70
    32
  0
VERTEX
  8
W60LXLIFT
 62
3
 10
1029.952
 20
-5920.426
 30
-780.000
 70
    32
  0
VERTEX
  8
W60LXLIFT
 62
3
 10
1017.646
 20
-5922.742
 30
-780.000
 70
    32
  0
VERTEX
  8
W60LXLIFT
 62
3
 10
1015.326
 20
-5952.764
 30
-780.000
 70
    32
  0
VERTEX
  8
W60LXLIFT
 62
3
 10
1031.627
 20
-5972.810
 30
-780.000
 70
    32
  0
VERTEX
  8
W60LXLIFT
 62
3
 10
1035.627
 20
-5981.421
 30
-780.000
 70
    32
  0
VERTEX
  8
W60LXLIFT
 62
3
 10
1040.827
 20
-5984.300
 30
-780.000
 70
    32
  0
VERTEX
  8
W60LXLIFT
 62
3
 10
1053.033
 20
-6011.176
 30
-780.000
 70
    32
  0
VERTEX
  8
W60LXLIFT
 62
3
 10
1060.546
 20
-6032.859
 30
-780.000
 70
    32
  0
VERTEX
  8
W60LXLIFT
 62
3
 10
1068.000
 20
-6046.898
 30
-780.000
 70
    32
  0
VERTEX
  8
W60LXLIFT
 62
3
 10
1077.631
 20
-6058.838
 30
-780.000
 70
    32
  0
VERTEX
  8
W60LXLIFT
 62
3
 10
1082.639
 20
-6072.032
 30
-780.000
 70
    32
  0
VERTEX
  8
W60LXLIFT
 62
3
 10
1092.228
 20
-6083.460
 30
-780.000
 70
    32
  0
VERTEX
  8
W60LXLIFT
 62
3
 10
1091.340
 20
-6094.163
 30
-780.000
 70
    32
  0
VERTEX
  8
W60LXLIFT
 62
3
 10
1087.815
 20
-6107.837
 30
-780.000
 70
    32
  0
VERTEX
  8
W60LXLIFT
 62
3
 10
1088.927
 20
-6123.602
 30
-780.000
 70
    32
  0
VERTEX
  8
W60LXLIFT
 62
3
 10
1089.203
 20
-6123.837
 30
-780.000
 70
    32
  0
VERTEX
  8
W60LXLIFT
 62
3
 10
1097.645
 20
-6124.288
 30
-780.000
 70
    32
  0
SEQEND
  8
W60LXLIFT
  0
POLYLINE
  8
W60LXLIFT
 62
11
 66
     1
 70
     9
  0
VERTEX
  8
W60LXLIFT
 62
11
 10
743.295
 20
-5700.568
 30
-769.000
 70
    32
  0
VERTEX
  8
W60LXLIFT
 62
11
 10
713.114
 20
-5665.671
 30
-769.000
 70
    32
  0
VERTEX
  8
W60LXLIFT
 62
11
 10
694.686
 20
-5646.282
 30
-769.000
 70
    32
  0
VERTEX
  8
W60LXLIFT
 62
11
 10
686.697
 20
-5629.377
 30
-769.000
 70
    32
  0
VERTEX
  8
W60LXLIFT
 62
11
 10
689.548
 20
-5626.254
 30
-769.000
 70
    32
  0
VERTEX
  8
W60LXLIFT
 62
11
 10
703.070
 20
-5622.310
 30
-769.000
 70
    32
  0
VERTEX
  8
W60LXLIFT
 62
11
 10
712.137
 20
-5615.168
 30
-769.000
 70
    32
  0
VERTEX
  8
W60LXLIFT
 62
11
 10
727.538
 20
-5617.024
 30
-769.000
 70
    32
  0
VERTEX
  8
W60LXLIFT
 62
11
 10
730.603
 20
-5640.809
 30
-769.000
 70
    32
  0
VERTEX
  8
W60LXLIFT
 62
11
 10
739.583
 20
-5665.447
 30
-769.000
 70
    32
  0
VERTEX
  8
W60LXLIFT
 62
11
 10
749.682
 20
-5684.088
 30
-769.000
 70
    32
  0
VERTEX
  8
W60LXLIFT
 62
11
 10
753.078
 20
-5692.914
 30
-769.000
 70
    32
  0
SEQEND
  8
W60LXLIFT
  0
POLYLINE
  8
W60LXLIFT
 62
2
 66
     1
 70
     9
  0
VERTEX
  8
W60LXLIFT
 62
2
 10
1054.103
 20
-6451.739
 30
-765.000
 70
    32
  0
VERTEX
  8
W60LXLIFT
 62
2
 10
1068.008
 20
-6471.010
 30
-765.000
 70
    32
  0
VERTEX
  8
W60LXLIFT
 62
2
 10
1071.551
 20
-6473.237
 30
-765.000
 70
    32
  0
VERTEX
  8
W60LXLIFT
 62
2
 10
1075.778
 20
-6474.757
 30
-765.000
 70
    32
  0
VERTEX
  8
W60LXLIFT
 62
2
 10
1080.056
 20
-6484.359
 30
-765.000
 70
    32
  0
VERTEX
  8
W60LXLIFT
 62
2
 10
1084.467
 20
-6485.531
 30
-765.000
 70
    32
  0
VERTEX
  8
W60LXLIFT
 62
2
 10
1090.906
 20
-6488.931
 30
-765.000
 70
    32
  0
VERTEX
  8
W60LXLIFT
 62
2
 10
1094.709
 20
-6495.301
 30
-765.000
 70
    32
  0
VERTEX
  8
W60LXLIFT
 62
2
 10
1093.866
 20
-6500.776
 30
-765.000
 70
    32
  0
VERTEX
  8
W60LXLIFT
 62
2
 10
1093.774
 20
-6500.950
 30
-765.000
 70
    32
  0
VERTEX
  8
W60LXLIFT
 62
2
 10
1087.045
 20
-6504.252
 30
-765.000
 70
    32
  0
VERTEX
  8
W60LXLIFT
 62
2
 10
1085.443
 20
-6508.214
 30
-765.000
 70
    32
  0
VERTEX
  8
W60LXLIFT
 62
2
 10
1083.569
 20
-6525.251
 30
-765.000
 70
    32
  0
VERTEX
  8
W60LXLIFT
 62
2
 10
1075.774
 20
-6526.611
 30
-765.000
 70
    32
  0
VERTEX
  8
W60LXLIFT
 62
2
 10
1072.866
 20
-6514.837
 30
-765.000
 70
    32
  0
VERTEX
  8
W60LXLIFT
 62
2
 10
1071.808
 20
-6510.940
 30
-765.000
 70
    32
  0
VERTEX
  8
W60LXLIFT
 62
2
 10
1068.817
 20
-6508.426
 30
-765.000
 70
    32
  0
VERTEX
  8
W60LXLIFT
 62
2
 10
1059.109
 20
-6510.289
 30
-765.000
 70
    32
  0
VERTEX
  8
W60LXLIFT
 62
2
 10
1052.298
 20
-6503.800
 30
-765.000
 70
    32
  0
VERTEX
  8
W60LXLIFT
 62
2
 10
1041.586
 20
-6485.814
 30
-765.000
 70
    32
  0
VERTEX
  8
W60LXLIFT
 62
2
 10
1038.816
 20
-6478.921
 30
-765.000
 70
    32
  0
VERTEX
  8
W60LXLIFT
 62
2
 10
1041.570
 20
-6461.903
 30
-765.000
 70
    32
  0
SEQEND
  8
W60LXLIFT
  0
POLYLINE
  8
W60LXLIFT
 62
11
 66
     1
 70
     9
  0
VERTEX
  8
W60LXLIFT
 62
11
 10
751.711
 20
-5690.209
 30
-760.000
 70
    32
  0
VERTEX
  8
W60LXLIFT
 62
11
 10
746.630
 20
-5681.150
 30
-760.000
 70
    32
  0
VERTEX
  8
W60LXLIFT
 62
11
 10
740.379
 20
-5672.277
 30
-760.000
 70
    32
  0
VERTEX
  8
W60LXLIFT
 62
11
 10
738.108
 20
-5669.563
 30
-760.000
 70
    32
  0
VERTEX
  8
W60LXLIFT
 62
11
 10
736.779
 20
-5659.226
 30
-760.000
 70
    32
  0
VERTEX
  8
W60LXLIFT
 62
11
 10
732.736
 20
-5651.919
 30
-760.000
 70
    32
  0
VERTEX
  8
W60LXLIFT
 62
11
 10
732.941
 20
-5644.933
 30
-760.000
 70
    32
  0
VERTEX
  8
W60LXLIFT
 62
11
 10
729.383
 20
-5633.154
 30
-760.000
 70
    32
  0
VERTEX
  8
W60LXLIFT
 62
11
 10
732.777
 20
-5625.620
 30
-760.000
 70
    32
  0
VERTEX
  8
W60LXLIFT
 62
11
 10
731.589
 20
-5620.175
 30
-760.000
 70
    32
  0
VERTEX
  8
W60LXLIFT
 62
11
 10
722.895
 20
-5616.527
 30
-760.000
 70
    32
  0
VERTEX
  8
W60LXLIFT
 62
11
 10
715.656
 20
-5618.241
 30
-760.000
 70
    32
  0
VERTEX
  8
W60LXLIFT
 62
11
 10
707.298
 20
-5625.208
 30
-760.000
 70
    32
  0
VERTEX
  8
W60LXLIFT
 62
11
 10
697.882
 20
-5625.552
 30
-760.000
 70
    32
  0
VERTEX
  8
W60LXLIFT
 62
11
 10
691.792
 20
-5627.202
 30
-760.000
 70
    32
  0
VERTEX
  8
W60LXLIFT
 62
11
 10
689.090
 20
-5630.550
 30
-760.000
 70
    32
  0
VERTEX
  8
W60LXLIFT
 62
11
 10
694.130
 20
-5646.369
 30
-760.000
 70
    32
  0
VERTEX
  8
W60LXLIFT
 62
11
 10
709.185
 20
-5657.833
 30
-760.000
 70
    32
  0
VERTEX
  8
W60LXLIFT
 62
11
 10
725.455
 20
-5678.414
 30
-760.000
 70
    32
  0
VERTEX
  8
W60LXLIFT
 62
11
 10
731.661
 20
-5685.256
 30
-760.000
 70
    32
  0
VERTEX
  8
W60LXLIFT
 62
11
 10
729.183
 20
-5688.009
 30
-760.000
 70
    32
  0
VERTEX
  8
W60LXLIFT
 62
11
 10
731.524
 20
-5696.426
 30
-760.000
 70
    32
  0
VERTEX
  8
W60LXLIFT
 62
11
 10
746.942
 20
-5696.884
 30
-760.000
 70
    32
  0
SEQEND
  8
W60LXLIFT
  0
POLYLINE
  8
W60LXLIFT
 62
2
 66
     1
 70
     9
  0
VERTEX
  8
W60LXLIFT
 62
2
 10
1083.703
 20
-6522.731
 30
-760.000
 70
    32
  0
VERTEX
  8
W60LXLIFT
 62
2
 10
1083.557
 20
-6508.289
 30
-760.000
 70
    32
  0
VERTEX
  8
W60LXLIFT
 62
2
 10
1089.120
 20
-6504.085
 30
-760.000
 70
    32
  0
VERTEX
  8
W60LXLIFT
 62
2
 10
1088.361
 20
-6491.060
 30
-760.000
 70
    32
  0
VERTEX
  8
W60LXLIFT
 62
2
 10
1074.450
 20
-6476.496
 30
-760.000
 70
    32
  0
VERTEX
  8
W60LXLIFT
 62
2
 10
1064.587
 20
-6466.522
 30
-760.000
 70
    32
  0
VERTEX
  8
W60LXLIFT
 62
2
 10
1056.105
 20
-6453.929
 30
-760.000
 70
    32
  0
VERTEX
  8
W60LXLIFT
 62
2
 10
1045.329
 20
-6463.280
 30
-760.000
 70
    32
  0
VERTEX
  8
W60LXLIFT
 62
2
 10
1040.245
 20
-6471.483
 30
-760.000
 70
    32
  0
VERTEX
  8
W60LXLIFT
 62
2
 10
1042.572
 20
-6483.819
 30
-760.000
 70
    32
  0
VERTEX
  8
W60LXLIFT
 62
2
 10
1050.749
 20
-6498.258
 30
-760.000
 70
    32
  0
VERTEX
  8
W60LXLIFT
 62
2
 10
1064.274
 20
-6508.648
 30
-760.000
 70
    32
  0
VERTEX
  8
W60LXLIFT
 62
2
 10
1071.712
 20
-6509.939
 30
-760.000
 70
    32
  0
VERTEX
  8
W60LXLIFT
 62
2
 10
1073.346
 20
-6511.916
 30
-760.000
 70
    32
  0
VERTEX
  8
W60LXLIFT
 62
2
 10
1075.406
 20
-6523.575
 30
-760.000
 70
    32
  0
SEQEND
  8
W60LXLIFT
  0
POLYLINE
  8
W60LXLIFT
 62
11
 66
     1
 70
     9
  0
VERTEX
  8
W60LXLIFT
 62
11
 10
724.890
 20
-5605.011
 30
-750.000
 70
    32
  0
VERTEX
  8
W60LXLIFT
 62
11
 10
721.788
 20
-5611.377
 30
-750.000
 70
    32
  0
VERTEX
  8
W60LXLIFT
 62
11
 10
714.086
 20
-5614.232
 30
-750.000
 70
    32
  0
VERTEX
  8
W60LXLIFT
 62
11
 10
706.495
 20
-5618.742
 30
-750.000
 70
    32
  0
VERTEX
  8
W60LXLIFT
 62
11
 10
700.803
 20
-5626.329
 30
-750.000
 70
    32
  0
VERTEX
  8
W60LXLIFT
 62
11
 10
698.265
 20
-5645.634
 30
-750.000
 70
    32
  0
VERTEX
  8
W60LXLIFT
 62
11
 10
701.076
 20
-5652.825
 30
-750.000
 70
    32
  0
VERTEX
  8
W60LXLIFT
 62
11
 10
709.795
 20
-5656.179
 30
-750.000
 70
    32
  0
VERTEX
  8
W60LXLIFT
 62
11
 10
718.545
 20
-5668.734
 30
-750.000
 70
    32
  0
VERTEX
  8
W60LXLIFT
 62
11
 10
723.216
 20
-5683.152
 30
-750.000
 70
    32
  0
VERTEX
  8
W60LXLIFT
 62
11
 10
726.529
 20
-5686.834
 30
-750.000
 70
    32
  0
VERTEX
  8
W60LXLIFT
 62
11
 10
732.168
 20
-5695.236
 30
-750.000
 70
    32
  0
VERTEX
  8
W60LXLIFT
 62
11
 10
737.072
 20
-5696.466
 30
-750.000
 70
    32
  0
VERTEX
  8
W60LXLIFT
 62
11
 10
743.681
 20
-5693.750
 30
-750.000
 70
    32
  0
VERTEX
  8
W60LXLIFT
 62
11
 10
746.177
 20
-5686.846
 30
-750.000
 70
    32
  0
VERTEX
  8
W60LXLIFT
 62
11
 10
744.491
 20
-5679.710
 30
-750.000
 70
    32
  0
VERTEX
  8
W60LXLIFT
 62
11
 10
737.664
 20
-5672.817
 30
-750.000
 70
    32
  0
VERTEX
  8
W60LXLIFT
 62
11
 10
734.711
 20
-5667.682
 30
-750.000
 70
    32
  0
VERTEX
  8
W60LXLIFT
 62
11
 10
730.506
 20
-5652.709
 30
-750.000
 70
    32
  0
VERTEX
  8
W60LXLIFT
 62
11
 10
732.313
 20
-5645.001
 30
-750.000
 70
    32
  0
VERTEX
  8
W60LXLIFT
 62
11
 10
736.886
 20
-5642.021
 30
-750.000
 70
    32
  0
VERTEX
  8
W60LXLIFT
 62
11
 10
746.347
 20
-5621.185
 30
-750.000
 70
    32
  0
VERTEX
  8
W60LXLIFT
 62
11
 10
736.915
 20
-5607.386
 30
-750.000
 70
    32
  0
SEQEND
  8
W60LXLIFT
  0
POLYLINE
  8
W60LXLIFT
 62
2
 66
     1
 70
     9
  0
VERTEX
  8
W60LXLIFT
 62
2
 10
1039.846
 20
-6470.762
 30
-750.000
 70
    32
  0
VERTEX
  8
W60LXLIFT
 62
2
 10
1038.896
 20
-6481.757
 30
-750.000
 70
    32
  0
VERTEX
  8
W60LXLIFT
 62
2
 10
1047.547
 20
-6494.926
 30
-750.000
 70
    32
  0
VERTEX
  8
W60LXLIFT
 62
2
 10
1059.553
 20
-6506.430
 30
-750.000
 70
    32
  0
VERTEX
  8
W60LXLIFT
 62
2
 10
1067.350
 20
-6513.164
 30
-750.000
 70
    32
  0
VERTEX
  8
W60LXLIFT
 62
2
 10
1073.679
 20
-6513.363
 30
-750.000
 70
    32
  0
VERTEX
  8
W60LXLIFT
 62
2
 10
1085.364
 20
-6508.063
 30
-750.000
 70
    32
  0
VERTEX
  8
W60LXLIFT
 62
2
 10
1090.815
 20
-6503.145
 30
-750.000
 70
    32
  0
VERTEX
  8
W60LXLIFT
 62
2
 10
1080.001
 20
-6488.936
 30
-750.000
 70
    32
  0
VERTEX
  8
W60LXLIFT
 62
2
 10
1074.183
 20
-6479.687
 30
-750.000
 70
    32
  0
VERTEX
  8
W60LXLIFT
 62
2
 10
1072.351
 20
-6473.850
 30
-750.000
 70
    32
  0
VERTEX
  8
W60LXLIFT
 62
2
 10
1065.575
 20
-6474.082
 30
-750.000
 70
    32
  0
VERTEX
  8
W60LXLIFT
 62
2
 10
1060.618
 20
-6468.876
 30
-750.000
 70
    32
  0
VERTEX
  8
W60LXLIFT
 62
2
 10
1059.542
 20
-6463.035
 30
-750.000
 70
    32
  0
VERTEX
  8
W60LXLIFT
 62
2
 10
1050.763
 20
-6467.102
 30
-750.000
 70
    32
  0
SEQEND
  8
W60LXLIFT
  0
POLYLINE
  8
W60LXLIFT
 62
11
 66
     1
 70
     9
  0
VERTEX
  8
W60LXLIFT
 62
11
 10
743.964
 20
-5679.997
 30
-741.000
 70
    32
  0
VERTEX
  8
W60LXLIFT
 62
11
 10
732.604
 20
-5664.304
 30
-741.000
 70
    32
  0
VERTEX
  8
W60LXLIFT
 62
11
 10
726.086
 20
-5642.972
 30
-741.000
 70
    32
  0
VERTEX
  8
W60LXLIFT
 62
11
 10
733.911
 20
-5622.301
 30
-741.000
 70
    32
  0
VERTEX
  8
W60LXLIFT
 62
11
 10
732.887
 20
-5610.899
 30
-741.000
 70
    32
  0
VERTEX
  8
W60LXLIFT
 62
11
 10
726.847
 20
-5605.044
 30
-741.000
 70
    32
  0
VERTEX
  8
W60LXLIFT
 62
11
 10
710.180
 20
-5609.301
 30
-741.000
 70
    32
  0
VERTEX
  8
W60LXLIFT
 62
11
 10
704.754
 20
-5603.548
 30
-741.000
 70
    32
  0
VERTEX
  8
W60LXLIFT
 62
11
 10
699.261
 20
-5605.861
 30
-741.000
 70
    32
  0
VERTEX
  8
W60LXLIFT
 62
11
 10
699.720
 20
-5627.961
 30
-741.000
 70
    32
  0
VERTEX
  8
W60LXLIFT
 62
11
 10
703.004
 20
-5644.027
 30
-741.000
 70
    32
  0
VERTEX
  8
W60LXLIFT
 62
11
 10
708.766
 20
-5654.632
 30
-741.000
 70
    32
  0
VERTEX
  8
W60LXLIFT
 62
11
 10
724.131
 20
-5671.679
 30
-741.000
 70
    32
  0
VERTEX
  8
W60LXLIFT
 62
11
 10
717.178
 20
-5682.082
 30
-741.000
 70
    32
  0
VERTEX
  8
W60LXLIFT
 62
11
 10
703.036
 20
-5685.178
 30
-741.000
 70
    32
  0
VERTEX
  8
W60LXLIFT
 62
11
 10
692.064
 20
-5691.636
 30
-741.000
 70
    32
  0
VERTEX
  8
W60LXLIFT
 62
11
 10
696.567
 20
-5702.602
 30
-741.000
 70
    32
  0
VERTEX
  8
W60LXLIFT
 62
11
 10
714.511
 20
-5696.346
 30
-741.000
 70
    32
  0
VERTEX
  8
W60LXLIFT
 62
11
 10
733.021
 20
-5691.635
 30
-741.000
 70
    32
  0
SEQEND
  8
W60LXLIFT
  0
POLYLINE
  8
W60LXLIFT
 62
2
 66
     1
 70
     9
  0
VERTEX
  8
W60LXLIFT
 62
2
 10
1077.512
 20
-6522.874
 30
-741.000
 70
    32
  0
VERTEX
  8
W60LXLIFT
 62
2
 10
1076.943
 20
-6514.071
 30
-741.000
 70
    32
  0
VERTEX
  8
W60LXLIFT
 62
2
 10
1079.763
 20
-6505.007
 30
-741.000
 70
    32
  0
VERTEX
  8
W60LXLIFT
 62
2
 10
1074.880
 20
-6493.663
 30
-741.000
 70
    32
  0
VERTEX
  8
W60LXLIFT
 62
2
 10
1068.029
 20
-6474.738
 30
-741.000
 70
    32
  0
VERTEX
  8
W60LXLIFT
 62
2
 10
1060.330
 20
-6473.973
 30
-741.000
 70
    32
  0
VERTEX
  8
W60LXLIFT
 62
2
 10
1041.235
 20
-6460.792
 30
-741.000
 70
    32
  0
VERTEX
  8
W60LXLIFT
 62
2
 10
1030.641
 20
-6472.614
 30
-741.000
 70
    32
  0
VERTEX
  8
W60LXLIFT
 62
2
 10
1042.002
 20
-6483.321
 30
-741.000
 70
    32
  0
VERTEX
  8
W60LXLIFT
 62
2
 10
1048.450
 20
-6493.976
 30
-741.000
 70
    32
  0
VERTEX
  8
W60LXLIFT
 62
2
 10
1054.241
 20
-6498.276
 30
-741.000
 70
    32
  0
VERTEX
  8
W60LXLIFT
 62
2
 10
1060.818
 20
-6501.253
 30
-741.000
 70
    32
  0
VERTEX
  8
W60LXLIFT
 62
2
 10
1065.486
 20
-6507.008
 30
-741.000
 70
    32
  0
VERTEX
  8
W60LXLIFT
 62
2
 10
1064.499
 20
-6516.059
 30
-741.000
 70
    32
  0
VERTEX
  8
W60LXLIFT
 62
2
 10
1067.788
 20
-6523.669
 30
-741.000
 70
    32
  0
SEQEND
  8
W60LXLIFT
  0
POLYLINE
  8
W60LXLIFT
 62
11
 66
     1
 70
     9
  0
VERTEX
  8
W60LXLIFT
 62
11
 10
741.756
 20
-5680.248
 30
-731.000
 70
    32
  0
VERTEX
  8
W60LXLIFT
 62
11
 10
737.911
 20
-5673.686
 30
-731.000
 70
    32
  0
VERTEX
  8
W60LXLIFT
 62
11
 10
735.357
 20
-5667.714
 30
-731.000
 70
    32
  0
VERTEX
  8
W60LXLIFT
 62
11
 10
724.263
 20
-5672.645
 30
-731.000
 70
    32
  0
VERTEX
  8
W60LXLIFT
 62
11
 10
715.773
 20
-5675.165
 30
-731.000
 70
    32
  0
VERTEX
  8
W60LXLIFT
 62
11
 10
705.309
 20
-5674.331
 30
-731.000
 70
    32
  0
VERTEX
  8
W60LXLIFT
 62
11
 10
700.731
 20
-5673.391
 30
-731.000
 70
    32
  0
VERTEX
  8
W60LXLIFT
 62
11
 10
686.433
 20
-5682.466
 30
-731.000
 70
    32
  0
VERTEX
  8
W60LXLIFT
 62
11
 10
685.073
 20
-5691.140
 30
-731.000
 70
    32
  0
VERTEX
  8
W60LXLIFT
 62
11
 10
693.015
 20
-5694.652
 30
-731.000
 70
    32
  0
VERTEX
  8
W60LXLIFT
 62
11
 10
711.606
 20
-5695.178
 30
-731.000
 70
    32
  0
VERTEX
  8
W60LXLIFT
 62
11
 10
729.280
 20
-5693.219
 30
-731.000
 70
    32
  0
SEQEND
  8
W60LXLIFT
  0
POLYLINE
  8
W60LXLIFT
 62
2
 66
     1
 70
     9
  0
VERTEX
  8
W60LXLIFT
 62
2
 10
1075.976
 20
-6544.204
 30
-730.000
 70
    32
  0
VERTEX
  8
W60LXLIFT
 62
2
 10
1078.166
 20
-6523.551
 30
-730.000
 70
    32
  0
VERTEX
  8
W60LXLIFT
 62
2
 10
1079.250
 20
-6515.399
 30
-730.000
 70
    32
  0
VERTEX
  8
W60LXLIFT
 62
2
 10
1082.430
 20
-6505.636
 30
-730.000
 70
    32
  0
VERTEX
  8
W60LXLIFT
 62
2
 10
1082.583
 20
-6501.623
 30
-730.000
 70
    32
  0
VERTEX
  8
W60LXLIFT
 62
2
 10
1076.966
 20
-6490.479
 30
-730.000
 70
    32
  0
VERTEX
  8
W60LXLIFT
 62
2
 10
1069.028
 20
-6480.785
 30
-730.000
 70
    32
  0
VERTEX
  8
W60LXLIFT
 62
2
 10
1070.650
 20
-6466.285
 30
-730.000
 70
    32
  0
VERTEX
  8
W60LXLIFT
 62
2
 10
1065.783
 20
-6456.337
 30
-730.000
 70
    32
  0
VERTEX
  8
W60LXLIFT
 62
2
 10
1053.866
 20
-6439.743
 30
-730.000
 70
    32
  0
VERTEX
  8
W60LXLIFT
 62
2
 10
1051.497
 20
-6434.181
 30
-730.000
 70
    32
  0
VERTEX
  8
W60LXLIFT
 62
2
 10
1051.533
 20
-6428.192
 30
-730.000
 70
    32
  0
VERTEX
  8
W60LXLIFT
 62
2
 10
1057.185
 20
-6416.436
 30
-730.000
 70
    32
  0
VERTEX
  8
W60LXLIFT
 62
2
 10
1054.800
 20
-6412.511
 30
-730.000
 70
    32
  0
VERTEX
  8
W60LXLIFT
 62
2
 10
1045.266
 20
-6411.010
 30
-730.000
 70
    32
  0
VERTEX
  8
W60LXLIFT
 62
2
 10
1032.447
 20
-6414.145
 30
-730.000
 70
    32
  0
VERTEX
  8
W60LXLIFT
 62
2
 10
1028.559
 20
-6418.996
 30
-730.000
 70
    32
  0
VERTEX
  8
W60LXLIFT
 62
2
 10
1032.997
 20
-6425.025
 30
-730.000
 70
    32
  0
VERTEX
  8
W60LXLIFT
 62
2
 10
1036.845
 20
-6436.572
 30
-730.000
 70
    32
  0
VERTEX
  8
W60LXLIFT
 62
2
 10
1032.390
 20
-6439.880
 30
-730.000
 70
    32
  0
VERTEX
  8
W60LXLIFT
 62
2
 10
1031.371
 20
-6445.707
 30
-730.000
 70
    32
  0
VERTEX
  8
W60LXLIFT
 62
2
 10
1031.139
 20
-6455.197
 30
-730.000
 70
    32
  0
VERTEX
  8
W60LXLIFT
 62
2
 10
1029.709
 20
-6460.452
 30
-730.000
 70
    32
  0
VERTEX
  8
W60LXLIFT
 62
2
 10
1025.311
 20
-6466.104
 30
-730.000
 70
    32
  0
VERTEX
  8
W60LXLIFT
 62
2
 10
1027.155
 20
-6470.634
 30
-730.000
 70
    32
  0
VERTEX
  8
W60LXLIFT
 62
2
 10
1033.524
 20
-6475.275
 30
-730.000
 70
    32
  0
VERTEX
  8
W60LXLIFT
 62
2
 10
1037.350
 20
-6478.490
 30
-730.000
 70
    32
  0
VERTEX
  8
W60LXLIFT
 62
2
 10
1039.306
 20
-6482.723
 30
-730.000
 70
    32
  0
VERTEX
  8
W60LXLIFT
 62
2
 10
1044.765
 20
-6487.909
 30
-730.000
 70
    32
  0
VERTEX
  8
W60LXLIFT
 62
2
 10
1046.235
 20
-6494.334
 30
-730.000
 70
    32
  0
VERTEX
  8
W60LXLIFT
 62
2
 10
1054.888
 20
-6503.515
 30
-730.000
 70
    32
  0
VERTEX
  8
W60LXLIFT
 62
2
 10
1059.380
 20
-6511.130
 30
-730.000
 70
    32
  0
VERTEX
  8
W60LXLIFT
 62
2
 10
1060.607
 20
-6518.272
 30
-730.000
 70
    32
  0
VERTEX
  8
W60LXLIFT
 62
2
 10
1061.839
 20
-6531.915
 30
-730.000
 70
    32
  0
VERTEX
  8
W60LXLIFT
 62
2
 10
1064.285
 20
-6539.698
 30
-730.000
 70
    32
  0
VERTEX
  8
W60LXLIFT
 62
2
 10
1068.988
 20
-6545.644
 30
-730.000
 70
    32
  0
SEQEND
  8
W60LXLIFT
  0
POLYLINE
  8
W60LXLIFT
 62
11
 66
     1
 70
     9
  0
VERTEX
  8
W60LXLIFT
 62
11
 10
731.760
 20
-5666.378
 30
-722.000
 70
    32
  0
VERTEX
  8
W60LXLIFT
 62
11
 10
713.967
 20
-5663.638
 30
-722.000
 70
    32
  0
VERTEX
  8
W60LXLIFT
 62
11
 10
709.708
 20
-5659.212
 30
-722.000
 70
    32
  0
VERTEX
  8
W60LXLIFT
 62
11
 10
681.178
 20
-5664.931
 30
-722.000
 70
    32
  0
VERTEX
  8
W60LXLIFT
 62
11
 10
683.226
 20
-5675.496
 30
-722.000
 70
    32
  0
VERTEX
  8
W60LXLIFT
 62
11
 10
692.558
 20
-5681.704
 30
-722.000
 70
    32
  0
VERTEX
  8
W60LXLIFT
 62
11
 10
698.952
 20
-5683.514
 30
-722.000
 70
    32
  0
VERTEX
  8
W60LXLIFT
 62
11
 10
712.323
 20
-5682.054
 30
-722.000
 70
    32
  0
VERTEX
  8
W60LXLIFT
 62
11
 10
721.542
 20
-5682.814
 30
-722.000
 70
    32
  0
VERTEX
  8
W60LXLIFT
 62
11
 10
729.513
 20
-5685.011
 30
-722.000
 70
    32
  0
VERTEX
  8
W60LXLIFT
 62
11
 10
736.540
 20
-5675.309
 30
-722.000
 70
    32
  0
SEQEND
  8
W60LXLIFT
  0
POLYLINE
  8
W60LXLIFT
 62
2
 66
     1
 70
     9
  0
VERTEX
  8
W60LXLIFT
 62
2
 10
1064.973
 20
-6539.044
 30
-721.000
 70
    32
  0
VERTEX
  8
W60LXLIFT
 62
2
 10
1067.070
 20
-6516.725
 30
-721.000
 70
    32
  0
VERTEX
  8
W60LXLIFT
 62
2
 10
1069.885
 20
-6516.115
 30
-721.000
 70
    32
  0
VERTEX
  8
W60LXLIFT
 62
2
 10
1069.283
 20
-6507.114
 30
-721.000
 70
    32
  0
VERTEX
  8
W60LXLIFT
 62
2
 10
1069.248
 20
-6499.659
 30
-721.000
 70
    32
  0
VERTEX
  8
W60LXLIFT
 62
2
 10
1063.951
 20
-6477.764
 30
-721.000
 70
    32
  0
VERTEX
  8
W60LXLIFT
 62
2
 10
1058.942
 20
-6450.677
 30
-721.000
 70
    32
  0
VERTEX
  8
W60LXLIFT
 62
2
 10
1059.701
 20
-6446.446
 30
-721.000
 70
    32
  0
VERTEX
  8
W60LXLIFT
 62
2
 10
1057.106
 20
-6439.200
 30
-721.000
 70
    32
  0
VERTEX
  8
W60LXLIFT
 62
2
 10
1061.599
 20
-6437.604
 30
-721.000
 70
    32
  0
VERTEX
  8
W60LXLIFT
 62
2
 10
1053.622
 20
-6411.670
 30
-721.000
 70
    32
  0
VERTEX
  8
W60LXLIFT
 62
2
 10
1047.284
 20
-6402.230
 30
-721.000
 70
    32
  0
VERTEX
  8
W60LXLIFT
 62
2
 10
1041.284
 20
-6402.631
 30
-721.000
 70
    32
  0
VERTEX
  8
W60LXLIFT
 62
2
 10
1036.057
 20
-6405.621
 30
-721.000
 70
    32
  0
VERTEX
  8
W60LXLIFT
 62
2
 10
1036.461
 20
-6413.137
 30
-721.000
 70
    32
  0
VERTEX
  8
W60LXLIFT
 62
2
 10
1029.828
 20
-6420.063
 30
-721.000
 70
    32
  0
VERTEX
  8
W60LXLIFT
 62
2
 10
1032.144
 20
-6431.303
 30
-721.000
 70
    32
  0
VERTEX
  8
W60LXLIFT
 62
2
 10
1029.381
 20
-6447.704
 30
-721.000
 70
    32
  0
VERTEX
  8
W60LXLIFT
 62
2
 10
1031.286
 20
-6453.384
 30
-721.000
 70
    32
  0
VERTEX
  8
W60LXLIFT
 62
2
 10
1030.087
 20
-6463.350
 30
-721.000
 70
    32
  0
VERTEX
  8
W60LXLIFT
 62
2
 10
1034.360
 20
-6469.609
 30
-721.000
 70
    32
  0
VERTEX
  8
W60LXLIFT
 62
2
 10
1043.108
 20
-6486.643
 30
-721.000
 70
    32
  0
VERTEX
  8
W60LXLIFT
 62
2
 10
1049.545
 20
-6499.698
 30
-721.000
 70
    32
  0
VERTEX
  8
W60LXLIFT
 62
2
 10
1052.884
 20
-6515.841
 30
-721.000
 70
    32
  0
VERTEX
  8
W60LXLIFT
 62
2
 10
1058.174
 20
-6539.692
 30
-721.000
 70
    32
  0
SEQEND
  8
W60LXLIFT
  0
POLYLINE
  8
W60LXLIFT
 62
11
 66
     1
 70
     9
  0
VERTEX
  8
W60LXLIFT
 62
11
 10
736.373
 20
-5668.049
 30
-714.000
 70
    32
  0
VERTEX
  8
W60LXLIFT
 62
11
 10
729.991
 20
-5662.765
 30
-714.000
 70
    32
  0
VERTEX
  8
W60LXLIFT
 62
11
 10
721.744
 20
-5663.797
 30
-714.000
 70
    32
  0
VERTEX
  8
W60LXLIFT
 62
11
 10
717.559
 20
-5664.303
 30
-714.000
 70
    32
  0
VERTEX
  8
W60LXLIFT
 62
11
 10
699.508
 20
-5657.087
 30
-714.000
 70
    32
  0
VERTEX
  8
W60LXLIFT
 62
11
 10
691.824
 20
-5649.378
 30
-714.000
 70
    32
  0
VERTEX
  8
W60LXLIFT
 62
11
 10
689.361
 20
-5642.913
 30
-714.000
 70
    32
  0
VERTEX
  8
W60LXLIFT
 62
11
 10
680.185
 20
-5646.883
 30
-714.000
 70
    32
  0
VERTEX
  8
W60LXLIFT
 62
11
 10
676.733
 20
-5653.253
 30
-714.000
 70
    32
  0
VERTEX
  8
W60LXLIFT
 62
11
 10
678.746
 20
-5660.148
 30
-714.000
 70
    32
  0
VERTEX
  8
W60LXLIFT
 62
11
 10
687.178
 20
-5669.053
 30
-714.000
 70
    32
  0
VERTEX
  8
W60LXLIFT
 62
11
 10
709.894
 20
-5674.770
 30
-714.000
 70
    32
  0
VERTEX
  8
W60LXLIFT
 62
11
 10
714.812
 20
-5680.128
 30
-714.000
 70
    32
  0
VERTEX
  8
W60LXLIFT
 62
11
 10
722.817
 20
-5682.084
 30
-714.000
 70
    32
  0
VERTEX
  8
W60LXLIFT
 62
11
 10
732.646
 20
-5675.698
 30
-714.000
 70
    32
  0
SEQEND
  8
W60LXLIFT
  0
POLYLINE
  8
W60LXLIFT
 62
2
 66
     1
 70
     9
  0
VERTEX
  8
W60LXLIFT
 62
2
 10
1063.417
 20
-6601.742
 30
-714.000
 70
    32
  0
VERTEX
  8
W60LXLIFT
 62
2
 10
1052.985
 20
-6550.418
 30
-714.000
 70
    32
  0
VERTEX
  8
W60LXLIFT
 62
2
 10
1050.273
 20
-6531.355
 30
-714.000
 70
    32
  0
VERTEX
  8
W60LXLIFT
 62
2
 10
1050.625
 20
-6525.798
 30
-714.000
 70
    32
  0
VERTEX
  8
W60LXLIFT
 62
2
 10
1055.721
 20
-6524.748
 30
-714.000
 70
    32
  0
VERTEX
  8
W60LXLIFT
 62
2
 10
1059.839
 20
-6519.310
 30
-714.000
 70
    32
  0
VERTEX
  8
W60LXLIFT
 62
2
 10
1050.750
 20
-6489.221
 30
-714.000
 70
    32
  0
VERTEX
  8
W60LXLIFT
 62
2
 10
1051.582
 20
-6482.670
 30
-714.000
 70
    32
  0
VERTEX
  8
W60LXLIFT
 62
2
 10
1045.792
 20
-6465.810
 30
-714.000
 70
    32
  0
VERTEX
  8
W60LXLIFT
 62
2
 10
1042.787
 20
-6459.192
 30
-714.000
 70
    32
  0
VERTEX
  8
W60LXLIFT
 62
2
 10
1053.489
 20
-6437.996
 30
-714.000
 70
    32
  0
VERTEX
  8
W60LXLIFT
 62
2
 10
1049.007
 20
-6428.861
 30
-714.000
 70
    32
  0
VERTEX
  8
W60LXLIFT
 62
2
 10
1034.340
 20
-6427.127
 30
-714.000
 70
    32
  0
VERTEX
  8
W60LXLIFT
 62
2
 10
1032.454
 20
-6424.796
 30
-714.000
 70
    32
  0
VERTEX
  8
W60LXLIFT
 62
2
 10
1027.558
 20
-6411.302
 30
-714.000
 70
    32
  0
VERTEX
  8
W60LXLIFT
 62
2
 10
1020.851
 20
-6407.983
 30
-714.000
 70
    32
  0
VERTEX
  8
W60LXLIFT
 62
2
 10
1015.749
 20
-6412.502
 30
-714.000
 70
    32
  0
VERTEX
  8
W60LXLIFT
 62
2
 10
1014.740
 20
-6415.931
 30
-714.000
 70
    32
  0
VERTEX
  8
W60LXLIFT
 62
2
 10
1006.274
 20
-6414.088
 30
-714.000
 70
    32
  0
VERTEX
  8
W60LXLIFT
 62
2
 10
999.297
 20
-6416.592
 30
-714.000
 70
    32
  0
VERTEX
  8
W60LXLIFT
 62
2
 10
995.311
 20
-6421.611
 30
-714.000
 70
    32
  0
VERTEX
  8
W60LXLIFT
 62
2
 10
997.871
 20
-6461.031
 30
-714.000
 70
    32
  0
VERTEX
  8
W60LXLIFT
 62
2
 10
1007.612
 20
-6468.890
 30
-714.000
 70
    32
  0
VERTEX
  8
W60LXLIFT
 62
2
 10
1019.376
 20
-6473.678
 30
-714.000
 70
    32
  0
VERTEX
  8
W60LXLIFT
 62
2
 10
1030.702
 20
-6479.970
 30
-714.000
 70
    32
  0
VERTEX
  8
W60LXLIFT
 62
2
 10
1038.405
 20
-6486.798
 30
-714.000
 70
    32
  0
VERTEX
  8
W60LXLIFT
 62
2
 10
1040.138
 20
-6490.429
 30
-714.000
 70
    32
  0
VERTEX
  8
W60LXLIFT
 62
2
 10
1039.458
 20
-6514.736
 30
-714.000
 70
    32
  0
VERTEX
  8
W60LXLIFT
 62
2
 10
1040.733
 20
-6530.280
 30
-714.000
 70
    32
  0
VERTEX
  8
W60LXLIFT
 62
2
 10
1044.723
 20
-6557.632
 30
-714.000
 70
    32
  0
VERTEX
  8
W60LXLIFT
 62
2
 10
1056.029
 20
-6602.916
 30
-714.000
 70
    32
  0
SEQEND
  8
W60LXLIFT
  0
POLYLINE
  8
W60LXLIFT
 62
11
 66
     1
 70
     9
  0
VERTEX
  8
W60LXLIFT
 62
11
 10
670.726
 20
-5633.421
 30
-694.000
 70
    32
  0
VERTEX
  8
W60LXLIFT
 62
11
 10
673.849
 20
-5639.620
 30
-694.000
 70
    32
  0
VERTEX
  8
W60LXLIFT
 62
11
 10
672.887
 20
-5650.999
 30
-694.000
 70
    32
  0
VERTEX
  8
W60LXLIFT
 62
11
 10
687.680
 20
-5663.568
 30
-694.000
 70
    32
  0
VERTEX
  8
W60LXLIFT
 62
11
 10
704.563
 20
-5672.703
 30
-694.000
 70
    32
  0
VERTEX
  8
W60LXLIFT
 62
11
 10
707.738
 20
-5677.460
 30
-694.000
 70
    32
  0
VERTEX
  8
W60LXLIFT
 62
11
 10
708.703
 20
-5684.117
 30
-694.000
 70
    32
  0
VERTEX
  8
W60LXLIFT
 62
11
 10
692.024
 20
-5709.509
 30
-694.000
 70
    32
  0
VERTEX
  8
W60LXLIFT
 62
11
 10
685.785
 20
-5723.030
 30
-694.000
 70
    32
  0
VERTEX
  8
W60LXLIFT
 62
11
 10
685.668
 20
-5727.866
 30
-694.000
 70
    32
  0
VERTEX
  8
W60LXLIFT
 62
11
 10
689.890
 20
-5740.303
 30
-694.000
 70
    32
  0
VERTEX
  8
W60LXLIFT
 62
11
 10
693.089
 20
-5741.155
 30
-694.000
 70
    32
  0
VERTEX
  8
W60LXLIFT
 62
11
 10
708.117
 20
-5732.386
 30
-694.000
 70
    32
  0
VERTEX
  8
W60LXLIFT
 62
11
 10
719.308
 20
-5725.812
 30
-694.000
 70
    32
  0
VERTEX
  8
W60LXLIFT
 62
11
 10
725.146
 20
-5725.970
 30
-694.000
 70
    32
  0
VERTEX
  8
W60LXLIFT
 62
11
 10
741.524
 20
-5739.246
 30
-694.000
 70
    32
  0
VERTEX
  8
W60LXLIFT
 62
11
 10
747.427
 20
-5746.164
 30
-694.000
 70
    32
  0
VERTEX
  8
W60LXLIFT
 62
11
 10
750.395
 20
-5754.417
 30
-694.000
 70
    32
  0
VERTEX
  8
W60LXLIFT
 62
11
 10
753.160
 20
-5760.115
 30
-694.000
 70
    32
  0
VERTEX
  8
W60LXLIFT
 62
11
 10
757.915
 20
-5759.209
 30
-694.000
 70
    32
  0
VERTEX
  8
W60LXLIFT
 62
11
 10
765.928
 20
-5751.661
 30
-694.000
 70
    32
  0
VERTEX
  8
W60LXLIFT
 62
11
 10
765.424
 20
-5744.135
 30
-694.000
 70
    32
  0
VERTEX
  8
W60LXLIFT
 62
11
 10
757.263
 20
-5735.263
 30
-694.000
 70
    32
  0
VERTEX
  8
W60LXLIFT
 62
11
 10
748.349
 20
-5721.851
 30
-694.000
 70
    32
  0
VERTEX
  8
W60LXLIFT
 62
11
 10
743.002
 20
-5710.865
 30
-694.000
 70
    32
  0
VERTEX
  8
W60LXLIFT
 62
11
 10
730.915
 20
-5701.335
 30
-694.000
 70
    32
  0
VERTEX
  8
W60LXLIFT
 62
11
 10
721.237
 20
-5674.426
 30
-694.000
 70
    32
  0
VERTEX
  8
W60LXLIFT
 62
11
 10
727.534
 20
-5664.320
 30
-694.000
 70
    32
  0
VERTEX
  8
W60LXLIFT
 62
11
 10
717.819
 20
-5655.692
 30
-694.000
 70
    32
  0
VERTEX
  8
W60LXLIFT
 62
11
 10
714.678
 20
-5658.255
 30
-694.000
 70
    32
  0
VERTEX
  8
W60LXLIFT
 62
11
 10
700.027
 20
-5646.341
 30
-694.000
 70
    32
  0
VERTEX
  8
W60LXLIFT
 62
11
 10
695.213
 20
-5644.588
 30
-694.000
 70
    32
  0
VERTEX
  8
W60LXLIFT
 62
11
 10
688.333
 20
-5643.120
 30
-694.000
 70
    32
  0
VERTEX
  8
W60LXLIFT
 62
11
 10
685.065
 20
-5639.293
 30
-694.000
 70
    32
  0
VERTEX
  8
W60LXLIFT
 62
11
 10
675.627
 20
-5629.387
 30
-694.000
 70
    32
  0
SEQEND
  8
W60LXLIFT
  0
POLYLINE
  8
W60LXLIFT
 62
2
 66
     1
 70
     9
  0
VERTEX
  8
W60LXLIFT
 62
2
 10
1039.551
 20
-6519.115
 30
-701.000
 70
    32
  0
VERTEX
  8
W60LXLIFT
 62
2
 10
1038.865
 20
-6497.245
 30
-701.000
 70
    32
  0
VERTEX
  8
W60LXLIFT
 62
2
 10
1037.749
 20
-6477.194
 30
-701.000
 70
    32
  0
VERTEX
  8
W60LXLIFT
 62
2
 10
1033.040
 20
-6460.892
 30
-701.000
 70
    32
  0
VERTEX
  8
W60LXLIFT
 62
2
 10
1025.531
 20
-6443.238
 30
-701.000
 70
    32
  0
VERTEX
  8
W60LXLIFT
 62
2
 10
1024.034
 20
-6436.744
 30
-701.000
 70
    32
  0
VERTEX
  8
W60LXLIFT
 62
2
 10
1009.668
 20
-6415.985
 30
-701.000
 70
    32
  0
VERTEX
  8
W60LXLIFT
 62
2
 10
998.766
 20
-6418.572
 30
-701.000
 70
    32
  0
VERTEX
  8
W60LXLIFT
 62
2
 10
986.886
 20
-6417.968
 30
-701.000
 70
    32
  0
VERTEX
  8
W60LXLIFT
 62
2
 10
981.918
 20
-6428.423
 30
-701.000
 70
    32
  0
VERTEX
  8
W60LXLIFT
 62
2
 10
980.786
 20
-6435.927
 30
-701.000
 70
    32
  0
VERTEX
  8
W60LXLIFT
 62
2
 10
988.525
 20
-6447.692
 30
-701.000
 70
    32
  0
VERTEX
  8
W60LXLIFT
 62
2
 10
990.492
 20
-6454.391
 30
-701.000
 70
    32
  0
VERTEX
  8
W60LXLIFT
 62
2
 10
990.470
 20
-6456.783
 30
-701.000
 70
    32
  0
VERTEX
  8
W60LXLIFT
 62
2
 10
989.342
 20
-6460.504
 30
-701.000
 70
    32
  0
VERTEX
  8
W60LXLIFT
 62
2
 10
1008.712
 20
-6476.615
 30
-701.000
 70
    32
  0
VERTEX
  8
W60LXLIFT
 62
2
 10
1018.589
 20
-6476.378
 30
-701.000
 70
    32
  0
VERTEX
  8
W60LXLIFT
 62
2
 10
1019.488
 20
-6477.034
 30
-701.000
 70
    32
  0
VERTEX
  8
W60LXLIFT
 62
2
 10
1017.519
 20
-6483.514
 30
-701.000
 70
    32
  0
VERTEX
  8
W60LXLIFT
 62
2
 10
1022.789
 20
-6490.451
 30
-701.000
 70
    32
  0
VERTEX
  8
W60LXLIFT
 62
2
 10
1023.202
 20
-6496.637
 30
-701.000
 70
    32
  0
VERTEX
  8
W60LXLIFT
 62
2
 10
1026.264
 20
-6502.447
 30
-701.000
 70
    32
  0
VERTEX
  8
W60LXLIFT
 62
2
 10
1028.147
 20
-6511.907
 30
-701.000
 70
    32
  0
VERTEX
  8
W60LXLIFT
 62
2
 10
1030.289
 20
-6517.184
 30
-701.000
 70
    32
  0
SEQEND
  8
W60LXLIFT
  0
POLYLINE
  8
W60LXLIFT
 62
11
 66
     1
 70
     9
  0
VERTEX
  8
W60LXLIFT
 62
11
 10
663.986
 20
-5618.000
 30
-684.000
 70
    32
  0
VERTEX
  8
W60LXLIFT
 62
11
 10
667.034
 20
-5626.115
 30
-684.000
 70
    32
  0
VERTEX
  8
W60LXLIFT
 62
11
 10
667.188
 20
-5629.480
 30
-684.000
 70
    32
  0
VERTEX
  8
W60LXLIFT
 62
11
 10
661.936
 20
-5642.189
 30
-684.000
 70
    32
  0
VERTEX
  8
W60LXLIFT
 62
11
 10
664.349
 20
-5650.328
 30
-684.000
 70
    32
  0
VERTEX
  8
W60LXLIFT
 62
11
 10
669.096
 20
-5656.888
 30
-684.000
 70
    32
  0
VERTEX
  8
W60LXLIFT
 62
11
 10
674.307
 20
-5664.089
 30
-684.000
 70
    32
  0
VERTEX
  8
W60LXLIFT
 62
11
 10
676.096
 20
-5673.767
 30
-684.000
 70
    32
  0
VERTEX
  8
W60LXLIFT
 62
11
 10
676.154
 20
-5684.806
 30
-684.000
 70
    32
  0
VERTEX
  8
W60LXLIFT
 62
11
 10
675.796
 20
-5696.472
 30
-684.000
 70
    32
  0
VERTEX
  8
W60LXLIFT
 62
11
 10
677.417
 20
-5700.514
 30
-684.000
 70
    32
  0
VERTEX
  8
W60LXLIFT
 62
11
 10
684.828
 20
-5707.753
 30
-684.000
 70
    32
  0
VERTEX
  8
W60LXLIFT
 62
11
 10
687.706
 20
-5721.639
 30
-684.000
 70
    32
  0
VERTEX
  8
W60LXLIFT
 62
11
 10
679.037
 20
-5729.325
 30
-684.000
 70
    32
  0
VERTEX
  8
W60LXLIFT
 62
11
 10
677.287
 20
-5735.914
 30
-684.000
 70
    32
  0
VERTEX
  8
W60LXLIFT
 62
11
 10
683.923
 20
-5745.235
 30
-684.000
 70
    32
  0
VERTEX
  8
W60LXLIFT
 62
11
 10
689.673
 20
-5743.573
 30
-684.000
 70
    32
  0
VERTEX
  8
W60LXLIFT
 62
11
 10
703.086
 20
-5738.538
 30
-684.000
 70
    32
  0
VERTEX
  8
W60LXLIFT
 62
11
 10
709.781
 20
-5725.872
 30
-684.000
 70
    32
  0
VERTEX
  8
W60LXLIFT
 62
11
 10
715.227
 20
-5721.388
 30
-684.000
 70
    32
  0
VERTEX
  8
W60LXLIFT
 62
11
 10
725.383
 20
-5722.512
 30
-684.000
 70
    32
  0
VERTEX
  8
W60LXLIFT
 62
11
 10
738.174
 20
-5731.181
 30
-684.000
 70
    32
  0
VERTEX
  8
W60LXLIFT
 62
11
 10
742.577
 20
-5738.316
 30
-684.000
 70
    32
  0
VERTEX
  8
W60LXLIFT
 62
11
 10
750.107
 20
-5749.923
 30
-684.000
 70
    32
  0
VERTEX
  8
W60LXLIFT
 62
11
 10
757.047
 20
-5753.809
 30
-684.000
 70
    32
  0
VERTEX
  8
W60LXLIFT
 62
11
 10
762.964
 20
-5752.677
 30
-684.000
 70
    32
  0
VERTEX
  8
W60LXLIFT
 62
11
 10
765.842
 20
-5748.097
 30
-684.000
 70
    32
  0
VERTEX
  8
W60LXLIFT
 62
11
 10
764.388
 20
-5744.586
 30
-684.000
 70
    32
  0
VERTEX
  8
W60LXLIFT
 62
11
 10
747.756
 20
-5723.704
 30
-684.000
 70
    32
  0
VERTEX
  8
W60LXLIFT
 62
11
 10
734.669
 20
-5703.517
 30
-684.000
 70
    32
  0
VERTEX
  8
W60LXLIFT
 62
11
 10
725.550
 20
-5693.168
 30
-684.000
 70
    32
  0
VERTEX
  8
W60LXLIFT
 62
11
 10
723.610
 20
-5687.184
 30
-684.000
 70
    32
  0
VERTEX
  8
W60LXLIFT
 62
11
 10
722.255
 20
-5674.803
 30
-684.000
 70
    32
  0
VERTEX
  8
W60LXLIFT
 62
11
 10
720.193
 20
-5668.799
 30
-684.000
 70
    32
  0
VERTEX
  8
W60LXLIFT
 62
11
 10
711.139
 20
-5655.687
 30
-684.000
 70
    32
  0
VERTEX
  8
W60LXLIFT
 62
11
 10
708.251
 20
-5653.649
 30
-684.000
 70
    32
  0
VERTEX
  8
W60LXLIFT
 62
11
 10
701.351
 20
-5654.622
 30
-684.000
 70
    32
  0
VERTEX
  8
W60LXLIFT
 62
11
 10
696.810
 20
-5651.499
 30
-684.000
 70
    32
  0
VERTEX
  8
W60LXLIFT
 62
11
 10
686.682
 20
-5638.404
 30
-684.000
 70
    32
  0
VERTEX
  8
W60LXLIFT
 62
11
 10
679.970
 20
-5628.378
 30
-684.000
 70
    32
  0
VERTEX
  8
W60LXLIFT
 62
11
 10
669.041
 20
-5614.776
 30
-684.000
 70
    32
  0
SEQEND
  8
W60LXLIFT
  0
POLYLINE
  8
W60LXLIFT
 62
2
 66
     1
 70
     9
  0
VERTEX
  8
W60LXLIFT
 62
2
 10
978.720
 20
-6398.832
 30
-689.000
 70
    32
  0
VERTEX
  8
W60LXLIFT
 62
2
 10
981.004
 20
-6425.859
 30
-689.000
 70
    32
  0
VERTEX
  8
W60LXLIFT
 62
2
 10
977.923
 20
-6428.957
 30
-689.000
 70
    32
  0
VERTEX
  8
W60LXLIFT
 62
2
 10
974.738
 20
-6426.808
 30
-689.000
 70
    32
  0
VERTEX
  8
W60LXLIFT
 62
2
 10
970.172
 20
-6426.202
 30
-689.000
 70
    32
  0
VERTEX
  8
W60LXLIFT
 62
2
 10
969.259
 20
-6434.249
 30
-689.000
 70
    32
  0
VERTEX
  8
W60LXLIFT
 62
2
 10
977.124
 20
-6443.767
 30
-689.000
 70
    32
  0
VERTEX
  8
W60LXLIFT
 62
2
 10
982.089
 20
-6445.823
 30
-689.000
 70
    32
  0
VERTEX
  8
W60LXLIFT
 62
2
 10
985.203
 20
-6453.130
 30
-689.000
 70
    32
  0
VERTEX
  8
W60LXLIFT
 62
2
 10
987.420
 20
-6462.498
 30
-689.000
 70
    32
  0
VERTEX
  8
W60LXLIFT
 62
2
 10
991.800
 20
-6470.953
 30
-689.000
 70
    32
  0
VERTEX
  8
W60LXLIFT
 62
2
 10
999.580
 20
-6478.251
 30
-689.000
 70
    32
  0
VERTEX
  8
W60LXLIFT
 62
2
 10
1003.401
 20
-6487.436
 30
-689.000
 70
    32
  0
VERTEX
  8
W60LXLIFT
 62
2
 10
1004.103
 20
-6491.708
 30
-689.000
 70
    32
  0
VERTEX
  8
W60LXLIFT
 62
2
 10
1013.069
 20
-6500.646
 30
-689.000
 70
    32
  0
VERTEX
  8
W60LXLIFT
 62
2
 10
1020.148
 20
-6517.034
 30
-689.000
 70
    32
  0
VERTEX
  8
W60LXLIFT
 62
2
 10
1026.884
 20
-6527.694
 30
-689.000
 70
    32
  0
VERTEX
  8
W60LXLIFT
 62
2
 10
1034.290
 20
-6520.814
 30
-689.000
 70
    32
  0
VERTEX
  8
W60LXLIFT
 62
2
 10
1028.720
 20
-6506.811
 30
-689.000
 70
    32
  0
VERTEX
  8
W60LXLIFT
 62
2
 10
1022.370
 20
-6494.133
 30
-689.000
 70
    32
  0
VERTEX
  8
W60LXLIFT
 62
2
 10
1023.223
 20
-6481.349
 30
-689.000
 70
    32
  0
VERTEX
  8
W60LXLIFT
 62
2
 10
1012.788
 20
-6466.629
 30
-689.000
 70
    32
  0
VERTEX
  8
W60LXLIFT
 62
2
 10
1008.516
 20
-6459.074
 30
-689.000
 70
    32
  0
VERTEX
  8
W60LXLIFT
 62
2
 10
1004.114
 20
-6443.682
 30
-689.000
 70
    32
  0
VERTEX
  8
W60LXLIFT
 62
2
 10
998.594
 20
-6427.797
 30
-689.000
 70
    32
  0
VERTEX
  8
W60LXLIFT
 62
2
 10
994.836
 20
-6402.487
 30
-689.000
 70
    32
  0
VERTEX
  8
W60LXLIFT
 62
2
 10
987.151
 20
-6398.923
 30
-689.000
 70
    32
  0
VERTEX
  8
W60LXLIFT
 62
2
 10
986.739
 20
-6395.201
 30
-689.000
 70
    32
  0
SEQEND
  8
W60LXLIFT
  0
POLYLINE
  8
W60LXLIFT
 62
2
 66
     1
 70
     9
  0
VERTEX
  8
W60LXLIFT
 62
2
 10
977.822
 20
-6401.212
 30
-682.000
 70
    32
  0
VERTEX
  8
W60LXLIFT
 62
2
 10
976.176
 20
-6407.944
 30
-682.000
 70
    32
  0
VERTEX
  8
W60LXLIFT
 62
2
 10
977.746
 20
-6420.171
 30
-682.000
 70
    32
  0
VERTEX
  8
W60LXLIFT
 62
2
 10
979.284
 20
-6427.098
 30
-682.000
 70
    32
  0
VERTEX
  8
W60LXLIFT
 62
2
 10
974.417
 20
-6438.987
 30
-682.000
 70
    32
  0
VERTEX
  8
W60LXLIFT
 62
2
 10
977.998
 20
-6452.040
 30
-682.000
 70
    32
  0
VERTEX
  8
W60LXLIFT
 62
2
 10
986.113
 20
-6460.400
 30
-682.000
 70
    32
  0
VERTEX
  8
W60LXLIFT
 62
2
 10
995.596
 20
-6473.201
 30
-682.000
 70
    32
  0
VERTEX
  8
W60LXLIFT
 62
2
 10
1003.459
 20
-6487.066
 30
-682.000
 70
    32
  0
VERTEX
  8
W60LXLIFT
 62
2
 10
1010.141
 20
-6505.154
 30
-682.000
 70
    32
  0
VERTEX
  8
W60LXLIFT
 62
2
 10
1012.899
 20
-6519.021
 30
-682.000
 70
    32
  0
VERTEX
  8
W60LXLIFT
 62
2
 10
1011.865
 20
-6523.898
 30
-682.000
 70
    32
  0
VERTEX
  8
W60LXLIFT
 62
2
 10
1015.741
 20
-6526.851
 30
-682.000
 70
    32
  0
VERTEX
  8
W60LXLIFT
 62
2
 10
1028.365
 20
-6529.882
 30
-682.000
 70
    32
  0
VERTEX
  8
W60LXLIFT
 62
2
 10
1037.465
 20
-6532.096
 30
-682.000
 70
    32
  0
VERTEX
  8
W60LXLIFT
 62
2
 10
1037.833
 20
-6520.747
 30
-682.000
 70
    32
  0
VERTEX
  8
W60LXLIFT
 62
2
 10
1032.815
 20
-6513.514
 30
-682.000
 70
    32
  0
VERTEX
  8
W60LXLIFT
 62
2
 10
1029.398
 20
-6505.340
 30
-682.000
 70
    32
  0
VERTEX
  8
W60LXLIFT
 62
2
 10
1025.716
 20
-6502.355
 30
-682.000
 70
    32
  0
VERTEX
  8
W60LXLIFT
 62
2
 10
1020.004
 20
-6490.410
 30
-682.000
 70
    32
  0
VERTEX
  8
W60LXLIFT
 62
2
 10
1017.541
 20
-6477.851
 30
-682.000
 70
    32
  0
VERTEX
  8
W60LXLIFT
 62
2
 10
998.667
 20
-6445.772
 30
-682.000
 70
    32
  0
VERTEX
  8
W60LXLIFT
 62
2
 10
994.898
 20
-6438.613
 30
-682.000
 70
    32
  0
VERTEX
  8
W60LXLIFT
 62
2
 10
992.663
 20
-6428.170
 30
-682.000
 70
    32
  0
VERTEX
  8
W60LXLIFT
 62
2
 10
991.506
 20
-6413.362
 30
-682.000
 70
    32
  0
VERTEX
  8
W60LXLIFT
 62
2
 10
988.910
 20
-6402.421
 30
-682.000
 70
    32
  0
VERTEX
  8
W60LXLIFT
 62
2
 10
985.799
 20
-6399.023
 30
-682.000
 70
    32
  0
SEQEND
  8
W60LXLIFT
  0
POLYLINE
  8
W60LXLIFT
 62
1
 66
     1
 70
     9
  0
VERTEX
  8
W60LXLIFT
 62
1
 10
986.799
 20
-6398.023
 30
-672.000
 70
    32
  0
VERTEX
  8
W60LXLIFT
 62
1
 10
989.910
 20
-6401.421
 30
-672.000
 70
    32
  0
VERTEX
  8
W60LXLIFT
 62
1
 10
992.506
 20
-6412.362
 30
-672.000
 70
    32
  0
VERTEX
  8
W60LXLIFT
 62
1
 10
993.663
 20
-6427.170
 30
-672.000
 70
    32
  0
VERTEX
  8
W60LXLIFT
 62
1
 10
995.898
 20
-6437.613
 30
-672.000
 70
    32
  0
VERTEX
  8
W60LXLIFT
 62
1
 10
999.667
 20
-6444.772
 30
-672.000
 70
    32
  0
VERTEX
  8
W60LXLIFT
 62
1
 10
1018.541
 20
-6476.851
 30
-672.000
 70
    32
  0
VERTEX
  8
W60LXLIFT
 62
1
 10
1021.004
 20
-6489.410
 30
-672.000
 70
    32
  0
VERTEX
  8
W60LXLIFT
 62
1
 10
1026.716
 20
-6501.355
 30
-672.000
 70
    32
  0
VERTEX
  8
W60LXLIFT
 62
1
 10
1030.398
 20
-6504.340
 30
-672.000
 70
    32
  0
VERTEX
  8
W60LXLIFT
 62
1
 10
1033.815
 20
-6512.514
 30
-672.000
 70
    32
  0
VERTEX
  8
W60LXLIFT
 62
1
 10
1038.833
 20
-6519.747
 30
-672.000
 70
    32
  0
VERTEX
  8
W60LXLIFT
 62
1
 10
1038.465
 20
-6531.096
 30
-672.000
 70
    32
  0
VERTEX
  8
W60LXLIFT
 62
1
 10
1029.365
 20
-6528.882
 30
-672.000
 70
    32
  0
VERTEX
  8
W60LXLIFT
 62
1
 10
1016.741
 20
-6525.851
 30
-672.000
 70
    32
  0
VERTEX
  8
W60LXLIFT
 62
1
 10
1012.865
 20
-6522.898
 30
-672.000
 70
    32
  0
VERTEX
  8
W60LXLIFT
 62
1
 10
1013.899
 20
-6518.021
 30
-672.000
 70
    32
  0
VERTEX
  8
W60LXLIFT
 62
1
 10
1011.141
 20
-6504.154
 30
-672.000
 70
    32
  0
VERTEX
  8
W60LXLIFT
 62
1
 10
1004.459
 20
-6486.066
 30
-672.000
 70
    32
  0
VERTEX
  8
W60LXLIFT
 62
1
 10
996.596
 20
-6472.201
 30
-672.000
 70
    32
  0
VERTEX
  8
W60LXLIFT
 62
1
 10
987.113
 20
-6459.400
 30
-672.000
 70
    32
  0
VERTEX
  8
W60LXLIFT
 62
1
 10
978.998
 20
-6451.040
 30
-672.000
 70
    32
  0
VERTEX
  8
W60LXLIFT
 62
1
 10
975.417
 20
-6437.987
 30
-672.000
 70
    32
  0
VERTEX
  8
W60LXLIFT
 62
1
 10
980.284
 20
-6426.098
 30
-672.000
 70
    32
  0
VERTEX
  8
W60LXLIFT
 62
1
 10
978.746
 20
-6419.171
 30
-672.000
 70
    32
  0
VERTEX
  8
W60LXLIFT
 62
1
 10
977.176
 20
-6406.944
 30
-672.000
 70
    32
  0
VERTEX
  8
W60LXLIFT
 62
1
 10
978.822
 20
-6400.212
 30
-672.000
 70
    32
  0
SEQEND
  8
W60LXLIFT
  0
POLYLINE
  8
W60LXLIFT
 62
11
 66
     1
 70
     9
  0
VERTEX
  8
W60LXLIFT
 62
11
 10
721.722
 20
-5760.092
 30
-676.000
 70
    32
  0
VERTEX
  8
W60LXLIFT
 62
11
 10
717.063
 20
-5743.147
 30
-676.000
 70
    32
  0
VERTEX
  8
W60LXLIFT
 62
11
 10
706.487
 20
-5738.743
 30
-676.000
 70
    32
  0
VERTEX
  8
W60LXLIFT
 62
11
 10
699.465
 20
-5733.395
 30
-676.000
 70
    32
  0
VERTEX
  8
W60LXLIFT
 62
11
 10
696.146
 20
-5724.606
 30
-676.000
 70
    32
  0
VERTEX
  8
W60LXLIFT
 62
11
 10
699.892
 20
-5713.420
 30
-676.000
 70
    32
  0
VERTEX
  8
W60LXLIFT
 62
11
 10
708.687
 20
-5701.404
 30
-676.000
 70
    32
  0
VERTEX
  8
W60LXLIFT
 62
11
 10
718.711
 20
-5692.737
 30
-676.000
 70
    32
  0
VERTEX
  8
W60LXLIFT
 62
11
 10
714.996
 20
-5681.301
 30
-676.000
 70
    32
  0
VERTEX
  8
W60LXLIFT
 62
11
 10
718.799
 20
-5667.792
 30
-676.000
 70
    32
  0
VERTEX
  8
W60LXLIFT
 62
11
 10
702.507
 20
-5655.791
 30
-676.000
 70
    32
  0
VERTEX
  8
W60LXLIFT
 62
11
 10
700.392
 20
-5649.716
 30
-676.000
 70
    32
  0
VERTEX
  8
W60LXLIFT
 62
11
 10
699.594
 20
-5633.453
 30
-676.000
 70
    32
  0
VERTEX
  8
W60LXLIFT
 62
11
 10
675.573
 20
-5611.074
 30
-676.000
 70
    32
  0
VERTEX
  8
W60LXLIFT
 62
11
 10
671.304
 20
-5610.580
 30
-676.000
 70
    32
  0
VERTEX
  8
W60LXLIFT
 62
11
 10
662.438
 20
-5619.496
 30
-676.000
 70
    32
  0
VERTEX
  8
W60LXLIFT
 62
11
 10
662.408
 20
-5624.407
 30
-676.000
 70
    32
  0
VERTEX
  8
W60LXLIFT
 62
11
 10
664.718
 20
-5635.555
 30
-676.000
 70
    32
  0
VERTEX
  8
W60LXLIFT
 62
11
 10
668.388
 20
-5672.447
 30
-676.000
 70
    32
  0
VERTEX
  8
W60LXLIFT
 62
11
 10
671.662
 20
-5695.283
 30
-676.000
 70
    32
  0
VERTEX
  8
W60LXLIFT
 62
11
 10
670.606
 20
-5701.480
 30
-676.000
 70
    32
  0
VERTEX
  8
W60LXLIFT
 62
11
 10
663.806
 20
-5706.945
 30
-676.000
 70
    32
  0
VERTEX
  8
W60LXLIFT
 62
11
 10
661.937
 20
-5712.318
 30
-676.000
 70
    32
  0
VERTEX
  8
W60LXLIFT
 62
11
 10
665.737
 20
-5722.823
 30
-676.000
 70
    32
  0
VERTEX
  8
W60LXLIFT
 62
11
 10
670.770
 20
-5729.175
 30
-676.000
 70
    32
  0
VERTEX
  8
W60LXLIFT
 62
11
 10
673.927
 20
-5738.190
 30
-676.000
 70
    32
  0
VERTEX
  8
W60LXLIFT
 62
11
 10
675.755
 20
-5742.517
 30
-676.000
 70
    32
  0
VERTEX
  8
W60LXLIFT
 62
11
 10
673.684
 20
-5748.362
 30
-676.000
 70
    32
  0
VERTEX
  8
W60LXLIFT
 62
11
 10
687.050
 20
-5752.268
 30
-676.000
 70
    32
  0
VERTEX
  8
W60LXLIFT
 62
11
 10
691.711
 20
-5748.351
 30
-676.000
 70
    32
  0
VERTEX
  8
W60LXLIFT
 62
11
 10
695.705
 20
-5750.566
 30
-676.000
 70
    32
  0
VERTEX
  8
W60LXLIFT
 62
11
 10
702.707
 20
-5759.188
 30
-676.000
 70
    32
  0
VERTEX
  8
W60LXLIFT
 62
11
 10
714.951
 20
-5766.949
 30
-676.000
 70
    32
  0
SEQEND
  8
W60LXLIFT
  0
POLYLINE
  8
W60LXLIFT
 62
11
 66
     1
 70
     9
  0
VERTEX
  8
W60LXLIFT
 62
11
 10
719.812
 20
-5735.051
 30
-667.000
 70
    32
  0
VERTEX
  8
W60LXLIFT
 62
11
 10
710.681
 20
-5728.403
 30
-667.000
 70
    32
  0
VERTEX
  8
W60LXLIFT
 62
11
 10
701.413
 20
-5720.660
 30
-667.000
 70
    32
  0
VERTEX
  8
W60LXLIFT
 62
11
 10
694.143
 20
-5711.477
 30
-667.000
 70
    32
  0
VERTEX
  8
W60LXLIFT
 62
11
 10
694.812
 20
-5707.742
 30
-667.000
 70
    32
  0
VERTEX
  8
W60LXLIFT
 62
11
 10
711.841
 20
-5694.056
 30
-667.000
 70
    32
  0
VERTEX
  8
W60LXLIFT
 62
11
 10
708.883
 20
-5688.597
 30
-667.000
 70
    32
  0
VERTEX
  8
W60LXLIFT
 62
11
 10
708.133
 20
-5680.787
 30
-667.000
 70
    32
  0
VERTEX
  8
W60LXLIFT
 62
11
 10
706.315
 20
-5662.469
 30
-667.000
 70
    32
  0
VERTEX
  8
W60LXLIFT
 62
11
 10
702.040
 20
-5657.742
 30
-667.000
 70
    32
  0
VERTEX
  8
W60LXLIFT
 62
11
 10
693.500
 20
-5650.559
 30
-667.000
 70
    32
  0
VERTEX
  8
W60LXLIFT
 62
11
 10
695.768
 20
-5640.465
 30
-667.000
 70
    32
  0
VERTEX
  8
W60LXLIFT
 62
11
 10
694.145
 20
-5634.152
 30
-667.000
 70
    32
  0
VERTEX
  8
W60LXLIFT
 62
11
 10
685.324
 20
-5613.941
 30
-667.000
 70
    32
  0
VERTEX
  8
W60LXLIFT
 62
11
 10
678.347
 20
-5599.450
 30
-667.000
 70
    32
  0
VERTEX
  8
W60LXLIFT
 62
11
 10
671.376
 20
-5597.751
 30
-667.000
 70
    32
  0
VERTEX
  8
W60LXLIFT
 62
11
 10
666.379
 20
-5593.979
 30
-667.000
 70
    32
  0
VERTEX
  8
W60LXLIFT
 62
11
 10
658.301
 20
-5596.765
 30
-667.000
 70
    32
  0
VERTEX
  8
W60LXLIFT
 62
11
 10
654.599
 20
-5603.664
 30
-667.000
 70
    32
  0
VERTEX
  8
W60LXLIFT
 62
11
 10
652.422
 20
-5613.583
 30
-667.000
 70
    32
  0
VERTEX
  8
W60LXLIFT
 62
11
 10
657.722
 20
-5628.307
 30
-667.000
 70
    32
  0
VERTEX
  8
W60LXLIFT
 62
11
 10
660.596
 20
-5640.117
 30
-667.000
 70
    32
  0
VERTEX
  8
W60LXLIFT
 62
11
 10
662.969
 20
-5644.913
 30
-667.000
 70
    32
  0
VERTEX
  8
W60LXLIFT
 62
11
 10
661.227
 20
-5660.701
 30
-667.000
 70
    32
  0
VERTEX
  8
W60LXLIFT
 62
11
 10
669.760
 20
-5675.697
 30
-667.000
 70
    32
  0
VERTEX
  8
W60LXLIFT
 62
11
 10
662.508
 20
-5713.026
 30
-667.000
 70
    32
  0
VERTEX
  8
W60LXLIFT
 62
11
 10
686.168
 20
-5745.097
 30
-667.000
 70
    32
  0
VERTEX
  8
W60LXLIFT
 62
11
 10
707.321
 20
-5759.998
 30
-667.000
 70
    32
  0
SEQEND
  8
W60LXLIFT
  0
POLYLINE
  8
W60LXLIFT
 62
1
 66
     1
 70
     9
  0
VERTEX
  8
W60LXLIFT
 62
1
 10
708.321
 20
-5758.998
 30
-653.000
 70
    32
  0
VERTEX
  8
W60LXLIFT
 62
1
 10
687.168
 20
-5744.097
 30
-653.000
 70
    32
  0
VERTEX
  8
W60LXLIFT
 62
1
 10
663.508
 20
-5712.026
 30
-653.000
 70
    32
  0
VERTEX
  8
W60LXLIFT
 62
1
 10
670.760
 20
-5674.697
 30
-653.000
 70
    32
  0
VERTEX
  8
W60LXLIFT
 62
1
 10
662.227
 20
-5659.701
 30
-653.000
 70
    32
  0
VERTEX
  8
W60LXLIFT
 62
1
 10
663.969
 20
-5643.913
 30
-653.000
 70
    32
  0
VERTEX
  8
W60LXLIFT
 62
1
 10
661.596
 20
-5639.117
 30
-653.000
 70
    32
  0
VERTEX
  8
W60LXLIFT
 62
1
 10
658.722
 20
-5627.307
 30
-653.000
 70
    32
  0
VERTEX
  8
W60LXLIFT
 62
1
 10
653.422
 20
-5612.583
 30
-653.000
 70
    32
  0
VERTEX
  8
W60LXLIFT
 62
1
 10
655.599
 20
-5602.664
 30
-653.000
 70
    32
  0
VERTEX
  8
W60LXLIFT
 62
1
 10
659.301
 20
-5595.765
 30
-653.000
 70
    32
  0
VERTEX
  8
W60LXLIFT
 62
1
 10
667.379
 20
-5592.979
 30
-653.000
 70
    32
  0
VERTEX
  8
W60LXLIFT
 62
1
 10
672.376
 20
-5596.751
 30
-653.000
 70
    32
  0
VERTEX
  8
W60LXLIFT
 62
1
 10
679.347
 20
-5598.450
 30
-653.000
 70
    32
  0
VERTEX
  8
W60LXLIFT
 62
1
 10
686.324
 20
-5612.941
 30
-653.000
 70
    32
  0
VERTEX
  8
W60LXLIFT
 62
1
 10
695.145
 20
-5633.152
 30
-653.000
 70
    32
  0
VERTEX
  8
W60LXLIFT
 62
1
 10
696.768
 20
-5639.465
 30
-653.000
 70
    32
  0
VERTEX
  8
W60LXLIFT
 62
1
 10
694.500
 20
-5649.559
 30
-653.000
 70
    32
  0
VERTEX
  8
W60LXLIFT
 62
1
 10
703.040
 20
-5656.742
 30
-653.000
 70
    32
  0
VERTEX
  8
W60LXLIFT
 62
1
 10
707.315
 20
-5661.469
 30
-653.000
 70
    32
  0
VERTEX
  8
W60LXLIFT
 62
1
 10
709.133
 20
-5679.787
 30
-653.000
 70
    32
  0
VERTEX
  8
W60LXLIFT
 62
1
 10
709.883
 20
-5687.597
 30
-653.000
 70
    32
  0
VERTEX
  8
W60LXLIFT
 62
1
 10
712.841
 20
-5693.056
 30
-653.000
 70
    32
  0
VERTEX
  8
W60LXLIFT
 62
1
 10
695.812
 20
-5706.742
 30
-653.000
 70
    32
  0
VERTEX
  8
W60LXLIFT
 62
1
 10
695.143
 20
-5710.477
 30
-653.000
 70
    32
  0
VERTEX
  8
W60LXLIFT
 62
1
 10
702.413
 20
-5719.660
 30
-653.000
 70
    32
  0
VERTEX
  8
W60LXLIFT
 62
1
 10
711.681
 20
-5727.403
 30
-653.000
 70
    32
  0
VERTEX
  8
W60LXLIFT
 62
1
 10
720.812
 20
-5734.051
 30
-653.000
 70
    32
  0
SEQEND
  8
W60LXLIFT
  0
POLYLINE
  8
W60LXLIFT
 62
5
 66
     1
 70
     9
  0
VERTEX
  8
W60LXLIFT
 62
5
 10
996.713
 20
-5871.780
 30
-751.000
 70
    32
  0
VERTEX
  8
W60LXLIFT
 62
5
 10
1008.531
 20
-5883.520
 30
-751.000
 70
    32
  0
VERTEX
  8
W60LXLIFT
 62
5
 10
1012.830
 20
-5896.758
 30
-751.000
 70
    32
  0
VERTEX
  8
W60LXLIFT
 62
5
 10
1012.453
 20
-5904.763
 30
-751.000
 70
    32
  0
VERTEX
  8
W60LXLIFT
 62
5
 10
1007.041
 20
-5922.299
 30
-751.000
 70
    32
  0
VERTEX
  8
W60LXLIFT
 62
5
 10
1005.239
 20
-5933.909
 30
-751.000
 70
    32
  0
VERTEX
  8
W60LXLIFT
 62
5
 10
1015.100
 20
-5940.371
 30
-751.000
 70
    32
  0
VERTEX
  8
W60LXLIFT
 62
5
 10
1015.512
 20
-5958.372
 30
-751.000
 70
    32
  0
VERTEX
  8
W60LXLIFT
 62
5
 10
1018.664
 20
-5976.664
 30
-751.000
 70
    32
  0
VERTEX
  8
W60LXLIFT
 62
5
 10
1024.293
 20
-5980.347
 30
-751.000
 70
    32
  0
VERTEX
  8
W60LXLIFT
 62
5
 10
1029.478
 20
-5988.706
 30
-751.000
 70
    32
  0
VERTEX
  8
W60LXLIFT
 62
5
 10
1035.060
 20
-5998.642
 30
-751.000
 70
    32
  0
VERTEX
  8
W60LXLIFT
 62
5
 10
1042.804
 20
-5999.872
 30
-751.000
 70
    32
  0
VERTEX
  8
W60LXLIFT
 62
5
 10
1057.421
 20
-6014.790
 30
-751.000
 70
    32
  0
VERTEX
  8
W60LXLIFT
 62
5
 10
1057.715
 20
-6015.085
 30
-751.000
 70
    32
  0
VERTEX
  8
W60LXLIFT
 62
5
 10
1057.896
 20
-6015.221
 30
-751.000
 70
    32
  0
VERTEX
  8
W60LXLIFT
 62
5
 10
1059.883
 20
-6020.589
 30
-751.000
 70
    32
  0
VERTEX
  8
W60LXLIFT
 62
5
 10
1080.694
 20
-6053.334
 30
-751.000
 70
    32
  0
VERTEX
  8
W60LXLIFT
 62
5
 10
1088.963
 20
-6073.416
 30
-751.000
 70
    32
  0
VERTEX
  8
W60LXLIFT
 62
5
 10
1092.594
 20
-6091.463
 30
-751.000
 70
    32
  0
VERTEX
  8
W60LXLIFT
 62
5
 10
1085.712
 20
-6104.555
 30
-751.000
 70
    32
  0
VERTEX
  8
W60LXLIFT
 62
5
 10
1085.284
 20
-6104.746
 30
-751.000
 70
    32
  0
VERTEX
  8
W60LXLIFT
 62
5
 10
1080.540
 20
-6104.497
 30
-751.000
 70
    32
  0
VERTEX
  8
W60LXLIFT
 62
5
 10
1078.855
 20
-6108.808
 30
-751.000
 70
    32
  0
VERTEX
  8
W60LXLIFT
 62
5
 10
1084.118
 20
-6111.846
 30
-751.000
 70
    32
  0
VERTEX
  8
W60LXLIFT
 62
5
 10
1091.214
 20
-6120.310
 30
-751.000
 70
    32
  0
VERTEX
  8
W60LXLIFT
 62
5
 10
1094.268
 20
-6133.213
 30
-751.000
 70
    32
  0
VERTEX
  8
W60LXLIFT
 62
5
 10
1099.590
 20
-6134.735
 30
-751.000
 70
    32
  0
VERTEX
  8
W60LXLIFT
 62
5
 10
1102.603
 20
-6139.805
 30
-751.000
 70
    32
  0
VERTEX
  8
W60LXLIFT
 62
5
 10
1108.772
 20
-6137.940
 30
-751.000
 70
    32
  0
VERTEX
  8
W60LXLIFT
 62
5
 10
1120.352
 20
-6123.792
 30
-751.000
 70
    32
  0
VERTEX
  8
W60LXLIFT
 62
5
 10
1115.625
 20
-6116.872
 30
-751.000
 70
    32
  0
VERTEX
  8
W60LXLIFT
 62
5
 10
1110.705
 20
-6100.963
 30
-751.000
 70
    32
  0
VERTEX
  8
W60LXLIFT
 62
5
 10
1110.102
 20
-6097.642
 30
-751.000
 70
    32
  0
VERTEX
  8
W60LXLIFT
 62
5
 10
1110.940
 20
-6096.525
 30
-751.000
 70
    32
  0
VERTEX
  8
W60LXLIFT
 62
5
 10
1108.257
 20
-6088.318
 30
-751.000
 70
    32
  0
VERTEX
  8
W60LXLIFT
 62
5
 10
1111.206
 20
-6082.620
 30
-751.000
 70
    32
  0
VERTEX
  8
W60LXLIFT
 62
5
 10
1105.135
 20
-6066.068
 30
-751.000
 70
    32
  0
VERTEX
  8
W60LXLIFT
 62
5
 10
1097.919
 20
-6056.666
 30
-751.000
 70
    32
  0
VERTEX
  8
W60LXLIFT
 62
5
 10
1094.758
 20
-6049.533
 30
-751.000
 70
    32
  0
VERTEX
  8
W60LXLIFT
 62
5
 10
1089.068
 20
-6042.783
 30
-751.000
 70
    32
  0
VERTEX
  8
W60LXLIFT
 62
5
 10
1081.057
 20
-6030.900
 30
-751.000
 70
    32
  0
VERTEX
  8
W60LXLIFT
 62
5
 10
1070.865
 20
-6014.825
 30
-751.000
 70
    32
  0
VERTEX
  8
W60LXLIFT
 62
5
 10
1069.912
 20
-6011.048
 30
-751.000
 70
    32
  0
VERTEX
  8
W60LXLIFT
 62
5
 10
1071.314
 20
-6007.933
 30
-751.000
 70
    32
  0
VERTEX
  8
W60LXLIFT
 62
5
 10
1063.920
 20
-6001.212
 30
-751.000
 70
    32
  0
VERTEX
  8
W60LXLIFT
 62
5
 10
1063.634
 20
-6001.045
 30
-751.000
 70
    32
  0
VERTEX
  8
W60LXLIFT
 62
5
 10
1054.254
 20
-5992.446
 30
-751.000
 70
    32
  0
VERTEX
  8
W60LXLIFT
 62
5
 10
1042.377
 20
-5981.184
 30
-751.000
 70
    32
  0
VERTEX
  8
W60LXLIFT
 62
5
 10
1037.008
 20
-5969.265
 30
-751.000
 70
    32
  0
VERTEX
  8
W60LXLIFT
 62
5
 10
1034.285
 20
-5958.719
 30
-751.000
 70
    32
  0
VERTEX
  8
W60LXLIFT
 62
5
 10
1027.969
 20
-5948.469
 30
-751.000
 70
    32
  0
VERTEX
  8
W60LXLIFT
 62
5
 10
1025.112
 20
-5922.151
 30
-751.000
 70
    32
  0
VERTEX
  8
W60LXLIFT
 62
5
 10
1029.819
 20
-5916.235
 30
-751.000
 70
    32
  0
VERTEX
  8
W60LXLIFT
 62
5
 10
1030.545
 20
-5905.233
 30
-751.000
 70
    32
  0
VERTEX
  8
W60LXLIFT
 62
5
 10
1024.235
 20
-5888.701
 30
-751.000
 70
    32
  0
VERTEX
  8
W60LXLIFT
 62
5
 10
1016.764
 20
-5873.400
 30
-751.000
 70
    32
  0
VERTEX
  8
W60LXLIFT
 62
5
 10
1006.474
 20
-5863.445
 30
-751.000
 70
    32
  0
SEQEND
  8
W60LXLIFT
  0
POLYLINE
  8
W60LXLIFT
 62
1
 66
     1
 70
     9
  0
VERTEX
  8
W60LXLIFT
 62
1
 10
1644.672
 20
-8632.318
 30
-717.000
 70
    32
  0
VERTEX
  8
W60LXLIFT
 62
1
 10
1646.400
 20
-8639.145
 30
-717.000
 70
    32
  0
VERTEX
  8
W60LXLIFT
 62
1
 10
1654.405
 20
-8648.620
 30
-717.000
 70
    32
  0
VERTEX
  8
W60LXLIFT
 62
1
 10
1653.589
 20
-8663.467
 30
-717.000
 70
    32
  0
VERTEX
  8
W60LXLIFT
 62
1
 10
1659.359
 20
-8690.478
 30
-717.000
 70
    32
  0
VERTEX
  8
W60LXLIFT
 62
1
 10
1651.856
 20
-8692.666
 30
-717.000
 70
    32
  0
VERTEX
  8
W60LXLIFT
 62
1
 10
1642.355
 20
-8692.092
 30
-717.000
 70
    32
  0
VERTEX
  8
W60LXLIFT
 62
1
 10
1636.397
 20
-8675.464
 30
-717.000
 70
    32
  0
VERTEX
  8
W60LXLIFT
 62
1
 10
1629.919
 20
-8638.191
 30
-717.000
 70
    32
  0
VERTEX
  8
W60LXLIFT
 62
1
 10
1627.299
 20
-8629.004
 30
-717.000
 70
    32
  0
VERTEX
  8
W60LXLIFT
 62
1
 10
1613.595
 20
-8609.223
 30
-717.000
 70
    32
  0
VERTEX
  8
W60LXLIFT
 62
1
 10
1602.876
 20
-8591.834
 30
-717.000
 70
    32
  0
VERTEX
  8
W60LXLIFT
 62
1
 10
1594.425
 20
-8575.078
 30
-717.000
 70
    32
  0
VERTEX
  8
W60LXLIFT
 62
1
 10
1592.197
 20
-8560.396
 30
-717.000
 70
    32
  0
VERTEX
  8
W60LXLIFT
 62
1
 10
1584.502
 20
-8548.576
 30
-717.000
 70
    32
  0
VERTEX
  8
W60LXLIFT
 62
1
 10
1581.558
 20
-8543.755
 30
-717.000
 70
    32
  0
VERTEX
  8
W60LXLIFT
 62
1
 10
1577.856
 20
-8532.628
 30
-717.000
 70
    32
  0
VERTEX
  8
W60LXLIFT
 62
1
 10
1566.767
 20
-8523.825
 30
-717.000
 70
    32
  0
VERTEX
  8
W60LXLIFT
 62
1
 10
1568.385
 20
-8504.162
 30
-717.000
 70
    32
  0
VERTEX
  8
W60LXLIFT
 62
1
 10
1558.905
 20
-8491.509
 30
-717.000
 70
    32
  0
VERTEX
  8
W60LXLIFT
 62
1
 10
1553.879
 20
-8479.804
 30
-717.000
 70
    32
  0
VERTEX
  8
W60LXLIFT
 62
1
 10
1542.797
 20
-8455.765
 30
-717.000
 70
    32
  0
VERTEX
  8
W60LXLIFT
 62
1
 10
1540.351
 20
-8452.332
 30
-717.000
 70
    32
  0
VERTEX
  8
W60LXLIFT
 62
1
 10
1539.508
 20
-8452.042
 30
-717.000
 70
    32
  0
VERTEX
  8
W60LXLIFT
 62
1
 10
1537.899
 20
-8451.497
 30
-717.000
 70
    32
  0
VERTEX
  8
W60LXLIFT
 62
1
 10
1539.100
 20
-8440.726
 30
-717.000
 70
    32
  0
VERTEX
  8
W60LXLIFT
 62
1
 10
1539.873
 20
-8440.371
 30
-717.000
 70
    32
  0
VERTEX
  8
W60LXLIFT
 62
1
 10
1543.973
 20
-8438.719
 30
-717.000
 70
    32
  0
VERTEX
  8
W60LXLIFT
 62
1
 10
1544.149
 20
-8428.647
 30
-717.000
 70
    32
  0
VERTEX
  8
W60LXLIFT
 62
1
 10
1541.370
 20
-8411.095
 30
-717.000
 70
    32
  0
VERTEX
  8
W60LXLIFT
 62
1
 10
1536.423
 20
-8399.652
 30
-717.000
 70
    32
  0
VERTEX
  8
W60LXLIFT
 62
1
 10
1532.537
 20
-8387.311
 30
-717.000
 70
    32
  0
VERTEX
  8
W60LXLIFT
 62
1
 10
1530.448
 20
-8381.922
 30
-717.000
 70
    32
  0
VERTEX
  8
W60LXLIFT
 62
1
 10
1529.841
 20
-8379.905
 30
-717.000
 70
    32
  0
VERTEX
  8
W60LXLIFT
 62
1
 10
1524.948
 20
-8362.826
 30
-717.000
 70
    32
  0
VERTEX
  8
W60LXLIFT
 62
1
 10
1514.242
 20
-8342.896
 30
-717.000
 70
    32
  0
VERTEX
  8
W60LXLIFT
 62
1
 10
1512.471
 20
-8335.885
 30
-717.000
 70
    32
  0
VERTEX
  8
W60LXLIFT
 62
1
 10
1510.435
 20
-8332.016
 30
-717.000
 70
    32
  0
VERTEX
  8
W60LXLIFT
 62
1
 10
1515.653
 20
-8329.726
 30
-717.000
 70
    32
  0
VERTEX
  8
W60LXLIFT
 62
1
 10
1521.015
 20
-8327.524
 30
-717.000
 70
    32
  0
VERTEX
  8
W60LXLIFT
 62
1
 10
1524.255
 20
-8336.385
 30
-717.000
 70
    32
  0
VERTEX
  8
W60LXLIFT
 62
1
 10
1532.425
 20
-8353.136
 30
-717.000
 70
    32
  0
VERTEX
  8
W60LXLIFT
 62
1
 10
1540.304
 20
-8368.510
 30
-717.000
 70
    32
  0
VERTEX
  8
W60LXLIFT
 62
1
 10
1540.947
 20
-8369.931
 30
-717.000
 70
    32
  0
VERTEX
  8
W60LXLIFT
 62
1
 10
1545.908
 20
-8372.790
 30
-717.000
 70
    32
  0
VERTEX
  8
W60LXLIFT
 62
1
 10
1550.964
 20
-8379.317
 30
-717.000
 70
    32
  0
VERTEX
  8
W60LXLIFT
 62
1
 10
1557.770
 20
-8397.295
 30
-717.000
 70
    32
  0
VERTEX
  8
W60LXLIFT
 62
1
 10
1563.249
 20
-8424.304
 30
-717.000
 70
    32
  0
VERTEX
  8
W60LXLIFT
 62
1
 10
1574.336
 20
-8453.164
 30
-717.000
 70
    32
  0
VERTEX
  8
W60LXLIFT
 62
1
 10
1569.413
 20
-8463.613
 30
-717.000
 70
    32
  0
VERTEX
  8
W60LXLIFT
 62
1
 10
1574.673
 20
-8478.152
 30
-717.000
 70
    32
  0
VERTEX
  8
W60LXLIFT
 62
1
 10
1570.548
 20
-8480.977
 30
-717.000
 70
    32
  0
VERTEX
  8
W60LXLIFT
 62
1
 10
1574.459
 20
-8487.986
 30
-717.000
 70
    32
  0
VERTEX
  8
W60LXLIFT
 62
1
 10
1585.530
 20
-8501.378
 30
-717.000
 70
    32
  0
VERTEX
  8
W60LXLIFT
 62
1
 10
1590.662
 20
-8514.557
 30
-717.000
 70
    32
  0
VERTEX
  8
W60LXLIFT
 62
1
 10
1587.177
 20
-8516.521
 30
-717.000
 70
    32
  0
VERTEX
  8
W60LXLIFT
 62
1
 10
1594.820
 20
-8540.774
 30
-717.000
 70
    32
  0
VERTEX
  8
W60LXLIFT
 62
1
 10
1596.228
 20
-8544.006
 30
-717.000
 70
    32
  0
VERTEX
  8
W60LXLIFT
 62
1
 10
1608.490
 20
-8568.662
 30
-717.000
 70
    32
  0
VERTEX
  8
W60LXLIFT
 62
1
 10
1621.152
 20
-8592.182
 30
-717.000
 70
    32
  0
VERTEX
  8
W60LXLIFT
 62
1
 10
1644.467
 20
-8630.963
 30
-717.000
 70
    32
  0
VERTEX
  8
W60LXLIFT
 62
1
 10
1644.672
 20
-8632.318
 30
-717.000
 70
    32
  0
SEQEND
  8
W60LXLIFT
  0
POLYLINE
  8
W60LXLIFT
 62
5
 66
     1
 70
     9
  0
VERTEX
  8
W60LXLIFT
 62
5
 10
1503.407
 20
-8353.399
 30
-798.465
 70
    32
  0
VERTEX
  8
W60LXLIFT
 62
5
 10
1502.110
 20
-8343.622
 30
-798.171
 70
    32
  0
VERTEX
  8
W60LXLIFT
 62
5
 10
1501.745
 20
-8340.872
 30
-797.298
 70
    32
  0
VERTEX
  8
W60LXLIFT
 62
5
 10
1502.020
 20
-8336.587
 30
-797.208
 70
    32
  0
VERTEX
  8
W60LXLIFT
 62
5
 10
1498.296
 20
-8319.790
 30
-797.208
 70
    32
  0
VERTEX
  8
W60LXLIFT
 62
5
 10
1509.289
 20
-8326.311
 30
-797.208
 70
    32
  0
VERTEX
  8
W60LXLIFT
 62
5
 10
1510.292
 20
-8326.906
 30
-797.838
 70
    32
  0
VERTEX
  8
W60LXLIFT
 62
5
 10
1509.832
 20
-8328.850
 30
-798.112
 70
    32
  0
VERTEX
  8
W60LXLIFT
 62
5
 10
1511.288
 20
-8336.410
 30
-800.265
 70
    32
  0
VERTEX
  8
W60LXLIFT
 62
5
 10
1529.293
 20
-8355.855
 30
-802.510
 70
    32
  0
VERTEX
  8
W60LXLIFT
 62
5
 10
1541.470
 20
-8372.510
 30
-803.822
 70
    32
  0
VERTEX
  8
W60LXLIFT
 62
5
 10
1533.359
 20
-8379.064
 30
-803.775
 70
    32
  0
VERTEX
  8
W60LXLIFT
 62
5
 10
1522.083
 20
-8362.745
 30
-801.724
 70
    32
  0
VERTEX
  8
W60LXLIFT
 62
5
 10
1512.797
 20
-8360.044
 30
-800.605
 70
    32
  0
SEQEND
  8
W60LXLIFT
  0
POLYLINE
  8
W60LXLIFT
 62
5
 66
     1
 70
     9
  0
VERTEX
  8
W60LXLIFT
 62
5
 10
1379.664
 20
-8337.522
 30
-709.136
 70
    32
  0
VERTEX
  8
W60LXLIFT
 62
5
 10
1413.020
 20
-8315.908
 30
-709.784
 70
    32
  0
VERTEX
  8
W60LXLIFT
 62
5
 10
1421.312
 20
-8323.688
 30
-711.798
 70
    32
  0
VERTEX
  8
W60LXLIFT
 62
5
 10
1420.000
 20
-8325.000
 30
-712.441
 70
    32
  0
VERTEX
  8
W60LXLIFT
 62
5
 10
1420.000
 20
-8335.000
 30
-713.899
 70
    32
  0
VERTEX
  8
W60LXLIFT
 62
5
 10
1425.951
 20
-8335.000
 30
-714.766
 70
    32
  0
VERTEX
  8
W60LXLIFT
 62
5
 10
1427.913
 20
-8333.466
 30
-715.224
 70
    32
  0
VERTEX
  8
W60LXLIFT
 62
5
 10
1435.328
 20
-8331.818
 30
-715.832
 70
    32
  0
VERTEX
  8
W60LXLIFT
 62
5
 10
1436.231
 20
-8334.971
 30
-717.065
 70
    32
  0
VERTEX
  8
W60LXLIFT
 62
5
 10
1441.376
 20
-8337.684
 30
-718.181
 70
    32
  0
VERTEX
  8
W60LXLIFT
 62
5
 10
1446.445
 20
-8337.370
 30
-718.185
 70
    32
  0
VERTEX
  8
W60LXLIFT
 62
5
 10
1451.949
 20
-8341.516
 30
-718.185
 70
    32
  0
VERTEX
  8
W60LXLIFT
 62
5
 10
1455.624
 20
-8348.779
 30
-718.185
 70
    32
  0
VERTEX
  8
W60LXLIFT
 62
5
 10
1440.355
 20
-8367.317
 30
-717.819
 70
    32
  0
VERTEX
  8
W60LXLIFT
 62
5
 10
1429.116
 20
-8356.180
 30
-716.073
 70
    32
  0
VERTEX
  8
W60LXLIFT
 62
5
 10
1427.568
 20
-8349.189
 30
-715.504
 70
    32
  0
VERTEX
  8
W60LXLIFT
 62
5
 10
1398.541
 20
-8339.514
 30
-711.395
 70
    32
  0
VERTEX
  8
W60LXLIFT
 62
5
 10
1383.724
 20
-8348.460
 30
-710.335
 70
    32
  0
SEQEND
  8
W60LXLIFT
  0
POLYLINE
  8
W60LXLIFT
 62
13
 66
     1
 70
     9
  0
VERTEX
  8
W60LXLIFT
 62
13
 10
1490.877
 20
-8288.464
 30
-719.000
 70
    32
  0
VERTEX
  8
W60LXLIFT
 62
13
 10
1501.936
 20
-8307.250
 30
-719.000
 70
    32
  0
VERTEX
  8
W60LXLIFT
 62
13
 10
1509.655
 20
-8324.111
 30
-719.000
 70
    32
  0
VERTEX
  8
W60LXLIFT
 62
13
 10
1524.240
 20
-8323.451
 30
-719.000
 70
    32
  0
VERTEX
  8
W60LXLIFT
 62
13
 10
1527.083
 20
-8321.834
 30
-719.000
 70
    32
  0
VERTEX
  8
W60LXLIFT
 62
13
 10
1528.285
 20
-8316.741
 30
-719.000
 70
    32
  0
VERTEX
  8
W60LXLIFT
 62
13
 10
1526.446
 20
-8307.882
 30
-719.000
 70
    32
  0
VERTEX
  8
W60LXLIFT
 62
13
 10
1519.582
 20
-8297.014
 30
-719.000
 70
    32
  0
VERTEX
  8
W60LXLIFT
 62
13
 10
1518.668
 20
-8282.829
 30
-719.000
 70
    32
  0
VERTEX
  8
W60LXLIFT
 62
13
 10
1520.052
 20
-8279.339
 30
-719.000
 70
    32
  0
VERTEX
  8
W60LXLIFT
 62
13
 10
1512.639
 20
-8271.466
 30
-719.000
 70
    32
  0
VERTEX
  8
W60LXLIFT
 62
13
 10
1509.078
 20
-8256.915
 30
-719.000
 70
    32
  0
VERTEX
  8
W60LXLIFT
 62
13
 10
1512.036
 20
-8247.196
 30
-719.000
 70
    32
  0
VERTEX
  8
W60LXLIFT
 62
13
 10
1503.346
 20
-8239.054
 30
-719.000
 70
    32
  0
VERTEX
  8
W60LXLIFT
 62
13
 10
1500.722
 20
-8239.321
 30
-719.000
 70
    32
  0
VERTEX
  8
W60LXLIFT
 62
13
 10
1494.393
 20
-8233.701
 30
-719.000
 70
    32
  0
VERTEX
  8
W60LXLIFT
 62
13
 10
1488.496
 20
-8233.187
 30
-719.000
 70
    32
  0
VERTEX
  8
W60LXLIFT
 62
13
 10
1481.977
 20
-8239.623
 30
-719.000
 70
    32
  0
VERTEX
  8
W60LXLIFT
 62
13
 10
1477.008
 20
-8243.099
 30
-719.000
 70
    32
  0
VERTEX
  8
W60LXLIFT
 62
13
 10
1474.795
 20
-8250.546
 30
-719.000
 70
    32
  0
SEQEND
  8
W60LXLIFT
  0
POLYLINE
  8
W60LXLIFT
 62
2
 66
     1
 70
     9
  0
VERTEX
  8
W60LXLIFT
 62
2
 10
1423.499
 20
-8320.486
 30
-719.000
 70
    32
  0
VERTEX
  8
W60LXLIFT
 62
2
 10
1432.635
 20
-8312.271
 30
-719.000
 70
    32
  0
VERTEX
  8
W60LXLIFT
 62
2
 10
1447.840
 20
-8319.832
 30
-719.000
 70
    32
  0
VERTEX
  8
W60LXLIFT
 62
2
 10
1459.877
 20
-8324.802
 30
-719.000
 70
    32
  0
VERTEX
  8
W60LXLIFT
 62
2
 10
1465.802
 20
-8318.144
 30
-719.000
 70
    32
  0
VERTEX
  8
W60LXLIFT
 62
2
 10
1458.590
 20
-8300.484
 30
-719.000
 70
    32
  0
VERTEX
  8
W60LXLIFT
 62
2
 10
1449.642
 20
-8285.376
 30
-719.000
 70
    32
  0
VERTEX
  8
W60LXLIFT
 62
2
 10
1443.840
 20
-8278.834
 30
-719.000
 70
    32
  0
VERTEX
  8
W60LXLIFT
 62
2
 10
1436.560
 20
-8275.200
 30
-719.000
 70
    32
  0
VERTEX
  8
W60LXLIFT
 62
2
 10
1429.474
 20
-8276.193
 30
-719.000
 70
    32
  0
VERTEX
  8
W60LXLIFT
 62
2
 10
1423.303
 20
-8278.153
 30
-719.000
 70
    32
  0
VERTEX
  8
W60LXLIFT
 62
2
 10
1419.746
 20
-8288.845
 30
-719.000
 70
    32
  0
VERTEX
  8
W60LXLIFT
 62
2
 10
1414.865
 20
-8298.000
 30
-719.000
 70
    32
  0
VERTEX
  8
W60LXLIFT
 62
2
 10
1417.114
 20
-8309.380
 30
-719.000
 70
    32
  0
VERTEX
  8
W60LXLIFT
 62
2
 10
1415.011
 20
-8311.873
 30
-719.000
 70
    32
  0
SEQEND
  8
W60LXLIFT
  0
POLYLINE
  8
W60LXLIFT
 62
13
 66
     1
 70
     9
  0
VERTEX
  8
W60LXLIFT
 62
13
 10
1482.415
 20
-8261.411
 30
-731.000
 70
    32
  0
VERTEX
  8
W60LXLIFT
 62
13
 10
1489.364
 20
-8244.155
 30
-731.000
 70
    32
  0
VERTEX
  8
W60LXLIFT
 62
13
 10
1505.234
 20
-8245.276
 30
-731.000
 70
    32
  0
VERTEX
  8
W60LXLIFT
 62
13
 10
1512.246
 20
-8248.237
 30
-731.000
 70
    32
  0
VERTEX
  8
W60LXLIFT
 62
13
 10
1511.229
 20
-8253.738
 30
-731.000
 70
    32
  0
VERTEX
  8
W60LXLIFT
 62
13
 10
1517.857
 20
-8268.786
 30
-731.000
 70
    32
  0
VERTEX
  8
W60LXLIFT
 62
13
 10
1519.971
 20
-8281.781
 30
-731.000
 70
    32
  0
VERTEX
  8
W60LXLIFT
 62
13
 10
1521.957
 20
-8295.951
 30
-731.000
 70
    32
  0
VERTEX
  8
W60LXLIFT
 62
13
 10
1528.530
 20
-8312.123
 30
-731.000
 70
    32
  0
VERTEX
  8
W60LXLIFT
 62
13
 10
1533.349
 20
-8320.457
 30
-731.000
 70
    32
  0
VERTEX
  8
W60LXLIFT
 62
13
 10
1524.132
 20
-8326.455
 30
-731.000
 70
    32
  0
VERTEX
  8
W60LXLIFT
 62
13
 10
1520.955
 20
-8324.304
 30
-731.000
 70
    32
  0
VERTEX
  8
W60LXLIFT
 62
13
 10
1510.842
 20
-8324.555
 30
-731.000
 70
    32
  0
VERTEX
  8
W60LXLIFT
 62
13
 10
1503.443
 20
-8308.439
 30
-731.000
 70
    32
  0
VERTEX
  8
W60LXLIFT
 62
13
 10
1488.115
 20
-8287.639
 30
-731.000
 70
    32
  0
SEQEND
  8
W60LXLIFT
  0
POLYLINE
  8
W60LXLIFT
 62
2
 66
     1
 70
     9
  0
VERTEX
  8
W60LXLIFT
 62
2
 10
1462.360
 20
-8342.515
 30
-731.000
 70
    32
  0
VERTEX
  8
W60LXLIFT
 62
2
 10
1457.198
 20
-8330.852
 30
-731.000
 70
    32
  0
VERTEX
  8
W60LXLIFT
 62
2
 10
1448.698
 20
-8321.922
 30
-731.000
 70
    32
  0
VERTEX
  8
W60LXLIFT
 62
2
 10
1421.553
 20
-8325.899
 30
-731.000
 70
    32
  0
VERTEX
  8
W60LXLIFT
 62
2
 10
1412.190
 20
-8316.074
 30
-731.000
 70
    32
  0
VERTEX
  8
W60LXLIFT
 62
2
 10
1411.149
 20
-8303.064
 30
-731.000
 70
    32
  0
VERTEX
  8
W60LXLIFT
 62
2
 10
1409.872
 20
-8294.233
 30
-731.000
 70
    32
  0
VERTEX
  8
W60LXLIFT
 62
2
 10
1414.204
 20
-8285.366
 30
-731.000
 70
    32
  0
VERTEX
  8
W60LXLIFT
 62
2
 10
1408.353
 20
-8272.900
 30
-731.000
 70
    32
  0
VERTEX
  8
W60LXLIFT
 62
2
 10
1427.696
 20
-8265.015
 30
-731.000
 70
    32
  0
VERTEX
  8
W60LXLIFT
 62
2
 10
1442.094
 20
-8279.118
 30
-731.000
 70
    32
  0
VERTEX
  8
W60LXLIFT
 62
2
 10
1451.580
 20
-8280.402
 30
-731.000
 70
    32
  0
VERTEX
  8
W60LXLIFT
 62
2
 10
1464.069
 20
-8310.184
 30
-731.000
 70
    32
  0
VERTEX
  8
W60LXLIFT
 62
2
 10
1467.993
 20
-8314.722
 30
-731.000
 70
    32
  0
VERTEX
  8
W60LXLIFT
 62
2
 10
1466.315
 20
-8320.808
 30
-731.000
 70
    32
  0
VERTEX
  8
W60LXLIFT
 62
2
 10
1471.826
 20
-8337.312
 30
-731.000
 70
    32
  0
SEQEND
  8
W60LXLIFT
  0
POLYLINE
  8
W60LXLIFT
 62
1
 66
     1
 70
     9
  0
VERTEX
  8
W60LXLIFT
 62
1
 10
1416.011
 20
-8310.873
 30
-709.000
 70
    32
  0
VERTEX
  8
W60LXLIFT
 62
1
 10
1418.114
 20
-8308.380
 30
-709.000
 70
    32
  0
VERTEX
  8
W60LXLIFT
 62
1
 10
1415.865
 20
-8297.000
 30
-709.000
 70
    32
  0
VERTEX
  8
W60LXLIFT
 62
1
 10
1420.746
 20
-8287.845
 30
-709.000
 70
    32
  0
VERTEX
  8
W60LXLIFT
 62
1
 10
1424.303
 20
-8277.153
 30
-709.000
 70
    32
  0
VERTEX
  8
W60LXLIFT
 62
1
 10
1430.474
 20
-8275.193
 30
-709.000
 70
    32
  0
VERTEX
  8
W60LXLIFT
 62
1
 10
1437.560
 20
-8274.200
 30
-709.000
 70
    32
  0
VERTEX
  8
W60LXLIFT
 62
1
 10
1444.840
 20
-8277.834
 30
-709.000
 70
    32
  0
VERTEX
  8
W60LXLIFT
 62
1
 10
1450.642
 20
-8284.376
 30
-709.000
 70
    32
  0
VERTEX
  8
W60LXLIFT
 62
1
 10
1459.590
 20
-8299.484
 30
-709.000
 70
    32
  0
VERTEX
  8
W60LXLIFT
 62
1
 10
1466.802
 20
-8317.144
 30
-709.000
 70
    32
  0
VERTEX
  8
W60LXLIFT
 62
1
 10
1460.877
 20
-8323.802
 30
-709.000
 70
    32
  0
VERTEX
  8
W60LXLIFT
 62
1
 10
1448.840
 20
-8318.832
 30
-709.000
 70
    32
  0
VERTEX
  8
W60LXLIFT
 62
1
 10
1433.635
 20
-8311.271
 30
-709.000
 70
    32
  0
VERTEX
  8
W60LXLIFT
 62
1
 10
1424.499
 20
-8319.486
 30
-709.000
 70
    32
  0
SEQEND
  8
W60LXLIFT
  0
POLYLINE
  8
W60LXLIFT
 62
11
 66
     1
 70
     9
  0
VERTEX
  8
W60LXLIFT
 62
11
 10
1643.672
 20
-8633.318
 30
-729.000
 70
    32
  0
VERTEX
  8
W60LXLIFT
 62
11
 10
1643.467
 20
-8631.963
 30
-729.000
 70
    32
  0
VERTEX
  8
W60LXLIFT
 62
11
 10
1620.152
 20
-8593.182
 30
-729.000
 70
    32
  0
VERTEX
  8
W60LXLIFT
 62
11
 10
1607.490
 20
-8569.662
 30
-729.000
 70
    32
  0
VERTEX
  8
W60LXLIFT
 62
11
 10
1595.228
 20
-8545.006
 30
-729.000
 70
    32
  0
VERTEX
  8
W60LXLIFT
 62
11
 10
1593.820
 20
-8541.774
 30
-729.000
 70
    32
  0
VERTEX
  8
W60LXLIFT
 62
11
 10
1586.177
 20
-8517.521
 30
-729.000
 70
    32
  0
VERTEX
  8
W60LXLIFT
 62
11
 10
1589.662
 20
-8515.557
 30
-729.000
 70
    32
  0
VERTEX
  8
W60LXLIFT
 62
11
 10
1584.530
 20
-8502.378
 30
-729.000
 70
    32
  0
VERTEX
  8
W60LXLIFT
 62
11
 10
1573.459
 20
-8488.986
 30
-729.000
 70
    32
  0
VERTEX
  8
W60LXLIFT
 62
11
 10
1569.548
 20
-8481.977
 30
-729.000
 70
    32
  0
VERTEX
  8
W60LXLIFT
 62
11
 10
1573.673
 20
-8479.152
 30
-729.000
 70
    32
  0
VERTEX
  8
W60LXLIFT
 62
11
 10
1568.413
 20
-8464.613
 30
-729.000
 70
    32
  0
VERTEX
  8
W60LXLIFT
 62
11
 10
1573.336
 20
-8454.164
 30
-729.000
 70
    32
  0
VERTEX
  8
W60LXLIFT
 62
11
 10
1562.249
 20
-8425.304
 30
-729.000
 70
    32
  0
VERTEX
  8
W60LXLIFT
 62
11
 10
1556.770
 20
-8398.295
 30
-729.000
 70
    32
  0
VERTEX
  8
W60LXLIFT
 62
11
 10
1549.964
 20
-8380.317
 30
-729.000
 70
    32
  0
VERTEX
  8
W60LXLIFT
 62
11
 10
1544.908
 20
-8373.790
 30
-729.000
 70
    32
  0
VERTEX
  8
W60LXLIFT
 62
11
 10
1539.947
 20
-8370.931
 30
-729.000
 70
    32
  0
VERTEX
  8
W60LXLIFT
 62
11
 10
1539.304
 20
-8369.510
 30
-729.000
 70
    32
  0
VERTEX
  8
W60LXLIFT
 62
11
 10
1531.425
 20
-8354.136
 30
-729.000
 70
    32
  0
VERTEX
  8
W60LXLIFT
 62
11
 10
1523.255
 20
-8337.385
 30
-729.000
 70
    32
  0
VERTEX
  8
W60LXLIFT
 62
11
 10
1520.015
 20
-8328.524
 30
-729.000
 70
    32
  0
VERTEX
  8
W60LXLIFT
 62
11
 10
1514.653
 20
-8330.726
 30
-729.000
 70
    32
  0
VERTEX
  8
W60LXLIFT
 62
11
 10
1509.435
 20
-8333.016
 30
-729.000
 70
    32
  0
VERTEX
  8
W60LXLIFT
 62
11
 10
1511.471
 20
-8336.885
 30
-729.000
 70
    32
  0
VERTEX
  8
W60LXLIFT
 62
11
 10
1513.242
 20
-8343.896
 30
-729.000
 70
    32
  0
VERTEX
  8
W60LXLIFT
 62
11
 10
1523.948
 20
-8363.826
 30
-729.000
 70
    32
  0
VERTEX
  8
W60LXLIFT
 62
11
 10
1528.841
 20
-8380.905
 30
-729.000
 70
    32
  0
VERTEX
  8
W60LXLIFT
 62
11
 10
1529.448
 20
-8382.922
 30
-729.000
 70
    32
  0
VERTEX
  8
W60LXLIFT
 62
11
 10
1531.537
 20
-8388.311
 30
-729.000
 70
    32
  0
VERTEX
  8
W60LXLIFT
 62
11
 10
1535.423
 20
-8400.652
 30
-729.000
 70
    32
  0
VERTEX
  8
W60LXLIFT
 62
11
 10
1540.370
 20
-8412.095
 30
-729.000
 70
    32
  0
VERTEX
  8
W60LXLIFT
 62
11
 10
1543.149
 20
-8429.647
 30
-729.000
 70
    32
  0
VERTEX
  8
W60LXLIFT
 62
11
 10
1542.973
 20
-8439.719
 30
-729.000
 70
    32
  0
VERTEX
  8
W60LXLIFT
 62
11
 10
1538.873
 20
-8441.371
 30
-729.000
 70
    32
  0
VERTEX
  8
W60LXLIFT
 62
11
 10
1538.100
 20
-8441.726
 30
-729.000
 70
    32
  0
VERTEX
  8
W60LXLIFT
 62
11
 10
1536.899
 20
-8452.497
 30
-729.000
 70
    32
  0
VERTEX
  8
W60LXLIFT
 62
11
 10
1538.508
 20
-8453.042
 30
-729.000
 70
    32
  0
VERTEX
  8
W60LXLIFT
 62
11
 10
1539.351
 20
-8453.332
 30
-729.000
 70
    32
  0
VERTEX
  8
W60LXLIFT
 62
11
 10
1541.797
 20
-8456.765
 30
-729.000
 70
    32
  0
VERTEX
  8
W60LXLIFT
 62
11
 10
1552.879
 20
-8480.804
 30
-729.000
 70
    32
  0
VERTEX
  8
W60LXLIFT
 62
11
 10
1557.905
 20
-8492.509
 30
-729.000
 70
    32
  0
VERTEX
  8
W60LXLIFT
 62
11
 10
1567.385
 20
-8505.162
 30
-729.000
 70
    32
  0
VERTEX
  8
W60LXLIFT
 62
11
 10
1565.767
 20
-8524.825
 30
-729.000
 70
    32
  0
VERTEX
  8
W60LXLIFT
 62
11
 10
1576.856
 20
-8533.628
 30
-729.000
 70
    32
  0
VERTEX
  8
W60LXLIFT
 62
11
 10
1580.558
 20
-8544.755
 30
-729.000
 70
    32
  0
VERTEX
  8
W60LXLIFT
 62
11
 10
1583.502
 20
-8549.576
 30
-729.000
 70
    32
  0
VERTEX
  8
W60LXLIFT
 62
11
 10
1591.197
 20
-8561.396
 30
-729.000
 70
    32
  0
VERTEX
  8
W60LXLIFT
 62
11
 10
1593.425
 20
-8576.078
 30
-729.000
 70
    32
  0
VERTEX
  8
W60LXLIFT
 62
11
 10
1601.876
 20
-8592.834
 30
-729.000
 70
    32
  0
VERTEX
  8
W60LXLIFT
 62
11
 10
1612.595
 20
-8610.223
 30
-729.000
 70
    32
  0
VERTEX
  8
W60LXLIFT
 62
11
 10
1626.299
 20
-8630.004
 30
-729.000
 70
    32
  0
VERTEX
  8
W60LXLIFT
 62
11
 10
1628.919
 20
-8639.191
 30
-729.000
 70
    32
  0
VERTEX
  8
W60LXLIFT
 62
11
 10
1635.397
 20
-8676.464
 30
-729.000
 70
    32
  0
VERTEX
  8
W60LXLIFT
 62
11
 10
1641.355
 20
-8693.092
 30
-729.000
 70
    32
  0
VERTEX
  8
W60LXLIFT
 62
11
 10
1650.856
 20
-8693.666
 30
-729.000
 70
    32
  0
VERTEX
  8
W60LXLIFT
 62
11
 10
1658.359
 20
-8691.478
 30
-729.000
 70
    32
  0
VERTEX
  8
W60LXLIFT
 62
11
 10
1652.589
 20
-8664.467
 30
-729.000
 70
    32
  0
VERTEX
  8
W60LXLIFT
 62
11
 10
1653.405
 20
-8649.620
 30
-729.000
 70
    32
  0
VERTEX
  8
W60LXLIFT
 62
11
 10
1645.400
 20
-8640.145
 30
-729.000
 70
    32
  0
VERTEX
  8
W60LXLIFT
 62
11
 10
1643.672
 20
-8633.318
 30
-729.000
 70
    32
  0
SEQEND
  8
W60LXLIFT
  0
POLYLINE
  8
W60LXLIFT
 62
11
 66
     1
 70
     9
  0
VERTEX
  8
W60LXLIFT
 62
11
 10
1581.750
 20
-8412.644
 30
-784.000
 70
    32
  0
VERTEX
  8
W60LXLIFT
 62
11
 10
1580.548
 20
-8404.518
 30
-784.000
 70
    32
  0
VERTEX
  8
W60LXLIFT
 62
11
 10
1579.446
 20
-8393.827
 30
-784.000
 70
    32
  0
VERTEX
  8
W60LXLIFT
 62
11
 10
1570.207
 20
-8355.632
 30
-784.000
 70
    32
  0
VERTEX
  8
W60LXLIFT
 62
11
 10
1565.548
 20
-8350.975
 30
-784.000
 70
    32
  0
VERTEX
  8
W60LXLIFT
 62
11
 10
1561.493
 20
-8333.637
 30
-784.000
 70
    32
  0
VERTEX
  8
W60LXLIFT
 62
11
 10
1563.105
 20
-8326.407
 30
-784.000
 70
    32
  0
VERTEX
  8
W60LXLIFT
 62
11
 10
1561.281
 20
-8318.621
 30
-784.000
 70
    32
  0
VERTEX
  8
W60LXLIFT
 62
11
 10
1554.282
 20
-8307.416
 30
-784.000
 70
    32
  0
VERTEX
  8
W60LXLIFT
 62
11
 10
1550.716
 20
-8294.060
 30
-784.000
 70
    32
  0
VERTEX
  8
W60LXLIFT
 62
11
 10
1541.121
 20
-8249.513
 30
-784.000
 70
    32
  0
VERTEX
  8
W60LXLIFT
 62
11
 10
1548.088
 20
-8240.695
 30
-784.000
 70
    32
  0
VERTEX
  8
W60LXLIFT
 62
11
 10
1552.961
 20
-8240.540
 30
-784.000
 70
    32
  0
VERTEX
  8
W60LXLIFT
 62
11
 10
1561.658
 20
-8256.804
 30
-784.000
 70
    32
  0
VERTEX
  8
W60LXLIFT
 62
11
 10
1577.889
 20
-8315.959
 30
-784.000
 70
    32
  0
VERTEX
  8
W60LXLIFT
 62
11
 10
1580.604
 20
-8343.907
 30
-784.000
 70
    32
  0
VERTEX
  8
W60LXLIFT
 62
11
 10
1586.956
 20
-8363.380
 30
-784.000
 70
    32
  0
VERTEX
  8
W60LXLIFT
 62
11
 10
1590.549
 20
-8378.125
 30
-784.000
 70
    32
  0
VERTEX
  8
W60LXLIFT
 62
11
 10
1594.506
 20
-8398.783
 30
-784.000
 70
    32
  0
VERTEX
  8
W60LXLIFT
 62
11
 10
1598.026
 20
-8410.873
 30
-784.000
 70
    32
  0
VERTEX
  8
W60LXLIFT
 62
11
 10
1601.956
 20
-8416.923
 30
-787.000
 70
    32
  0
VERTEX
  8
W60LXLIFT
 62
11
 10
1607.663
 20
-8431.443
 30
-787.000
 70
    32
  0
VERTEX
  8
W60LXLIFT
 62
11
 10
1619.930
 20
-8455.210
 30
-787.000
 70
    32
  0
VERTEX
  8
W60LXLIFT
 62
11
 10
1627.605
 20
-8480.121
 30
-787.000
 70
    32
  0
VERTEX
  8
W60LXLIFT
 62
11
 10
1629.571
 20
-8494.414
 30
-787.000
 70
    32
  0
VERTEX
  8
W60LXLIFT
 62
11
 10
1627.965
 20
-8500.449
 30
-787.000
 70
    32
  0
VERTEX
  8
W60LXLIFT
 62
11
 10
1632.407
 20
-8524.333
 30
-787.000
 70
    32
  0
VERTEX
  8
W60LXLIFT
 62
11
 10
1635.608
 20
-8531.775
 30
-787.000
 70
    32
  0
VERTEX
  8
W60LXLIFT
 62
11
 10
1637.536
 20
-8537.753
 30
-787.000
 70
    32
  0
VERTEX
  8
W60LXLIFT
 62
11
 10
1638.409
 20
-8547.525
 30
-787.000
 70
    32
  0
VERTEX
  8
W60LXLIFT
 62
11
 10
1642.282
 20
-8550.041
 30
-787.000
 70
    32
  0
VERTEX
  8
W60LXLIFT
 62
11
 10
1645.141
 20
-8560.764
 30
-787.000
 70
    32
  0
VERTEX
  8
W60LXLIFT
 62
11
 10
1645.549
 20
-8560.579
 30
-784.000
 70
    32
  0
VERTEX
  8
W60LXLIFT
 62
11
 10
1654.278
 20
-8577.037
 30
-784.000
 70
    32
  0
VERTEX
  8
W60LXLIFT
 62
11
 10
1659.692
 20
-8590.251
 30
-784.000
 70
    32
  0
VERTEX
  8
W60LXLIFT
 62
11
 10
1662.942
 20
-8603.619
 30
-784.000
 70
    32
  0
VERTEX
  8
W60LXLIFT
 62
11
 10
1695.220
 20
-8640.256
 30
-784.000
 70
    32
  0
VERTEX
  8
W60LXLIFT
 62
11
 10
1690.863
 20
-8645.782
 30
-784.000
 70
    32
  0
VERTEX
  8
W60LXLIFT
 62
11
 10
1682.226
 20
-8647.028
 30
-784.000
 70
    32
  0
VERTEX
  8
W60LXLIFT
 62
11
 10
1675.869
 20
-8635.360
 30
-784.000
 70
    32
  0
VERTEX
  8
W60LXLIFT
 62
11
 10
1651.461
 20
-8608.432
 30
-784.000
 70
    32
  0
VERTEX
  8
W60LXLIFT
 62
11
 10
1638.652
 20
-8604.344
 30
-784.000
 70
    32
  0
VERTEX
  8
W60LXLIFT
 62
11
 10
1632.337
 20
-8581.919
 30
-784.000
 70
    32
  0
VERTEX
  8
W60LXLIFT
 62
11
 10
1631.949
 20
-8575.373
 30
-784.000
 70
    32
  0
VERTEX
  8
W60LXLIFT
 62
11
 10
1631.826
 20
-8568.743
 30
-784.000
 70
    32
  0
VERTEX
  8
W60LXLIFT
 62
11
 10
1629.953
 20
-8563.593
 30
-787.000
 70
    32
  0
VERTEX
  8
W60LXLIFT
 62
11
 10
1619.029
 20
-8545.143
 30
-787.000
 70
    32
  0
VERTEX
  8
W60LXLIFT
 62
11
 10
1613.460
 20
-8531.715
 30
-787.000
 70
    32
  0
VERTEX
  8
W60LXLIFT
 62
11
 10
1613.433
 20
-8523.716
 30
-787.000
 70
    32
  0
VERTEX
  8
W60LXLIFT
 62
11
 10
1612.988
 20
-8513.635
 30
-787.000
 70
    32
  0
VERTEX
  8
W60LXLIFT
 62
11
 10
1615.818
 20
-8500.433
 30
-787.000
 70
    32
  0
VERTEX
  8
W60LXLIFT
 62
11
 10
1612.973
 20
-8492.734
 30
-787.000
 70
    32
  0
VERTEX
  8
W60LXLIFT
 62
11
 10
1601.596
 20
-8489.129
 30
-787.000
 70
    32
  0
VERTEX
  8
W60LXLIFT
 62
11
 10
1599.444
 20
-8474.428
 30
-787.000
 70
    32
  0
VERTEX
  8
W60LXLIFT
 62
11
 10
1604.841
 20
-8464.034
 30
-787.000
 70
    32
  0
VERTEX
  8
W60LXLIFT
 62
11
 10
1602.783
 20
-8456.525
 30
-787.000
 70
    32
  0
VERTEX
  8
W60LXLIFT
 62
11
 10
1602.717
 20
-8448.772
 30
-787.000
 70
    32
  0
VERTEX
  8
W60LXLIFT
 62
11
 10
1601.582
 20
-8446.448
 30
-787.000
 70
    32
  0
VERTEX
  8
W60LXLIFT
 62
11
 10
1588.631
 20
-8422.634
 30
-787.000
 70
    32
  0
SEQEND
  8
W60LXLIFT
  0
POLYLINE
  8
W60LXLIFT
 62
11
 66
     1
 70
     9
  0
VERTEX
  8
W60LXLIFT
 62
11
 10
1545.872
 20
-8243.448
 30
-797.713
 70
    32
  0
VERTEX
  8
W60LXLIFT
 62
11
 10
1541.966
 20
-8235.467
 30
-797.688
 70
    32
  0
VERTEX
  8
W60LXLIFT
 62
11
 10
1537.673
 20
-8231.692
 30
-797.669
 70
    32
  0
VERTEX
  8
W60LXLIFT
 62
11
 10
1531.937
 20
-8229.492
 30
-797.648
 70
    32
  0
VERTEX
  8
W60LXLIFT
 62
11
 10
1522.089
 20
-8234.860
 30
-797.627
 70
    32
  0
VERTEX
  8
W60LXLIFT
 62
11
 10
1506.011
 20
-8225.146
 30
-797.563
 70
    32
  0
VERTEX
  8
W60LXLIFT
 62
11
 10
1498.579
 20
-8219.925
 30
-797.532
 70
    32
  0
VERTEX
  8
W60LXLIFT
 62
11
 10
1495.331
 20
-8213.213
 30
-797.511
 70
    32
  0
VERTEX
  8
W60LXLIFT
 62
11
 10
1499.845
 20
-8206.446
 30
-797.513
 70
    32
  0
VERTEX
  8
W60LXLIFT
 62
11
 10
1504.697
 20
-8204.097
 30
-797.523
 70
    32
  0
VERTEX
  8
W60LXLIFT
 62
11
 10
1522.404
 20
-8205.065
 30
-797.578
 70
    32
  0
VERTEX
  8
W60LXLIFT
 62
11
 10
1533.251
 20
-8211.515
 30
-797.621
 70
    32
  0
VERTEX
  8
W60LXLIFT
 62
11
 10
1544.817
 20
-8221.305
 30
-797.672
 70
    32
  0
VERTEX
  8
W60LXLIFT
 62
11
 10
1550.577
 20
-8221.256
 30
-797.690
 70
    32
  0
VERTEX
  8
W60LXLIFT
 62
11
 10
1562.777
 20
-8231.998
 30
-797.744
 70
    32
  0
VERTEX
  8
W60LXLIFT
 62
11
 10
1560.453
 20
-8246.975
 30
-797.763
 70
    32
  0
VERTEX
  8
W60LXLIFT
 62
11
 10
1565.535
 20
-8261.729
 30
-797.803
 70
    32
  0
VERTEX
  8
W60LXLIFT
 62
11
 10
1565.626
 20
-8262.592
 30
-797.804
 70
    32
  0
VERTEX
  8
W60LXLIFT
 62
11
 10
1566.893
 20
-8274.715
 30
-797.804
 70
    32
  0
VERTEX
  8
W60LXLIFT
 62
11
 10
1574.695
 20
-8302.059
 30
-797.817
 70
    32
  0
VERTEX
  8
W60LXLIFT
 62
11
 10
1578.321
 20
-8304.126
 30
-797.827
 70
    32
  0
VERTEX
  8
W60LXLIFT
 62
11
 10
1580.170
 20
-8328.993
 30
-797.823
 70
    32
  0
VERTEX
  8
W60LXLIFT
 62
11
 10
1585.140
 20
-8354.428
 30
-797.828
 70
    32
  0
VERTEX
  8
W60LXLIFT
 62
11
 10
1589.458
 20
-8363.647
 30
-797.838
 70
    32
  0
VERTEX
  8
W60LXLIFT
 62
11
 10
1596.542
 20
-8397.908
 30
-797.846
 70
    32
  0
VERTEX
  8
W60LXLIFT
 62
11
 10
1602.282
 20
-8406.237
 30
-797.860
 70
    32
  0
VERTEX
  8
W60LXLIFT
 62
11
 10
1609.661
 20
-8436.030
 30
-797.871
 70
    32
  0
VERTEX
  8
W60LXLIFT
 62
11
 10
1609.147
 20
-8439.220
 30
-797.868
 70
    32
  0
VERTEX
  8
W60LXLIFT
 62
11
 10
1615.230
 20
-8448.842
 30
-797.883
 70
    32
  0
VERTEX
  8
W60LXLIFT
 62
11
 10
1620.844
 20
-8458.719
 30
-797.896
 70
    32
  0
VERTEX
  8
W60LXLIFT
 62
11
 10
1623.878
 20
-8466.156
 30
-797.902
 70
    32
  0
VERTEX
  8
W60LXLIFT
 62
11
 10
1629.510
 20
-8513.374
 30
-797.901
 70
    32
  0
VERTEX
  8
W60LXLIFT
 62
11
 10
1635.060
 20
-8517.615
 30
-797.916
 70
    32
  0
VERTEX
  8
W60LXLIFT
 62
11
 10
1636.214
 20
-8536.893
 30
-797.912
 70
    32
  0
VERTEX
  8
W60LXLIFT
 62
11
 10
1641.854
 20
-8545.523
 30
-797.926
 70
    32
  0
VERTEX
  8
W60LXLIFT
 62
11
 10
1649.878
 20
-8570.016
 30
-797.941
 70
    32
  0
VERTEX
  8
W60LXLIFT
 62
11
 10
1661.644
 20
-8584.333
 30
-797.963
 70
    32
  0
VERTEX
  8
W60LXLIFT
 62
11
 10
1663.528
 20
-8598.134
 30
-797.959
 70
    32
  0
VERTEX
  8
W60LXLIFT
 62
11
 10
1667.600
 20
-8612.452
 30
-797.958
 70
    32
  0
VERTEX
  8
W60LXLIFT
 62
11
 10
1680.375
 20
-8624.640
 30
-797.975
 70
    32
  0
VERTEX
  8
W60LXLIFT
 62
11
 10
1684.335
 20
-8632.690
 30
-797.977
 70
    32
  0
VERTEX
  8
W60LXLIFT
 62
11
 10
1676.559
 20
-8637.997
 30
-797.961
 70
    32
  0
VERTEX
  8
W60LXLIFT
 62
11
 10
1667.551
 20
-8626.205
 30
-797.951
 70
    32
  0
VERTEX
  8
W60LXLIFT
 62
11
 10
1661.780
 20
-8615.558
 30
-797.947
 70
    32
  0
VERTEX
  8
W60LXLIFT
 62
11
 10
1653.642
 20
-8613.566
 30
-797.933
 70
    32
  0
VERTEX
  8
W60LXLIFT
 62
11
 10
1650.338
 20
-8608.348
 30
-797.928
 70
    32
  0
VERTEX
  8
W60LXLIFT
 62
11
 10
1647.106
 20
-8606.641
 30
-797.919
 70
    32
  0
VERTEX
  8
W60LXLIFT
 62
11
 10
1644.108
 20
-8598.395
 30
-797.913
 70
    32
  0
VERTEX
  8
W60LXLIFT
 62
11
 10
1644.287
 20
-8591.788
 30
-797.916
 70
    32
  0
VERTEX
  8
W60LXLIFT
 62
11
 10
1620.221
 20
-8520.310
 30
-797.871
 70
    32
  0
VERTEX
  8
W60LXLIFT
 62
11
 10
1615.683
 20
-8485.172
 30
-797.870
 70
    32
  0
VERTEX
  8
W60LXLIFT
 62
11
 10
1613.915
 20
-8483.768
 30
-797.866
 70
    32
  0
VERTEX
  8
W60LXLIFT
 62
11
 10
1609.226
 20
-8466.811
 30
-797.858
 70
    32
  0
VERTEX
  8
W60LXLIFT
 62
11
 10
1604.123
 20
-8455.307
 30
-797.847
 70
    32
  0
VERTEX
  8
W60LXLIFT
 62
11
 10
1590.402
 20
-8428.806
 30
-797.816
 70
    32
  0
VERTEX
  8
W60LXLIFT
 62
11
 10
1586.513
 20
-8411.446
 30
-797.811
 70
    32
  0
VERTEX
  8
W60LXLIFT
 62
11
 10
1577.933
 20
-8388.949
 30
-797.794
 70
    32
  0
VERTEX
  8
W60LXLIFT
 62
11
 10
1573.611
 20
-8354.087
 30
-797.794
 70
    32
  0
VERTEX
  8
W60LXLIFT
 62
11
 10
1566.422
 20
-8342.767
 30
-797.777
 70
    32
  0
VERTEX
  8
W60LXLIFT
 62
11
 10
1561.859
 20
-8326.825
 30
-797.769
 70
    32
  0
VERTEX
  8
W60LXLIFT
 62
11
 10
1561.009
 20
-8311.211
 30
-797.773
 70
    32
  0
VERTEX
  8
W60LXLIFT
 62
11
 10
1551.342
 20
-8278.638
 30
-797.756
 70
    32
  0
VERTEX
  8
W60LXLIFT
 62
11
 10
1547.593
 20
-8273.991
 30
-797.747
 70
    32
  0
VERTEX
  8
W60LXLIFT
 62
11
 10
1547.483
 20
-8258.467
 30
-797.743
 70
    32
  0
VERTEX
  8
W60LXLIFT
 62
11
 10
1546.415
 20
-8256.961
 30
-797.738
 70
    32
  0
SEQEND
  8
W60LXLIFT
  0
POLYLINE
  8
W60LXLIFT
 62
1
 66
     1
 70
     9
  0
VERTEX
  8
W60LXLIFT
 62
1
 10
1353.847
 20
-8242.266
 30
-677.000
 70
    32
  0
VERTEX
  8
W60LXLIFT
 62
1
 10
1356.805
 20
-8239.157
 30
-677.000
 70
    32
  0
VERTEX
  8
W60LXLIFT
 62
1
 10
1353.001
 20
-8233.883
 30
-677.000
 70
    32
  0
VERTEX
  8
W60LXLIFT
 62
1
 10
1352.235
 20
-8223.057
 30
-677.000
 70
    32
  0
VERTEX
  8
W60LXLIFT
 62
1
 10
1359.267
 20
-8212.676
 30
-677.000
 70
    32
  0
VERTEX
  8
W60LXLIFT
 62
1
 10
1370.264
 20
-8209.295
 30
-677.000
 70
    32
  0
VERTEX
  8
W60LXLIFT
 62
1
 10
1383.151
 20
-8221.453
 30
-677.000
 70
    32
  0
VERTEX
  8
W60LXLIFT
 62
1
 10
1393.760
 20
-8244.573
 30
-677.000
 70
    32
  0
VERTEX
  8
W60LXLIFT
 62
1
 10
1390.481
 20
-8246.938
 30
-677.000
 70
    32
  0
VERTEX
  8
W60LXLIFT
 62
1
 10
1392.302
 20
-8260.578
 30
-677.000
 70
    32
  0
VERTEX
  8
W60LXLIFT
 62
1
 10
1399.138
 20
-8265.399
 30
-677.000
 70
    32
  0
VERTEX
  8
W60LXLIFT
 62
1
 10
1388.120
 20
-8270.854
 30
-677.000
 70
    32
  0
VERTEX
  8
W60LXLIFT
 62
1
 10
1384.604
 20
-8266.130
 30
-677.000
 70
    32
  0
VERTEX
  8
W60LXLIFT
 62
1
 10
1374.869
 20
-8264.050
 30
-677.000
 70
    32
  0
VERTEX
  8
W60LXLIFT
 62
1
 10
1367.375
 20
-8253.961
 30
-677.000
 70
    32
  0
VERTEX
  8
W60LXLIFT
 62
1
 10
1362.927
 20
-8253.052
 30
-677.000
 70
    32
  0
VERTEX
  8
W60LXLIFT
 62
1
 10
1356.737
 20
-8253.183
 30
-677.000
 70
    32
  0
SEQEND
  8
W60LXLIFT
  0
POINT
  8
W60LXLIFT
 62
8
 10
1412.445
 20
-8239.302
 30
-781.000
  0
POINT
  8
W60LXLIFT
 62
8
 10
1376.634
 20
-8237.057
 30
-687.000
  0
LINE
  8
W60LXLIFT
 62
8
 10
1376.634
 20
-8237.057
 30
-687.000
 11
1412.445
 21
-8239.302
 31
-781.000
  0
POLYLINE
  8
W60LXLIFT
 62
1
 66
     1
 70
     9
  0
VERTEX
  8
W60LXLIFT
 62
1
 10
1294.845
 20
-8027.375
 30
-677.000
 70
    32
  0
VERTEX
  8
W60LXLIFT
 62
1
 10
1305.662
 20
-8027.049
 30
-677.000
 70
    32
  0
VERTEX
  8
W60LXLIFT
 62
1
 10
1320.072
 20
-8054.688
 30
-677.000
 70
    32
  0
VERTEX
  8
W60LXLIFT
 62
1
 10
1313.534
 20
-8059.295
 30
-677.000
 70
    32
  0
VERTEX
  8
W60LXLIFT
 62
1
 10
1313.149
 20
-8062.065
 30
-677.000
 70
    32
  0
VERTEX
  8
W60LXLIFT
 62
1
 10
1319.062
 20
-8068.310
 30
-677.000
 70
    32
  0
VERTEX
  8
W60LXLIFT
 62
1
 10
1324.839
 20
-8078.121
 30
-677.000
 70
    32
  0
VERTEX
  8
W60LXLIFT
 62
1
 10
1326.781
 20
-8087.122
 30
-677.000
 70
    32
  0
VERTEX
  8
W60LXLIFT
 62
1
 10
1326.073
 20
-8093.051
 30
-677.000
 70
    32
  0
VERTEX
  8
W60LXLIFT
 62
1
 10
1330.428
 20
-8096.085
 30
-677.000
 70
    32
  0
VERTEX
  8
W60LXLIFT
 62
1
 10
1333.789
 20
-8102.546
 30
-677.000
 70
    32
  0
VERTEX
  8
W60LXLIFT
 62
1
 10
1352.954
 20
-8120.253
 30
-677.000
 70
    32
  0
VERTEX
  8
W60LXLIFT
 62
1
 10
1356.196
 20
-8125.499
 30
-677.000
 70
    32
  0
VERTEX
  8
W60LXLIFT
 62
1
 10
1364.197
 20
-8141.399
 30
-677.000
 70
    32
  0
VERTEX
  8
W60LXLIFT
 62
1
 10
1372.524
 20
-8135.067
 30
-677.000
 70
    32
  0
VERTEX
  8
W60LXLIFT
 62
1
 10
1381.970
 20
-8145.157
 30
-677.000
 70
    32
  0
VERTEX
  8
W60LXLIFT
 62
1
 10
1389.093
 20
-8139.260
 30
-677.000
 70
    32
  0
VERTEX
  8
W60LXLIFT
 62
1
 10
1384.391
 20
-8134.093
 30
-677.000
 70
    32
  0
VERTEX
  8
W60LXLIFT
 62
1
 10
1386.718
 20
-8127.104
 30
-677.000
 70
    32
  0
VERTEX
  8
W60LXLIFT
 62
1
 10
1413.267
 20
-8106.979
 30
-677.000
 70
    32
  0
VERTEX
  8
W60LXLIFT
 62
1
 10
1433.179
 20
-8087.415
 30
-677.000
 70
    32
  0
VERTEX
  8
W60LXLIFT
 62
1
 10
1440.205
 20
-8093.400
 30
-677.000
 70
    32
  0
VERTEX
  8
W60LXLIFT
 62
1
 10
1444.820
 20
-8079.669
 30
-677.000
 70
    32
  0
VERTEX
  8
W60LXLIFT
 62
1
 10
1436.942
 20
-8075.057
 30
-677.000
 70
    32
  0
VERTEX
  8
W60LXLIFT
 62
1
 10
1410.735
 20
-8052.244
 30
-677.000
 70
    32
  0
VERTEX
  8
W60LXLIFT
 62
1
 10
1421.682
 20
-8033.621
 30
-677.000
 70
    32
  0
VERTEX
  8
W60LXLIFT
 62
1
 10
1406.002
 20
-8011.883
 30
-677.000
 70
    32
  0
VERTEX
  8
W60LXLIFT
 62
1
 10
1395.911
 20
-8016.670
 30
-677.000
 70
    32
  0
VERTEX
  8
W60LXLIFT
 62
1
 10
1388.460
 20
-8026.921
 30
-677.000
 70
    32
  0
VERTEX
  8
W60LXLIFT
 62
1
 10
1376.421
 20
-8032.462
 30
-677.000
 70
    32
  0
VERTEX
  8
W60LXLIFT
 62
1
 10
1369.428
 20
-8024.721
 30
-677.000
 70
    32
  0
VERTEX
  8
W60LXLIFT
 62
1
 10
1374.266
 20
-8001.835
 30
-677.000
 70
    32
  0
VERTEX
  8
W60LXLIFT
 62
1
 10
1368.116
 20
-7995.111
 30
-677.000
 70
    32
  0
VERTEX
  8
W60LXLIFT
 62
1
 10
1366.579
 20
-7989.827
 30
-677.000
 70
    32
  0
VERTEX
  8
W60LXLIFT
 62
1
 10
1361.733
 20
-7986.713
 30
-677.000
 70
    32
  0
VERTEX
  8
W60LXLIFT
 62
1
 10
1355.653
 20
-7981.888
 30
-677.000
 70
    32
  0
VERTEX
  8
W60LXLIFT
 62
1
 10
1346.622
 20
-7966.515
 30
-677.000
 70
    32
  0
VERTEX
  8
W60LXLIFT
 62
1
 10
1325.398
 20
-7969.688
 30
-677.000
 70
    32
  0
VERTEX
  8
W60LXLIFT
 62
1
 10
1308.889
 20
-7978.346
 30
-677.000
 70
    32
  0
VERTEX
  8
W60LXLIFT
 62
1
 10
1310.987
 20
-7990.268
 30
-677.000
 70
    32
  0
VERTEX
  8
W60LXLIFT
 62
1
 10
1303.572
 20
-8001.468
 30
-677.000
 70
    32
  0
VERTEX
  8
W60LXLIFT
 62
1
 10
1294.762
 20
-8000.672
 30
-677.000
 70
    32
  0
VERTEX
  8
W60LXLIFT
 62
1
 10
1290.528
 20
-8006.218
 30
-677.000
 70
    32
  0
VERTEX
  8
W60LXLIFT
 62
1
 10
1291.513
 20
-8013.742
 30
-677.000
 70
    32
  0
SEQEND
  8
W60LXLIFT
  0
POLYLINE
  8
W60LXLIFT
 62
1
 66
     1
 70
     9
  0
VERTEX
  8
W60LXLIFT
 62
1
 10
1399.807
 20
-8099.134
 30
-677.000
 70
    32
  0
VERTEX
  8
W60LXLIFT
 62
1
 10
1389.365
 20
-8087.813
 30
-677.000
 70
    32
  0
VERTEX
  8
W60LXLIFT
 62
1
 10
1383.778
 20
-8079.165
 30
-677.000
 70
    32
  0
VERTEX
  8
W60LXLIFT
 62
1
 10
1369.720
 20
-8059.075
 30
-677.000
 70
    32
  0
VERTEX
  8
W60LXLIFT
 62
1
 10
1363.741
 20
-8049.735
 30
-677.000
 70
    32
  0
VERTEX
  8
W60LXLIFT
 62
1
 10
1365.897
 20
-8045.363
 30
-677.000
 70
    32
  0
VERTEX
  8
W60LXLIFT
 62
1
 10
1359.813
 20
-8039.782
 30
-677.000
 70
    32
  0
VERTEX
  8
W60LXLIFT
 62
1
 10
1356.348
 20
-8030.471
 30
-677.000
 70
    32
  0
VERTEX
  8
W60LXLIFT
 62
1
 10
1339.857
 20
-8027.739
 30
-677.000
 70
    32
  0
VERTEX
  8
W60LXLIFT
 62
1
 10
1323.756
 20
-8022.991
 30
-677.000
 70
    32
  0
VERTEX
  8
W60LXLIFT
 62
1
 10
1318.605
 20
-8024.864
 30
-677.000
 70
    32
  0
VERTEX
  8
W60LXLIFT
 62
1
 10
1324.524
 20
-8041.182
 30
-677.000
 70
    32
  0
VERTEX
  8
W60LXLIFT
 62
1
 10
1328.095
 20
-8046.733
 30
-677.000
 70
    32
  0
VERTEX
  8
W60LXLIFT
 62
1
 10
1331.716
 20
-8047.697
 30
-677.000
 70
    32
  0
VERTEX
  8
W60LXLIFT
 62
1
 10
1335.278
 20
-8053.687
 30
-677.000
 70
    32
  0
VERTEX
  8
W60LXLIFT
 62
1
 10
1335.092
 20
-8059.889
 30
-677.000
 70
    32
  0
VERTEX
  8
W60LXLIFT
 62
1
 10
1337.939
 20
-8072.247
 30
-677.000
 70
    32
  0
VERTEX
  8
W60LXLIFT
 62
1
 10
1358.994
 20
-8092.275
 30
-677.000
 70
    32
  0
VERTEX
  8
W60LXLIFT
 62
1
 10
1372.881
 20
-8108.372
 30
-677.000
 70
    32
  0
VERTEX
  8
W60LXLIFT
 62
1
 10
1385.754
 20
-8117.506
 30
-677.000
 70
    32
  0
VERTEX
  8
W60LXLIFT
 62
1
 10
1392.117
 20
-8112.808
 30
-677.000
 70
    32
  0
VERTEX
  8
W60LXLIFT
 62
1
 10
1391.973
 20
-8108.252
 30
-677.000
 70
    32
  0
SEQEND
  8
W60LXLIFT
  0
POLYLINE
  8
W60LXLIFT
 62
7
 66
     1
 70
     9
  0
VERTEX
  8
W60LXLIFT
 62
7
 10
1419.152
 20
-8069.468
 30
-797.052
 70
    32
  0
VERTEX
  8
W60LXLIFT
 62
7
 10
1424.722
 20
-8068.157
 30
-797.054
 70
    32
  0
VERTEX
  8
W60LXLIFT
 62
7
 10
1445.422
 20
-8063.287
 30
-797.108
 70
    32
  0
VERTEX
  8
W60LXLIFT
 62
7
 10
1449.116
 20
-8057.608
 30
-797.109
 70
    32
  0
VERTEX
  8
W60LXLIFT
 62
7
 10
1455.353
 20
-8052.613
 30
-797.119
 70
    32
  0
VERTEX
  8
W60LXLIFT
 62
7
 10
1467.871
 20
-8054.076
 30
-797.159
 70
    32
  0
VERTEX
  8
W60LXLIFT
 62
7
 10
1469.013
 20
-8049.837
 30
-797.156
 70
    32
  0
VERTEX
  8
W60LXLIFT
 62
7
 10
1474.197
 20
-8043.213
 30
-797.160
 70
    32
  0
VERTEX
  8
W60LXLIFT
 62
7
 10
1480.732
 20
-8039.882
 30
-797.174
 70
    32
  0
VERTEX
  8
W60LXLIFT
 62
7
 10
1492.360
 20
-8056.871
 30
-797.237
 70
    32
  0
VERTEX
  8
W60LXLIFT
 62
7
 10
1493.531
 20
-8069.334
 30
-797.262
 70
    32
  0
VERTEX
  8
W60LXLIFT
 62
7
 10
1487.047
 20
-8074.298
 30
-797.251
 70
    32
  0
VERTEX
  8
W60LXLIFT
 62
7
 10
1486.212
 20
-8078.074
 30
-797.255
 70
    32
  0
VERTEX
  8
W60LXLIFT
 62
7
 10
1496.155
 20
-8090.918
 30
-797.306
 70
    32
  0
VERTEX
  8
W60LXLIFT
 62
7
 10
1485.086
 20
-8109.396
 30
-797.304
 70
    32
  0
VERTEX
  8
W60LXLIFT
 62
7
 10
1468.473
 20
-8120.506
 30
-797.274
 70
    32
  0
VERTEX
  8
W60LXLIFT
 62
7
 10
1453.560
 20
-8131.511
 30
-797.248
 70
    32
  0
VERTEX
  8
W60LXLIFT
 62
7
 10
1437.261
 20
-8129.776
 30
-797.196
 70
    32
  0
VERTEX
  8
W60LXLIFT
 62
7
 10
1433.773
 20
-8125.035
 30
-797.177
 70
    32
  0
VERTEX
  8
W60LXLIFT
 62
7
 10
1424.652
 20
-8126.489
 30
-797.153
 70
    32
  0
VERTEX
  8
W60LXLIFT
 62
7
 10
1416.572
 20
-8130.695
 30
-797.136
 70
    32
  0
VERTEX
  8
W60LXLIFT
 62
7
 10
1411.468
 20
-8129.620
 30
-797.119
 70
    32
  0
VERTEX
  8
W60LXLIFT
 62
7
 10
1408.828
 20
-8129.064
 30
-797.116
 70
    32
  0
VERTEX
  8
W60LXLIFT
 62
7
 10
1406.272
 20
-8124.375
 30
-797.108
 70
    32
  0
VERTEX
  8
W60LXLIFT
 62
7
 10
1405.214
 20
-8106.359
 30
-797.086
 70
    32
  0
VERTEX
  8
W60LXLIFT
 62
7
 10
1404.042
 20
-8103.152
 30
-797.081
 70
    32
  0
VERTEX
  8
W60LXLIFT
 62
7
 10
1412.562
 20
-8089.680
 30
-797.071
 70
    32
  0
VERTEX
  8
W60LXLIFT
 62
7
 10
1407.412
 20
-8082.673
 30
-797.059
 70
    32
  0
SEQEND
  8
W60LXLIFT
  0
POLYLINE
  8
W60LXLIFT
 62
7
 66
     1
 70
     9
  0
VERTEX
  8
W60LXLIFT
 62
7
 10
1450.057
 20
-8082.739
 30
-797.155
 70
    32
  0
VERTEX
  8
W60LXLIFT
 62
7
 10
1456.202
 20
-8085.176
 30
-797.177
 70
    32
  0
VERTEX
  8
W60LXLIFT
 62
7
 10
1460.298
 20
-8092.117
 30
-797.201
 70
    32
  0
VERTEX
  8
W60LXLIFT
 62
7
 10
1466.845
 20
-8092.789
 30
-797.222
 70
    32
  0
VERTEX
  8
W60LXLIFT
 62
7
 10
1471.461
 20
-8101.107
 30
-797.250
 70
    32
  0
VERTEX
  8
W60LXLIFT
 62
7
 10
1461.548
 20
-8110.094
 30
-797.235
 70
    32
  0
VERTEX
  8
W60LXLIFT
 62
7
 10
1452.508
 20
-8105.240
 30
-797.200
 70
    32
  0
VERTEX
  8
W60LXLIFT
 62
7
 10
1442.345
 20
-8096.247
 30
-797.154
 70
    32
  0
VERTEX
  8
W60LXLIFT
 62
7
 10
1440.763
 20
-8090.238
 30
-797.140
 70
    32
  0
SEQEND
  8
W60LXLIFT
  0
POLYLINE
  8
W60LXLIFT
 62
1
 66
     1
 70
     9
  0
VERTEX
  8
W60LXLIFT
 62
1
 10
1420.152
 20
-8068.468
 30
-787.052
 70
    32
  0
VERTEX
  8
W60LXLIFT
 62
1
 10
1425.722
 20
-8067.157
 30
-787.054
 70
    32
  0
VERTEX
  8
W60LXLIFT
 62
1
 10
1446.422
 20
-8062.287
 30
-787.108
 70
    32
  0
VERTEX
  8
W60LXLIFT
 62
1
 10
1450.116
 20
-8056.608
 30
-787.109
 70
    32
  0
VERTEX
  8
W60LXLIFT
 62
1
 10
1456.353
 20
-8051.613
 30
-787.119
 70
    32
  0
VERTEX
  8
W60LXLIFT
 62
1
 10
1468.871
 20
-8053.076
 30
-787.159
 70
    32
  0
VERTEX
  8
W60LXLIFT
 62
1
 10
1470.013
 20
-8048.837
 30
-787.156
 70
    32
  0
VERTEX
  8
W60LXLIFT
 62
1
 10
1475.197
 20
-8042.213
 30
-787.160
 70
    32
  0
VERTEX
  8
W60LXLIFT
 62
1
 10
1481.732
 20
-8038.882
 30
-787.174
 70
    32
  0
VERTEX
  8
W60LXLIFT
 62
1
 10
1493.360
 20
-8055.871
 30
-787.237
 70
    32
  0
VERTEX
  8
W60LXLIFT
 62
1
 10
1494.531
 20
-8068.334
 30
-787.262
 70
    32
  0
VERTEX
  8
W60LXLIFT
 62
1
 10
1488.047
 20
-8073.298
 30
-787.251
 70
    32
  0
VERTEX
  8
W60LXLIFT
 62
1
 10
1487.212
 20
-8077.074
 30
-787.255
 70
    32
  0
VERTEX
  8
W60LXLIFT
 62
1
 10
1497.155
 20
-8089.918
 30
-787.306
 70
    32
  0
VERTEX
  8
W60LXLIFT
 62
1
 10
1486.086
 20
-8108.396
 30
-787.304
 70
    32
  0
VERTEX
  8
W60LXLIFT
 62
1
 10
1469.473
 20
-8119.506
 30
-787.274
 70
    32
  0
VERTEX
  8
W60LXLIFT
 62
1
 10
1454.560
 20
-8130.511
 30
-787.248
 70
    32
  0
VERTEX
  8
W60LXLIFT
 62
1
 10
1438.261
 20
-8128.776
 30
-787.196
 70
    32
  0
VERTEX
  8
W60LXLIFT
 62
1
 10
1434.773
 20
-8124.035
 30
-787.177
 70
    32
  0
VERTEX
  8
W60LXLIFT
 62
1
 10
1425.652
 20
-8125.489
 30
-787.153
 70
    32
  0
VERTEX
  8
W60LXLIFT
 62
1
 10
1417.572
 20
-8129.695
 30
-787.136
 70
    32
  0
VERTEX
  8
W60LXLIFT
 62
1
 10
1412.468
 20
-8128.620
 30
-787.119
 70
    32
  0
VERTEX
  8
W60LXLIFT
 62
1
 10
1409.828
 20
-8128.064
 30
-787.116
 70
    32
  0
VERTEX
  8
W60LXLIFT
 62
1
 10
1407.272
 20
-8123.375
 30
-787.108
 70
    32
  0
VERTEX
  8
W60LXLIFT
 62
1
 10
1406.214
 20
-8105.359
 30
-787.086
 70
    32
  0
VERTEX
  8
W60LXLIFT
 62
1
 10
1405.042
 20
-8102.152
 30
-787.081
 70
    32
  0
VERTEX
  8
W60LXLIFT
 62
1
 10
1413.562
 20
-8088.680
 30
-787.071
 70
    32
  0
VERTEX
  8
W60LXLIFT
 62
1
 10
1408.412
 20
-8081.673
 30
-787.059
 70
    32
  0
SEQEND
  8
W60LXLIFT
  0
POLYLINE
  8
W60LXLIFT
 62
1
 66
     1
 70
     9
  0
VERTEX
  8
W60LXLIFT
 62
1
 10
1451.057
 20
-8081.739
 30
-787.155
 70
    32
  0
VERTEX
  8
W60LXLIFT
 62
1
 10
1457.202
 20
-8084.176
 30
-787.177
 70
    32
  0
VERTEX
  8
W60LXLIFT
 62
1
 10
1461.298
 20
-8091.117
 30
-787.201
 70
    32
  0
VERTEX
  8
W60LXLIFT
 62
1
 10
1467.845
 20
-8091.789
 30
-787.222
 70
    32
  0
VERTEX
  8
W60LXLIFT
 62
1
 10
1472.461
 20
-8100.107
 30
-787.250
 70
    32
  0
VERTEX
  8
W60LXLIFT
 62
1
 10
1462.548
 20
-8109.094
 30
-787.235
 70
    32
  0
VERTEX
  8
W60LXLIFT
 62
1
 10
1453.508
 20
-8104.240
 30
-787.200
 70
    32
  0
VERTEX
  8
W60LXLIFT
 62
1
 10
1443.345
 20
-8095.247
 30
-787.154
 70
    32
  0
VERTEX
  8
W60LXLIFT
 62
1
 10
1441.763
 20
-8089.238
 30
-787.140
 70
    32
  0
SEQEND
  8
W60LXLIFT
  0
POINT
  8
W60LXLIFT
 62
7
 10
1457.186
 20
-8073.931
 30
-787.108
  0
POINT
  8
W60LXLIFT
 62
7
 10
1392.700
 20
-8060.232
 30
-687.000
  0
LINE
  8
W60LXLIFT
 62
7
 10
1392.700
 20
-8060.232
 30
-687.000
 11
1457.186
 21
-8073.931
 31
-787.108
  0
POINT
  8
W60LXLIFT
 62
6
 10
1306.290
 20
-7418.361
 30
-739.000
  0
POINT
  8
W60LXLIFT
 62
6
 10
1278.824
 20
-7444.748
 30
-694.000
  0
LINE
  8
W60LXLIFT
 62
6
 10
1278.824
 20
-7444.748
 30
-694.000
 11
1306.290
 21
-7418.361
 31
-739.000
  0
POLYLINE
  8
W60LXLIFT
 62
1
 66
     1
 70
     9
  0
VERTEX
  8
W60LXLIFT
 62
1
 10
1616.415
 20
-7319.705
 30
-683.000
 70
    32
  0
VERTEX
  8
W60LXLIFT
 62
1
 10
1592.580
 20
-7327.349
 30
-683.000
 70
    32
  0
VERTEX
  8
W60LXLIFT
 62
1
 10
1571.390
 20
-7329.947
 30
-683.000
 70
    32
  0
VERTEX
  8
W60LXLIFT
 62
1
 10
1540.518
 20
-7329.776
 30
-683.000
 70
    32
  0
VERTEX
  8
W60LXLIFT
 62
1
 10
1509.269
 20
-7329.985
 30
-683.000
 70
    32
  0
VERTEX
  8
W60LXLIFT
 62
1
 10
1496.151
 20
-7328.609
 30
-683.000
 70
    32
  0
VERTEX
  8
W60LXLIFT
 62
1
 10
1495.779
 20
-7325.087
 30
-683.000
 70
    32
  0
VERTEX
  8
W60LXLIFT
 62
1
 10
1514.924
 20
-7319.198
 30
-683.000
 70
    32
  0
VERTEX
  8
W60LXLIFT
 62
1
 10
1509.228
 20
-7304.679
 30
-683.000
 70
    32
  0
VERTEX
  8
W60LXLIFT
 62
1
 10
1498.429
 20
-7288.639
 30
-683.000
 70
    32
  0
VERTEX
  8
W60LXLIFT
 62
1
 10
1492.821
 20
-7273.190
 30
-683.000
 70
    32
  0
VERTEX
  8
W60LXLIFT
 62
1
 10
1500.685
 20
-7268.175
 30
-683.000
 70
    32
  0
VERTEX
  8
W60LXLIFT
 62
1
 10
1512.587
 20
-7284.394
 30
-683.000
 70
    32
  0
VERTEX
  8
W60LXLIFT
 62
1
 10
1512.587
 20
-7284.394
 30
-683.000
 70
    32
  0
VERTEX
  8
W60LXLIFT
 62
1
 10
1520.934
 20
-7295.379
 30
-683.000
 70
    32
  0
VERTEX
  8
W60LXLIFT
 62
1
 10
1527.990
 20
-7300.365
 30
-683.000
 70
    32
  0
VERTEX
  8
W60LXLIFT
 62
1
 10
1537.661
 20
-7302.817
 30
-683.000
 70
    32
  0
VERTEX
  8
W60LXLIFT
 62
1
 10
1546.835
 20
-7303.679
 30
-683.000
 70
    32
  0
VERTEX
  8
W60LXLIFT
 62
1
 10
1557.986
 20
-7298.568
 30
-683.000
 70
    32
  0
VERTEX
  8
W60LXLIFT
 62
1
 10
1562.381
 20
-7289.339
 30
-683.000
 70
    32
  0
VERTEX
  8
W60LXLIFT
 62
1
 10
1560.509
 20
-7276.071
 30
-683.000
 70
    32
  0
VERTEX
  8
W60LXLIFT
 62
1
 10
1565.155
 20
-7275.756
 30
-683.000
 70
    32
  0
VERTEX
  8
W60LXLIFT
 62
1
 10
1573.640
 20
-7290.539
 30
-683.000
 70
    32
  0
VERTEX
  8
W60LXLIFT
 62
1
 10
1584.701
 20
-7308.447
 30
-683.000
 70
    32
  0
VERTEX
  8
W60LXLIFT
 62
1
 10
1594.900
 20
-7312.685
 30
-683.000
 70
    32
  0
VERTEX
  8
W60LXLIFT
 62
1
 10
1600.552
 20
-7313.918
 30
-683.000
 70
    32
  0
VERTEX
  8
W60LXLIFT
 62
1
 10
1611.878
 20
-7311.605
 30
-683.000
 70
    32
  0
SEQEND
  8
W60LXLIFT
  0
POLYLINE
  8
W60LXLIFT
 62
4
 66
     1
 70
     9
  0
VERTEX
  8
W60LXLIFT
 62
4
 10
1570.353
 20
-7356.557
 30
-798.219
 70
    32
  0
VERTEX
  8
W60LXLIFT
 62
4
 10
1566.914
 20
-7349.306
 30
-798.236
 70
    32
  0
VERTEX
  8
W60LXLIFT
 62
4
 10
1562.892
 20
-7347.069
 30
-798.244
 70
    32
  0
VERTEX
  8
W60LXLIFT
 62
4
 10
1552.915
 20
-7345.976
 30
-798.253
 70
    32
  0
VERTEX
  8
W60LXLIFT
 62
4
 10
1540.774
 20
-7340.388
 30
-798.215
 70
    32
  0
VERTEX
  8
W60LXLIFT
 62
4
 10
1533.296
 20
-7339.806
 30
-798.184
 70
    32
  0
VERTEX
  8
W60LXLIFT
 62
4
 10
1520.985
 20
-7330.586
 30
-798.138
 70
    32
  0
VERTEX
  8
W60LXLIFT
 62
4
 10
1520.765
 20
-7315.951
 30
-798.150
 70
    32
  0
VERTEX
  8
W60LXLIFT
 62
4
 10
1516.373
 20
-7306.255
 30
-798.139
 70
    32
  0
VERTEX
  8
W60LXLIFT
 62
4
 10
1521.093
 20
-7300.720
 30
-798.163
 70
    32
  0
VERTEX
  8
W60LXLIFT
 62
4
 10
1530.376
 20
-7302.510
 30
-798.202
 70
    32
  0
VERTEX
  8
W60LXLIFT
 62
4
 10
1534.279
 20
-7306.116
 30
-798.216
 70
    32
  0
VERTEX
  8
W60LXLIFT
 62
4
 10
1538.938
 20
-7318.197
 30
-798.226
 70
    32
  0
VERTEX
  8
W60LXLIFT
 62
4
 10
1544.223
 20
-7325.021
 30
-798.243
 70
    32
  0
VERTEX
  8
W60LXLIFT
 62
4
 10
1546.807
 20
-7326.115
 30
-798.253
 70
    32
  0
VERTEX
  8
W60LXLIFT
 62
4
 10
1550.276
 20
-7325.094
 30
-798.268
 70
    32
  0
VERTEX
  8
W60LXLIFT
 62
4
 10
1551.386
 20
-7322.071
 30
-798.276
 70
    32
  0
VERTEX
  8
W60LXLIFT
 62
4
 10
1550.967
 20
-7317.004
 30
-798.278
 70
    32
  0
VERTEX
  8
W60LXLIFT
 62
4
 10
1544.160
 20
-7310.919
 30
-798.254
 70
    32
  0
VERTEX
  8
W60LXLIFT
 62
4
 10
1545.175
 20
-7292.209
 30
-798.274
 70
    32
  0
VERTEX
  8
W60LXLIFT
 62
4
 10
1542.567
 20
-7283.844
 30
-798.269
 70
    32
  0
VERTEX
  8
W60LXLIFT
 62
4
 10
1529.745
 20
-7263.728
 30
-798.231
 70
    32
  0
VERTEX
  8
W60LXLIFT
 62
4
 10
1525.564
 20
-7253.564
 30
-798.222
 70
    32
  0
VERTEX
  8
W60LXLIFT
 62
4
 10
1529.559
 20
-7249.605
 30
-798.242
 70
    32
  0
VERTEX
  8
W60LXLIFT
 62
4
 10
1544.381
 20
-7246.574
 30
-798.308
 70
    32
  0
VERTEX
  8
W60LXLIFT
 62
4
 10
1551.012
 20
-7248.710
 30
-798.335
 70
    32
  0
VERTEX
  8
W60LXLIFT
 62
4
 10
1557.197
 20
-7252.978
 30
-798.358
 70
    32
  0
VERTEX
  8
W60LXLIFT
 62
4
 10
1571.438
 20
-7281.752
 30
-798.369
 70
    32
  0
VERTEX
  8
W60LXLIFT
 62
4
 10
1575.590
 20
-7289.256
 30
-798.351
 70
    32
  0
VERTEX
  8
W60LXLIFT
 62
4
 10
1573.925
 20
-7308.419
 30
-798.313
 70
    32
  0
VERTEX
  8
W60LXLIFT
 62
4
 10
1575.757
 20
-7313.359
 30
-798.302
 70
    32
  0
VERTEX
  8
W60LXLIFT
 62
4
 10
1576.523
 20
-7326.007
 30
-798.276
 70
    32
  0
VERTEX
  8
W60LXLIFT
 62
4
 10
1592.389
 20
-7340.046
 30
-798.237
 70
    32
  0
VERTEX
  8
W60LXLIFT
 62
4
 10
1598.936
 20
-7346.199
 30
-798.220
 70
    32
  0
VERTEX
  8
W60LXLIFT
 62
4
 10
1599.955
 20
-7353.205
 30
-798.205
 70
    32
  0
VERTEX
  8
W60LXLIFT
 62
4
 10
1619.255
 20
-7365.384
 30
-798.167
 70
    32
  0
VERTEX
  8
W60LXLIFT
 62
4
 10
1618.217
 20
-7370.821
 30
-798.157
 70
    32
  0
VERTEX
  8
W60LXLIFT
 62
4
 10
1614.890
 20
-7372.815
 30
-798.156
 70
    32
  0
VERTEX
  8
W60LXLIFT
 62
4
 10
1609.660
 20
-7369.919
 30
-798.165
 70
    32
  0
VERTEX
  8
W60LXLIFT
 62
4
 10
1603.410
 20
-7370.947
 30
-798.167
 70
    32
  0
VERTEX
  8
W60LXLIFT
 62
4
 10
1596.856
 20
-7364.150
 30
-798.186
 70
    32
  0
VERTEX
  8
W60LXLIFT
 62
4
 10
1591.754
 20
-7361.593
 30
-798.194
 70
    32
  0
VERTEX
  8
W60LXLIFT
 62
4
 10
1577.916
 20
-7360.187
 30
-798.207
 70
    32
  0
SEQEND
  8
W60LXLIFT
  0
POLYLINE
  8
W60LXLIFT
 62
2
 66
     1
 70
     9
  0
VERTEX
  8
W60LXLIFT
 62
2
 10
1289.410
 20
-7147.995
 30
-797.104
 70
    32
  0
VERTEX
  8
W60LXLIFT
 62
2
 10
1286.813
 20
-7132.871
 30
-797.089
 70
    32
  0
VERTEX
  8
W60LXLIFT
 62
2
 10
1282.446
 20
-7121.979
 30
-797.064
 70
    32
  0
VERTEX
  8
W60LXLIFT
 62
2
 10
1265.831
 20
-7089.178
 30
-796.967
 70
    32
  0
VERTEX
  8
W60LXLIFT
 62
2
 10
1259.939
 20
-7066.703
 30
-796.933
 70
    32
  0
VERTEX
  8
W60LXLIFT
 62
2
 10
1259.670
 20
-7056.924
 30
-796.932
 70
    32
  0
VERTEX
  8
W60LXLIFT
 62
2
 10
1268.705
 20
-7046.349
 30
-796.988
 70
    32
  0
VERTEX
  8
W60LXLIFT
 62
2
 10
1277.005
 20
-7057.503
 30
-797.038
 70
    32
  0
VERTEX
  8
W60LXLIFT
 62
2
 10
1299.426
 20
-7072.010
 30
-797.176
 70
    32
  0
VERTEX
  8
W60LXLIFT
 62
2
 10
1310.765
 20
-7110.626
 30
-797.239
 70
    32
  0
VERTEX
  8
W60LXLIFT
 62
2
 10
1315.594
 20
-7115.288
 30
-797.268
 70
    32
  0
VERTEX
  8
W60LXLIFT
 62
2
 10
1328.051
 20
-7129.017
 30
-797.344
 70
    32
  0
VERTEX
  8
W60LXLIFT
 62
2
 10
1325.654
 20
-7165.262
 30
-797.322
 70
    32
  0
VERTEX
  8
W60LXLIFT
 62
2
 10
1324.992
 20
-7175.271
 30
-797.316
 70
    32
  0
VERTEX
  8
W60LXLIFT
 62
2
 10
1333.054
 20
-7231.637
 30
-797.360
 70
    32
  0
VERTEX
  8
W60LXLIFT
 62
2
 10
1335.690
 20
-7286.385
 30
-797.372
 70
    32
  0
VERTEX
  8
W60LXLIFT
 62
2
 10
1333.386
 20
-7288.310
 30
-797.358
 70
    32
  0
VERTEX
  8
W60LXLIFT
 62
2
 10
1323.353
 20
-7286.827
 30
-797.298
 70
    32
  0
VERTEX
  8
W60LXLIFT
 62
2
 10
1320.978
 20
-7269.405
 30
-797.285
 70
    32
  0
VERTEX
  8
W60LXLIFT
 62
2
 10
1312.961
 20
-7260.197
 30
-797.238
 70
    32
  0
VERTEX
  8
W60LXLIFT
 62
2
 10
1311.818
 20
-7256.706
 30
-797.231
 70
    32
  0
VERTEX
  8
W60LXLIFT
 62
2
 10
1311.758
 20
-7233.065
 30
-797.232
 70
    32
  0
VERTEX
  8
W60LXLIFT
 62
2
 10
1307.802
 20
-7195.204
 30
-797.211
 70
    32
  0
VERTEX
  8
W60LXLIFT
 62
2
 10
1307.369
 20
-7184.574
 30
-797.209
 70
    32
  0
VERTEX
  8
W60LXLIFT
 62
2
 10
1291.566
 20
-7159.238
 30
-797.116
 70
    32
  0
SEQEND
  8
W60LXLIFT
  0
POLYLINE
  8
W60LXLIFT
 62
1
 66
     1
 70
     9
  0
VERTEX
  8
W60LXLIFT
 62
1
 10
1234.231
 20
-6751.499
 30
-687.000
 70
    32
  0
VERTEX
  8
W60LXLIFT
 62
1
 10
1230.694
 20
-6745.386
 30
-687.000
 70
    32
  0
VERTEX
  8
W60LXLIFT
 62
1
 10
1230.788
 20
-6718.466
 30
-687.000
 70
    32
  0
VERTEX
  8
W60LXLIFT
 62
1
 10
1244.431
 20
-6708.096
 30
-687.000
 70
    32
  0
VERTEX
  8
W60LXLIFT
 62
1
 10
1248.158
 20
-6697.940
 30
-687.000
 70
    32
  0
VERTEX
  8
W60LXLIFT
 62
1
 10
1244.050
 20
-6692.238
 30
-687.000
 70
    32
  0
VERTEX
  8
W60LXLIFT
 62
1
 10
1230.869
 20
-6660.266
 30
-687.000
 70
    32
  0
VERTEX
  8
W60LXLIFT
 62
1
 10
1235.176
 20
-6644.604
 30
-687.000
 70
    32
  0
VERTEX
  8
W60LXLIFT
 62
1
 10
1227.369
 20
-6638.426
 30
-687.000
 70
    32
  0
VERTEX
  8
W60LXLIFT
 62
1
 10
1223.966
 20
-6635.356
 30
-687.000
 70
    32
  0
VERTEX
  8
W60LXLIFT
 62
1
 10
1214.655
 20
-6605.901
 30
-687.000
 70
    32
  0
VERTEX
  8
W60LXLIFT
 62
1
 10
1208.800
 20
-6574.931
 30
-687.000
 70
    32
  0
VERTEX
  8
W60LXLIFT
 62
1
 10
1206.519
 20
-6563.799
 30
-687.000
 70
    32
  0
VERTEX
  8
W60LXLIFT
 62
1
 10
1204.596
 20
-6560.528
 30
-687.000
 70
    32
  0
VERTEX
  8
W60LXLIFT
 62
1
 10
1201.689
 20
-6548.980
 30
-687.000
 70
    32
  0
VERTEX
  8
W60LXLIFT
 62
1
 10
1184.041
 20
-6551.084
 30
-687.000
 70
    32
  0
VERTEX
  8
W60LXLIFT
 62
1
 10
1177.907
 20
-6559.401
 30
-687.000
 70
    32
  0
VERTEX
  8
W60LXLIFT
 62
1
 10
1180.551
 20
-6564.425
 30
-687.000
 70
    32
  0
VERTEX
  8
W60LXLIFT
 62
1
 10
1181.146
 20
-6577.423
 30
-687.000
 70
    32
  0
VERTEX
  8
W60LXLIFT
 62
1
 10
1193.228
 20
-6608.020
 30
-687.000
 70
    32
  0
VERTEX
  8
W60LXLIFT
 62
1
 10
1199.854
 20
-6629.991
 30
-687.000
 70
    32
  0
VERTEX
  8
W60LXLIFT
 62
1
 10
1202.912
 20
-6643.703
 30
-687.000
 70
    32
  0
VERTEX
  8
W60LXLIFT
 62
1
 10
1206.893
 20
-6653.287
 30
-687.000
 70
    32
  0
VERTEX
  8
W60LXLIFT
 62
1
 10
1205.391
 20
-6668.335
 30
-687.000
 70
    32
  0
VERTEX
  8
W60LXLIFT
 62
1
 10
1207.457
 20
-6671.503
 30
-687.000
 70
    32
  0
VERTEX
  8
W60LXLIFT
 62
1
 10
1209.415
 20
-6698.568
 30
-687.000
 70
    32
  0
VERTEX
  8
W60LXLIFT
 62
1
 10
1203.148
 20
-6711.961
 30
-687.000
 70
    32
  0
VERTEX
  8
W60LXLIFT
 62
1
 10
1205.878
 20
-6725.369
 30
-687.000
 70
    32
  0
VERTEX
  8
W60LXLIFT
 62
1
 10
1193.365
 20
-6744.669
 30
-687.000
 70
    32
  0
VERTEX
  8
W60LXLIFT
 62
1
 10
1202.236
 20
-6751.271
 30
-687.000
 70
    32
  0
VERTEX
  8
W60LXLIFT
 62
1
 10
1207.614
 20
-6742.957
 30
-687.000
 70
    32
  0
VERTEX
  8
W60LXLIFT
 62
1
 10
1209.548
 20
-6743.838
 30
-687.000
 70
    32
  0
VERTEX
  8
W60LXLIFT
 62
1
 10
1221.842
 20
-6763.456
 30
-687.000
 70
    32
  0
SEQEND
  8
W60LXLIFT
  0
POINT
  8
W60LXLIFT
 62
3
 10
1271.551
 20
-6882.082
 30
-663.357
  0
POINT
  8
W60LXLIFT
 62
3
 10
1217.648
 20
-6649.056
 30
-697.000
  0
POLYLINE
  8
W60LXLIFT
 62
3
 66
     1
 70
     9
  0
VERTEX
  8
W60LXLIFT
 62
3
 10
1225.907
 20
-6539.039
 30
-795.524
 70
    32
  0
VERTEX
  8
W60LXLIFT
 62
3
 10
1227.512
 20
-6507.113
 30
-795.423
 70
    32
  0
VERTEX
  8
W60LXLIFT
 62
3
 10
1228.719
 20
-6504.106
 30
-795.414
 70
    32
  0
VERTEX
  8
W60LXLIFT
 62
3
 10
1230.669
 20
-6504.123
 30
-795.415
 70
    32
  0
VERTEX
  8
W60LXLIFT
 62
3
 10
1236.717
 20
-6498.224
 30
-795.398
 70
    32
  0
VERTEX
  8
W60LXLIFT
 62
3
 10
1241.923
 20
-6496.151
 30
-795.393
 70
    32
  0
VERTEX
  8
W60LXLIFT
 62
3
 10
1243.811
 20
-6496.536
 30
-795.395
 70
    32
  0
VERTEX
  8
W60LXLIFT
 62
3
 10
1245.511
 20
-6503.191
 30
-795.417
 70
    32
  0
VERTEX
  8
W60LXLIFT
 62
3
 10
1245.273
 20
-6524.890
 30
-795.486
 70
    32
  0
VERTEX
  8
W60LXLIFT
 62
3
 10
1261.379
 20
-6571.182
 30
-795.639
 70
    32
  0
VERTEX
  8
W60LXLIFT
 62
3
 10
1262.136
 20
-6591.853
 30
-795.705
 70
    32
  0
VERTEX
  8
W60LXLIFT
 62
3
 10
1266.829
 20
-6611.243
 30
-795.768
 70
    32
  0
VERTEX
  8
W60LXLIFT
 62
3
 10
1271.476
 20
-6616.132
 30
-795.785
 70
    32
  0
VERTEX
  8
W60LXLIFT
 62
3
 10
1277.023
 20
-6615.756
 30
-795.786
 70
    32
  0
VERTEX
  8
W60LXLIFT
 62
3
 10
1280.359
 20
-6619.098
 30
-795.798
 70
    32
  0
VERTEX
  8
W60LXLIFT
 62
3
 10
1287.133
 20
-6615.591
 30
-795.792
 70
    32
  0
VERTEX
  8
W60LXLIFT
 62
3
 10
1289.741
 20
-6619.880
 30
-795.809
 70
    32
  0
VERTEX
  8
W60LXLIFT
 62
3
 10
1288.675
 20
-6639.043
 30
-795.875
 70
    32
  0
VERTEX
  8
W60LXLIFT
 62
3
 10
1296.519
 20
-6654.371
 30
-795.951
 70
    32
  0
VERTEX
  8
W60LXLIFT
 62
3
 10
1302.586
 20
-6662.023
 30
-795.955
 70
    32
  0
VERTEX
  8
W60LXLIFT
 62
3
 10
1312.421
 20
-6669.373
 30
-795.950
 70
    32
  0
VERTEX
  8
W60LXLIFT
 62
3
 10
1313.136
 20
-6682.539
 30
-795.979
 70
    32
  0
VERTEX
  8
W60LXLIFT
 62
3
 10
1326.762
 20
-6694.632
 30
-795.976
 70
    32
  0
VERTEX
  8
W60LXLIFT
 62
3
 10
1326.927
 20
-6704.742
 30
-795.999
 70
    32
  0
VERTEX
  8
W60LXLIFT
 62
3
 10
1330.377
 20
-6710.372
 30
-796.004
 70
    32
  0
VERTEX
  8
W60LXLIFT
 62
3
 10
1327.348
 20
-6714.455
 30
-796.020
 70
    32
  0
VERTEX
  8
W60LXLIFT
 62
3
 10
1312.116
 20
-6726.126
 30
-796.081
 70
    32
  0
VERTEX
  8
W60LXLIFT
 62
3
 10
1300.707
 20
-6735.050
 30
-796.127
 70
    32
  0
VERTEX
  8
W60LXLIFT
 62
3
 10
1294.467
 20
-6735.057
 30
-796.141
 70
    32
  0
VERTEX
  8
W60LXLIFT
 62
3
 10
1291.107
 20
-6732.593
 30
-796.142
 70
    32
  0
VERTEX
  8
W60LXLIFT
 62
3
 10
1289.643
 20
-6725.663
 30
-796.130
 70
    32
  0
VERTEX
  8
W60LXLIFT
 62
3
 10
1280.381
 20
-6723.074
 30
-796.145
 70
    32
  0
VERTEX
  8
W60LXLIFT
 62
3
 10
1281.408
 20
-6713.734
 30
-796.121
 70
    32
  0
VERTEX
  8
W60LXLIFT
 62
3
 10
1277.764
 20
-6710.718
 30
-796.122
 70
    32
  0
VERTEX
  8
W60LXLIFT
 62
3
 10
1268.633
 20
-6700.715
 30
-796.057
 70
    32
  0
VERTEX
  8
W60LXLIFT
 62
3
 10
1259.413
 20
-6695.298
 30
-796.033
 70
    32
  0
VERTEX
  8
W60LXLIFT
 62
3
 10
1255.377
 20
-6687.930
 30
-796.008
 70
    32
  0
VERTEX
  8
W60LXLIFT
 62
3
 10
1245.840
 20
-6679.937
 30
-795.979
 70
    32
  0
VERTEX
  8
W60LXLIFT
 62
3
 10
1240.216
 20
-6679.292
 30
-795.975
 70
    32
  0
VERTEX
  8
W60LXLIFT
 62
3
 10
1236.954
 20
-6675.144
 30
-795.961
 70
    32
  0
VERTEX
  8
W60LXLIFT
 62
3
 10
1237.501
 20
-6671.204
 30
-795.949
 70
    32
  0
VERTEX
  8
W60LXLIFT
 62
3
 10
1235.251
 20
-6664.078
 30
-795.925
 70
    32
  0
VERTEX
  8
W60LXLIFT
 62
3
 10
1229.290
 20
-6660.981
 30
-795.913
 70
    32
  0
VERTEX
  8
W60LXLIFT
 62
3
 10
1233.178
 20
-6640.787
 30
-795.850
 70
    32
  0
VERTEX
  8
W60LXLIFT
 62
3
 10
1236.923
 20
-6636.196
 30
-795.837
 70
    32
  0
VERTEX
  8
W60LXLIFT
 62
3
 10
1245.193
 20
-6628.723
 30
-795.816
 70
    32
  0
VERTEX
  8
W60LXLIFT
 62
3
 10
1246.988
 20
-6618.947
 30
-795.786
 70
    32
  0
VERTEX
  8
W60LXLIFT
 62
3
 10
1242.256
 20
-6591.295
 30
-795.696
 70
    32
  0
VERTEX
  8
W60LXLIFT
 62
3
 10
1239.943
 20
-6579.369
 30
-795.657
 70
    32
  0
VERTEX
  8
W60LXLIFT
 62
3
 10
1236.317
 20
-6566.652
 30
-795.616
 70
    32
  0
VERTEX
  8
W60LXLIFT
 62
3
 10
1234.865
 20
-6564.450
 30
-795.608
 70
    32
  0
VERTEX
  8
W60LXLIFT
 62
3
 10
1233.446
 20
-6561.688
 30
-795.599
 70
    32
  0
VERTEX
  8
W60LXLIFT
 62
3
 10
1229.593
 20
-6562.479
 30
-795.600
 70
    32
  0
VERTEX
  8
W60LXLIFT
 62
3
 10
1224.850
 20
-6553.352
 30
-795.569
 70
    32
  0
SEQEND
  8
W60LXLIFT
  0
POLYLINE
  8
W60LXLIFT
 62
3
 66
     1
 70
     9
  0
VERTEX
  8
W60LXLIFT
 62
3
 10
1304.922
 20
-6764.252
 30
-796.184
 70
    32
  0
VERTEX
  8
W60LXLIFT
 62
3
 10
1312.312
 20
-6767.845
 30
-796.176
 70
    32
  0
VERTEX
  8
W60LXLIFT
 62
3
 10
1314.024
 20
-6799.896
 30
-796.245
 70
    32
  0
VERTEX
  8
W60LXLIFT
 62
3
 10
1317.672
 20
-6809.908
 30
-796.370
 70
    32
  0
VERTEX
  8
W60LXLIFT
 62
3
 10
1325.563
 20
-6820.896
 30
-796.793
 70
    32
  0
VERTEX
  8
W60LXLIFT
 62
3
 10
1326.749
 20
-6830.928
 30
-796.958
 70
    32
  0
VERTEX
  8
W60LXLIFT
 62
3
 10
1324.447
 20
-6842.571
 30
-797.013
 70
    32
  0
VERTEX
  8
W60LXLIFT
 62
3
 10
1341.607
 20
-6872.722
 30
-797.477
 70
    32
  0
VERTEX
  8
W60LXLIFT
 62
3
 10
1334.409
 20
-6877.605
 30
-797.431
 70
    32
  0
VERTEX
  8
W60LXLIFT
 62
3
 10
1321.073
 20
-6859.387
 30
-797.092
 70
    32
  0
VERTEX
  8
W60LXLIFT
 62
3
 10
1310.851
 20
-6838.423
 30
-796.462
 70
    32
  0
VERTEX
  8
W60LXLIFT
 62
3
 10
1305.107
 20
-6826.667
 30
-796.326
 70
    32
  0
VERTEX
  8
W60LXLIFT
 62
3
 10
1302.508
 20
-6822.695
 30
-796.323
 70
    32
  0
VERTEX
  8
W60LXLIFT
 62
3
 10
1295.931
 20
-6817.665
 30
-796.326
 70
    32
  0
VERTEX
  8
W60LXLIFT
 62
3
 10
1292.102
 20
-6817.579
 30
-796.335
 70
    32
  0
VERTEX
  8
W60LXLIFT
 62
3
 10
1285.408
 20
-6811.017
 30
-796.335
 70
    32
  0
VERTEX
  8
W60LXLIFT
 62
3
 10
1290.545
 20
-6800.488
 30
-796.299
 70
    32
  0
VERTEX
  8
W60LXLIFT
 62
3
 10
1290.324
 20
-6786.651
 30
-796.268
 70
    32
  0
VERTEX
  8
W60LXLIFT
 62
3
 10
1292.563
 20
-6767.625
 30
-796.219
 70
    32
  0
VERTEX
  8
W60LXLIFT
 62
3
 10
1296.502
 20
-6760.420
 30
-796.194
 70
    32
  0
SEQEND
  8
W60LXLIFT
  0
POLYLINE
  8
W60LXLIFT
 62
3
 66
     1
 70
     9
  0
VERTEX
  8
W60LXLIFT
 62
3
 10
1340.966
 20
-6885.341
 30
-797.470
 70
    32
  0
VERTEX
  8
W60LXLIFT
 62
3
 10
1342.050
 20
-6877.145
 30
-797.478
 70
    32
  0
VERTEX
  8
W60LXLIFT
 62
3
 10
1355.941
 20
-6873.656
 30
-797.566
 70
    32
  0
VERTEX
  8
W60LXLIFT
 62
3
 10
1357.590
 20
-6875.072
 30
-797.576
 70
    32
  0
VERTEX
  8
W60LXLIFT
 62
3
 10
1362.387
 20
-6896.433
 30
-797.602
 70
    32
  0
VERTEX
  8
W60LXLIFT
 62
3
 10
1412.264
 20
-6966.385
 30
-797.900
 70
    32
  0
VERTEX
  8
W60LXLIFT
 62
3
 10
1405.555
 20
-6971.352
 30
-797.858
 70
    32
  0
VERTEX
  8
W60LXLIFT
 62
3
 10
1391.427
 20
-6951.864
 30
-797.773
 70
    32
  0
VERTEX
  8
W60LXLIFT
 62
3
 10
1380.567
 20
-6937.596
 30
-797.708
 70
    32
  0
VERTEX
  8
W60LXLIFT
 62
3
 10
1355.745
 20
-6902.861
 30
-797.559
 70
    32
  0
VERTEX
  8
W60LXLIFT
 62
3
 10
1348.350
 20
-6903.363
 30
-797.513
 70
    32
  0
VERTEX
  8
W60LXLIFT
 62
3
 10
1342.104
 20
-6894.546
 30
-797.476
 70
    32
  0
SEQEND
  8
W60LXLIFT
  0
POLYLINE
  8
W60LXLIFT
 62
1
 66
     1
 70
     9
  0
VERTEX
  8
W60LXLIFT
 62
1
 10
1226.907
 20
-6538.039
 30
-785.524
 70
    32
  0
VERTEX
  8
W60LXLIFT
 62
1
 10
1228.512
 20
-6506.113
 30
-785.423
 70
    32
  0
VERTEX
  8
W60LXLIFT
 62
1
 10
1229.719
 20
-6503.106
 30
-785.414
 70
    32
  0
VERTEX
  8
W60LXLIFT
 62
1
 10
1231.669
 20
-6503.123
 30
-785.415
 70
    32
  0
VERTEX
  8
W60LXLIFT
 62
1
 10
1237.717
 20
-6497.224
 30
-785.398
 70
    32
  0
VERTEX
  8
W60LXLIFT
 62
1
 10
1242.923
 20
-6495.151
 30
-785.393
 70
    32
  0
VERTEX
  8
W60LXLIFT
 62
1
 10
1244.811
 20
-6495.536
 30
-785.395
 70
    32
  0
VERTEX
  8
W60LXLIFT
 62
1
 10
1246.511
 20
-6502.191
 30
-785.417
 70
    32
  0
VERTEX
  8
W60LXLIFT
 62
1
 10
1246.273
 20
-6523.890
 30
-785.486
 70
    32
  0
VERTEX
  8
W60LXLIFT
 62
1
 10
1262.379
 20
-6570.182
 30
-785.639
 70
    32
  0
VERTEX
  8
W60LXLIFT
 62
1
 10
1263.136
 20
-6590.853
 30
-785.705
 70
    32
  0
VERTEX
  8
W60LXLIFT
 62
1
 10
1267.829
 20
-6610.243
 30
-785.768
 70
    32
  0
VERTEX
  8
W60LXLIFT
 62
1
 10
1272.476
 20
-6615.132
 30
-785.785
 70
    32
  0
VERTEX
  8
W60LXLIFT
 62
1
 10
1278.023
 20
-6614.756
 30
-785.786
 70
    32
  0
VERTEX
  8
W60LXLIFT
 62
1
 10
1281.359
 20
-6618.098
 30
-785.798
 70
    32
  0
VERTEX
  8
W60LXLIFT
 62
1
 10
1288.133
 20
-6614.591
 30
-785.792
 70
    32
  0
VERTEX
  8
W60LXLIFT
 62
1
 10
1290.741
 20
-6618.880
 30
-785.809
 70
    32
  0
VERTEX
  8
W60LXLIFT
 62
1
 10
1289.675
 20
-6638.043
 30
-785.875
 70
    32
  0
VERTEX
  8
W60LXLIFT
 62
1
 10
1297.519
 20
-6653.371
 30
-785.951
 70
    32
  0
VERTEX
  8
W60LXLIFT
 62
1
 10
1303.586
 20
-6661.023
 30
-785.955
 70
    32
  0
VERTEX
  8
W60LXLIFT
 62
1
 10
1313.421
 20
-6668.373
 30
-785.950
 70
    32
  0
VERTEX
  8
W60LXLIFT
 62
1
 10
1314.136
 20
-6681.539
 30
-785.979
 70
    32
  0
VERTEX
  8
W60LXLIFT
 62
1
 10
1327.762
 20
-6693.632
 30
-785.976
 70
    32
  0
VERTEX
  8
W60LXLIFT
 62
1
 10
1327.927
 20
-6703.742
 30
-785.999
 70
    32
  0
VERTEX
  8
W60LXLIFT
 62
1
 10
1331.377
 20
-6709.372
 30
-786.004
 70
    32
  0
VERTEX
  8
W60LXLIFT
 62
1
 10
1328.348
 20
-6713.455
 30
-786.020
 70
    32
  0
VERTEX
  8
W60LXLIFT
 62
1
 10
1313.116
 20
-6725.126
 30
-786.081
 70
    32
  0
VERTEX
  8
W60LXLIFT
 62
1
 10
1301.707
 20
-6734.050
 30
-786.127
 70
    32
  0
VERTEX
  8
W60LXLIFT
 62
1
 10
1295.467
 20
-6734.057
 30
-786.141
 70
    32
  0
VERTEX
  8
W60LXLIFT
 62
1
 10
1292.107
 20
-6731.593
 30
-786.142
 70
    32
  0
VERTEX
  8
W60LXLIFT
 62
1
 10
1290.643
 20
-6724.663
 30
-786.130
 70
    32
  0
VERTEX
  8
W60LXLIFT
 62
1
 10
1281.381
 20
-6722.074
 30
-786.145
 70
    32
  0
VERTEX
  8
W60LXLIFT
 62
1
 10
1282.408
 20
-6712.734
 30
-786.121
 70
    32
  0
VERTEX
  8
W60LXLIFT
 62
1
 10
1278.764
 20
-6709.718
 30
-786.122
 70
    32
  0
VERTEX
  8
W60LXLIFT
 62
1
 10
1269.633
 20
-6699.715
 30
-786.057
 70
    32
  0
VERTEX
  8
W60LXLIFT
 62
1
 10
1260.413
 20
-6694.298
 30
-786.033
 70
    32
  0
VERTEX
  8
W60LXLIFT
 62
1
 10
1256.377
 20
-6686.930
 30
-786.008
 70
    32
  0
VERTEX
  8
W60LXLIFT
 62
1
 10
1246.840
 20
-6678.937
 30
-785.979
 70
    32
  0
VERTEX
  8
W60LXLIFT
 62
1
 10
1241.216
 20
-6678.292
 30
-785.975
 70
    32
  0
VERTEX
  8
W60LXLIFT
 62
1
 10
1237.954
 20
-6674.144
 30
-785.961
 70
    32
  0
VERTEX
  8
W60LXLIFT
 62
1
 10
1238.501
 20
-6670.204
 30
-785.949
 70
    32
  0
VERTEX
  8
W60LXLIFT
 62
1
 10
1236.251
 20
-6663.078
 30
-785.925
 70
    32
  0
VERTEX
  8
W60LXLIFT
 62
1
 10
1230.290
 20
-6659.981
 30
-785.913
 70
    32
  0
VERTEX
  8
W60LXLIFT
 62
1
 10
1234.178
 20
-6639.787
 30
-785.850
 70
    32
  0
VERTEX
  8
W60LXLIFT
 62
1
 10
1237.923
 20
-6635.196
 30
-785.837
 70
    32
  0
VERTEX
  8
W60LXLIFT
 62
1
 10
1246.193
 20
-6627.723
 30
-785.816
 70
    32
  0
VERTEX
  8
W60LXLIFT
 62
1
 10
1247.988
 20
-6617.947
 30
-785.786
 70
    32
  0
VERTEX
  8
W60LXLIFT
 62
1
 10
1243.256
 20
-6590.295
 30
-785.696
 70
    32
  0
VERTEX
  8
W60LXLIFT
 62
1
 10
1240.943
 20
-6578.369
 30
-785.657
 70
    32
  0
VERTEX
  8
W60LXLIFT
 62
1
 10
1237.317
 20
-6565.652
 30
-785.616
 70
    32
  0
VERTEX
  8
W60LXLIFT
 62
1
 10
1235.865
 20
-6563.450
 30
-785.608
 70
    32
  0
VERTEX
  8
W60LXLIFT
 62
1
 10
1234.446
 20
-6560.688
 30
-785.599
 70
    32
  0
VERTEX
  8
W60LXLIFT
 62
1
 10
1230.593
 20
-6561.479
 30
-785.600
 70
    32
  0
VERTEX
  8
W60LXLIFT
 62
1
 10
1225.850
 20
-6552.352
 30
-785.569
 70
    32
  0
SEQEND
  8
W60LXLIFT
  0
POLYLINE
  8
W60LXLIFT
 62
1
 66
     1
 70
     9
  0
VERTEX
  8
W60LXLIFT
 62
1
 10
1305.922
 20
-6763.252
 30
-786.184
 70
    32
  0
VERTEX
  8
W60LXLIFT
 62
1
 10
1313.312
 20
-6766.845
 30
-786.176
 70
    32
  0
VERTEX
  8
W60LXLIFT
 62
1
 10
1315.024
 20
-6798.896
 30
-786.245
 70
    32
  0
VERTEX
  8
W60LXLIFT
 62
1
 10
1318.672
 20
-6808.908
 30
-786.370
 70
    32
  0
VERTEX
  8
W60LXLIFT
 62
1
 10
1326.563
 20
-6819.896
 30
-786.793
 70
    32
  0
VERTEX
  8
W60LXLIFT
 62
1
 10
1327.749
 20
-6829.928
 30
-786.958
 70
    32
  0
VERTEX
  8
W60LXLIFT
 62
1
 10
1325.447
 20
-6841.571
 30
-787.013
 70
    32
  0
VERTEX
  8
W60LXLIFT
 62
1
 10
1342.607
 20
-6871.722
 30
-787.477
 70
    32
  0
VERTEX
  8
W60LXLIFT
 62
1
 10
1335.409
 20
-6876.605
 30
-787.431
 70
    32
  0
VERTEX
  8
W60LXLIFT
 62
1
 10
1322.073
 20
-6858.387
 30
-787.092
 70
    32
  0
VERTEX
  8
W60LXLIFT
 62
1
 10
1311.851
 20
-6837.423
 30
-786.462
 70
    32
  0
VERTEX
  8
W60LXLIFT
 62
1
 10
1306.107
 20
-6825.667
 30
-786.326
 70
    32
  0
VERTEX
  8
W60LXLIFT
 62
1
 10
1303.508
 20
-6821.695
 30
-786.323
 70
    32
  0
VERTEX
  8
W60LXLIFT
 62
1
 10
1296.931
 20
-6816.665
 30
-786.326
 70
    32
  0
VERTEX
  8
W60LXLIFT
 62
1
 10
1293.102
 20
-6816.579
 30
-786.335
 70
    32
  0
VERTEX
  8
W60LXLIFT
 62
1
 10
1286.408
 20
-6810.017
 30
-786.335
 70
    32
  0
VERTEX
  8
W60LXLIFT
 62
1
 10
1291.545
 20
-6799.488
 30
-786.299
 70
    32
  0
VERTEX
  8
W60LXLIFT
 62
1
 10
1291.324
 20
-6785.651
 30
-786.268
 70
    32
  0
VERTEX
  8
W60LXLIFT
 62
1
 10
1293.563
 20
-6766.625
 30
-786.219
 70
    32
  0
VERTEX
  8
W60LXLIFT
 62
1
 10
1297.502
 20
-6759.420
 30
-786.194
 70
    32
  0
SEQEND
  8
W60LXLIFT
  0
POLYLINE
  8
W60LXLIFT
 62
1
 66
     1
 70
     9
  0
VERTEX
  8
W60LXLIFT
 62
1
 10
1341.966
 20
-6884.341
 30
-787.470
 70
    32
  0
VERTEX
  8
W60LXLIFT
 62
1
 10
1343.050
 20
-6876.145
 30
-787.478
 70
    32
  0
VERTEX
  8
W60LXLIFT
 62
1
 10
1356.941
 20
-6872.656
 30
-787.566
 70
    32
  0
VERTEX
  8
W60LXLIFT
 62
1
 10
1358.590
 20
-6874.072
 30
-787.576
 70
    32
  0
VERTEX
  8
W60LXLIFT
 62
1
 10
1363.387
 20
-6895.433
 30
-787.602
 70
    32
  0
VERTEX
  8
W60LXLIFT
 62
1
 10
1413.264
 20
-6965.385
 30
-787.900
 70
    32
  0
VERTEX
  8
W60LXLIFT
 62
1
 10
1406.555
 20
-6970.352
 30
-787.858
 70
    32
  0
VERTEX
  8
W60LXLIFT
 62
1
 10
1392.427
 20
-6950.864
 30
-787.773
 70
    32
  0
VERTEX
  8
W60LXLIFT
 62
1
 10
1381.567
 20
-6936.596
 30
-787.708
 70
    32
  0
VERTEX
  8
W60LXLIFT
 62
1
 10
1356.745
 20
-6901.861
 30
-787.559
 70
    32
  0
VERTEX
  8
W60LXLIFT
 62
1
 10
1349.350
 20
-6902.363
 30
-787.513
 70
    32
  0
VERTEX
  8
W60LXLIFT
 62
1
 10
1343.104
 20
-6893.546
 30
-787.476
 70
    32
  0
SEQEND
  8
W60LXLIFT
  0
POINT
  8
W60LXLIFT
 62
3
 10
1309.688
 20
-6814.663
 30
-786.793
  0
POINT
  8
W60LXLIFT
 62
3
 10
1271.216
 20
-6653.887
 30
-785.816
  0
LINE
  8
W60LXLIFT
 62
3
 10
1217.648
 20
-6649.056
 30
-697.000
 11
1271.216
 21
-6653.887
 31
-785.816
  0
LINE
  8
W60LXLIFT
 62
3
 10
1271.551
 20
-6882.082
 30
-663.357
 11
1309.688
 21
-6814.663
 31
-786.793
  0
POLYLINE
  8
W60LXLIFT
 62
1
 66
     1
 70
     9
  0
VERTEX
  8
W60LXLIFT
 62
1
 10
1098.645
 20
-6123.288
 30
-767.000
 70
    32
  0
VERTEX
  8
W60LXLIFT
 62
1
 10
1090.203
 20
-6122.837
 30
-767.000
 70
    32
  0
VERTEX
  8
W60LXLIFT
 62
1
 10
1089.927
 20
-6122.602
 30
-767.000
 70
    32
  0
VERTEX
  8
W60LXLIFT
 62
1
 10
1088.815
 20
-6106.837
 30
-767.000
 70
    32
  0
VERTEX
  8
W60LXLIFT
 62
1
 10
1092.340
 20
-6093.163
 30
-767.000
 70
    32
  0
VERTEX
  8
W60LXLIFT
 62
1
 10
1093.228
 20
-6082.460
 30
-767.000
 70
    32
  0
VERTEX
  8
W60LXLIFT
 62
1
 10
1083.639
 20
-6071.032
 30
-767.000
 70
    32
  0
VERTEX
  8
W60LXLIFT
 62
1
 10
1078.631
 20
-6057.838
 30
-767.000
 70
    32
  0
VERTEX
  8
W60LXLIFT
 62
1
 10
1069.000
 20
-6045.898
 30
-767.000
 70
    32
  0
VERTEX
  8
W60LXLIFT
 62
1
 10
1061.546
 20
-6031.859
 30
-767.000
 70
    32
  0
VERTEX
  8
W60LXLIFT
 62
1
 10
1054.033
 20
-6010.176
 30
-767.000
 70
    32
  0
VERTEX
  8
W60LXLIFT
 62
1
 10
1041.827
 20
-5983.300
 30
-767.000
 70
    32
  0
VERTEX
  8
W60LXLIFT
 62
1
 10
1036.627
 20
-5980.421
 30
-767.000
 70
    32
  0
VERTEX
  8
W60LXLIFT
 62
1
 10
1032.627
 20
-5971.810
 30
-767.000
 70
    32
  0
VERTEX
  8
W60LXLIFT
 62
1
 10
1016.326
 20
-5951.764
 30
-767.000
 70
    32
  0
VERTEX
  8
W60LXLIFT
 62
1
 10
1018.646
 20
-5921.742
 30
-767.000
 70
    32
  0
VERTEX
  8
W60LXLIFT
 62
1
 10
1030.952
 20
-5919.426
 30
-767.000
 70
    32
  0
VERTEX
  8
W60LXLIFT
 62
1
 10
1038.313
 20
-5951.177
 30
-767.000
 70
    32
  0
VERTEX
  8
W60LXLIFT
 62
1
 10
1050.252
 20
-5968.609
 30
-767.000
 70
    32
  0
VERTEX
  8
W60LXLIFT
 62
1
 10
1052.917
 20
-5981.856
 30
-767.000
 70
    32
  0
VERTEX
  8
W60LXLIFT
 62
1
 10
1060.414
 20
-5997.921
 30
-767.000
 70
    32
  0
VERTEX
  8
W60LXLIFT
 62
1
 10
1075.089
 20
-6019.023
 30
-767.000
 70
    32
  0
VERTEX
  8
W60LXLIFT
 62
1
 10
1083.543
 20
-6030.832
 30
-767.000
 70
    32
  0
VERTEX
  8
W60LXLIFT
 62
1
 10
1098.535
 20
-6042.397
 30
-767.000
 70
    32
  0
VERTEX
  8
W60LXLIFT
 62
1
 10
1097.406
 20
-6048.834
 30
-767.000
 70
    32
  0
VERTEX
  8
W60LXLIFT
 62
1
 10
1106.246
 20
-6057.552
 30
-767.000
 70
    32
  0
VERTEX
  8
W60LXLIFT
 62
1
 10
1109.263
 20
-6084.294
 30
-767.000
 70
    32
  0
VERTEX
  8
W60LXLIFT
 62
1
 10
1103.714
 20
-6089.999
 30
-767.000
 70
    32
  0
VERTEX
  8
W60LXLIFT
 62
1
 10
1109.529
 20
-6121.557
 30
-767.000
 70
    32
  0
SEQEND
  8
W60LXLIFT
  0
POLYLINE
  8
W60LXLIFT
 62
8
 66
     1
 70
     9
  0
VERTEX
  8
W60LXLIFT
 62
8
 10
761.734
 20
-5453.742
 30
-790.043
 70
    32
  0
VERTEX
  8
W60LXLIFT
 62
8
 10
768.392
 20
-5442.518
 30
-790.054
 70
    32
  0
VERTEX
  8
W60LXLIFT
 62
8
 10
783.403
 20
-5445.717
 30
-790.132
 70
    32
  0
VERTEX
  8
W60LXLIFT
 62
8
 10
795.927
 20
-5441.955
 30
-790.186
 70
    32
  0
VERTEX
  8
W60LXLIFT
 62
8
 10
797.703
 20
-5442.629
 30
-790.195
 70
    32
  0
VERTEX
  8
W60LXLIFT
 62
8
 10
802.006
 20
-5453.040
 30
-790.236
 70
    32
  0
VERTEX
  8
W60LXLIFT
 62
8
 10
798.861
 20
-5459.816
 30
-790.234
 70
    32
  0
VERTEX
  8
W60LXLIFT
 62
8
 10
796.540
 20
-5473.338
 30
-790.249
 70
    32
  0
VERTEX
  8
W60LXLIFT
 62
8
 10
803.302
 20
-5486.740
 30
-790.307
 70
    32
  0
VERTEX
  8
W60LXLIFT
 62
8
 10
786.955
 20
-5511.137
 30
-790.275
 70
    32
  0
VERTEX
  8
W60LXLIFT
 62
8
 10
801.865
 20
-5513.438
 30
-790.351
 70
    32
  0
VERTEX
  8
W60LXLIFT
 62
8
 10
805.526
 20
-5521.287
 30
-790.384
 70
    32
  0
VERTEX
  8
W60LXLIFT
 62
8
 10
806.341
 20
-5527.717
 30
-790.400
 70
    32
  0
VERTEX
  8
W60LXLIFT
 62
8
 10
797.236
 20
-5529.470
 30
-790.360
 70
    32
  0
VERTEX
  8
W60LXLIFT
 62
8
 10
792.775
 20
-5533.949
 30
-790.347
 70
    32
  0
VERTEX
  8
W60LXLIFT
 62
8
 10
781.202
 20
-5533.904
 30
-790.291
 70
    32
  0
VERTEX
  8
W60LXLIFT
 62
8
 10
771.172
 20
-5527.257
 30
-790.230
 70
    32
  0
VERTEX
  8
W60LXLIFT
 62
8
 10
770.819
 20
-5513.163
 30
-790.201
 70
    32
  0
VERTEX
  8
W60LXLIFT
 62
8
 10
766.870
 20
-5509.294
 30
-790.174
 70
    32
  0
VERTEX
  8
W60LXLIFT
 62
8
 10
758.833
 20
-5492.594
 30
-790.104
 70
    32
  0
VERTEX
  8
W60LXLIFT
 62
8
 10
758.980
 20
-5481.919
 30
-790.084
 70
    32
  0
VERTEX
  8
W60LXLIFT
 62
8
 10
756.093
 20
-5476.968
 30
-790.061
 70
    32
  0
VERTEX
  8
W60LXLIFT
 62
8
 10
758.748
 20
-5473.132
 30
-790.066
 70
    32
  0
VERTEX
  8
W60LXLIFT
 62
8
 10
759.108
 20
-5463.059
 30
-790.048
 70
    32
  0
SEQEND
  8
W60LXLIFT
  0
POLYLINE
  8
W60LXLIFT
 62
1
 66
     1
 70
     9
  0
VERTEX
  8
W60LXLIFT
 62
1
 10
762.734
 20
-5452.742
 30
-780.043
 70
    32
  0
VERTEX
  8
W60LXLIFT
 62
1
 10
769.392
 20
-5441.518
 30
-780.054
 70
    32
  0
VERTEX
  8
W60LXLIFT
 62
1
 10
784.403
 20
-5444.717
 30
-780.132
 70
    32
  0
VERTEX
  8
W60LXLIFT
 62
1
 10
796.927
 20
-5440.955
 30
-780.186
 70
    32
  0
VERTEX
  8
W60LXLIFT
 62
1
 10
798.703
 20
-5441.629
 30
-780.195
 70
    32
  0
VERTEX
  8
W60LXLIFT
 62
1
 10
803.006
 20
-5452.040
 30
-780.236
 70
    32
  0
VERTEX
  8
W60LXLIFT
 62
1
 10
799.861
 20
-5458.816
 30
-780.234
 70
    32
  0
VERTEX
  8
W60LXLIFT
 62
1
 10
797.540
 20
-5472.338
 30
-780.249
 70
    32
  0
VERTEX
  8
W60LXLIFT
 62
1
 10
804.302
 20
-5485.740
 30
-780.307
 70
    32
  0
VERTEX
  8
W60LXLIFT
 62
1
 10
787.955
 20
-5510.137
 30
-780.275
 70
    32
  0
VERTEX
  8
W60LXLIFT
 62
1
 10
802.865
 20
-5512.438
 30
-780.351
 70
    32
  0
VERTEX
  8
W60LXLIFT
 62
1
 10
806.526
 20
-5520.287
 30
-780.384
 70
    32
  0
VERTEX
  8
W60LXLIFT
 62
1
 10
807.341
 20
-5526.717
 30
-780.400
 70
    32
  0
VERTEX
  8
W60LXLIFT
 62
1
 10
798.236
 20
-5528.470
 30
-780.360
 70
    32
  0
VERTEX
  8
W60LXLIFT
 62
1
 10
793.775
 20
-5532.949
 30
-780.347
 70
    32
  0
VERTEX
  8
W60LXLIFT
 62
1
 10
782.202
 20
-5532.904
 30
-780.291
 70
    32
  0
VERTEX
  8
W60LXLIFT
 62
1
 10
772.172
 20
-5526.257
 30
-780.230
 70
    32
  0
VERTEX
  8
W60LXLIFT
 62
1
 10
771.819
 20
-5512.163
 30
-780.201
 70
    32
  0
VERTEX
  8
W60LXLIFT
 62
1
 10
767.870
 20
-5508.294
 30
-780.174
 70
    32
  0
VERTEX
  8
W60LXLIFT
 62
1
 10
759.833
 20
-5491.594
 30
-780.104
 70
    32
  0
VERTEX
  8
W60LXLIFT
 62
1
 10
759.980
 20
-5480.919
 30
-780.084
 70
    32
  0
VERTEX
  8
W60LXLIFT
 62
1
 10
757.093
 20
-5475.968
 30
-780.061
 70
    32
  0
VERTEX
  8
W60LXLIFT
 62
1
 10
759.748
 20
-5472.132
 30
-780.066
 70
    32
  0
VERTEX
  8
W60LXLIFT
 62
1
 10
760.108
 20
-5462.059
 30
-780.048
 70
    32
  0
SEQEND
  8
W60LXLIFT
  0
POINT
  8
W60LXLIFT
 62
8
 10
735.868
 20
-5440.072
 30
-660.299
  0
POINT
  8
W60LXLIFT
 62
8
 10
784.011
 20
-5486.778
 30
-780.132
  0
LINE
  8
W60LXLIFT
 62
8
 10
735.868
 20
-5440.072
 30
-660.299
 11
784.011
 21
-5486.778
 31
-780.132
  0
POLYLINE
  8
W60LXLIFT
 62
7
 66
     1
 70
     9
  0
VERTEX
  8
W60LXLIFT
 62
7
 10
625.125
 20
-5693.637
 30
-789.401
 70
    32
  0
VERTEX
  8
W60LXLIFT
 62
7
 10
612.516
 20
-5676.426
 30
-789.265
 70
    32
  0
VERTEX
  8
W60LXLIFT
 62
7
 10
610.569
 20
-5669.618
 30
-789.242
 70
    32
  0
VERTEX
  8
W60LXLIFT
 62
7
 10
615.217
 20
-5655.730
 30
-789.284
 70
    32
  0
VERTEX
  8
W60LXLIFT
 62
7
 10
615.272
 20
-5645.228
 30
-789.280
 70
    32
  0
VERTEX
  8
W60LXLIFT
 62
7
 10
624.244
 20
-5639.362
 30
-789.370
 70
    32
  0
VERTEX
  8
W60LXLIFT
 62
7
 10
635.628
 20
-5625.843
 30
-789.481
 70
    32
  0
VERTEX
  8
W60LXLIFT
 62
7
 10
640.201
 20
-5624.089
 30
-789.527
 70
    32
  0
VERTEX
  8
W60LXLIFT
 62
7
 10
646.048
 20
-5627.898
 30
-789.589
 70
    32
  0
VERTEX
  8
W60LXLIFT
 62
7
 10
651.127
 20
-5637.432
 30
-789.645
 70
    32
  0
VERTEX
  8
W60LXLIFT
 62
7
 10
652.502
 20
-5645.403
 30
-789.662
 70
    32
  0
VERTEX
  8
W60LXLIFT
 62
7
 10
656.919
 20
-5653.253
 30
-789.711
 70
    32
  0
VERTEX
  8
W60LXLIFT
 62
7
 10
658.529
 20
-5660.193
 30
-789.730
 70
    32
  0
VERTEX
  8
W60LXLIFT
 62
7
 10
664.200
 20
-5670.707
 30
-789.793
 70
    32
  0
VERTEX
  8
W60LXLIFT
 62
7
 10
685.845
 20
-5707.679
 30
-790.030
 70
    32
  0
VERTEX
  8
W60LXLIFT
 62
7
 10
697.108
 20
-5722.399
 30
-790.152
 70
    32
  0
VERTEX
  8
W60LXLIFT
 62
7
 10
702.169
 20
-5726.769
 30
-790.199
 70
    32
  0
VERTEX
  8
W60LXLIFT
 62
7
 10
690.765
 20
-5739.655
 30
-790.060
 70
    32
  0
VERTEX
  8
W60LXLIFT
 62
7
 10
690.765
 20
-5739.655
 30
-790.060
 70
    32
  0
VERTEX
  8
W60LXLIFT
 62
7
 10
695.892
 20
-5760.589
 30
-790.078
 70
    32
  0
VERTEX
  8
W60LXLIFT
 62
7
 10
689.616
 20
-5765.532
 30
-789.853
 70
    32
  0
VERTEX
  8
W60LXLIFT
 62
7
 10
680.777
 20
-5792.109
 30
-789.757
 70
    32
  0
VERTEX
  8
W60LXLIFT
 62
7
 10
668.245
 20
-5791.973
 30
-789.729
 70
    32
  0
VERTEX
  8
W60LXLIFT
 62
7
 10
668.245
 20
-5791.973
 30
-789.729
 70
    32
  0
VERTEX
  8
W60LXLIFT
 62
7
 10
658.762
 20
-5790.235
 30
-789.639
 70
    32
  0
VERTEX
  8
W60LXLIFT
 62
7
 10
652.600
 20
-5788.039
 30
-789.582
 70
    32
  0
VERTEX
  8
W60LXLIFT
 62
7
 10
640.439
 20
-5774.176
 30
-789.491
 70
    32
  0
VERTEX
  8
W60LXLIFT
 62
7
 10
640.106
 20
-5762.225
 30
-789.512
 70
    32
  0
VERTEX
  8
W60LXLIFT
 62
7
 10
639.333
 20
-5756.305
 30
-789.517
 70
    32
  0
VERTEX
  8
W60LXLIFT
 62
7
 10
642.013
 20
-5736.486
 30
-789.584
 70
    32
  0
VERTEX
  8
W60LXLIFT
 62
7
 10
636.681
 20
-5722.695
 30
-789.427
 70
    32
  0
VERTEX
  8
W60LXLIFT
 62
7
 10
633.926
 20
-5715.184
 30
-789.501
 70
    32
  0
VERTEX
  8
W60LXLIFT
 62
7
 10
629.674
 20
-5703.334
 30
-789.452
 70
    32
  0
SEQEND
  8
W60LXLIFT
  0
POLYLINE
  8
W60LXLIFT
 62
7
 66
     1
 70
     9
  0
VERTEX
  8
W60LXLIFT
 62
7
 10
696.115
 20
-5827.845
 30
-790.209
 70
    32
  0
VERTEX
  8
W60LXLIFT
 62
7
 10
703.616
 20
-5831.552
 30
-790.347
 70
    32
  0
VERTEX
  8
W60LXLIFT
 62
7
 10
709.460
 20
-5842.158
 30
-790.469
 70
    32
  0
VERTEX
  8
W60LXLIFT
 62
7
 10
717.225
 20
-5847.294
 30
-790.615
 70
    32
  0
VERTEX
  8
W60LXLIFT
 62
7
 10
725.606
 20
-5872.484
 30
-790.809
 70
    32
  0
VERTEX
  8
W60LXLIFT
 62
7
 10
727.177
 20
-5877.404
 30
-790.845
 70
    32
  0
VERTEX
  8
W60LXLIFT
 62
7
 10
731.767
 20
-5885.345
 30
-790.940
 70
    32
  0
VERTEX
  8
W60LXLIFT
 62
7
 10
727.323
 20
-5897.254
 30
-790.885
 70
    32
  0
VERTEX
  8
W60LXLIFT
 62
7
 10
727.323
 20
-5897.254
 30
-790.885
 70
    32
  0
VERTEX
  8
W60LXLIFT
 62
7
 10
729.206
 20
-5915.003
 30
-790.952
 70
    32
  0
VERTEX
  8
W60LXLIFT
 62
7
 10
734.884
 20
-5934.140
 30
-791.062
 70
    32
  0
VERTEX
  8
W60LXLIFT
 62
7
 10
735.281
 20
-5940.437
 30
-791.058
 70
    32
  0
VERTEX
  8
W60LXLIFT
 62
7
 10
744.206
 20
-5955.208
 30
-791.191
 70
    32
  0
VERTEX
  8
W60LXLIFT
 62
7
 10
753.527
 20
-5977.786
 30
-791.316
 70
    32
  0
VERTEX
  8
W60LXLIFT
 62
7
 10
763.626
 20
-5993.445
 30
-791.468
 70
    32
  0
VERTEX
  8
W60LXLIFT
 62
7
 10
755.398
 20
-5998.239
 30
-791.312
 70
    32
  0
VERTEX
  8
W60LXLIFT
 62
7
 10
746.615
 20
-5985.632
 30
-791.178
 70
    32
  0
VERTEX
  8
W60LXLIFT
 62
7
 10
741.177
 20
-5980.885
 30
-791.089
 70
    32
  0
VERTEX
  8
W60LXLIFT
 62
7
 10
739.799
 20
-5981.221
 30
-791.063
 70
    32
  0
VERTEX
  8
W60LXLIFT
 62
7
 10
736.826
 20
-5992.620
 30
-790.989
 70
    32
  0
VERTEX
  8
W60LXLIFT
 62
7
 10
730.935
 20
-5998.874
 30
-790.872
 70
    32
  0
VERTEX
  8
W60LXLIFT
 62
7
 10
711.935
 20
-5989.030
 30
-790.549
 70
    32
  0
VERTEX
  8
W60LXLIFT
 62
7
 10
704.327
 20
-5972.025
 30
-790.444
 70
    32
  0
VERTEX
  8
W60LXLIFT
 62
7
 10
698.675
 20
-5964.410
 30
-790.356
 70
    32
  0
VERTEX
  8
W60LXLIFT
 62
7
 10
696.054
 20
-5957.867
 30
-790.321
 70
    32
  0
VERTEX
  8
W60LXLIFT
 62
7
 10
694.178
 20
-5953.274
 30
-790.296
 70
    32
  0
VERTEX
  8
W60LXLIFT
 62
7
 10
689.070
 20
-5935.238
 30
-790.238
 70
    32
  0
VERTEX
  8
W60LXLIFT
 62
7
 10
685.602
 20
-5928.869
 30
-790.187
 70
    32
  0
VERTEX
  8
W60LXLIFT
 62
7
 10
679.215
 20
-5923.397
 30
-790.083
 70
    32
  0
VERTEX
  8
W60LXLIFT
 62
7
 10
677.451
 20
-5920.773
 30
-790.056
 70
    32
  0
VERTEX
  8
W60LXLIFT
 62
7
 10
676.882
 20
-5919.653
 30
-790.048
 70
    32
  0
VERTEX
  8
W60LXLIFT
 62
7
 10
670.567
 20
-5902.819
 30
-789.906
 70
    32
  0
VERTEX
  8
W60LXLIFT
 62
7
 10
672.917
 20
-5894.022
 30
-789.930
 70
    32
  0
VERTEX
  8
W60LXLIFT
 62
7
 10
679.830
 20
-5882.400
 30
-790.029
 70
    32
  0
VERTEX
  8
W60LXLIFT
 62
7
 10
680.669
 20
-5877.379
 30
-790.034
 70
    32
  0
VERTEX
  8
W60LXLIFT
 62
7
 10
680.243
 20
-5869.378
 30
-790.011
 70
    32
  0
VERTEX
  8
W60LXLIFT
 62
7
 10
675.715
 20
-5856.537
 30
-789.908
 70
    32
  0
VERTEX
  8
W60LXLIFT
 62
7
 10
670.942
 20
-5845.922
 30
-789.804
 70
    32
  0
VERTEX
  8
W60LXLIFT
 62
7
 10
661.848
 20
-5816.710
 30
-789.614
 70
    32
  0
VERTEX
  8
W60LXLIFT
 62
7
 10
666.717
 20
-5812.803
 30
-789.671
 70
    32
  0
VERTEX
  8
W60LXLIFT
 62
7
 10
678.446
 20
-5805.509
 30
-789.859
 70
    32
  0
VERTEX
  8
W60LXLIFT
 62
7
 10
684.289
 20
-5822.157
 30
-789.992
 70
    32
  0
VERTEX
  8
W60LXLIFT
 62
7
 10
688.657
 20
-5822.383
 30
-790.069
 70
    32
  0
SEQEND
  8
W60LXLIFT
  0
POLYLINE
  8
W60LXLIFT
 62
1
 66
     1
 70
     9
  0
VERTEX
  8
W60LXLIFT
 62
1
 10
697.115
 20
-5826.845
 30
-780.209
 70
    32
  0
VERTEX
  8
W60LXLIFT
 62
1
 10
704.616
 20
-5830.552
 30
-780.347
 70
    32
  0
VERTEX
  8
W60LXLIFT
 62
1
 10
710.460
 20
-5841.158
 30
-780.469
 70
    32
  0
VERTEX
  8
W60LXLIFT
 62
1
 10
718.225
 20
-5846.294
 30
-780.615
 70
    32
  0
VERTEX
  8
W60LXLIFT
 62
1
 10
726.606
 20
-5871.484
 30
-780.809
 70
    32
  0
VERTEX
  8
W60LXLIFT
 62
1
 10
728.177
 20
-5876.404
 30
-780.845
 70
    32
  0
VERTEX
  8
W60LXLIFT
 62
1
 10
732.767
 20
-5884.345
 30
-780.940
 70
    32
  0
VERTEX
  8
W60LXLIFT
 62
1
 10
728.323
 20
-5896.254
 30
-780.885
 70
    32
  0
VERTEX
  8
W60LXLIFT
 62
1
 10
728.323
 20
-5896.254
 30
-780.885
 70
    32
  0
VERTEX
  8
W60LXLIFT
 62
1
 10
730.206
 20
-5914.003
 30
-780.952
 70
    32
  0
VERTEX
  8
W60LXLIFT
 62
1
 10
735.884
 20
-5933.140
 30
-781.062
 70
    32
  0
VERTEX
  8
W60LXLIFT
 62
1
 10
736.281
 20
-5939.437
 30
-781.058
 70
    32
  0
VERTEX
  8
W60LXLIFT
 62
1
 10
745.206
 20
-5954.208
 30
-781.191
 70
    32
  0
VERTEX
  8
W60LXLIFT
 62
1
 10
754.527
 20
-5976.786
 30
-781.316
 70
    32
  0
VERTEX
  8
W60LXLIFT
 62
1
 10
764.626
 20
-5992.445
 30
-781.468
 70
    32
  0
VERTEX
  8
W60LXLIFT
 62
1
 10
756.398
 20
-5997.239
 30
-781.312
 70
    32
  0
VERTEX
  8
W60LXLIFT
 62
1
 10
747.615
 20
-5984.632
 30
-781.178
 70
    32
  0
VERTEX
  8
W60LXLIFT
 62
1
 10
742.177
 20
-5979.885
 30
-781.089
 70
    32
  0
VERTEX
  8
W60LXLIFT
 62
1
 10
740.799
 20
-5980.221
 30
-781.063
 70
    32
  0
VERTEX
  8
W60LXLIFT
 62
1
 10
737.826
 20
-5991.620
 30
-780.989
 70
    32
  0
VERTEX
  8
W60LXLIFT
 62
1
 10
731.935
 20
-5997.874
 30
-780.872
 70
    32
  0
VERTEX
  8
W60LXLIFT
 62
1
 10
712.935
 20
-5988.030
 30
-780.549
 70
    32
  0
VERTEX
  8
W60LXLIFT
 62
1
 10
705.327
 20
-5971.025
 30
-780.444
 70
    32
  0
VERTEX
  8
W60LXLIFT
 62
1
 10
699.675
 20
-5963.410
 30
-780.356
 70
    32
  0
VERTEX
  8
W60LXLIFT
 62
1
 10
697.054
 20
-5956.867
 30
-780.321
 70
    32
  0
VERTEX
  8
W60LXLIFT
 62
1
 10
695.178
 20
-5952.274
 30
-780.296
 70
    32
  0
VERTEX
  8
W60LXLIFT
 62
1
 10
690.070
 20
-5934.238
 30
-780.238
 70
    32
  0
VERTEX
  8
W60LXLIFT
 62
1
 10
686.602
 20
-5927.869
 30
-780.187
 70
    32
  0
VERTEX
  8
W60LXLIFT
 62
1
 10
680.215
 20
-5922.397
 30
-780.083
 70
    32
  0
VERTEX
  8
W60LXLIFT
 62
1
 10
678.451
 20
-5919.773
 30
-780.056
 70
    32
  0
VERTEX
  8
W60LXLIFT
 62
1
 10
677.882
 20
-5918.653
 30
-780.048
 70
    32
  0
VERTEX
  8
W60LXLIFT
 62
1
 10
671.567
 20
-5901.819
 30
-779.906
 70
    32
  0
VERTEX
  8
W60LXLIFT
 62
1
 10
673.917
 20
-5893.022
 30
-779.930
 70
    32
  0
VERTEX
  8
W60LXLIFT
 62
1
 10
680.830
 20
-5881.400
 30
-780.029
 70
    32
  0
VERTEX
  8
W60LXLIFT
 62
1
 10
681.669
 20
-5876.379
 30
-780.034
 70
    32
  0
VERTEX
  8
W60LXLIFT
 62
1
 10
681.243
 20
-5868.378
 30
-780.011
 70
    32
  0
VERTEX
  8
W60LXLIFT
 62
1
 10
676.715
 20
-5855.537
 30
-779.908
 70
    32
  0
VERTEX
  8
W60LXLIFT
 62
1
 10
671.942
 20
-5844.922
 30
-779.804
 70
    32
  0
VERTEX
  8
W60LXLIFT
 62
1
 10
662.848
 20
-5815.710
 30
-779.614
 70
    32
  0
VERTEX
  8
W60LXLIFT
 62
1
 10
667.717
 20
-5811.803
 30
-779.671
 70
    32
  0
VERTEX
  8
W60LXLIFT
 62
1
 10
679.446
 20
-5804.509
 30
-779.859
 70
    32
  0
VERTEX
  8
W60LXLIFT
 62
1
 10
685.289
 20
-5821.157
 30
-779.992
 70
    32
  0
VERTEX
  8
W60LXLIFT
 62
1
 10
689.657
 20
-5821.383
 30
-780.069
 70
    32
  0
SEQEND
  8
W60LXLIFT
  0
POLYLINE
  8
W60LXLIFT
 62
1
 66
     1
 70
     9
  0
VERTEX
  8
W60LXLIFT
 62
1
 10
626.125
 20
-5692.637
 30
-779.401
 70
    32
  0
VERTEX
  8
W60LXLIFT
 62
1
 10
613.516
 20
-5675.426
 30
-779.265
 70
    32
  0
VERTEX
  8
W60LXLIFT
 62
1
 10
611.569
 20
-5668.618
 30
-779.242
 70
    32
  0
VERTEX
  8
W60LXLIFT
 62
1
 10
616.217
 20
-5654.730
 30
-779.284
 70
    32
  0
VERTEX
  8
W60LXLIFT
 62
1
 10
616.272
 20
-5644.228
 30
-779.280
 70
    32
  0
VERTEX
  8
W60LXLIFT
 62
1
 10
625.244
 20
-5638.362
 30
-779.370
 70
    32
  0
VERTEX
  8
W60LXLIFT
 62
1
 10
636.628
 20
-5624.843
 30
-779.481
 70
    32
  0
VERTEX
  8
W60LXLIFT
 62
1
 10
641.201
 20
-5623.089
 30
-779.527
 70
    32
  0
VERTEX
  8
W60LXLIFT
 62
1
 10
647.048
 20
-5626.898
 30
-779.589
 70
    32
  0
VERTEX
  8
W60LXLIFT
 62
1
 10
652.127
 20
-5636.432
 30
-779.645
 70
    32
  0
VERTEX
  8
W60LXLIFT
 62
1
 10
653.502
 20
-5644.403
 30
-779.662
 70
    32
  0
VERTEX
  8
W60LXLIFT
 62
1
 10
657.919
 20
-5652.253
 30
-779.711
 70
    32
  0
VERTEX
  8
W60LXLIFT
 62
1
 10
659.529
 20
-5659.193
 30
-779.730
 70
    32
  0
VERTEX
  8
W60LXLIFT
 62
1
 10
665.200
 20
-5669.707
 30
-779.793
 70
    32
  0
VERTEX
  8
W60LXLIFT
 62
1
 10
686.845
 20
-5706.679
 30
-780.030
 70
    32
  0
VERTEX
  8
W60LXLIFT
 62
1
 10
698.108
 20
-5721.399
 30
-780.152
 70
    32
  0
VERTEX
  8
W60LXLIFT
 62
1
 10
703.169
 20
-5725.769
 30
-780.199
 70
    32
  0
VERTEX
  8
W60LXLIFT
 62
1
 10
691.765
 20
-5738.655
 30
-780.060
 70
    32
  0
VERTEX
  8
W60LXLIFT
 62
1
 10
691.765
 20
-5738.655
 30
-780.060
 70
    32
  0
VERTEX
  8
W60LXLIFT
 62
1
 10
696.892
 20
-5759.589
 30
-780.078
 70
    32
  0
VERTEX
  8
W60LXLIFT
 62
1
 10
690.616
 20
-5764.532
 30
-779.853
 70
    32
  0
VERTEX
  8
W60LXLIFT
 62
1
 10
681.777
 20
-5791.109
 30
-779.757
 70
    32
  0
VERTEX
  8
W60LXLIFT
 62
1
 10
669.245
 20
-5790.973
 30
-779.729
 70
    32
  0
VERTEX
  8
W60LXLIFT
 62
1
 10
669.245
 20
-5790.973
 30
-779.729
 70
    32
  0
VERTEX
  8
W60LXLIFT
 62
1
 10
659.762
 20
-5789.235
 30
-779.639
 70
    32
  0
VERTEX
  8
W60LXLIFT
 62
1
 10
653.600
 20
-5787.039
 30
-779.582
 70
    32
  0
VERTEX
  8
W60LXLIFT
 62
1
 10
641.439
 20
-5773.176
 30
-779.491
 70
    32
  0
VERTEX
  8
W60LXLIFT
 62
1
 10
641.106
 20
-5761.225
 30
-779.512
 70
    32
  0
VERTEX
  8
W60LXLIFT
 62
1
 10
640.333
 20
-5755.305
 30
-779.517
 70
    32
  0
VERTEX
  8
W60LXLIFT
 62
1
 10
643.013
 20
-5735.486
 30
-779.584
 70
    32
  0
VERTEX
  8
W60LXLIFT
 62
1
 10
637.681
 20
-5721.695
 30
-779.427
 70
    32
  0
VERTEX
  8
W60LXLIFT
 62
1
 10
634.926
 20
-5714.184
 30
-779.501
 70
    32
  0
VERTEX
  8
W60LXLIFT
 62
1
 10
630.674
 20
-5702.334
 30
-779.452
 70
    32
  0
SEQEND
  8
W60LXLIFT
  0
POINT
  8
W60LXLIFT
 62
7
 10
645.568
 20
-5811.895
 30
-673.000
  0
POINT
  8
W60LXLIFT
 62
7
 10
651.521
 20
-5712.135
 30
-779.584
  0
POINT
  8
W60LXLIFT
 62
7
 10
708.196
 20
-5916.817
 30
-780.238
  0
LINE
  8
W60LXLIFT
 62
7
 10
645.568
 20
-5811.895
 30
-673.000
 11
651.521
 21
-5712.135
 31
-779.584
  0
LINE
  8
W60LXLIFT
 62
7
 10
645.568
 20
-5811.895
 30
-673.000
 11
708.196
 21
-5916.817
 31
-780.238
  0
LINE
  8
W60LXLIFT
 62
4
 10
1568.836
 20
-7314.216
 30
-798.253
 11
1639.383
 21
-7292.805
 31
-933.432
  0
POINT
  8
W60LXLIFT
 62
6
 10
1568.836
 20
-7314.216
 30
-798.253
  0
POINT
  8
W60LXLIFT
 62
6
 10
1639.383
 20
-7292.805
 30
-933.432
  0
POINT
  8
W60LXLIFT
 62
3
 10
1260.187
 20
-6627.421
 30
-795.785
  0
LINE
  8
W60LXLIFT
 62
3
 10
1260.187
 20
-6627.421
 30
-795.785
 11
1328.977
 21
-6589.060
 31
-905.000
  0
POINT
  8
W60LXLIFT
 62
3
 10
1328.977
 20
-6589.060
 30
-905.000
  0
POINT
  8
W60LXLIFT
 62
1
 10
1392.076
 20
-7544.699
 30
-804.000
  0
LINE
  8
W60LXLIFT
 62
8
 10
1304.608
 20
-7575.363
 30
-666.076
 11
1392.076
 21
-7544.699
 31
-804.000
  0
POINT
  8
W60LXLIFT
 62
1
 10
1304.608
 20
-7575.363
 30
-666.076
  0
POINT
  8
W60LXLIFT
 62
1
 10
1352.769
 20
-6889.658
 30
-787.501
  0
LINE
  8
W60LXLIFT
 62
3
 10
1271.551
 20
-6882.082
 30
-663.357
 11
1352.769
 21
-6889.658
 31
-787.501
  0
POLYLINE
  8
W60LXLIFT
 62
1
 66
     1
 70
     9
  0
VERTEX
  8
W60LXLIFT
 62
1
 10
1078.964
 20
-6545.149
 30
-766.000
 70
    32
  0
VERTEX
  8
W60LXLIFT
 62
1
 10
1080.787
 20
-6538.963
 30
-766.000
 70
    32
  0
VERTEX
  8
W60LXLIFT
 62
1
 10
1084.395
 20
-6532.249
 30
-766.000
 70
    32
  0
VERTEX
  8
W60LXLIFT
 62
1
 10
1091.597
 20
-6527.818
 30
-766.000
 70
    32
  0
VERTEX
  8
W60LXLIFT
 62
1
 10
1093.263
 20
-6520.663
 30
-766.000
 70
    32
  0
VERTEX
  8
W60LXLIFT
 62
1
 10
1101.193
 20
-6516.791
 30
-766.000
 70
    32
  0
VERTEX
  8
W60LXLIFT
 62
1
 10
1111.254
 20
-6519.936
 30
-766.000
 70
    32
  0
VERTEX
  8
W60LXLIFT
 62
1
 10
1114.975
 20
-6528.407
 30
-766.000
 70
    32
  0
VERTEX
  8
W60LXLIFT
 62
1
 10
1110.304
 20
-6554.835
 30
-766.000
 70
    32
  0
VERTEX
  8
W60LXLIFT
 62
1
 10
1115.373
 20
-6563.526
 30
-766.000
 70
    32
  0
VERTEX
  8
W60LXLIFT
 62
1
 10
1117.466
 20
-6570.788
 30
-766.000
 70
    32
  0
VERTEX
  8
W60LXLIFT
 62
1
 10
1116.791
 20
-6575.713
 30
-766.000
 70
    32
  0
VERTEX
  8
W60LXLIFT
 62
1
 10
1106.853
 20
-6582.657
 30
-766.000
 70
    32
  0
VERTEX
  8
W60LXLIFT
 62
1
 10
1101.271
 20
-6568.597
 30
-766.000
 70
    32
  0
VERTEX
  8
W60LXLIFT
 62
1
 10
1094.318
 20
-6549.028
 30
-766.000
 70
    32
  0
SEQEND
  8
W60LXLIFT
  0
POLYLINE
  8
W60LXLIFT
 62
7
 66
     1
 70
     9
  0
VERTEX
  8
W60LXLIFT
 62
7
 10
655.589
 20
-5816.689
 30
-673.000
 70
    32
  0
VERTEX
  8
W60LXLIFT
 62
7
 10
631.910
 20
-5780.814
 30
-673.000
 70
    32
  0
VERTEX
  8
W60LXLIFT
 62
7
 10
590.772
 20
-5717.589
 30
-673.000
 70
    32
  0
VERTEX
  8
W60LXLIFT
 62
7
 10
580.609
 20
-5697.391
 30
-673.000
 70
    32
  0
VERTEX
  8
W60LXLIFT
 62
7
 10
576.203
 20
-5690.063
 30
-673.000
 70
    32
  0
VERTEX
  8
W60LXLIFT
 62
7
 10
572.090
 20
-5686.987
 30
-673.000
 70
    32
  0
VERTEX
  8
W60LXLIFT
 62
7
 10
560.667
 20
-5649.959
 30
-673.000
 70
    32
  0
VERTEX
  8
W60LXLIFT
 62
7
 10
558.950
 20
-5638.584
 30
-673.000
 70
    32
  0
VERTEX
  8
W60LXLIFT
 62
7
 10
545.355
 20
-5608.382
 30
-673.000
 70
    32
  0
VERTEX
  8
W60LXLIFT
 62
7
 10
539.164
 20
-5616.854
 30
-673.000
 70
    32
  0
VERTEX
  8
W60LXLIFT
 62
7
 10
546.574
 20
-5634.936
 30
-673.000
 70
    32
  0
VERTEX
  8
W60LXLIFT
 62
7
 10
546.721
 20
-5639.730
 30
-673.000
 70
    32
  0
VERTEX
  8
W60LXLIFT
 62
7
 10
539.274
 20
-5651.087
 30
-673.000
 70
    32
  0
VERTEX
  8
W60LXLIFT
 62
7
 10
542.542
 20
-5658.053
 30
-673.000
 70
    32
  0
VERTEX
  8
W60LXLIFT
 62
7
 10
541.346
 20
-5663.834
 30
-673.000
 70
    32
  0
VERTEX
  8
W60LXLIFT
 62
7
 10
549.806
 20
-5680.382
 30
-673.000
 70
    32
  0
VERTEX
  8
W60LXLIFT
 62
7
 10
556.708
 20
-5700.145
 30
-673.000
 70
    32
  0
VERTEX
  8
W60LXLIFT
 62
7
 10
559.207
 20
-5710.509
 30
-673.000
 70
    32
  0
VERTEX
  8
W60LXLIFT
 62
7
 10
571.732
 20
-5729.624
 30
-673.000
 70
    32
  0
VERTEX
  8
W60LXLIFT
 62
7
 10
582.623
 20
-5725.323
 30
-673.000
 70
    32
  0
VERTEX
  8
W60LXLIFT
 62
7
 10
588.011
 20
-5729.096
 30
-673.000
 70
    32
  0
VERTEX
  8
W60LXLIFT
 62
7
 10
598.495
 20
-5741.433
 30
-673.000
 70
    32
  0
VERTEX
  8
W60LXLIFT
 62
7
 10
595.086
 20
-5760.061
 30
-673.000
 70
    32
  0
VERTEX
  8
W60LXLIFT
 62
7
 10
596.524
 20
-5767.500
 30
-673.000
 70
    32
  0
VERTEX
  8
W60LXLIFT
 62
7
 10
608.010
 20
-5785.201
 30
-673.000
 70
    32
  0
VERTEX
  8
W60LXLIFT
 62
7
 10
617.825
 20
-5801.516
 30
-673.000
 70
    32
  0
VERTEX
  8
W60LXLIFT
 62
7
 10
636.063
 20
-5827.217
 30
-673.000
 70
    32
  0
SEQEND
  8
W60LXLIFT
  0
POLYLINE
  8
W60LXLIFT
 62
7
 66
     1
 70
     9
  0
VERTEX
  8
W60LXLIFT
 62
7
 10
655.589
 20
-5816.689
 30
-673.000
 70
    32
  0
VERTEX
  8
W60LXLIFT
 62
7
 10
669.284
 20
-5837.437
 30
-673.000
 70
    32
  0
VERTEX
  8
W60LXLIFT
 62
7
 10
672.973
 20
-5886.468
 30
-673.000
 70
    32
  0
VERTEX
  8
W60LXLIFT
 62
7
 10
671.748
 20
-5900.659
 30
-673.000
 70
    32
  0
VERTEX
  8
W60LXLIFT
 62
7
 10
671.521
 20
-5916.947
 30
-673.000
 70
    32
  0
VERTEX
  8
W60LXLIFT
 62
7
 10
674.920
 20
-5923.054
 30
-673.000
 70
    32
  0
VERTEX
  8
W60LXLIFT
 62
7
 10
676.525
 20
-5931.461
 30
-673.000
 70
    32
  0
VERTEX
  8
W60LXLIFT
 62
7
 10
664.133
 20
-5934.905
 30
-673.000
 70
    32
  0
VERTEX
  8
W60LXLIFT
 62
7
 10
669.576
 20
-5962.168
 30
-673.000
 70
    32
  0
VERTEX
  8
W60LXLIFT
 62
7
 10
661.105
 20
-5965.018
 30
-673.000
 70
    32
  0
VERTEX
  8
W60LXLIFT
 62
7
 10
656.523
 20
-5952.264
 30
-673.000
 70
    32
  0
VERTEX
  8
W60LXLIFT
 62
7
 10
649.206
 20
-5940.976
 30
-673.000
 70
    32
  0
VERTEX
  8
W60LXLIFT
 62
7
 10
648.417
 20
-5931.752
 30
-673.000
 70
    32
  0
VERTEX
  8
W60LXLIFT
 62
7
 10
647.346
 20
-5924.369
 30
-673.000
 70
    32
  0
VERTEX
  8
W60LXLIFT
 62
7
 10
644.635
 20
-5908.824
 30
-673.000
 70
    32
  0
VERTEX
  8
W60LXLIFT
 62
7
 10
650.231
 20
-5896.432
 30
-673.000
 70
    32
  0
VERTEX
  8
W60LXLIFT
 62
7
 10
650.596
 20
-5885.814
 30
-673.000
 70
    32
  0
VERTEX
  8
W60LXLIFT
 62
7
 10
651.483
 20
-5868.496
 30
-673.000
 70
    32
  0
VERTEX
  8
W60LXLIFT
 62
7
 10
647.877
 20
-5847.290
 30
-673.000
 70
    32
  0
VERTEX
  8
W60LXLIFT
 62
7
 10
640.419
 20
-5836.106
 30
-673.000
 70
    32
  0
VERTEX
  8
W60LXLIFT
 62
7
 10
636.063
 20
-5827.217
 30
-673.000
 70
    32
  0
SEQEND
  8
W60LXLIFT
  0
POLYLINE
  8
W60LXLIFT
 62
1
 66
     1
 70
     9
  0
VERTEX
  8
W60LXLIFT
 62
1
 10
656.589
 20
-5815.689
 30
-663.000
 70
    32
  0
VERTEX
  8
W60LXLIFT
 62
1
 10
632.910
 20
-5779.814
 30
-663.000
 70
    32
  0
VERTEX
  8
W60LXLIFT
 62
1
 10
591.772
 20
-5716.589
 30
-663.000
 70
    32
  0
VERTEX
  8
W60LXLIFT
 62
1
 10
581.609
 20
-5696.391
 30
-663.000
 70
    32
  0
VERTEX
  8
W60LXLIFT
 62
1
 10
577.203
 20
-5689.063
 30
-663.000
 70
    32
  0
VERTEX
  8
W60LXLIFT
 62
1
 10
573.090
 20
-5685.987
 30
-663.000
 70
    32
  0
VERTEX
  8
W60LXLIFT
 62
1
 10
561.667
 20
-5648.959
 30
-663.000
 70
    32
  0
VERTEX
  8
W60LXLIFT
 62
1
 10
559.950
 20
-5637.584
 30
-663.000
 70
    32
  0
VERTEX
  8
W60LXLIFT
 62
1
 10
546.355
 20
-5607.382
 30
-663.000
 70
    32
  0
VERTEX
  8
W60LXLIFT
 62
1
 10
540.164
 20
-5615.854
 30
-663.000
 70
    32
  0
VERTEX
  8
W60LXLIFT
 62
1
 10
547.574
 20
-5633.936
 30
-663.000
 70
    32
  0
VERTEX
  8
W60LXLIFT
 62
1
 10
547.721
 20
-5638.730
 30
-663.000
 70
    32
  0
VERTEX
  8
W60LXLIFT
 62
1
 10
540.274
 20
-5650.087
 30
-663.000
 70
    32
  0
VERTEX
  8
W60LXLIFT
 62
1
 10
543.542
 20
-5657.053
 30
-663.000
 70
    32
  0
VERTEX
  8
W60LXLIFT
 62
1
 10
542.346
 20
-5662.834
 30
-663.000
 70
    32
  0
VERTEX
  8
W60LXLIFT
 62
1
 10
550.806
 20
-5679.382
 30
-663.000
 70
    32
  0
VERTEX
  8
W60LXLIFT
 62
1
 10
557.708
 20
-5699.145
 30
-663.000
 70
    32
  0
VERTEX
  8
W60LXLIFT
 62
1
 10
560.207
 20
-5709.509
 30
-663.000
 70
    32
  0
VERTEX
  8
W60LXLIFT
 62
1
 10
572.732
 20
-5728.624
 30
-663.000
 70
    32
  0
VERTEX
  8
W60LXLIFT
 62
1
 10
583.623
 20
-5724.323
 30
-663.000
 70
    32
  0
VERTEX
  8
W60LXLIFT
 62
1
 10
589.011
 20
-5728.096
 30
-663.000
 70
    32
  0
VERTEX
  8
W60LXLIFT
 62
1
 10
599.495
 20
-5740.433
 30
-663.000
 70
    32
  0
VERTEX
  8
W60LXLIFT
 62
1
 10
596.086
 20
-5759.061
 30
-663.000
 70
    32
  0
VERTEX
  8
W60LXLIFT
 62
1
 10
597.524
 20
-5766.500
 30
-663.000
 70
    32
  0
VERTEX
  8
W60LXLIFT
 62
1
 10
609.010
 20
-5784.201
 30
-663.000
 70
    32
  0
VERTEX
  8
W60LXLIFT
 62
1
 10
618.825
 20
-5800.516
 30
-663.000
 70
    32
  0
VERTEX
  8
W60LXLIFT
 62
1
 10
637.063
 20
-5826.217
 30
-663.000
 70
    32
  0
SEQEND
  8
W60LXLIFT
  0
POLYLINE
  8
W60LXLIFT
 62
1
 66
     1
 70
     9
  0
VERTEX
  8
W60LXLIFT
 62
1
 10
656.589
 20
-5815.689
 30
-663.000
 70
    32
  0
VERTEX
  8
W60LXLIFT
 62
1
 10
670.284
 20
-5836.437
 30
-663.000
 70
    32
  0
VERTEX
  8
W60LXLIFT
 62
1
 10
673.973
 20
-5885.468
 30
-663.000
 70
    32
  0
VERTEX
  8
W60LXLIFT
 62
1
 10
672.748
 20
-5899.659
 30
-663.000
 70
    32
  0
VERTEX
  8
W60LXLIFT
 62
1
 10
672.521
 20
-5915.947
 30
-663.000
 70
    32
  0
VERTEX
  8
W60LXLIFT
 62
1
 10
675.920
 20
-5922.054
 30
-663.000
 70
    32
  0
VERTEX
  8
W60LXLIFT
 62
1
 10
677.525
 20
-5930.461
 30
-663.000
 70
    32
  0
VERTEX
  8
W60LXLIFT
 62
1
 10
665.133
 20
-5933.905
 30
-663.000
 70
    32
  0
VERTEX
  8
W60LXLIFT
 62
1
 10
670.576
 20
-5961.168
 30
-663.000
 70
    32
  0
VERTEX
  8
W60LXLIFT
 62
1
 10
662.105
 20
-5964.018
 30
-663.000
 70
    32
  0
VERTEX
  8
W60LXLIFT
 62
1
 10
657.523
 20
-5951.264
 30
-663.000
 70
    32
  0
VERTEX
  8
W60LXLIFT
 62
1
 10
650.206
 20
-5939.976
 30
-663.000
 70
    32
  0
VERTEX
  8
W60LXLIFT
 62
1
 10
649.417
 20
-5930.752
 30
-663.000
 70
    32
  0
VERTEX
  8
W60LXLIFT
 62
1
 10
648.346
 20
-5923.369
 30
-663.000
 70
    32
  0
VERTEX
  8
W60LXLIFT
 62
1
 10
645.635
 20
-5907.824
 30
-663.000
 70
    32
  0
VERTEX
  8
W60LXLIFT
 62
1
 10
651.231
 20
-5895.432
 30
-663.000
 70
    32
  0
VERTEX
  8
W60LXLIFT
 62
1
 10
651.596
 20
-5884.814
 30
-663.000
 70
    32
  0
VERTEX
  8
W60LXLIFT
 62
1
 10
652.483
 20
-5867.496
 30
-663.000
 70
    32
  0
VERTEX
  8
W60LXLIFT
 62
1
 10
648.877
 20
-5846.290
 30
-663.000
 70
    32
  0
VERTEX
  8
W60LXLIFT
 62
1
 10
641.419
 20
-5835.106
 30
-663.000
 70
    32
  0
VERTEX
  8
W60LXLIFT
 62
1
 10
637.063
 20
-5826.217
 30
-663.000
 70
    32
  0
SEQEND
  8
W60LXLIFT
  0
POLYLINE
  8
W60LXLIFT
 62
7
 66
     1
 70
     9
  0
VERTEX
  8
W60LXLIFT
 62
7
 10
1511.005
 20
-8395.086
 30
-682.000
 70
    32
  0
VERTEX
  8
W60LXLIFT
 62
7
 10
1508.864
 20
-8406.203
 30
-682.000
 70
    32
  0
VERTEX
  8
W60LXLIFT
 62
7
 10
1510.082
 20
-8411.984
 30
-682.000
 70
    32
  0
VERTEX
  8
W60LXLIFT
 62
7
 10
1512.006
 20
-8419.123
 30
-682.000
 70
    32
  0
VERTEX
  8
W60LXLIFT
 62
7
 10
1506.608
 20
-8422.726
 30
-682.000
 70
    32
  0
VERTEX
  8
W60LXLIFT
 62
7
 10
1498.547
 20
-8427.438
 30
-682.000
 70
    32
  0
VERTEX
  8
W60LXLIFT
 62
7
 10
1498.614
 20
-8436.440
 30
-682.000
 70
    32
  0
VERTEX
  8
W60LXLIFT
 62
7
 10
1499.659
 20
-8444.208
 30
-682.000
 70
    32
  0
VERTEX
  8
W60LXLIFT
 62
7
 10
1504.140
 20
-8447.119
 30
-682.000
 70
    32
  0
VERTEX
  8
W60LXLIFT
 62
7
 10
1507.642
 20
-8451.264
 30
-682.000
 70
    32
  0
VERTEX
  8
W60LXLIFT
 62
7
 10
1514.107
 20
-8466.594
 30
-682.000
 70
    32
  0
VERTEX
  8
W60LXLIFT
 62
7
 10
1514.969
 20
-8470.767
 30
-682.000
 70
    32
  0
VERTEX
  8
W60LXLIFT
 62
7
 10
1518.823
 20
-8474.660
 30
-682.000
 70
    32
  0
VERTEX
  8
W60LXLIFT
 62
7
 10
1525.034
 20
-8475.532
 30
-682.000
 70
    32
  0
VERTEX
  8
W60LXLIFT
 62
7
 10
1527.663
 20
-8469.922
 30
-682.000
 70
    32
  0
VERTEX
  8
W60LXLIFT
 62
7
 10
1526.598
 20
-8465.095
 30
-682.000
 70
    32
  0
VERTEX
  8
W60LXLIFT
 62
7
 10
1531.883
 20
-8454.653
 30
-682.000
 70
    32
  0
VERTEX
  8
W60LXLIFT
 62
7
 10
1531.769
 20
-8447.814
 30
-682.000
 70
    32
  0
VERTEX
  8
W60LXLIFT
 62
7
 10
1526.114
 20
-8435.098
 30
-682.000
 70
    32
  0
VERTEX
  8
W60LXLIFT
 62
7
 10
1523.948
 20
-8433.189
 30
-682.000
 70
    32
  0
VERTEX
  8
W60LXLIFT
 62
7
 10
1524.319
 20
-8429.996
 30
-682.000
 70
    32
  0
VERTEX
  8
W60LXLIFT
 62
7
 10
1524.000
 20
-8420.642
 30
-682.000
 70
    32
  0
VERTEX
  8
W60LXLIFT
 62
7
 10
1523.459
 20
-8413.577
 30
-682.000
 70
    32
  0
VERTEX
  8
W60LXLIFT
 62
7
 10
1520.175
 20
-8405.283
 30
-682.000
 70
    32
  0
VERTEX
  8
W60LXLIFT
 62
7
 10
1517.876
 20
-8399.478
 30
-682.000
 70
    32
  0
VERTEX
  8
W60LXLIFT
 62
7
 10
1513.744
 20
-8394.454
 30
-682.000
 70
    32
  0
SEQEND
  8
W60LXLIFT
  0
POLYLINE
  8
W60LXLIFT
 62
3
 66
     1
 70
     9
  0
VERTEX
  8
W60LXLIFT
 62
3
 10
1522.140
 20
-8420.644
 30
-662.000
 70
    32
  0
VERTEX
  8
W60LXLIFT
 62
3
 10
1503.922
 20
-8424.917
 30
-662.000
 70
    32
  0
VERTEX
  8
W60LXLIFT
 62
3
 10
1497.469
 20
-8429.275
 30
-662.000
 70
    32
  0
VERTEX
  8
W60LXLIFT
 62
3
 10
1495.493
 20
-8434.683
 30
-662.000
 70
    32
  0
VERTEX
  8
W60LXLIFT
 62
3
 10
1496.379
 20
-8437.775
 30
-662.000
 70
    32
  0
VERTEX
  8
W60LXLIFT
 62
3
 10
1505.487
 20
-8454.938
 30
-662.000
 70
    32
  0
VERTEX
  8
W60LXLIFT
 62
3
 10
1509.523
 20
-8462.426
 30
-662.000
 70
    32
  0
VERTEX
  8
W60LXLIFT
 62
3
 10
1522.750
 20
-8477.170
 30
-662.000
 70
    32
  0
VERTEX
  8
W60LXLIFT
 62
3
 10
1525.375
 20
-8469.698
 30
-662.000
 70
    32
  0
VERTEX
  8
W60LXLIFT
 62
3
 10
1523.030
 20
-8466.055
 30
-662.000
 70
    32
  0
VERTEX
  8
W60LXLIFT
 62
3
 10
1521.915
 20
-8461.530
 30
-662.000
 70
    32
  0
VERTEX
  8
W60LXLIFT
 62
3
 10
1523.559
 20
-8453.432
 30
-662.000
 70
    32
  0
VERTEX
  8
W60LXLIFT
 62
3
 10
1527.101
 20
-8451.692
 30
-662.000
 70
    32
  0
VERTEX
  8
W60LXLIFT
 62
3
 10
1527.823
 20
-8448.246
 30
-662.000
 70
    32
  0
VERTEX
  8
W60LXLIFT
 62
3
 10
1527.682
 20
-8426.521
 30
-662.000
 70
    32
  0
SEQEND
  8
W60LXLIFT
  0
POLYLINE
  8
W60LXLIFT
 62
13
 66
     1
 70
     9
  0
VERTEX
  8
W60LXLIFT
 62
13
 10
1519.852
 20
-8420.421
 30
-672.000
 70
    32
  0
VERTEX
  8
W60LXLIFT
 62
13
 10
1509.350
 20
-8423.954
 30
-672.000
 70
    32
  0
VERTEX
  8
W60LXLIFT
 62
13
 10
1498.348
 20
-8428.645
 30
-672.000
 70
    32
  0
VERTEX
  8
W60LXLIFT
 62
13
 10
1495.689
 20
-8431.616
 30
-672.000
 70
    32
  0
VERTEX
  8
W60LXLIFT
 62
13
 10
1496.604
 20
-8437.347
 30
-672.000
 70
    32
  0
VERTEX
  8
W60LXLIFT
 62
13
 10
1489.067
 20
-8439.821
 30
-672.000
 70
    32
  0
VERTEX
  8
W60LXLIFT
 62
13
 10
1491.744
 20
-8446.154
 30
-672.000
 70
    32
  0
VERTEX
  8
W60LXLIFT
 62
13
 10
1498.042
 20
-8453.086
 30
-672.000
 70
    32
  0
VERTEX
  8
W60LXLIFT
 62
13
 10
1503.465
 20
-8462.509
 30
-672.000
 70
    32
  0
VERTEX
  8
W60LXLIFT
 62
13
 10
1505.240
 20
-8470.553
 30
-672.000
 70
    32
  0
VERTEX
  8
W60LXLIFT
 62
13
 10
1508.842
 20
-8474.094
 30
-672.000
 70
    32
  0
VERTEX
  8
W60LXLIFT
 62
13
 10
1510.576
 20
-8473.916
 30
-672.000
 70
    32
  0
VERTEX
  8
W60LXLIFT
 62
13
 10
1513.325
 20
-8478.866
 30
-672.000
 70
    32
  0
VERTEX
  8
W60LXLIFT
 62
13
 10
1517.245
 20
-8477.654
 30
-672.000
 70
    32
  0
VERTEX
  8
W60LXLIFT
 62
13
 10
1517.841
 20
-8474.033
 30
-672.000
 70
    32
  0
VERTEX
  8
W60LXLIFT
 62
13
 10
1523.467
 20
-8457.757
 30
-672.000
 70
    32
  0
VERTEX
  8
W60LXLIFT
 62
13
 10
1525.523
 20
-8454.686
 30
-672.000
 70
    32
  0
VERTEX
  8
W60LXLIFT
 62
13
 10
1527.094
 20
-8447.971
 30
-672.000
 70
    32
  0
VERTEX
  8
W60LXLIFT
 62
13
 10
1526.396
 20
-8438.090
 30
-672.000
 70
    32
  0
VERTEX
  8
W60LXLIFT
 62
13
 10
1522.678
 20
-8425.849
 30
-672.000
 70
    32
  0
SEQEND
  8
W60LXLIFT
  0
POLYLINE
  8
W60LXLIFT
 62
6
 66
     1
 70
     9
  0
VERTEX
  8
W60LXLIFT
 62
6
 10
1523.388
 20
-8429.066
 30
-655.000
 70
    32
  0
VERTEX
  8
W60LXLIFT
 62
6
 10
1523.457
 20
-8425.823
 30
-655.000
 70
    32
  0
VERTEX
  8
W60LXLIFT
 62
6
 10
1521.616
 20
-8422.883
 30
-655.000
 70
    32
  0
VERTEX
  8
W60LXLIFT
 62
6
 10
1515.481
 20
-8422.488
 30
-655.000
 70
    32
  0
VERTEX
  8
W60LXLIFT
 62
6
 10
1508.382
 20
-8430.770
 30
-655.000
 70
    32
  0
VERTEX
  8
W60LXLIFT
 62
6
 10
1513.397
 20
-8437.025
 30
-655.000
 70
    32
  0
VERTEX
  8
W60LXLIFT
 62
6
 10
1516.747
 20
-8440.214
 30
-655.000
 70
    32
  0
VERTEX
  8
W60LXLIFT
 62
6
 10
1517.281
 20
-8443.557
 30
-655.000
 70
    32
  0
VERTEX
  8
W60LXLIFT
 62
6
 10
1518.339
 20
-8444.663
 30
-655.000
 70
    32
  0
VERTEX
  8
W60LXLIFT
 62
6
 10
1519.871
 20
-8443.831
 30
-655.000
 70
    32
  0
VERTEX
  8
W60LXLIFT
 62
6
 10
1518.275
 20
-8437.521
 30
-655.000
 70
    32
  0
VERTEX
  8
W60LXLIFT
 62
6
 10
1522.589
 20
-8432.034
 30
-655.000
 70
    32
  0
SEQEND
  8
W60LXLIFT
  0
ENDSEC
  0
EOF
