999
********************************
999
*   DXF File - Entities Only   *
999
*        3D Data Format        *
999
*     Output from ENVISAGE     *
999
*     02-Jan-2008 11:01:42     *
999
********************************
  0
SECTION 
  2
HEADER
  9
$ACADVER
  1
AC1009
  9
$EXTMIN
 10
-290000.000
 20
-250000.000
 30
-4000.000
  9
$EXTMAX
 10
320000.000
 20
160000.000
 30
6000.000
  0
ENDSEC
  0
SECTION
  2
ENTITIES
  0
POLYLINE
  8
W62LXLIFT
 62
3
 66
     1
 70
     9
  0
VERTEX
  8
W62LXLIFT
 62
3
 10
1451.948
 20
-7308.590
 30
-944.000
 70
    32
  0
VERTEX
  8
W62LXLIFT
 62
3
 10
1446.982
 20
-7328.310
 30
-944.000
 70
    32
  0
VERTEX
  8
W62LXLIFT
 62
3
 10
1451.531
 20
-7351.464
 30
-944.000
 70
    32
  0
VERTEX
  8
W62LXLIFT
 62
3
 10
1461.585
 20
-7373.686
 30
-944.000
 70
    32
  0
VERTEX
  8
W62LXLIFT
 62
3
 10
1463.066
 20
-7408.369
 30
-944.000
 70
    32
  0
VERTEX
  8
W62LXLIFT
 62
3
 10
1457.432
 20
-7412.428
 30
-944.000
 70
    32
  0
VERTEX
  8
W62LXLIFT
 62
3
 10
1453.595
 20
-7420.934
 30
-944.000
 70
    32
  0
VERTEX
  8
W62LXLIFT
 62
3
 10
1442.062
 20
-7419.061
 30
-944.000
 70
    32
  0
VERTEX
  8
W62LXLIFT
 62
3
 10
1443.653
 20
-7398.415
 30
-944.000
 70
    32
  0
VERTEX
  8
W62LXLIFT
 62
3
 10
1434.402
 20
-7387.530
 30
-944.000
 70
    32
  0
VERTEX
  8
W62LXLIFT
 62
3
 10
1439.119
 20
-7374.382
 30
-944.000
 70
    32
  0
VERTEX
  8
W62LXLIFT
 62
3
 10
1436.772
 20
-7360.148
 30
-944.000
 70
    32
  0
VERTEX
  8
W62LXLIFT
 62
3
 10
1431.011
 20
-7347.942
 30
-944.000
 70
    32
  0
VERTEX
  8
W62LXLIFT
 62
3
 10
1428.897
 20
-7340.798
 30
-944.000
 70
    32
  0
VERTEX
  8
W62LXLIFT
 62
3
 10
1422.789
 20
-7333.824
 30
-944.000
 70
    32
  0
VERTEX
  8
W62LXLIFT
 62
3
 10
1441.166
 20
-7300.542
 30
-944.000
 70
    32
  0
SEQEND
  8
W62LXLIFT
  0
POLYLINE
  8
W62LXLIFT
 62
1
 66
     1
 70
     9
  0
VERTEX
  8
W62LXLIFT
 62
1
 10
1452.948
 20
-7307.590
 30
-934.000
 70
    32
  0
VERTEX
  8
W62LXLIFT
 62
1
 10
1447.982
 20
-7327.310
 30
-934.000
 70
    32
  0
VERTEX
  8
W62LXLIFT
 62
1
 10
1452.531
 20
-7350.464
 30
-934.000
 70
    32
  0
VERTEX
  8
W62LXLIFT
 62
1
 10
1462.585
 20
-7372.686
 30
-934.000
 70
    32
  0
VERTEX
  8
W62LXLIFT
 62
1
 10
1464.066
 20
-7407.369
 30
-934.000
 70
    32
  0
VERTEX
  8
W62LXLIFT
 62
1
 10
1458.432
 20
-7411.428
 30
-934.000
 70
    32
  0
VERTEX
  8
W62LXLIFT
 62
1
 10
1454.595
 20
-7419.934
 30
-934.000
 70
    32
  0
VERTEX
  8
W62LXLIFT
 62
1
 10
1443.062
 20
-7418.061
 30
-934.000
 70
    32
  0
VERTEX
  8
W62LXLIFT
 62
1
 10
1444.653
 20
-7397.415
 30
-934.000
 70
    32
  0
VERTEX
  8
W62LXLIFT
 62
1
 10
1435.402
 20
-7386.530
 30
-934.000
 70
    32
  0
VERTEX
  8
W62LXLIFT
 62
1
 10
1440.119
 20
-7373.382
 30
-934.000
 70
    32
  0
VERTEX
  8
W62LXLIFT
 62
1
 10
1437.772
 20
-7359.148
 30
-934.000
 70
    32
  0
VERTEX
  8
W62LXLIFT
 62
1
 10
1432.011
 20
-7346.942
 30
-934.000
 70
    32
  0
VERTEX
  8
W62LXLIFT
 62
1
 10
1429.897
 20
-7339.798
 30
-934.000
 70
    32
  0
VERTEX
  8
W62LXLIFT
 62
1
 10
1423.789
 20
-7332.824
 30
-934.000
 70
    32
  0
VERTEX
  8
W62LXLIFT
 62
1
 10
1442.166
 20
-7299.542
 30
-934.000
 70
    32
  0
SEQEND
  8
W62LXLIFT
  0
POLYLINE
  8
W62LXLIFT
 62
7
 66
     1
 70
     9
  0
VERTEX
  8
W62LXLIFT
 62
7
 10
1414.003
 20
-7911.165
 30
-939.000
 70
    32
  0
VERTEX
  8
W62LXLIFT
 62
7
 10
1420.036
 20
-7914.727
 30
-939.000
 70
    32
  0
VERTEX
  8
W62LXLIFT
 62
7
 10
1428.001
 20
-7913.754
 30
-939.000
 70
    32
  0
VERTEX
  8
W62LXLIFT
 62
7
 10
1433.764
 20
-7911.227
 30
-939.000
 70
    32
  0
VERTEX
  8
W62LXLIFT
 62
7
 10
1438.647
 20
-7908.683
 30
-939.000
 70
    32
  0
VERTEX
  8
W62LXLIFT
 62
7
 10
1444.101
 20
-7913.095
 30
-939.000
 70
    32
  0
VERTEX
  8
W62LXLIFT
 62
7
 10
1450.636
 20
-7917.053
 30
-939.000
 70
    32
  0
VERTEX
  8
W62LXLIFT
 62
7
 10
1452.843
 20
-7922.071
 30
-939.000
 70
    32
  0
VERTEX
  8
W62LXLIFT
 62
7
 10
1453.729
 20
-7933.675
 30
-939.000
 70
    32
  0
VERTEX
  8
W62LXLIFT
 62
7
 10
1462.611
 20
-7944.499
 30
-939.000
 70
    32
  0
VERTEX
  8
W62LXLIFT
 62
7
 10
1467.952
 20
-7961.234
 30
-939.000
 70
    32
  0
VERTEX
  8
W62LXLIFT
 62
7
 10
1475.619
 20
-7989.617
 30
-939.000
 70
    32
  0
VERTEX
  8
W62LXLIFT
 62
7
 10
1486.792
 20
-8013.092
 30
-939.000
 70
    32
  0
VERTEX
  8
W62LXLIFT
 62
7
 10
1485.512
 20
-8024.847
 30
-939.000
 70
    32
  0
VERTEX
  8
W62LXLIFT
 62
7
 10
1469.063
 20
-8032.690
 30
-939.000
 70
    32
  0
VERTEX
  8
W62LXLIFT
 62
7
 10
1454.840
 20
-8032.646
 30
-939.000
 70
    32
  0
VERTEX
  8
W62LXLIFT
 62
7
 10
1448.164
 20
-8024.132
 30
-939.000
 70
    32
  0
VERTEX
  8
W62LXLIFT
 62
7
 10
1433.262
 20
-8015.478
 30
-939.000
 70
    32
  0
VERTEX
  8
W62LXLIFT
 62
7
 10
1422.921
 20
-7995.412
 30
-939.000
 70
    32
  0
VERTEX
  8
W62LXLIFT
 62
7
 10
1419.402
 20
-7991.881
 30
-939.000
 70
    32
  0
VERTEX
  8
W62LXLIFT
 62
7
 10
1418.311
 20
-7969.918
 30
-939.000
 70
    32
  0
VERTEX
  8
W62LXLIFT
 62
7
 10
1413.769
 20
-7963.766
 30
-939.000
 70
    32
  0
VERTEX
  8
W62LXLIFT
 62
7
 10
1406.114
 20
-7920.966
 30
-939.000
 70
    32
  0
VERTEX
  8
W62LXLIFT
 62
7
 10
1405.402
 20
-7914.113
 30
-939.000
 70
    32
  0
SEQEND
  8
W62LXLIFT
  0
POLYLINE
  8
W62LXLIFT
 62
11
 66
     1
 70
     9
  0
VERTEX
  8
W62LXLIFT
 62
11
 10
1556.649
 20
-8000.891
 30
-934.000
 70
    32
  0
VERTEX
  8
W62LXLIFT
 62
11
 10
1557.909
 20
-8006.700
 30
-934.000
 70
    32
  0
VERTEX
  8
W62LXLIFT
 62
11
 10
1544.065
 20
-8021.766
 30
-934.000
 70
    32
  0
VERTEX
  8
W62LXLIFT
 62
11
 10
1550.219
 20
-8030.007
 30
-934.000
 70
    32
  0
VERTEX
  8
W62LXLIFT
 62
11
 10
1536.404
 20
-8054.585
 30
-934.000
 70
    32
  0
VERTEX
  8
W62LXLIFT
 62
11
 10
1554.012
 20
-8082.631
 30
-934.000
 70
    32
  0
VERTEX
  8
W62LXLIFT
 62
11
 10
1567.918
 20
-8092.761
 30
-934.000
 70
    32
  0
VERTEX
  8
W62LXLIFT
 62
11
 10
1612.599
 20
-8070.426
 30
-934.000
 70
    32
  0
VERTEX
  8
W62LXLIFT
 62
11
 10
1614.978
 20
-8067.412
 30
-934.000
 70
    32
  0
VERTEX
  8
W62LXLIFT
 62
11
 10
1607.116
 20
-8053.794
 30
-934.000
 70
    32
  0
VERTEX
  8
W62LXLIFT
 62
11
 10
1601.948
 20
-8041.810
 30
-934.000
 70
    32
  0
VERTEX
  8
W62LXLIFT
 62
11
 10
1599.161
 20
-8034.935
 30
-934.000
 70
    32
  0
VERTEX
  8
W62LXLIFT
 62
11
 10
1601.830
 20
-8023.153
 30
-934.000
 70
    32
  0
VERTEX
  8
W62LXLIFT
 62
11
 10
1592.293
 20
-8009.767
 30
-934.000
 70
    32
  0
VERTEX
  8
W62LXLIFT
 62
11
 10
1582.742
 20
-7995.308
 30
-934.000
 70
    32
  0
VERTEX
  8
W62LXLIFT
 62
11
 10
1563.863
 20
-7996.019
 30
-934.000
 70
    32
  0
SEQEND
  8
W62LXLIFT
  0
POLYLINE
  8
W62LXLIFT
 62
11
 66
     1
 70
     9
  0
VERTEX
  8
W62LXLIFT
 62
11
 10
1466.682
 20
-8027.581
 30
-934.000
 70
    32
  0
VERTEX
  8
W62LXLIFT
 62
11
 10
1482.293
 20
-8057.066
 30
-934.000
 70
    32
  0
VERTEX
  8
W62LXLIFT
 62
11
 10
1478.504
 20
-8067.595
 30
-934.000
 70
    32
  0
VERTEX
  8
W62LXLIFT
 62
11
 10
1488.478
 20
-8082.941
 30
-934.000
 70
    32
  0
VERTEX
  8
W62LXLIFT
 62
11
 10
1497.346
 20
-8100.060
 30
-934.000
 70
    32
  0
VERTEX
  8
W62LXLIFT
 62
11
 10
1509.622
 20
-8116.347
 30
-934.000
 70
    32
  0
VERTEX
  8
W62LXLIFT
 62
11
 10
1522.974
 20
-8138.035
 30
-934.000
 70
    32
  0
VERTEX
  8
W62LXLIFT
 62
11
 10
1539.459
 20
-8129.191
 30
-934.000
 70
    32
  0
VERTEX
  8
W62LXLIFT
 62
11
 10
1550.480
 20
-8118.325
 30
-934.000
 70
    32
  0
VERTEX
  8
W62LXLIFT
 62
11
 10
1543.098
 20
-8099.811
 30
-934.000
 70
    32
  0
VERTEX
  8
W62LXLIFT
 62
11
 10
1534.434
 20
-8084.929
 30
-934.000
 70
    32
  0
VERTEX
  8
W62LXLIFT
 62
11
 10
1526.183
 20
-8076.033
 30
-934.000
 70
    32
  0
VERTEX
  8
W62LXLIFT
 62
11
 10
1515.669
 20
-8068.658
 30
-934.000
 70
    32
  0
VERTEX
  8
W62LXLIFT
 62
11
 10
1511.637
 20
-8064.414
 30
-934.000
 70
    32
  0
VERTEX
  8
W62LXLIFT
 62
11
 10
1507.916
 20
-8056.695
 30
-934.000
 70
    32
  0
VERTEX
  8
W62LXLIFT
 62
11
 10
1500.883
 20
-8045.730
 30
-934.000
 70
    32
  0
VERTEX
  8
W62LXLIFT
 62
11
 10
1494.178
 20
-8045.144
 30
-934.000
 70
    32
  0
VERTEX
  8
W62LXLIFT
 62
11
 10
1487.379
 20
-8039.317
 30
-934.000
 70
    32
  0
VERTEX
  8
W62LXLIFT
 62
11
 10
1473.568
 20
-8022.403
 30
-934.000
 70
    32
  0
SEQEND
  8
W62LXLIFT
  0
POLYLINE
  8
W62LXLIFT
 62
13
 66
     1
 70
     9
  0
VERTEX
  8
W62LXLIFT
 62
13
 10
1689.202
 20
-8289.960
 30
-938.000
 70
    32
  0
VERTEX
  8
W62LXLIFT
 62
13
 10
1681.279
 20
-8298.810
 30
-938.000
 70
    32
  0
VERTEX
  8
W62LXLIFT
 62
13
 10
1680.664
 20
-8303.369
 30
-938.000
 70
    32
  0
VERTEX
  8
W62LXLIFT
 62
13
 10
1682.350
 20
-8318.188
 30
-938.000
 70
    32
  0
VERTEX
  8
W62LXLIFT
 62
13
 10
1682.562
 20
-8330.060
 30
-938.000
 70
    32
  0
VERTEX
  8
W62LXLIFT
 62
13
 10
1684.781
 20
-8338.102
 30
-938.000
 70
    32
  0
VERTEX
  8
W62LXLIFT
 62
13
 10
1690.996
 20
-8341.315
 30
-938.000
 70
    32
  0
VERTEX
  8
W62LXLIFT
 62
13
 10
1696.587
 20
-8336.746
 30
-938.000
 70
    32
  0
VERTEX
  8
W62LXLIFT
 62
13
 10
1701.083
 20
-8326.898
 30
-938.000
 70
    32
  0
VERTEX
  8
W62LXLIFT
 62
13
 10
1700.966
 20
-8300.875
 30
-938.000
 70
    32
  0
VERTEX
  8
W62LXLIFT
 62
13
 10
1699.786
 20
-8294.575
 30
-938.000
 70
    32
  0
VERTEX
  8
W62LXLIFT
 62
13
 10
1696.976
 20
-8287.067
 30
-938.000
 70
    32
  0
SEQEND
  8
W62LXLIFT
  0
POLYLINE
  8
W62LXLIFT
 62
2
 66
     1
 70
     9
  0
VERTEX
  8
W62LXLIFT
 62
2
 10
1347.111
 20
-7082.623
 30
-914.000
 70
    32
  0
VERTEX
  8
W62LXLIFT
 62
2
 10
1356.699
 20
-7099.340
 30
-914.000
 70
    32
  0
VERTEX
  8
W62LXLIFT
 62
2
 10
1365.413
 20
-7109.747
 30
-914.000
 70
    32
  0
VERTEX
  8
W62LXLIFT
 62
2
 10
1369.789
 20
-7111.899
 30
-914.000
 70
    32
  0
VERTEX
  8
W62LXLIFT
 62
2
 10
1381.173
 20
-7113.542
 30
-914.000
 70
    32
  0
VERTEX
  8
W62LXLIFT
 62
2
 10
1388.768
 20
-7115.646
 30
-914.000
 70
    32
  0
VERTEX
  8
W62LXLIFT
 62
2
 10
1399.324
 20
-7128.301
 30
-914.000
 70
    32
  0
VERTEX
  8
W62LXLIFT
 62
2
 10
1402.910
 20
-7137.315
 30
-914.000
 70
    32
  0
VERTEX
  8
W62LXLIFT
 62
2
 10
1406.450
 20
-7148.967
 30
-914.000
 70
    32
  0
VERTEX
  8
W62LXLIFT
 62
2
 10
1407.014
 20
-7154.850
 30
-914.000
 70
    32
  0
VERTEX
  8
W62LXLIFT
 62
2
 10
1406.460
 20
-7167.291
 30
-914.000
 70
    32
  0
VERTEX
  8
W62LXLIFT
 62
2
 10
1405.437
 20
-7172.478
 30
-914.000
 70
    32
  0
VERTEX
  8
W62LXLIFT
 62
2
 10
1399.693
 20
-7178.039
 30
-914.000
 70
    32
  0
VERTEX
  8
W62LXLIFT
 62
2
 10
1400.725
 20
-7185.320
 30
-914.000
 70
    32
  0
VERTEX
  8
W62LXLIFT
 62
2
 10
1383.853
 20
-7192.742
 30
-914.000
 70
    32
  0
VERTEX
  8
W62LXLIFT
 62
2
 10
1374.877
 20
-7170.267
 30
-914.000
 70
    32
  0
VERTEX
  8
W62LXLIFT
 62
2
 10
1363.352
 20
-7161.675
 30
-914.000
 70
    32
  0
VERTEX
  8
W62LXLIFT
 62
2
 10
1356.229
 20
-7148.818
 30
-914.000
 70
    32
  0
VERTEX
  8
W62LXLIFT
 62
2
 10
1341.666
 20
-7116.062
 30
-914.000
 70
    32
  0
VERTEX
  8
W62LXLIFT
 62
2
 10
1342.598
 20
-7109.097
 30
-914.000
 70
    32
  0
VERTEX
  8
W62LXLIFT
 62
2
 10
1338.552
 20
-7087.290
 30
-914.000
 70
    32
  0
SEQEND
  8
W62LXLIFT
  0
POLYLINE
  8
W62LXLIFT
 62
8
 66
     1
 70
     9
  0
VERTEX
  8
W62LXLIFT
 62
8
 10
1563.271
 20
-8181.194
 30
-916.000
 70
    32
  0
VERTEX
  8
W62LXLIFT
 62
8
 10
1567.729
 20
-8181.660
 30
-916.000
 70
    32
  0
VERTEX
  8
W62LXLIFT
 62
8
 10
1569.943
 20
-8182.771
 30
-916.000
 70
    32
  0
VERTEX
  8
W62LXLIFT
 62
8
 10
1574.881
 20
-8182.999
 30
-916.000
 70
    32
  0
VERTEX
  8
W62LXLIFT
 62
8
 10
1577.697
 20
-8187.797
 30
-916.000
 70
    32
  0
VERTEX
  8
W62LXLIFT
 62
8
 10
1586.778
 20
-8192.407
 30
-916.000
 70
    32
  0
VERTEX
  8
W62LXLIFT
 62
8
 10
1595.438
 20
-8205.890
 30
-916.000
 70
    32
  0
VERTEX
  8
W62LXLIFT
 62
8
 10
1594.167
 20
-8216.137
 30
-916.000
 70
    32
  0
VERTEX
  8
W62LXLIFT
 62
8
 10
1600.238
 20
-8232.792
 30
-916.000
 70
    32
  0
VERTEX
  8
W62LXLIFT
 62
8
 10
1605.908
 20
-8245.290
 30
-916.000
 70
    32
  0
VERTEX
  8
W62LXLIFT
 62
8
 10
1598.906
 20
-8250.460
 30
-916.000
 70
    32
  0
VERTEX
  8
W62LXLIFT
 62
8
 10
1591.298
 20
-8246.087
 30
-916.000
 70
    32
  0
VERTEX
  8
W62LXLIFT
 62
8
 10
1582.438
 20
-8247.935
 30
-916.000
 70
    32
  0
VERTEX
  8
W62LXLIFT
 62
8
 10
1583.824
 20
-8260.059
 30
-916.000
 70
    32
  0
VERTEX
  8
W62LXLIFT
 62
8
 10
1571.459
 20
-8262.162
 30
-916.000
 70
    32
  0
VERTEX
  8
W62LXLIFT
 62
8
 10
1568.169
 20
-8251.306
 30
-916.000
 70
    32
  0
VERTEX
  8
W62LXLIFT
 62
8
 10
1570.159
 20
-8245.204
 30
-916.000
 70
    32
  0
VERTEX
  8
W62LXLIFT
 62
8
 10
1568.461
 20
-8235.801
 30
-916.000
 70
    32
  0
VERTEX
  8
W62LXLIFT
 62
8
 10
1564.963
 20
-8231.712
 30
-916.000
 70
    32
  0
VERTEX
  8
W62LXLIFT
 62
8
 10
1564.482
 20
-8226.093
 30
-916.000
 70
    32
  0
VERTEX
  8
W62LXLIFT
 62
8
 10
1559.091
 20
-8219.685
 30
-916.000
 70
    32
  0
VERTEX
  8
W62LXLIFT
 62
8
 10
1557.122
 20
-8214.709
 30
-916.000
 70
    32
  0
VERTEX
  8
W62LXLIFT
 62
8
 10
1551.470
 20
-8209.140
 30
-916.000
 70
    32
  0
VERTEX
  8
W62LXLIFT
 62
8
 10
1555.195
 20
-8186.380
 30
-916.000
 70
    32
  0
SEQEND
  8
W62LXLIFT
  0
POLYLINE
  8
W62LXLIFT
 62
13
 66
     1
 70
     9
  0
VERTEX
  8
W62LXLIFT
 62
13
 10
1690.490
 20
-8291.329
 30
-925.000
 70
    32
  0
VERTEX
  8
W62LXLIFT
 62
13
 10
1686.891
 20
-8291.002
 30
-925.000
 70
    32
  0
VERTEX
  8
W62LXLIFT
 62
13
 10
1684.361
 20
-8291.854
 30
-925.000
 70
    32
  0
VERTEX
  8
W62LXLIFT
 62
13
 10
1683.871
 20
-8295.679
 30
-925.000
 70
    32
  0
VERTEX
  8
W62LXLIFT
 62
13
 10
1676.208
 20
-8301.435
 30
-925.000
 70
    32
  0
VERTEX
  8
W62LXLIFT
 62
13
 10
1676.898
 20
-8306.142
 30
-925.000
 70
    32
  0
VERTEX
  8
W62LXLIFT
 62
13
 10
1679.992
 20
-8311.174
 30
-925.000
 70
    32
  0
VERTEX
  8
W62LXLIFT
 62
13
 10
1680.331
 20
-8316.895
 30
-925.000
 70
    32
  0
VERTEX
  8
W62LXLIFT
 62
13
 10
1684.793
 20
-8340.028
 30
-925.000
 70
    32
  0
VERTEX
  8
W62LXLIFT
 62
13
 10
1690.542
 20
-8339.128
 30
-925.000
 70
    32
  0
VERTEX
  8
W62LXLIFT
 62
13
 10
1695.583
 20
-8339.498
 30
-925.000
 70
    32
  0
VERTEX
  8
W62LXLIFT
 62
13
 10
1696.908
 20
-8337.130
 30
-925.000
 70
    32
  0
VERTEX
  8
W62LXLIFT
 62
13
 10
1698.570
 20
-8332.675
 30
-925.000
 70
    32
  0
VERTEX
  8
W62LXLIFT
 62
13
 10
1701.392
 20
-8331.177
 30
-925.000
 70
    32
  0
VERTEX
  8
W62LXLIFT
 62
13
 10
1700.214
 20
-8312.287
 30
-925.000
 70
    32
  0
VERTEX
  8
W62LXLIFT
 62
13
 10
1696.960
 20
-8291.426
 30
-925.000
 70
    32
  0
SEQEND
  8
W62LXLIFT
  0
POLYLINE
  8
W62LXLIFT
 62
11
 66
     1
 70
     9
  0
VERTEX
  8
W62LXLIFT
 62
11
 10
1653.150
 20
-8277.289
 30
-926.000
 70
    32
  0
VERTEX
  8
W62LXLIFT
 62
11
 10
1655.810
 20
-8272.913
 30
-926.000
 70
    32
  0
VERTEX
  8
W62LXLIFT
 62
11
 10
1656.883
 20
-8266.543
 30
-926.000
 70
    32
  0
VERTEX
  8
W62LXLIFT
 62
11
 10
1643.254
 20
-8244.615
 30
-926.000
 70
    32
  0
VERTEX
  8
W62LXLIFT
 62
11
 10
1651.135
 20
-8236.369
 30
-926.000
 70
    32
  0
VERTEX
  8
W62LXLIFT
 62
11
 10
1659.441
 20
-8236.662
 30
-926.000
 70
    32
  0
VERTEX
  8
W62LXLIFT
 62
11
 10
1672.271
 20
-8253.826
 30
-926.000
 70
    32
  0
VERTEX
  8
W62LXLIFT
 62
11
 10
1675.717
 20
-8265.702
 30
-926.000
 70
    32
  0
VERTEX
  8
W62LXLIFT
 62
11
 10
1690.608
 20
-8260.131
 30
-926.000
 70
    32
  0
VERTEX
  8
W62LXLIFT
 62
11
 10
1699.776
 20
-8263.503
 30
-926.000
 70
    32
  0
VERTEX
  8
W62LXLIFT
 62
11
 10
1700.256
 20
-8271.673
 30
-926.000
 70
    32
  0
VERTEX
  8
W62LXLIFT
 62
11
 10
1691.783
 20
-8275.875
 30
-926.000
 70
    32
  0
VERTEX
  8
W62LXLIFT
 62
11
 10
1689.788
 20
-8280.852
 30
-926.000
 70
    32
  0
VERTEX
  8
W62LXLIFT
 62
11
 10
1697.099
 20
-8304.730
 30
-926.000
 70
    32
  0
VERTEX
  8
W62LXLIFT
 62
11
 10
1693.275
 20
-8313.139
 30
-926.000
 70
    32
  0
VERTEX
  8
W62LXLIFT
 62
11
 10
1680.637
 20
-8308.623
 30
-926.000
 70
    32
  0
VERTEX
  8
W62LXLIFT
 62
11
 10
1665.754
 20
-8309.487
 30
-926.000
 70
    32
  0
VERTEX
  8
W62LXLIFT
 62
11
 10
1663.459
 20
-8308.455
 30
-926.000
 70
    32
  0
VERTEX
  8
W62LXLIFT
 62
11
 10
1666.243
 20
-8300.707
 30
-926.000
 70
    32
  0
VERTEX
  8
W62LXLIFT
 62
11
 10
1663.267
 20
-8292.856
 30
-926.000
 70
    32
  0
SEQEND
  8
W62LXLIFT
  0
POLYLINE
  8
W62LXLIFT
 62
2
 66
     1
 70
     9
  0
VERTEX
  8
W62LXLIFT
 62
2
 10
1336.570
 20
-7087.811
 30
-905.000
 70
    32
  0
VERTEX
  8
W62LXLIFT
 62
2
 10
1335.834
 20
-7094.621
 30
-905.000
 70
    32
  0
VERTEX
  8
W62LXLIFT
 62
2
 10
1338.979
 20
-7100.050
 30
-905.000
 70
    32
  0
VERTEX
  8
W62LXLIFT
 62
2
 10
1348.492
 20
-7139.345
 30
-905.000
 70
    32
  0
VERTEX
  8
W62LXLIFT
 62
2
 10
1353.847
 20
-7145.891
 30
-905.000
 70
    32
  0
VERTEX
  8
W62LXLIFT
 62
2
 10
1368.604
 20
-7161.599
 30
-905.000
 70
    32
  0
VERTEX
  8
W62LXLIFT
 62
2
 10
1380.284
 20
-7170.314
 30
-905.000
 70
    32
  0
VERTEX
  8
W62LXLIFT
 62
2
 10
1396.620
 20
-7204.487
 30
-905.000
 70
    32
  0
VERTEX
  8
W62LXLIFT
 62
2
 10
1402.239
 20
-7210.195
 30
-905.000
 70
    32
  0
VERTEX
  8
W62LXLIFT
 62
2
 10
1410.253
 20
-7223.602
 30
-905.000
 70
    32
  0
VERTEX
  8
W62LXLIFT
 62
2
 10
1412.974
 20
-7241.247
 30
-905.000
 70
    32
  0
VERTEX
  8
W62LXLIFT
 62
2
 10
1419.501
 20
-7242.945
 30
-905.000
 70
    32
  0
VERTEX
  8
W62LXLIFT
 62
2
 10
1427.317
 20
-7248.697
 30
-905.000
 70
    32
  0
VERTEX
  8
W62LXLIFT
 62
2
 10
1432.228
 20
-7243.326
 30
-905.000
 70
    32
  0
VERTEX
  8
W62LXLIFT
 62
2
 10
1429.405
 20
-7239.399
 30
-905.000
 70
    32
  0
VERTEX
  8
W62LXLIFT
 62
2
 10
1424.220
 20
-7214.861
 30
-905.000
 70
    32
  0
VERTEX
  8
W62LXLIFT
 62
2
 10
1418.668
 20
-7204.124
 30
-905.000
 70
    32
  0
VERTEX
  8
W62LXLIFT
 62
2
 10
1411.448
 20
-7186.247
 30
-905.000
 70
    32
  0
VERTEX
  8
W62LXLIFT
 62
2
 10
1409.274
 20
-7173.732
 30
-905.000
 70
    32
  0
VERTEX
  8
W62LXLIFT
 62
2
 10
1402.152
 20
-7154.485
 30
-905.000
 70
    32
  0
VERTEX
  8
W62LXLIFT
 62
2
 10
1401.264
 20
-7131.406
 30
-905.000
 70
    32
  0
VERTEX
  8
W62LXLIFT
 62
2
 10
1386.976
 20
-7115.146
 30
-905.000
 70
    32
  0
VERTEX
  8
W62LXLIFT
 62
2
 10
1371.624
 20
-7112.320
 30
-905.000
 70
    32
  0
VERTEX
  8
W62LXLIFT
 62
2
 10
1360.449
 20
-7108.224
 30
-905.000
 70
    32
  0
VERTEX
  8
W62LXLIFT
 62
2
 10
1352.603
 20
-7099.569
 30
-905.000
 70
    32
  0
VERTEX
  8
W62LXLIFT
 62
2
 10
1346.348
 20
-7086.197
 30
-905.000
 70
    32
  0
SEQEND
  8
W62LXLIFT
  0
POLYLINE
  8
W62LXLIFT
 62
2
 66
     1
 70
     9
  0
VERTEX
  8
W62LXLIFT
 62
2
 10
1324.288
 20
-7064.356
 30
-896.000
 70
    32
  0
VERTEX
  8
W62LXLIFT
 62
2
 10
1326.527
 20
-7089.588
 30
-896.000
 70
    32
  0
VERTEX
  8
W62LXLIFT
 62
2
 10
1330.143
 20
-7107.847
 30
-896.000
 70
    32
  0
VERTEX
  8
W62LXLIFT
 62
2
 10
1343.027
 20
-7129.306
 30
-896.000
 70
    32
  0
VERTEX
  8
W62LXLIFT
 62
2
 10
1349.677
 20
-7141.679
 30
-896.000
 70
    32
  0
VERTEX
  8
W62LXLIFT
 62
2
 10
1365.467
 20
-7158.431
 30
-896.000
 70
    32
  0
VERTEX
  8
W62LXLIFT
 62
2
 10
1381.285
 20
-7178.533
 30
-896.000
 70
    32
  0
VERTEX
  8
W62LXLIFT
 62
2
 10
1392.962
 20
-7198.472
 30
-896.000
 70
    32
  0
VERTEX
  8
W62LXLIFT
 62
2
 10
1403.604
 20
-7220.137
 30
-896.000
 70
    32
  0
VERTEX
  8
W62LXLIFT
 62
2
 10
1414.970
 20
-7249.431
 30
-896.000
 70
    32
  0
VERTEX
  8
W62LXLIFT
 62
2
 10
1421.768
 20
-7254.632
 30
-896.000
 70
    32
  0
VERTEX
  8
W62LXLIFT
 62
2
 10
1425.305
 20
-7251.100
 30
-896.000
 70
    32
  0
VERTEX
  8
W62LXLIFT
 62
2
 10
1425.555
 20
-7231.572
 30
-896.000
 70
    32
  0
VERTEX
  8
W62LXLIFT
 62
2
 10
1410.922
 20
-7178.332
 30
-896.000
 70
    32
  0
VERTEX
  8
W62LXLIFT
 62
2
 10
1401.145
 20
-7159.521
 30
-896.000
 70
    32
  0
VERTEX
  8
W62LXLIFT
 62
2
 10
1399.109
 20
-7135.773
 30
-896.000
 70
    32
  0
VERTEX
  8
W62LXLIFT
 62
2
 10
1373.722
 20
-7117.471
 30
-896.000
 70
    32
  0
VERTEX
  8
W62LXLIFT
 62
2
 10
1364.428
 20
-7107.007
 30
-896.000
 70
    32
  0
VERTEX
  8
W62LXLIFT
 62
2
 10
1354.882
 20
-7091.074
 30
-896.000
 70
    32
  0
VERTEX
  8
W62LXLIFT
 62
2
 10
1351.748
 20
-7081.162
 30
-896.000
 70
    32
  0
VERTEX
  8
W62LXLIFT
 62
2
 10
1335.129
 20
-7058.595
 30
-896.000
 70
    32
  0
SEQEND
  8
W62LXLIFT
  0
POLYLINE
  8
W62LXLIFT
 62
8
 66
     1
 70
     9
  0
VERTEX
  8
W62LXLIFT
 62
8
 10
1567.843
 20
-8186.564
 30
-900.000
 70
    32
  0
VERTEX
  8
W62LXLIFT
 62
8
 10
1553.631
 20
-8202.259
 30
-900.000
 70
    32
  0
VERTEX
  8
W62LXLIFT
 62
8
 10
1560.297
 20
-8215.708
 30
-900.000
 70
    32
  0
VERTEX
  8
W62LXLIFT
 62
8
 10
1565.117
 20
-8226.901
 30
-900.000
 70
    32
  0
VERTEX
  8
W62LXLIFT
 62
8
 10
1564.393
 20
-8235.685
 30
-900.000
 70
    32
  0
VERTEX
  8
W62LXLIFT
 62
8
 10
1568.569
 20
-8234.844
 30
-900.000
 70
    32
  0
VERTEX
  8
W62LXLIFT
 62
8
 10
1579.724
 20
-8226.356
 30
-900.000
 70
    32
  0
VERTEX
  8
W62LXLIFT
 62
8
 10
1587.761
 20
-8227.401
 30
-900.000
 70
    32
  0
VERTEX
  8
W62LXLIFT
 62
8
 10
1592.822
 20
-8223.421
 30
-900.000
 70
    32
  0
VERTEX
  8
W62LXLIFT
 62
8
 10
1585.467
 20
-8205.253
 30
-900.000
 70
    32
  0
VERTEX
  8
W62LXLIFT
 62
8
 10
1576.011
 20
-8189.145
 30
-900.000
 70
    32
  0
SEQEND
  8
W62LXLIFT
  0
POLYLINE
  8
W62LXLIFT
 62
7
 66
     1
 70
     9
  0
VERTEX
  8
W62LXLIFT
 62
7
 10
1634.184
 20
-8270.625
 30
-900.000
 70
    32
  0
VERTEX
  8
W62LXLIFT
 62
7
 10
1638.793
 20
-8266.319
 30
-900.000
 70
    32
  0
VERTEX
  8
W62LXLIFT
 62
7
 10
1640.048
 20
-8259.326
 30
-900.000
 70
    32
  0
VERTEX
  8
W62LXLIFT
 62
7
 10
1639.926
 20
-8253.436
 30
-900.000
 70
    32
  0
VERTEX
  8
W62LXLIFT
 62
7
 10
1636.526
 20
-8245.565
 30
-900.000
 70
    32
  0
VERTEX
  8
W62LXLIFT
 62
7
 10
1630.900
 20
-8233.105
 30
-900.000
 70
    32
  0
VERTEX
  8
W62LXLIFT
 62
7
 10
1638.696
 20
-8228.998
 30
-900.000
 70
    32
  0
VERTEX
  8
W62LXLIFT
 62
7
 10
1656.394
 20
-8256.221
 30
-900.000
 70
    32
  0
VERTEX
  8
W62LXLIFT
 62
7
 10
1661.075
 20
-8266.319
 30
-900.000
 70
    32
  0
VERTEX
  8
W62LXLIFT
 62
7
 10
1663.336
 20
-8277.731
 30
-900.000
 70
    32
  0
VERTEX
  8
W62LXLIFT
 62
7
 10
1663.599
 20
-8291.345
 30
-900.000
 70
    32
  0
VERTEX
  8
W62LXLIFT
 62
7
 10
1659.307
 20
-8301.509
 30
-900.000
 70
    32
  0
VERTEX
  8
W62LXLIFT
 62
7
 10
1655.689
 20
-8315.317
 30
-900.000
 70
    32
  0
VERTEX
  8
W62LXLIFT
 62
7
 10
1643.603
 20
-8311.977
 30
-900.000
 70
    32
  0
VERTEX
  8
W62LXLIFT
 62
7
 10
1644.494
 20
-8301.768
 30
-900.000
 70
    32
  0
VERTEX
  8
W62LXLIFT
 62
7
 10
1646.980
 20
-8293.017
 30
-900.000
 70
    32
  0
VERTEX
  8
W62LXLIFT
 62
7
 10
1636.273
 20
-8284.660
 30
-900.000
 70
    32
  0
SEQEND
  8
W62LXLIFT
  0
POLYLINE
  8
W62LXLIFT
 62
2
 66
     1
 70
     9
  0
VERTEX
  8
W62LXLIFT
 62
2
 10
1395.973
 20
-7230.646
 30
-888.000
 70
    32
  0
VERTEX
  8
W62LXLIFT
 62
2
 10
1395.566
 20
-7221.049
 30
-888.000
 70
    32
  0
VERTEX
  8
W62LXLIFT
 62
2
 10
1393.132
 20
-7205.633
 30
-888.000
 70
    32
  0
VERTEX
  8
W62LXLIFT
 62
2
 10
1384.162
 20
-7180.260
 30
-888.000
 70
    32
  0
VERTEX
  8
W62LXLIFT
 62
2
 10
1360.213
 20
-7130.377
 30
-888.000
 70
    32
  0
VERTEX
  8
W62LXLIFT
 62
2
 10
1358.856
 20
-7107.117
 30
-888.000
 70
    32
  0
VERTEX
  8
W62LXLIFT
 62
2
 10
1350.726
 20
-7089.834
 30
-888.000
 70
    32
  0
VERTEX
  8
W62LXLIFT
 62
2
 10
1337.551
 20
-7079.564
 30
-888.000
 70
    32
  0
VERTEX
  8
W62LXLIFT
 62
2
 10
1322.273
 20
-7058.855
 30
-888.000
 70
    32
  0
VERTEX
  8
W62LXLIFT
 62
2
 10
1295.907
 20
-7029.411
 30
-888.000
 70
    32
  0
VERTEX
  8
W62LXLIFT
 62
2
 10
1280.537
 20
-7038.986
 30
-888.000
 70
    32
  0
VERTEX
  8
W62LXLIFT
 62
2
 10
1294.807
 20
-7060.858
 30
-888.000
 70
    32
  0
VERTEX
  8
W62LXLIFT
 62
2
 10
1305.079
 20
-7080.507
 30
-888.000
 70
    32
  0
VERTEX
  8
W62LXLIFT
 62
2
 10
1317.065
 20
-7108.702
 30
-888.000
 70
    32
  0
VERTEX
  8
W62LXLIFT
 62
2
 10
1324.715
 20
-7122.309
 30
-888.000
 70
    32
  0
VERTEX
  8
W62LXLIFT
 62
2
 10
1335.342
 20
-7137.028
 30
-888.000
 70
    32
  0
VERTEX
  8
W62LXLIFT
 62
2
 10
1342.758
 20
-7148.957
 30
-888.000
 70
    32
  0
VERTEX
  8
W62LXLIFT
 62
2
 10
1360.316
 20
-7178.998
 30
-888.000
 70
    32
  0
VERTEX
  8
W62LXLIFT
 62
2
 10
1375.401
 20
-7210.281
 30
-888.000
 70
    32
  0
VERTEX
  8
W62LXLIFT
 62
2
 10
1378.443
 20
-7220.367
 30
-888.000
 70
    32
  0
VERTEX
  8
W62LXLIFT
 62
2
 10
1385.583
 20
-7226.191
 30
-888.000
 70
    32
  0
VERTEX
  8
W62LXLIFT
 62
2
 10
1390.626
 20
-7232.876
 30
-888.000
 70
    32
  0
SEQEND
  8
W62LXLIFT
  0
POLYLINE
  8
W62LXLIFT
 62
11
 66
     1
 70
     9
  0
VERTEX
  8
W62LXLIFT
 62
11
 10
1466.963
 20
-7945.808
 30
-892.000
 70
    32
  0
VERTEX
  8
W62LXLIFT
 62
11
 10
1478.070
 20
-7960.289
 30
-892.000
 70
    32
  0
VERTEX
  8
W62LXLIFT
 62
11
 10
1491.119
 20
-8014.347
 30
-892.000
 70
    32
  0
VERTEX
  8
W62LXLIFT
 62
11
 10
1490.095
 20
-8032.803
 30
-892.000
 70
    32
  0
VERTEX
  8
W62LXLIFT
 62
11
 10
1477.246
 20
-8040.449
 30
-892.000
 70
    32
  0
VERTEX
  8
W62LXLIFT
 62
11
 10
1471.690
 20
-8037.721
 30
-892.000
 70
    32
  0
VERTEX
  8
W62LXLIFT
 62
11
 10
1460.832
 20
-8025.995
 30
-892.000
 70
    32
  0
VERTEX
  8
W62LXLIFT
 62
11
 10
1450.711
 20
-8024.171
 30
-892.000
 70
    32
  0
VERTEX
  8
W62LXLIFT
 62
11
 10
1440.750
 20
-8017.450
 30
-892.000
 70
    32
  0
VERTEX
  8
W62LXLIFT
 62
11
 10
1431.968
 20
-8008.899
 30
-892.000
 70
    32
  0
VERTEX
  8
W62LXLIFT
 62
11
 10
1421.576
 20
-7993.902
 30
-892.000
 70
    32
  0
VERTEX
  8
W62LXLIFT
 62
11
 10
1417.023
 20
-7968.927
 30
-892.000
 70
    32
  0
VERTEX
  8
W62LXLIFT
 62
11
 10
1417.037
 20
-7957.504
 30
-892.000
 70
    32
  0
VERTEX
  8
W62LXLIFT
 62
11
 10
1416.502
 20
-7952.999
 30
-892.000
 70
    32
  0
VERTEX
  8
W62LXLIFT
 62
11
 10
1405.010
 20
-7939.339
 30
-892.000
 70
    32
  0
VERTEX
  8
W62LXLIFT
 62
11
 10
1402.762
 20
-7946.614
 30
-892.000
 70
    32
  0
VERTEX
  8
W62LXLIFT
 62
11
 10
1390.672
 20
-7972.626
 30
-892.000
 70
    32
  0
VERTEX
  8
W62LXLIFT
 62
11
 10
1379.444
 20
-7990.949
 30
-892.000
 70
    32
  0
VERTEX
  8
W62LXLIFT
 62
11
 10
1394.941
 20
-8004.435
 30
-892.000
 70
    32
  0
VERTEX
  8
W62LXLIFT
 62
11
 10
1404.092
 20
-8013.046
 30
-892.000
 70
    32
  0
VERTEX
  8
W62LXLIFT
 62
11
 10
1412.170
 20
-8034.171
 30
-892.000
 70
    32
  0
VERTEX
  8
W62LXLIFT
 62
11
 10
1419.972
 20
-8039.407
 30
-892.000
 70
    32
  0
VERTEX
  8
W62LXLIFT
 62
11
 10
1441.950
 20
-8058.105
 30
-892.000
 70
    32
  0
VERTEX
  8
W62LXLIFT
 62
11
 10
1454.178
 20
-8063.299
 30
-892.000
 70
    32
  0
VERTEX
  8
W62LXLIFT
 62
11
 10
1470.531
 20
-8061.710
 30
-892.000
 70
    32
  0
VERTEX
  8
W62LXLIFT
 62
11
 10
1485.332
 20
-8055.263
 30
-892.000
 70
    32
  0
VERTEX
  8
W62LXLIFT
 62
11
 10
1492.875
 20
-8049.601
 30
-892.000
 70
    32
  0
VERTEX
  8
W62LXLIFT
 62
11
 10
1501.762
 20
-8044.597
 30
-892.000
 70
    32
  0
VERTEX
  8
W62LXLIFT
 62
11
 10
1513.623
 20
-8039.947
 30
-892.000
 70
    32
  0
VERTEX
  8
W62LXLIFT
 62
11
 10
1529.684
 20
-8029.222
 30
-892.000
 70
    32
  0
VERTEX
  8
W62LXLIFT
 62
11
 10
1549.533
 20
-8007.935
 30
-892.000
 70
    32
  0
VERTEX
  8
W62LXLIFT
 62
11
 10
1545.572
 20
-7984.382
 30
-892.000
 70
    32
  0
VERTEX
  8
W62LXLIFT
 62
11
 10
1521.712
 20
-7970.303
 30
-892.000
 70
    32
  0
VERTEX
  8
W62LXLIFT
 62
11
 10
1511.624
 20
-7964.760
 30
-892.000
 70
    32
  0
VERTEX
  8
W62LXLIFT
 62
11
 10
1506.798
 20
-7960.636
 30
-892.000
 70
    32
  0
VERTEX
  8
W62LXLIFT
 62
11
 10
1497.802
 20
-7950.283
 30
-892.000
 70
    32
  0
VERTEX
  8
W62LXLIFT
 62
11
 10
1492.582
 20
-7953.290
 30
-892.000
 70
    32
  0
VERTEX
  8
W62LXLIFT
 62
11
 10
1487.391
 20
-7951.821
 30
-892.000
 70
    32
  0
VERTEX
  8
W62LXLIFT
 62
11
 10
1475.728
 20
-7938.828
 30
-892.000
 70
    32
  0
SEQEND
  8
W62LXLIFT
  0
POLYLINE
  8
W62LXLIFT
 62
2
 66
     1
 70
     9
  0
VERTEX
  8
W62LXLIFT
 62
2
 10
1562.463
 20
-8220.665
 30
-892.000
 70
    32
  0
VERTEX
  8
W62LXLIFT
 62
2
 10
1554.929
 20
-8225.887
 30
-892.000
 70
    32
  0
VERTEX
  8
W62LXLIFT
 62
2
 10
1550.905
 20
-8220.314
 30
-892.000
 70
    32
  0
VERTEX
  8
W62LXLIFT
 62
2
 10
1547.155
 20
-8216.174
 30
-892.000
 70
    32
  0
VERTEX
  8
W62LXLIFT
 62
2
 10
1537.681
 20
-8212.687
 30
-892.000
 70
    32
  0
VERTEX
  8
W62LXLIFT
 62
2
 10
1537.564
 20
-8201.685
 30
-892.000
 70
    32
  0
VERTEX
  8
W62LXLIFT
 62
2
 10
1535.330
 20
-8199.493
 30
-892.000
 70
    32
  0
VERTEX
  8
W62LXLIFT
 62
2
 10
1521.081
 20
-8173.585
 30
-892.000
 70
    32
  0
VERTEX
  8
W62LXLIFT
 62
2
 10
1516.699
 20
-8155.770
 30
-892.000
 70
    32
  0
VERTEX
  8
W62LXLIFT
 62
2
 10
1517.839
 20
-8150.273
 30
-892.000
 70
    32
  0
VERTEX
  8
W62LXLIFT
 62
2
 10
1523.996
 20
-8144.198
 30
-892.000
 70
    32
  0
VERTEX
  8
W62LXLIFT
 62
2
 10
1529.210
 20
-8150.216
 30
-892.000
 70
    32
  0
VERTEX
  8
W62LXLIFT
 62
2
 10
1535.015
 20
-8161.569
 30
-892.000
 70
    32
  0
VERTEX
  8
W62LXLIFT
 62
2
 10
1560.489
 20
-8182.851
 30
-892.000
 70
    32
  0
VERTEX
  8
W62LXLIFT
 62
2
 10
1561.201
 20
-8194.076
 30
-892.000
 70
    32
  0
VERTEX
  8
W62LXLIFT
 62
2
 10
1568.618
 20
-8202.091
 30
-892.000
 70
    32
  0
VERTEX
  8
W62LXLIFT
 62
2
 10
1568.887
 20
-8208.636
 30
-892.000
 70
    32
  0
VERTEX
  8
W62LXLIFT
 62
2
 10
1569.985
 20
-8215.126
 30
-892.000
 70
    32
  0
SEQEND
  8
W62LXLIFT
  0
POLYLINE
  8
W62LXLIFT
 62
2
 66
     1
 70
     9
  0
VERTEX
  8
W62LXLIFT
 62
2
 10
1412.928
 20
-7241.024
 30
-880.000
 70
    32
  0
VERTEX
  8
W62LXLIFT
 62
2
 10
1409.291
 20
-7232.137
 30
-880.000
 70
    32
  0
VERTEX
  8
W62LXLIFT
 62
2
 10
1400.307
 20
-7201.245
 30
-880.000
 70
    32
  0
VERTEX
  8
W62LXLIFT
 62
2
 10
1390.051
 20
-7179.222
 30
-880.000
 70
    32
  0
VERTEX
  8
W62LXLIFT
 62
2
 10
1378.169
 20
-7146.740
 30
-880.000
 70
    32
  0
VERTEX
  8
W62LXLIFT
 62
2
 10
1365.973
 20
-7129.827
 30
-880.000
 70
    32
  0
VERTEX
  8
W62LXLIFT
 62
2
 10
1361.557
 20
-7107.906
 30
-880.000
 70
    32
  0
VERTEX
  8
W62LXLIFT
 62
2
 10
1342.756
 20
-7090.141
 30
-880.000
 70
    32
  0
VERTEX
  8
W62LXLIFT
 62
2
 10
1321.774
 20
-7060.255
 30
-880.000
 70
    32
  0
VERTEX
  8
W62LXLIFT
 62
2
 10
1317.323
 20
-7060.120
 30
-880.000
 70
    32
  0
VERTEX
  8
W62LXLIFT
 62
2
 10
1307.904
 20
-7053.155
 30
-880.000
 70
    32
  0
VERTEX
  8
W62LXLIFT
 62
2
 10
1305.843
 20
-7065.426
 30
-880.000
 70
    32
  0
VERTEX
  8
W62LXLIFT
 62
2
 10
1313.026
 20
-7084.571
 30
-880.000
 70
    32
  0
VERTEX
  8
W62LXLIFT
 62
2
 10
1329.066
 20
-7108.262
 30
-880.000
 70
    32
  0
VERTEX
  8
W62LXLIFT
 62
2
 10
1338.926
 20
-7120.020
 30
-880.000
 70
    32
  0
VERTEX
  8
W62LXLIFT
 62
2
 10
1356.494
 20
-7151.194
 30
-880.000
 70
    32
  0
VERTEX
  8
W62LXLIFT
 62
2
 10
1376.294
 20
-7188.578
 30
-880.000
 70
    32
  0
VERTEX
  8
W62LXLIFT
 62
2
 10
1387.418
 20
-7211.494
 30
-880.000
 70
    32
  0
VERTEX
  8
W62LXLIFT
 62
2
 10
1395.533
 20
-7230.723
 30
-880.000
 70
    32
  0
VERTEX
  8
W62LXLIFT
 62
2
 10
1404.164
 20
-7243.483
 30
-880.000
 70
    32
  0
SEQEND
  8
W62LXLIFT
  0
POLYLINE
  8
W62LXLIFT
 62
11
 66
     1
 70
     9
  0
VERTEX
  8
W62LXLIFT
 62
11
 10
1496.593
 20
-7974.082
 30
-883.000
 70
    32
  0
VERTEX
  8
W62LXLIFT
 62
11
 10
1507.989
 20
-8003.653
 30
-883.000
 70
    32
  0
VERTEX
  8
W62LXLIFT
 62
11
 10
1511.754
 20
-8038.886
 30
-883.000
 70
    32
  0
VERTEX
  8
W62LXLIFT
 62
11
 10
1508.800
 20
-8049.631
 30
-883.000
 70
    32
  0
VERTEX
  8
W62LXLIFT
 62
11
 10
1502.125
 20
-8053.616
 30
-883.000
 70
    32
  0
VERTEX
  8
W62LXLIFT
 62
11
 10
1486.090
 20
-8052.662
 30
-883.000
 70
    32
  0
VERTEX
  8
W62LXLIFT
 62
11
 10
1478.320
 20
-8048.414
 30
-883.000
 70
    32
  0
VERTEX
  8
W62LXLIFT
 62
11
 10
1466.933
 20
-8033.959
 30
-883.000
 70
    32
  0
VERTEX
  8
W62LXLIFT
 62
11
 10
1458.722
 20
-8018.934
 30
-883.000
 70
    32
  0
VERTEX
  8
W62LXLIFT
 62
11
 10
1450.387
 20
-7997.907
 30
-883.000
 70
    32
  0
VERTEX
  8
W62LXLIFT
 62
11
 10
1439.721
 20
-7968.892
 30
-883.000
 70
    32
  0
VERTEX
  8
W62LXLIFT
 62
11
 10
1434.125
 20
-7960.451
 30
-883.000
 70
    32
  0
VERTEX
  8
W62LXLIFT
 62
11
 10
1420.717
 20
-7968.792
 30
-883.000
 70
    32
  0
VERTEX
  8
W62LXLIFT
 62
11
 10
1410.841
 20
-7973.910
 30
-883.000
 70
    32
  0
VERTEX
  8
W62LXLIFT
 62
11
 10
1406.515
 20
-7984.564
 30
-883.000
 70
    32
  0
VERTEX
  8
W62LXLIFT
 62
11
 10
1403.975
 20
-7995.878
 30
-883.000
 70
    32
  0
VERTEX
  8
W62LXLIFT
 62
11
 10
1406.933
 20
-8006.673
 30
-883.000
 70
    32
  0
VERTEX
  8
W62LXLIFT
 62
11
 10
1413.022
 20
-8015.191
 30
-883.000
 70
    32
  0
VERTEX
  8
W62LXLIFT
 62
11
 10
1423.075
 20
-8022.130
 30
-883.000
 70
    32
  0
VERTEX
  8
W62LXLIFT
 62
11
 10
1427.630
 20
-8027.194
 30
-883.000
 70
    32
  0
VERTEX
  8
W62LXLIFT
 62
11
 10
1430.867
 20
-8040.615
 30
-883.000
 70
    32
  0
VERTEX
  8
W62LXLIFT
 62
11
 10
1433.358
 20
-8048.377
 30
-883.000
 70
    32
  0
VERTEX
  8
W62LXLIFT
 62
11
 10
1444.701
 20
-8067.107
 30
-883.000
 70
    32
  0
VERTEX
  8
W62LXLIFT
 62
11
 10
1454.845
 20
-8077.461
 30
-883.000
 70
    32
  0
VERTEX
  8
W62LXLIFT
 62
11
 10
1466.942
 20
-8081.825
 30
-883.000
 70
    32
  0
VERTEX
  8
W62LXLIFT
 62
11
 10
1484.951
 20
-8086.240
 30
-883.000
 70
    32
  0
VERTEX
  8
W62LXLIFT
 62
11
 10
1491.653
 20
-8086.478
 30
-883.000
 70
    32
  0
VERTEX
  8
W62LXLIFT
 62
11
 10
1536.448
 20
-8058.021
 30
-883.000
 70
    32
  0
VERTEX
  8
W62LXLIFT
 62
11
 10
1561.807
 20
-8038.592
 30
-883.000
 70
    32
  0
VERTEX
  8
W62LXLIFT
 62
11
 10
1572.082
 20
-8025.349
 30
-883.000
 70
    32
  0
VERTEX
  8
W62LXLIFT
 62
11
 10
1567.572
 20
-8013.616
 30
-883.000
 70
    32
  0
VERTEX
  8
W62LXLIFT
 62
11
 10
1552.362
 20
-8000.637
 30
-883.000
 70
    32
  0
VERTEX
  8
W62LXLIFT
 62
11
 10
1552.362
 20
-8000.637
 30
-883.000
 70
    32
  0
VERTEX
  8
W62LXLIFT
 62
11
 10
1540.860
 20
-7991.706
 30
-883.000
 70
    32
  0
VERTEX
  8
W62LXLIFT
 62
11
 10
1530.886
 20
-7996.243
 30
-883.000
 70
    32
  0
VERTEX
  8
W62LXLIFT
 62
11
 10
1526.414
 20
-7985.460
 30
-883.000
 70
    32
  0
VERTEX
  8
W62LXLIFT
 62
11
 10
1515.618
 20
-7980.042
 30
-883.000
 70
    32
  0
VERTEX
  8
W62LXLIFT
 62
11
 10
1511.147
 20
-7977.637
 30
-883.000
 70
    32
  0
VERTEX
  8
W62LXLIFT
 62
11
 10
1503.164
 20
-7969.954
 30
-883.000
 70
    32
  0
SEQEND
  8
W62LXLIFT
  0
POLYLINE
  8
W62LXLIFT
 62
6
 66
     1
 70
     9
  0
VERTEX
  8
W62LXLIFT
 62
6
 10
1569.927
 20
-8018.648
 30
-884.000
 70
    32
  0
VERTEX
  8
W62LXLIFT
 62
6
 10
1572.186
 20
-8025.491
 30
-884.000
 70
    32
  0
VERTEX
  8
W62LXLIFT
 62
6
 10
1568.888
 20
-8032.025
 30
-884.000
 70
    32
  0
VERTEX
  8
W62LXLIFT
 62
6
 10
1551.388
 20
-8048.348
 30
-884.000
 70
    32
  0
VERTEX
  8
W62LXLIFT
 62
6
 10
1555.737
 20
-8061.504
 30
-884.000
 70
    32
  0
VERTEX
  8
W62LXLIFT
 62
6
 10
1548.444
 20
-8077.800
 30
-884.000
 70
    32
  0
VERTEX
  8
W62LXLIFT
 62
6
 10
1538.505
 20
-8093.300
 30
-884.000
 70
    32
  0
VERTEX
  8
W62LXLIFT
 62
6
 10
1526.844
 20
-8106.135
 30
-884.000
 70
    32
  0
VERTEX
  8
W62LXLIFT
 62
6
 10
1510.301
 20
-8118.390
 30
-884.000
 70
    32
  0
VERTEX
  8
W62LXLIFT
 62
6
 10
1503.315
 20
-8119.555
 30
-884.000
 70
    32
  0
VERTEX
  8
W62LXLIFT
 62
6
 10
1495.422
 20
-8114.091
 30
-884.000
 70
    32
  0
VERTEX
  8
W62LXLIFT
 62
6
 10
1481.904
 20
-8116.746
 30
-884.000
 70
    32
  0
VERTEX
  8
W62LXLIFT
 62
6
 10
1478.955
 20
-8123.460
 30
-884.000
 70
    32
  0
VERTEX
  8
W62LXLIFT
 62
6
 10
1471.525
 20
-8131.043
 30
-884.000
 70
    32
  0
VERTEX
  8
W62LXLIFT
 62
6
 10
1464.871
 20
-8143.282
 30
-884.000
 70
    32
  0
VERTEX
  8
W62LXLIFT
 62
6
 10
1469.427
 20
-8153.133
 30
-884.000
 70
    32
  0
VERTEX
  8
W62LXLIFT
 62
6
 10
1480.817
 20
-8152.788
 30
-884.000
 70
    32
  0
VERTEX
  8
W62LXLIFT
 62
6
 10
1490.929
 20
-8158.161
 30
-884.000
 70
    32
  0
VERTEX
  8
W62LXLIFT
 62
6
 10
1508.000
 20
-8164.128
 30
-884.000
 70
    32
  0
VERTEX
  8
W62LXLIFT
 62
6
 10
1514.314
 20
-8168.021
 30
-884.000
 70
    32
  0
VERTEX
  8
W62LXLIFT
 62
6
 10
1521.817
 20
-8168.764
 30
-884.000
 70
    32
  0
VERTEX
  8
W62LXLIFT
 62
6
 10
1524.268
 20
-8162.411
 30
-884.000
 70
    32
  0
VERTEX
  8
W62LXLIFT
 62
6
 10
1517.589
 20
-8144.857
 30
-884.000
 70
    32
  0
VERTEX
  8
W62LXLIFT
 62
6
 10
1518.908
 20
-8141.286
 30
-884.000
 70
    32
  0
VERTEX
  8
W62LXLIFT
 62
6
 10
1530.258
 20
-8129.221
 30
-884.000
 70
    32
  0
VERTEX
  8
W62LXLIFT
 62
6
 10
1536.485
 20
-8118.488
 30
-884.000
 70
    32
  0
VERTEX
  8
W62LXLIFT
 62
6
 10
1543.768
 20
-8116.236
 30
-884.000
 70
    32
  0
VERTEX
  8
W62LXLIFT
 62
6
 10
1553.915
 20
-8108.200
 30
-884.000
 70
    32
  0
VERTEX
  8
W62LXLIFT
 62
6
 10
1567.654
 20
-8106.147
 30
-884.000
 70
    32
  0
VERTEX
  8
W62LXLIFT
 62
6
 10
1568.526
 20
-8098.223
 30
-884.000
 70
    32
  0
VERTEX
  8
W62LXLIFT
 62
6
 10
1577.844
 20
-8084.263
 30
-884.000
 70
    32
  0
VERTEX
  8
W62LXLIFT
 62
6
 10
1581.498
 20
-8045.917
 30
-884.000
 70
    32
  0
VERTEX
  8
W62LXLIFT
 62
6
 10
1586.607
 20
-8043.070
 30
-884.000
 70
    32
  0
VERTEX
  8
W62LXLIFT
 62
6
 10
1586.171
 20
-8025.870
 30
-884.000
 70
    32
  0
SEQEND
  8
W62LXLIFT
  0
POLYLINE
  8
W62LXLIFT
 62
1
 66
     1
 70
     9
  0
VERTEX
  8
W62LXLIFT
 62
1
 10
1587.171
 20
-8024.870
 30
-874.000
 70
    32
  0
VERTEX
  8
W62LXLIFT
 62
1
 10
1587.607
 20
-8042.070
 30
-874.000
 70
    32
  0
VERTEX
  8
W62LXLIFT
 62
1
 10
1582.498
 20
-8044.917
 30
-874.000
 70
    32
  0
VERTEX
  8
W62LXLIFT
 62
1
 10
1578.844
 20
-8083.263
 30
-874.000
 70
    32
  0
VERTEX
  8
W62LXLIFT
 62
1
 10
1569.526
 20
-8097.223
 30
-874.000
 70
    32
  0
VERTEX
  8
W62LXLIFT
 62
1
 10
1568.654
 20
-8105.147
 30
-874.000
 70
    32
  0
VERTEX
  8
W62LXLIFT
 62
1
 10
1554.915
 20
-8107.200
 30
-874.000
 70
    32
  0
VERTEX
  8
W62LXLIFT
 62
1
 10
1544.768
 20
-8115.236
 30
-874.000
 70
    32
  0
VERTEX
  8
W62LXLIFT
 62
1
 10
1537.485
 20
-8117.488
 30
-874.000
 70
    32
  0
VERTEX
  8
W62LXLIFT
 62
1
 10
1531.258
 20
-8128.221
 30
-874.000
 70
    32
  0
VERTEX
  8
W62LXLIFT
 62
1
 10
1519.908
 20
-8140.286
 30
-874.000
 70
    32
  0
VERTEX
  8
W62LXLIFT
 62
1
 10
1518.589
 20
-8143.857
 30
-874.000
 70
    32
  0
VERTEX
  8
W62LXLIFT
 62
1
 10
1525.268
 20
-8161.411
 30
-874.000
 70
    32
  0
VERTEX
  8
W62LXLIFT
 62
1
 10
1522.817
 20
-8167.764
 30
-874.000
 70
    32
  0
VERTEX
  8
W62LXLIFT
 62
1
 10
1515.314
 20
-8167.021
 30
-874.000
 70
    32
  0
VERTEX
  8
W62LXLIFT
 62
1
 10
1509.000
 20
-8163.128
 30
-874.000
 70
    32
  0
VERTEX
  8
W62LXLIFT
 62
1
 10
1491.929
 20
-8157.161
 30
-874.000
 70
    32
  0
VERTEX
  8
W62LXLIFT
 62
1
 10
1481.817
 20
-8151.788
 30
-874.000
 70
    32
  0
VERTEX
  8
W62LXLIFT
 62
1
 10
1470.427
 20
-8152.133
 30
-874.000
 70
    32
  0
VERTEX
  8
W62LXLIFT
 62
1
 10
1465.871
 20
-8142.282
 30
-874.000
 70
    32
  0
VERTEX
  8
W62LXLIFT
 62
1
 10
1472.525
 20
-8130.043
 30
-874.000
 70
    32
  0
VERTEX
  8
W62LXLIFT
 62
1
 10
1479.955
 20
-8122.460
 30
-874.000
 70
    32
  0
VERTEX
  8
W62LXLIFT
 62
1
 10
1482.904
 20
-8115.746
 30
-874.000
 70
    32
  0
VERTEX
  8
W62LXLIFT
 62
1
 10
1496.422
 20
-8113.091
 30
-874.000
 70
    32
  0
VERTEX
  8
W62LXLIFT
 62
1
 10
1504.315
 20
-8118.555
 30
-874.000
 70
    32
  0
VERTEX
  8
W62LXLIFT
 62
1
 10
1511.301
 20
-8117.390
 30
-874.000
 70
    32
  0
VERTEX
  8
W62LXLIFT
 62
1
 10
1527.844
 20
-8105.135
 30
-874.000
 70
    32
  0
VERTEX
  8
W62LXLIFT
 62
1
 10
1539.505
 20
-8092.300
 30
-874.000
 70
    32
  0
VERTEX
  8
W62LXLIFT
 62
1
 10
1549.444
 20
-8076.800
 30
-874.000
 70
    32
  0
VERTEX
  8
W62LXLIFT
 62
1
 10
1556.737
 20
-8060.504
 30
-874.000
 70
    32
  0
VERTEX
  8
W62LXLIFT
 62
1
 10
1552.388
 20
-8047.348
 30
-874.000
 70
    32
  0
VERTEX
  8
W62LXLIFT
 62
1
 10
1569.888
 20
-8031.025
 30
-874.000
 70
    32
  0
VERTEX
  8
W62LXLIFT
 62
1
 10
1573.186
 20
-8024.491
 30
-874.000
 70
    32
  0
VERTEX
  8
W62LXLIFT
 62
1
 10
1570.927
 20
-8017.648
 30
-874.000
 70
    32
  0
SEQEND
  8
W62LXLIFT
  0
POLYLINE
  8
W62LXLIFT
 62
2
 66
     1
 70
     9
  0
VERTEX
  8
W62LXLIFT
 62
2
 10
1295.782
 20
-7046.582
 30
-867.000
 70
    32
  0
VERTEX
  8
W62LXLIFT
 62
2
 10
1294.035
 20
-7053.180
 30
-867.000
 70
    32
  0
VERTEX
  8
W62LXLIFT
 62
2
 10
1303.011
 20
-7077.578
 30
-867.000
 70
    32
  0
VERTEX
  8
W62LXLIFT
 62
2
 10
1315.324
 20
-7101.626
 30
-867.000
 70
    32
  0
VERTEX
  8
W62LXLIFT
 62
2
 10
1331.408
 20
-7113.909
 30
-867.000
 70
    32
  0
VERTEX
  8
W62LXLIFT
 62
2
 10
1349.067
 20
-7155.845
 30
-867.000
 70
    32
  0
VERTEX
  8
W62LXLIFT
 62
2
 10
1361.620
 20
-7183.527
 30
-867.000
 70
    32
  0
VERTEX
  8
W62LXLIFT
 62
2
 10
1371.123
 20
-7202.646
 30
-867.000
 70
    32
  0
VERTEX
  8
W62LXLIFT
 62
2
 10
1389.538
 20
-7238.267
 30
-867.000
 70
    32
  0
VERTEX
  8
W62LXLIFT
 62
2
 10
1393.524
 20
-7241.364
 30
-867.000
 70
    32
  0
VERTEX
  8
W62LXLIFT
 62
2
 10
1398.816
 20
-7237.855
 30
-867.000
 70
    32
  0
VERTEX
  8
W62LXLIFT
 62
2
 10
1401.224
 20
-7223.161
 30
-867.000
 70
    32
  0
VERTEX
  8
W62LXLIFT
 62
2
 10
1394.695
 20
-7215.052
 30
-867.000
 70
    32
  0
VERTEX
  8
W62LXLIFT
 62
2
 10
1386.925
 20
-7190.216
 30
-867.000
 70
    32
  0
VERTEX
  8
W62LXLIFT
 62
2
 10
1379.620
 20
-7169.176
 30
-867.000
 70
    32
  0
VERTEX
  8
W62LXLIFT
 62
2
 10
1370.669
 20
-7145.413
 30
-867.000
 70
    32
  0
VERTEX
  8
W62LXLIFT
 62
2
 10
1364.895
 20
-7123.482
 30
-867.000
 70
    32
  0
VERTEX
  8
W62LXLIFT
 62
2
 10
1341.727
 20
-7090.761
 30
-867.000
 70
    32
  0
VERTEX
  8
W62LXLIFT
 62
2
 10
1315.791
 20
-7059.177
 30
-867.000
 70
    32
  0
VERTEX
  8
W62LXLIFT
 62
2
 10
1305.824
 20
-7050.078
 30
-867.000
 70
    32
  0
VERTEX
  8
W62LXLIFT
 62
2
 10
1301.382
 20
-7044.700
 30
-867.000
 70
    32
  0
SEQEND
  8
W62LXLIFT
  0
POLYLINE
  8
W62LXLIFT
 62
13
 66
     1
 70
     9
  0
VERTEX
  8
W62LXLIFT
 62
13
 10
1420.252
 20
-7433.201
 30
-886.000
 70
    32
  0
VERTEX
  8
W62LXLIFT
 62
13
 10
1414.811
 20
-7425.393
 30
-886.000
 70
    32
  0
VERTEX
  8
W62LXLIFT
 62
13
 10
1401.189
 20
-7413.502
 30
-886.000
 70
    32
  0
VERTEX
  8
W62LXLIFT
 62
13
 10
1394.916
 20
-7399.441
 30
-886.000
 70
    32
  0
VERTEX
  8
W62LXLIFT
 62
13
 10
1394.426
 20
-7393.811
 30
-886.000
 70
    32
  0
VERTEX
  8
W62LXLIFT
 62
13
 10
1394.418
 20
-7383.588
 30
-886.000
 70
    32
  0
VERTEX
  8
W62LXLIFT
 62
13
 10
1391.618
 20
-7372.668
 30
-886.000
 70
    32
  0
VERTEX
  8
W62LXLIFT
 62
13
 10
1385.714
 20
-7358.666
 30
-886.000
 70
    32
  0
VERTEX
  8
W62LXLIFT
 62
13
 10
1376.930
 20
-7347.295
 30
-886.000
 70
    32
  0
VERTEX
  8
W62LXLIFT
 62
13
 10
1393.754
 20
-7339.129
 30
-886.000
 70
    32
  0
VERTEX
  8
W62LXLIFT
 62
13
 10
1399.621
 20
-7340.318
 30
-886.000
 70
    32
  0
VERTEX
  8
W62LXLIFT
 62
13
 10
1407.748
 20
-7342.372
 30
-886.000
 70
    32
  0
VERTEX
  8
W62LXLIFT
 62
13
 10
1409.005
 20
-7349.513
 30
-886.000
 70
    32
  0
VERTEX
  8
W62LXLIFT
 62
13
 10
1410.636
 20
-7354.316
 30
-886.000
 70
    32
  0
VERTEX
  8
W62LXLIFT
 62
13
 10
1411.661
 20
-7364.890
 30
-886.000
 70
    32
  0
VERTEX
  8
W62LXLIFT
 62
13
 10
1409.174
 20
-7372.568
 30
-886.000
 70
    32
  0
VERTEX
  8
W62LXLIFT
 62
13
 10
1411.135
 20
-7385.184
 30
-886.000
 70
    32
  0
VERTEX
  8
W62LXLIFT
 62
13
 10
1412.956
 20
-7392.352
 30
-886.000
 70
    32
  0
VERTEX
  8
W62LXLIFT
 62
13
 10
1419.509
 20
-7405.448
 30
-886.000
 70
    32
  0
VERTEX
  8
W62LXLIFT
 62
13
 10
1424.858
 20
-7417.785
 30
-886.000
 70
    32
  0
SEQEND
  8
W62LXLIFT
  0
POLYLINE
  8
W62LXLIFT
 62
1
 66
     1
 70
     9
  0
VERTEX
  8
W62LXLIFT
 62
1
 10
1421.252
 20
-7432.201
 30
-873.000
 70
    32
  0
VERTEX
  8
W62LXLIFT
 62
1
 10
1415.811
 20
-7424.393
 30
-873.000
 70
    32
  0
VERTEX
  8
W62LXLIFT
 62
1
 10
1402.189
 20
-7412.502
 30
-873.000
 70
    32
  0
VERTEX
  8
W62LXLIFT
 62
1
 10
1395.916
 20
-7398.441
 30
-873.000
 70
    32
  0
VERTEX
  8
W62LXLIFT
 62
1
 10
1395.426
 20
-7392.811
 30
-873.000
 70
    32
  0
VERTEX
  8
W62LXLIFT
 62
1
 10
1395.418
 20
-7382.588
 30
-873.000
 70
    32
  0
VERTEX
  8
W62LXLIFT
 62
1
 10
1392.618
 20
-7371.668
 30
-873.000
 70
    32
  0
VERTEX
  8
W62LXLIFT
 62
1
 10
1386.714
 20
-7357.666
 30
-873.000
 70
    32
  0
VERTEX
  8
W62LXLIFT
 62
1
 10
1377.930
 20
-7346.295
 30
-873.000
 70
    32
  0
VERTEX
  8
W62LXLIFT
 62
1
 10
1394.754
 20
-7338.129
 30
-873.000
 70
    32
  0
VERTEX
  8
W62LXLIFT
 62
1
 10
1400.621
 20
-7339.318
 30
-873.000
 70
    32
  0
VERTEX
  8
W62LXLIFT
 62
1
 10
1408.748
 20
-7341.372
 30
-873.000
 70
    32
  0
VERTEX
  8
W62LXLIFT
 62
1
 10
1410.005
 20
-7348.513
 30
-873.000
 70
    32
  0
VERTEX
  8
W62LXLIFT
 62
1
 10
1411.636
 20
-7353.316
 30
-873.000
 70
    32
  0
VERTEX
  8
W62LXLIFT
 62
1
 10
1412.661
 20
-7363.890
 30
-873.000
 70
    32
  0
VERTEX
  8
W62LXLIFT
 62
1
 10
1410.174
 20
-7371.568
 30
-873.000
 70
    32
  0
VERTEX
  8
W62LXLIFT
 62
1
 10
1412.135
 20
-7384.184
 30
-873.000
 70
    32
  0
VERTEX
  8
W62LXLIFT
 62
1
 10
1413.956
 20
-7391.352
 30
-873.000
 70
    32
  0
VERTEX
  8
W62LXLIFT
 62
1
 10
1420.509
 20
-7404.448
 30
-873.000
 70
    32
  0
VERTEX
  8
W62LXLIFT
 62
1
 10
1425.858
 20
-7416.785
 30
-873.000
 70
    32
  0
SEQEND
  8
W62LXLIFT
  0
POLYLINE
  8
W62LXLIFT
 62
13
 66
     1
 70
     9
  0
VERTEX
  8
W62LXLIFT
 62
13
 10
1466.411
 20
-8208.455
 30
-883.000
 70
    32
  0
VERTEX
  8
W62LXLIFT
 62
13
 10
1465.544
 20
-8200.052
 30
-883.000
 70
    32
  0
VERTEX
  8
W62LXLIFT
 62
13
 10
1469.917
 20
-8195.577
 30
-883.000
 70
    32
  0
VERTEX
  8
W62LXLIFT
 62
13
 10
1480.020
 20
-8197.505
 30
-883.000
 70
    32
  0
VERTEX
  8
W62LXLIFT
 62
13
 10
1487.399
 20
-8201.080
 30
-883.000
 70
    32
  0
VERTEX
  8
W62LXLIFT
 62
13
 10
1492.584
 20
-8214.841
 30
-883.000
 70
    32
  0
VERTEX
  8
W62LXLIFT
 62
13
 10
1490.717
 20
-8223.376
 30
-883.000
 70
    32
  0
VERTEX
  8
W62LXLIFT
 62
13
 10
1504.171
 20
-8258.458
 30
-883.000
 70
    32
  0
VERTEX
  8
W62LXLIFT
 62
13
 10
1495.753
 20
-8260.205
 30
-883.000
 70
    32
  0
VERTEX
  8
W62LXLIFT
 62
13
 10
1486.710
 20
-8255.986
 30
-883.000
 70
    32
  0
VERTEX
  8
W62LXLIFT
 62
13
 10
1483.028
 20
-8246.250
 30
-883.000
 70
    32
  0
VERTEX
  8
W62LXLIFT
 62
13
 10
1480.165
 20
-8238.096
 30
-883.000
 70
    32
  0
VERTEX
  8
W62LXLIFT
 62
13
 10
1467.667
 20
-8219.949
 30
-883.000
 70
    32
  0
SEQEND
  8
W62LXLIFT
  0
POLYLINE
  8
W62LXLIFT
 62
1
 66
     1
 70
     9
  0
VERTEX
  8
W62LXLIFT
 62
1
 10
1415.003
 20
-7910.165
 30
-929.000
 70
    32
  0
VERTEX
  8
W62LXLIFT
 62
1
 10
1421.036
 20
-7913.727
 30
-929.000
 70
    32
  0
VERTEX
  8
W62LXLIFT
 62
1
 10
1429.001
 20
-7912.754
 30
-929.000
 70
    32
  0
VERTEX
  8
W62LXLIFT
 62
1
 10
1434.764
 20
-7910.227
 30
-929.000
 70
    32
  0
VERTEX
  8
W62LXLIFT
 62
1
 10
1439.647
 20
-7907.683
 30
-929.000
 70
    32
  0
VERTEX
  8
W62LXLIFT
 62
1
 10
1445.101
 20
-7912.095
 30
-929.000
 70
    32
  0
VERTEX
  8
W62LXLIFT
 62
1
 10
1451.636
 20
-7916.053
 30
-929.000
 70
    32
  0
VERTEX
  8
W62LXLIFT
 62
1
 10
1453.843
 20
-7921.071
 30
-929.000
 70
    32
  0
VERTEX
  8
W62LXLIFT
 62
1
 10
1454.729
 20
-7932.675
 30
-929.000
 70
    32
  0
VERTEX
  8
W62LXLIFT
 62
1
 10
1463.611
 20
-7943.499
 30
-929.000
 70
    32
  0
VERTEX
  8
W62LXLIFT
 62
1
 10
1468.952
 20
-7960.234
 30
-929.000
 70
    32
  0
VERTEX
  8
W62LXLIFT
 62
1
 10
1476.619
 20
-7988.617
 30
-929.000
 70
    32
  0
VERTEX
  8
W62LXLIFT
 62
1
 10
1487.792
 20
-8012.092
 30
-929.000
 70
    32
  0
VERTEX
  8
W62LXLIFT
 62
1
 10
1486.512
 20
-8023.847
 30
-929.000
 70
    32
  0
VERTEX
  8
W62LXLIFT
 62
1
 10
1470.063
 20
-8031.690
 30
-929.000
 70
    32
  0
VERTEX
  8
W62LXLIFT
 62
1
 10
1455.840
 20
-8031.646
 30
-929.000
 70
    32
  0
VERTEX
  8
W62LXLIFT
 62
1
 10
1449.164
 20
-8023.132
 30
-929.000
 70
    32
  0
VERTEX
  8
W62LXLIFT
 62
1
 10
1434.262
 20
-8014.478
 30
-929.000
 70
    32
  0
VERTEX
  8
W62LXLIFT
 62
1
 10
1423.921
 20
-7994.412
 30
-929.000
 70
    32
  0
VERTEX
  8
W62LXLIFT
 62
1
 10
1420.402
 20
-7990.881
 30
-929.000
 70
    32
  0
VERTEX
  8
W62LXLIFT
 62
1
 10
1419.311
 20
-7968.918
 30
-929.000
 70
    32
  0
VERTEX
  8
W62LXLIFT
 62
1
 10
1414.769
 20
-7962.766
 30
-929.000
 70
    32
  0
VERTEX
  8
W62LXLIFT
 62
1
 10
1407.114
 20
-7919.966
 30
-929.000
 70
    32
  0
VERTEX
  8
W62LXLIFT
 62
1
 10
1406.402
 20
-7913.113
 30
-929.000
 70
    32
  0
SEQEND
  8
W62LXLIFT
  0
POLYLINE
  8
W62LXLIFT
 62
1
 66
     1
 70
     9
  0
VERTEX
  8
W62LXLIFT
 62
1
 10
1635.184
 20
-8269.625
 30
-890.000
 70
    32
  0
VERTEX
  8
W62LXLIFT
 62
1
 10
1639.793
 20
-8265.319
 30
-890.000
 70
    32
  0
VERTEX
  8
W62LXLIFT
 62
1
 10
1641.048
 20
-8258.326
 30
-890.000
 70
    32
  0
VERTEX
  8
W62LXLIFT
 62
1
 10
1640.926
 20
-8252.436
 30
-890.000
 70
    32
  0
VERTEX
  8
W62LXLIFT
 62
1
 10
1637.526
 20
-8244.565
 30
-890.000
 70
    32
  0
VERTEX
  8
W62LXLIFT
 62
1
 10
1631.900
 20
-8232.105
 30
-890.000
 70
    32
  0
VERTEX
  8
W62LXLIFT
 62
1
 10
1639.696
 20
-8227.998
 30
-890.000
 70
    32
  0
VERTEX
  8
W62LXLIFT
 62
1
 10
1657.394
 20
-8255.221
 30
-890.000
 70
    32
  0
VERTEX
  8
W62LXLIFT
 62
1
 10
1662.075
 20
-8265.319
 30
-890.000
 70
    32
  0
VERTEX
  8
W62LXLIFT
 62
1
 10
1664.336
 20
-8276.731
 30
-890.000
 70
    32
  0
VERTEX
  8
W62LXLIFT
 62
1
 10
1664.599
 20
-8290.345
 30
-890.000
 70
    32
  0
VERTEX
  8
W62LXLIFT
 62
1
 10
1660.307
 20
-8300.509
 30
-890.000
 70
    32
  0
VERTEX
  8
W62LXLIFT
 62
1
 10
1656.689
 20
-8314.317
 30
-890.000
 70
    32
  0
VERTEX
  8
W62LXLIFT
 62
1
 10
1644.603
 20
-8310.977
 30
-890.000
 70
    32
  0
VERTEX
  8
W62LXLIFT
 62
1
 10
1645.494
 20
-8300.768
 30
-890.000
 70
    32
  0
VERTEX
  8
W62LXLIFT
 62
1
 10
1647.980
 20
-8292.017
 30
-890.000
 70
    32
  0
VERTEX
  8
W62LXLIFT
 62
1
 10
1637.273
 20
-8283.660
 30
-890.000
 70
    32
  0
SEQEND
  8
W62LXLIFT
  0
POLYLINE
  8
W62LXLIFT
 62
1
 66
     1
 70
     9
  0
VERTEX
  8
W62LXLIFT
 62
1
 10
1654.150
 20
-8276.289
 30
-916.000
 70
    32
  0
VERTEX
  8
W62LXLIFT
 62
1
 10
1656.810
 20
-8271.913
 30
-916.000
 70
    32
  0
VERTEX
  8
W62LXLIFT
 62
1
 10
1657.883
 20
-8265.543
 30
-916.000
 70
    32
  0
VERTEX
  8
W62LXLIFT
 62
1
 10
1644.254
 20
-8243.615
 30
-916.000
 70
    32
  0
VERTEX
  8
W62LXLIFT
 62
1
 10
1652.135
 20
-8235.369
 30
-916.000
 70
    32
  0
VERTEX
  8
W62LXLIFT
 62
1
 10
1660.441
 20
-8235.662
 30
-916.000
 70
    32
  0
VERTEX
  8
W62LXLIFT
 62
1
 10
1673.271
 20
-8252.826
 30
-916.000
 70
    32
  0
VERTEX
  8
W62LXLIFT
 62
1
 10
1676.717
 20
-8264.702
 30
-916.000
 70
    32
  0
VERTEX
  8
W62LXLIFT
 62
1
 10
1691.608
 20
-8259.131
 30
-916.000
 70
    32
  0
VERTEX
  8
W62LXLIFT
 62
1
 10
1700.776
 20
-8262.503
 30
-916.000
 70
    32
  0
VERTEX
  8
W62LXLIFT
 62
1
 10
1701.256
 20
-8270.673
 30
-916.000
 70
    32
  0
VERTEX
  8
W62LXLIFT
 62
1
 10
1692.783
 20
-8274.875
 30
-916.000
 70
    32
  0
VERTEX
  8
W62LXLIFT
 62
1
 10
1690.788
 20
-8279.852
 30
-916.000
 70
    32
  0
VERTEX
  8
W62LXLIFT
 62
1
 10
1698.099
 20
-8303.730
 30
-916.000
 70
    32
  0
VERTEX
  8
W62LXLIFT
 62
1
 10
1694.275
 20
-8312.139
 30
-916.000
 70
    32
  0
VERTEX
  8
W62LXLIFT
 62
1
 10
1681.637
 20
-8307.623
 30
-916.000
 70
    32
  0
VERTEX
  8
W62LXLIFT
 62
1
 10
1666.754
 20
-8308.487
 30
-916.000
 70
    32
  0
VERTEX
  8
W62LXLIFT
 62
1
 10
1664.459
 20
-8307.455
 30
-916.000
 70
    32
  0
VERTEX
  8
W62LXLIFT
 62
1
 10
1667.243
 20
-8299.707
 30
-916.000
 70
    32
  0
VERTEX
  8
W62LXLIFT
 62
1
 10
1664.267
 20
-8291.856
 30
-916.000
 70
    32
  0
SEQEND
  8
W62LXLIFT
  0
POLYLINE
  8
W62LXLIFT
 62
2
 66
     1
 70
     9
  0
VERTEX
  8
W62LXLIFT
 62
2
 10
1276.395
 20
-7042.743
 30
-858.000
 70
    32
  0
VERTEX
  8
W62LXLIFT
 62
2
 10
1293.435
 20
-7071.420
 30
-858.000
 70
    32
  0
VERTEX
  8
W62LXLIFT
 62
2
 10
1305.826
 20
-7089.656
 30
-858.000
 70
    32
  0
VERTEX
  8
W62LXLIFT
 62
2
 10
1312.105
 20
-7102.074
 30
-858.000
 70
    32
  0
VERTEX
  8
W62LXLIFT
 62
2
 10
1330.868
 20
-7114.669
 30
-858.000
 70
    32
  0
VERTEX
  8
W62LXLIFT
 62
2
 10
1346.977
 20
-7147.804
 30
-858.000
 70
    32
  0
VERTEX
  8
W62LXLIFT
 62
2
 10
1350.537
 20
-7153.388
 30
-858.000
 70
    32
  0
VERTEX
  8
W62LXLIFT
 62
2
 10
1347.069
 20
-7163.998
 30
-858.000
 70
    32
  0
VERTEX
  8
W62LXLIFT
 62
2
 10
1357.268
 20
-7184.776
 30
-858.000
 70
    32
  0
VERTEX
  8
W62LXLIFT
 62
2
 10
1387.179
 20
-7247.062
 30
-858.000
 70
    32
  0
VERTEX
  8
W62LXLIFT
 62
2
 10
1397.366
 20
-7264.489
 30
-858.000
 70
    32
  0
VERTEX
  8
W62LXLIFT
 62
2
 10
1406.614
 20
-7287.575
 30
-858.000
 70
    32
  0
VERTEX
  8
W62LXLIFT
 62
2
 10
1409.841
 20
-7286.025
 30
-858.000
 70
    32
  0
VERTEX
  8
W62LXLIFT
 62
2
 10
1412.080
 20
-7276.728
 30
-858.000
 70
    32
  0
VERTEX
  8
W62LXLIFT
 62
2
 10
1406.928
 20
-7264.371
 30
-858.000
 70
    32
  0
VERTEX
  8
W62LXLIFT
 62
2
 10
1403.400
 20
-7258.982
 30
-858.000
 70
    32
  0
VERTEX
  8
W62LXLIFT
 62
2
 10
1395.836
 20
-7223.853
 30
-858.000
 70
    32
  0
VERTEX
  8
W62LXLIFT
 62
2
 10
1383.217
 20
-7183.778
 30
-858.000
 70
    32
  0
VERTEX
  8
W62LXLIFT
 62
2
 10
1373.653
 20
-7161.461
 30
-858.000
 70
    32
  0
VERTEX
  8
W62LXLIFT
 62
2
 10
1372.860
 20
-7155.958
 30
-858.000
 70
    32
  0
VERTEX
  8
W62LXLIFT
 62
2
 10
1363.956
 20
-7141.840
 30
-858.000
 70
    32
  0
VERTEX
  8
W62LXLIFT
 62
2
 10
1359.588
 20
-7120.576
 30
-858.000
 70
    32
  0
VERTEX
  8
W62LXLIFT
 62
2
 10
1348.551
 20
-7103.324
 30
-858.000
 70
    32
  0
VERTEX
  8
W62LXLIFT
 62
2
 10
1334.807
 20
-7085.621
 30
-858.000
 70
    32
  0
VERTEX
  8
W62LXLIFT
 62
2
 10
1316.174
 20
-7067.297
 30
-858.000
 70
    32
  0
VERTEX
  8
W62LXLIFT
 62
2
 10
1289.195
 20
-7041.393
 30
-858.000
 70
    32
  0
VERTEX
  8
W62LXLIFT
 62
2
 10
1282.828
 20
-7036.734
 30
-858.000
 70
    32
  0
SEQEND
  8
W62LXLIFT
  0
POLYLINE
  8
W62LXLIFT
 62
11
 66
     1
 70
     9
  0
VERTEX
  8
W62LXLIFT
 62
11
 10
1489.036
 20
-7967.845
 30
-861.000
 70
    32
  0
VERTEX
  8
W62LXLIFT
 62
11
 10
1500.582
 20
-7995.357
 30
-861.000
 70
    32
  0
VERTEX
  8
W62LXLIFT
 62
11
 10
1502.184
 20
-8020.332
 30
-861.000
 70
    32
  0
VERTEX
  8
W62LXLIFT
 62
11
 10
1498.745
 20
-8045.229
 30
-861.000
 70
    32
  0
VERTEX
  8
W62LXLIFT
 62
11
 10
1493.491
 20
-8052.129
 30
-861.000
 70
    32
  0
VERTEX
  8
W62LXLIFT
 62
11
 10
1472.721
 20
-8041.728
 30
-861.000
 70
    32
  0
VERTEX
  8
W62LXLIFT
 62
11
 10
1460.280
 20
-8026.455
 30
-861.000
 70
    32
  0
VERTEX
  8
W62LXLIFT
 62
11
 10
1454.945
 20
-8015.204
 30
-861.000
 70
    32
  0
VERTEX
  8
W62LXLIFT
 62
11
 10
1453.894
 20
-8005.551
 30
-861.000
 70
    32
  0
VERTEX
  8
W62LXLIFT
 62
11
 10
1437.481
 20
-7962.443
 30
-861.000
 70
    32
  0
VERTEX
  8
W62LXLIFT
 62
11
 10
1432.623
 20
-7944.890
 30
-861.000
 70
    32
  0
VERTEX
  8
W62LXLIFT
 62
11
 10
1422.786
 20
-7948.564
 30
-861.000
 70
    32
  0
VERTEX
  8
W62LXLIFT
 62
11
 10
1411.156
 20
-7951.246
 30
-861.000
 70
    32
  0
VERTEX
  8
W62LXLIFT
 62
11
 10
1405.350
 20
-7961.467
 30
-861.000
 70
    32
  0
VERTEX
  8
W62LXLIFT
 62
11
 10
1397.561
 20
-7961.943
 30
-861.000
 70
    32
  0
VERTEX
  8
W62LXLIFT
 62
11
 10
1395.141
 20
-7976.898
 30
-861.000
 70
    32
  0
VERTEX
  8
W62LXLIFT
 62
11
 10
1396.006
 20
-7983.867
 30
-861.000
 70
    32
  0
VERTEX
  8
W62LXLIFT
 62
11
 10
1406.034
 20
-7991.219
 30
-861.000
 70
    32
  0
VERTEX
  8
W62LXLIFT
 62
11
 10
1410.342
 20
-7997.243
 30
-861.000
 70
    32
  0
VERTEX
  8
W62LXLIFT
 62
11
 10
1411.669
 20
-8007.133
 30
-861.000
 70
    32
  0
VERTEX
  8
W62LXLIFT
 62
11
 10
1407.486
 20
-8021.289
 30
-861.000
 70
    32
  0
VERTEX
  8
W62LXLIFT
 62
11
 10
1422.407
 20
-8055.491
 30
-861.000
 70
    32
  0
VERTEX
  8
W62LXLIFT
 62
11
 10
1441.156
 20
-8080.344
 30
-861.000
 70
    32
  0
VERTEX
  8
W62LXLIFT
 62
11
 10
1463.747
 20
-8101.474
 30
-861.000
 70
    32
  0
VERTEX
  8
W62LXLIFT
 62
11
 10
1470.930
 20
-8100.455
 30
-861.000
 70
    32
  0
VERTEX
  8
W62LXLIFT
 62
11
 10
1500.262
 20
-8081.755
 30
-861.000
 70
    32
  0
VERTEX
  8
W62LXLIFT
 62
11
 10
1540.887
 20
-8060.506
 30
-861.000
 70
    32
  0
VERTEX
  8
W62LXLIFT
 62
11
 10
1561.581
 20
-8045.490
 30
-861.000
 70
    32
  0
VERTEX
  8
W62LXLIFT
 62
11
 10
1564.380
 20
-8030.915
 30
-861.000
 70
    32
  0
VERTEX
  8
W62LXLIFT
 62
11
 10
1561.071
 20
-8015.072
 30
-861.000
 70
    32
  0
VERTEX
  8
W62LXLIFT
 62
11
 10
1556.660
 20
-8007.388
 30
-861.000
 70
    32
  0
VERTEX
  8
W62LXLIFT
 62
11
 10
1529.206
 20
-7994.613
 30
-861.000
 70
    32
  0
VERTEX
  8
W62LXLIFT
 62
11
 10
1523.576
 20
-7988.559
 30
-861.000
 70
    32
  0
VERTEX
  8
W62LXLIFT
 62
11
 10
1500.144
 20
-7964.887
 30
-861.000
 70
    32
  0
SEQEND
  8
W62LXLIFT
  0
POLYLINE
  8
W62LXLIFT
 62
13
 66
     1
 70
     9
  0
VERTEX
  8
W62LXLIFT
 62
13
 10
1455.432
 20
-8220.280
 30
-870.000
 70
    32
  0
VERTEX
  8
W62LXLIFT
 62
13
 10
1466.600
 20
-8227.895
 30
-870.000
 70
    32
  0
VERTEX
  8
W62LXLIFT
 62
13
 10
1471.825
 20
-8237.331
 30
-870.000
 70
    32
  0
VERTEX
  8
W62LXLIFT
 62
13
 10
1478.052
 20
-8259.050
 30
-870.000
 70
    32
  0
VERTEX
  8
W62LXLIFT
 62
13
 10
1485.508
 20
-8261.553
 30
-870.000
 70
    32
  0
VERTEX
  8
W62LXLIFT
 62
13
 10
1494.713
 20
-8254.218
 30
-870.000
 70
    32
  0
VERTEX
  8
W62LXLIFT
 62
13
 10
1490.918
 20
-8248.841
 30
-870.000
 70
    32
  0
VERTEX
  8
W62LXLIFT
 62
13
 10
1491.222
 20
-8239.404
 30
-870.000
 70
    32
  0
VERTEX
  8
W62LXLIFT
 62
13
 10
1486.549
 20
-8224.904
 30
-870.000
 70
    32
  0
VERTEX
  8
W62LXLIFT
 62
13
 10
1477.863
 20
-8212.343
 30
-870.000
 70
    32
  0
VERTEX
  8
W62LXLIFT
 62
13
 10
1473.423
 20
-8205.482
 30
-870.000
 70
    32
  0
VERTEX
  8
W62LXLIFT
 62
13
 10
1472.137
 20
-8200.127
 30
-870.000
 70
    32
  0
VERTEX
  8
W62LXLIFT
 62
13
 10
1468.254
 20
-8199.259
 30
-870.000
 70
    32
  0
VERTEX
  8
W62LXLIFT
 62
13
 10
1455.415
 20
-8208.907
 30
-870.000
 70
    32
  0
SEQEND
  8
W62LXLIFT
  0
POLYLINE
  8
W62LXLIFT
 62
2
 66
     1
 70
     9
  0
VERTEX
  8
W62LXLIFT
 62
2
 10
1406.682
 20
-7282.202
 30
-848.000
 70
    32
  0
VERTEX
  8
W62LXLIFT
 62
2
 10
1398.125
 20
-7267.403
 30
-848.000
 70
    32
  0
VERTEX
  8
W62LXLIFT
 62
2
 10
1391.013
 20
-7237.189
 30
-848.000
 70
    32
  0
VERTEX
  8
W62LXLIFT
 62
2
 10
1379.989
 20
-7201.432
 30
-848.000
 70
    32
  0
VERTEX
  8
W62LXLIFT
 62
2
 10
1361.608
 20
-7159.582
 30
-848.000
 70
    32
  0
VERTEX
  8
W62LXLIFT
 62
2
 10
1353.793
 20
-7127.049
 30
-848.000
 70
    32
  0
VERTEX
  8
W62LXLIFT
 62
2
 10
1328.545
 20
-7095.840
 30
-848.000
 70
    32
  0
VERTEX
  8
W62LXLIFT
 62
2
 10
1298.731
 20
-7059.235
 30
-848.000
 70
    32
  0
VERTEX
  8
W62LXLIFT
 62
2
 10
1276.684
 20
-7037.241
 30
-848.000
 70
    32
  0
VERTEX
  8
W62LXLIFT
 62
2
 10
1273.411
 20
-7039.180
 30
-848.000
 70
    32
  0
VERTEX
  8
W62LXLIFT
 62
2
 10
1270.784
 20
-7046.963
 30
-848.000
 70
    32
  0
VERTEX
  8
W62LXLIFT
 62
2
 10
1272.022
 20
-7051.071
 30
-848.000
 70
    32
  0
VERTEX
  8
W62LXLIFT
 62
2
 10
1279.556
 20
-7060.409
 30
-848.000
 70
    32
  0
VERTEX
  8
W62LXLIFT
 62
2
 10
1281.915
 20
-7065.011
 30
-848.000
 70
    32
  0
VERTEX
  8
W62LXLIFT
 62
2
 10
1285.353
 20
-7085.808
 30
-848.000
 70
    32
  0
VERTEX
  8
W62LXLIFT
 62
2
 10
1289.003
 20
-7093.392
 30
-848.000
 70
    32
  0
VERTEX
  8
W62LXLIFT
 62
2
 10
1302.712
 20
-7106.740
 30
-848.000
 70
    32
  0
VERTEX
  8
W62LXLIFT
 62
2
 10
1324.732
 20
-7129.297
 30
-848.000
 70
    32
  0
VERTEX
  8
W62LXLIFT
 62
2
 10
1330.661
 20
-7137.622
 30
-848.000
 70
    32
  0
VERTEX
  8
W62LXLIFT
 62
2
 10
1333.643
 20
-7146.235
 30
-848.000
 70
    32
  0
VERTEX
  8
W62LXLIFT
 62
2
 10
1333.691
 20
-7164.158
 30
-848.000
 70
    32
  0
VERTEX
  8
W62LXLIFT
 62
2
 10
1335.871
 20
-7171.066
 30
-848.000
 70
    32
  0
VERTEX
  8
W62LXLIFT
 62
2
 10
1345.978
 20
-7179.299
 30
-848.000
 70
    32
  0
VERTEX
  8
W62LXLIFT
 62
2
 10
1358.084
 20
-7200.341
 30
-848.000
 70
    32
  0
VERTEX
  8
W62LXLIFT
 62
2
 10
1358.236
 20
-7212.856
 30
-848.000
 70
    32
  0
VERTEX
  8
W62LXLIFT
 62
2
 10
1363.413
 20
-7216.393
 30
-848.000
 70
    32
  0
VERTEX
  8
W62LXLIFT
 62
2
 10
1368.504
 20
-7222.061
 30
-848.000
 70
    32
  0
VERTEX
  8
W62LXLIFT
 62
2
 10
1377.648
 20
-7248.624
 30
-848.000
 70
    32
  0
VERTEX
  8
W62LXLIFT
 62
2
 10
1383.490
 20
-7268.984
 30
-848.000
 70
    32
  0
VERTEX
  8
W62LXLIFT
 62
2
 10
1389.185
 20
-7283.138
 30
-848.000
 70
    32
  0
VERTEX
  8
W62LXLIFT
 62
2
 10
1392.037
 20
-7286.620
 30
-848.000
 70
    32
  0
VERTEX
  8
W62LXLIFT
 62
2
 10
1397.335
 20
-7287.022
 30
-848.000
 70
    32
  0
SEQEND
  8
W62LXLIFT
  0
POLYLINE
  8
W62LXLIFT
 62
11
 66
     1
 70
     9
  0
VERTEX
  8
W62LXLIFT
 62
11
 10
1558.964
 20
-8040.930
 30
-851.000
 70
    32
  0
VERTEX
  8
W62LXLIFT
 62
11
 10
1552.737
 20
-8026.944
 30
-851.000
 70
    32
  0
VERTEX
  8
W62LXLIFT
 62
11
 10
1540.886
 20
-8015.405
 30
-851.000
 70
    32
  0
VERTEX
  8
W62LXLIFT
 62
11
 10
1530.263
 20
-8005.260
 30
-851.000
 70
    32
  0
VERTEX
  8
W62LXLIFT
 62
11
 10
1518.503
 20
-7997.899
 30
-851.000
 70
    32
  0
VERTEX
  8
W62LXLIFT
 62
11
 10
1512.086
 20
-7995.805
 30
-851.000
 70
    32
  0
VERTEX
  8
W62LXLIFT
 62
11
 10
1499.130
 20
-7971.789
 30
-851.000
 70
    32
  0
VERTEX
  8
W62LXLIFT
 62
11
 10
1494.786
 20
-7974.504
 30
-851.000
 70
    32
  0
VERTEX
  8
W62LXLIFT
 62
11
 10
1485.227
 20
-7988.185
 30
-851.000
 70
    32
  0
VERTEX
  8
W62LXLIFT
 62
11
 10
1486.173
 20
-7992.941
 30
-851.000
 70
    32
  0
VERTEX
  8
W62LXLIFT
 62
11
 10
1493.320
 20
-8001.144
 30
-851.000
 70
    32
  0
VERTEX
  8
W62LXLIFT
 62
11
 10
1489.732
 20
-8010.603
 30
-851.000
 70
    32
  0
VERTEX
  8
W62LXLIFT
 62
11
 10
1489.732
 20
-8010.603
 30
-851.000
 70
    32
  0
VERTEX
  8
W62LXLIFT
 62
11
 10
1493.875
 20
-8018.265
 30
-851.000
 70
    32
  0
VERTEX
  8
W62LXLIFT
 62
11
 10
1499.659
 20
-8023.539
 30
-851.000
 70
    32
  0
VERTEX
  8
W62LXLIFT
 62
11
 10
1501.986
 20
-8032.300
 30
-851.000
 70
    32
  0
VERTEX
  8
W62LXLIFT
 62
11
 10
1499.111
 20
-8051.145
 30
-851.000
 70
    32
  0
VERTEX
  8
W62LXLIFT
 62
11
 10
1495.171
 20
-8047.364
 30
-851.000
 70
    32
  0
VERTEX
  8
W62LXLIFT
 62
11
 10
1490.730
 20
-8050.694
 30
-851.000
 70
    32
  0
VERTEX
  8
W62LXLIFT
 62
11
 10
1475.285
 20
-8047.856
 30
-851.000
 70
    32
  0
VERTEX
  8
W62LXLIFT
 62
11
 10
1470.821
 20
-8038.251
 30
-851.000
 70
    32
  0
VERTEX
  8
W62LXLIFT
 62
11
 10
1447.143
 20
-8035.616
 30
-851.000
 70
    32
  0
VERTEX
  8
W62LXLIFT
 62
11
 10
1440.275
 20
-8031.999
 30
-851.000
 70
    32
  0
VERTEX
  8
W62LXLIFT
 62
11
 10
1436.634
 20
-8027.130
 30
-851.000
 70
    32
  0
VERTEX
  8
W62LXLIFT
 62
11
 10
1422.199
 20
-7984.269
 30
-851.000
 70
    32
  0
VERTEX
  8
W62LXLIFT
 62
11
 10
1409.824
 20
-7957.002
 30
-851.000
 70
    32
  0
VERTEX
  8
W62LXLIFT
 62
11
 10
1406.766
 20
-7957.587
 30
-851.000
 70
    32
  0
VERTEX
  8
W62LXLIFT
 62
11
 10
1403.067
 20
-7967.344
 30
-851.000
 70
    32
  0
VERTEX
  8
W62LXLIFT
 62
11
 10
1399.125
 20
-7970.312
 30
-851.000
 70
    32
  0
VERTEX
  8
W62LXLIFT
 62
11
 10
1392.854
 20
-7975.622
 30
-851.000
 70
    32
  0
VERTEX
  8
W62LXLIFT
 62
11
 10
1409.071
 20
-8002.933
 30
-851.000
 70
    32
  0
VERTEX
  8
W62LXLIFT
 62
11
 10
1408.686
 20
-8010.505
 30
-851.000
 70
    32
  0
VERTEX
  8
W62LXLIFT
 62
11
 10
1404.577
 20
-8017.294
 30
-851.000
 70
    32
  0
VERTEX
  8
W62LXLIFT
 62
11
 10
1406.110
 20
-8033.814
 30
-851.000
 70
    32
  0
VERTEX
  8
W62LXLIFT
 62
11
 10
1414.424
 20
-8056.082
 30
-851.000
 70
    32
  0
VERTEX
  8
W62LXLIFT
 62
11
 10
1425.723
 20
-8064.757
 30
-851.000
 70
    32
  0
VERTEX
  8
W62LXLIFT
 62
11
 10
1431.901
 20
-8070.724
 30
-851.000
 70
    32
  0
VERTEX
  8
W62LXLIFT
 62
11
 10
1440.822
 20
-8084.824
 30
-851.000
 70
    32
  0
VERTEX
  8
W62LXLIFT
 62
11
 10
1446.746
 20
-8096.744
 30
-851.000
 70
    32
  0
VERTEX
  8
W62LXLIFT
 62
11
 10
1462.720
 20
-8096.260
 30
-851.000
 70
    32
  0
VERTEX
  8
W62LXLIFT
 62
11
 10
1489.754
 20
-8084.162
 30
-851.000
 70
    32
  0
VERTEX
  8
W62LXLIFT
 62
11
 10
1520.267
 20
-8066.058
 30
-851.000
 70
    32
  0
VERTEX
  8
W62LXLIFT
 62
11
 10
1531.452
 20
-8061.972
 30
-851.000
 70
    32
  0
VERTEX
  8
W62LXLIFT
 62
11
 10
1552.529
 20
-8047.665
 30
-851.000
 70
    32
  0
SEQEND
  8
W62LXLIFT
  0
POLYLINE
  8
W62LXLIFT
 62
6
 66
     1
 70
     9
  0
VERTEX
  8
W62LXLIFT
 62
6
 10
1719.136
 20
-8672.333
 30
-828.000
 70
    32
  0
VERTEX
  8
W62LXLIFT
 62
6
 10
1727.371
 20
-8666.625
 30
-828.000
 70
    32
  0
VERTEX
  8
W62LXLIFT
 62
6
 10
1722.292
 20
-8654.148
 30
-828.000
 70
    32
  0
VERTEX
  8
W62LXLIFT
 62
6
 10
1722.517
 20
-8635.799
 30
-828.000
 70
    32
  0
VERTEX
  8
W62LXLIFT
 62
6
 10
1706.786
 20
-8600.239
 30
-828.000
 70
    32
  0
VERTEX
  8
W62LXLIFT
 62
6
 10
1702.959
 20
-8589.351
 30
-828.000
 70
    32
  0
VERTEX
  8
W62LXLIFT
 62
6
 10
1702.165
 20
-8578.014
 30
-828.000
 70
    32
  0
VERTEX
  8
W62LXLIFT
 62
6
 10
1694.109
 20
-8549.057
 30
-828.000
 70
    32
  0
VERTEX
  8
W62LXLIFT
 62
6
 10
1687.740
 20
-8526.358
 30
-828.000
 70
    32
  0
VERTEX
  8
W62LXLIFT
 62
6
 10
1677.642
 20
-8509.914
 30
-828.000
 70
    32
  0
VERTEX
  8
W62LXLIFT
 62
6
 10
1676.179
 20
-8500.356
 30
-828.000
 70
    32
  0
VERTEX
  8
W62LXLIFT
 62
6
 10
1669.967
 20
-8490.968
 30
-828.000
 70
    32
  0
VERTEX
  8
W62LXLIFT
 62
6
 10
1667.429
 20
-8480.668
 30
-828.000
 70
    32
  0
VERTEX
  8
W62LXLIFT
 62
6
 10
1653.992
 20
-8452.660
 30
-828.000
 70
    32
  0
VERTEX
  8
W62LXLIFT
 62
6
 10
1652.469
 20
-8437.300
 30
-828.000
 70
    32
  0
VERTEX
  8
W62LXLIFT
 62
6
 10
1647.918
 20
-8426.609
 30
-828.000
 70
    32
  0
VERTEX
  8
W62LXLIFT
 62
6
 10
1641.823
 20
-8415.729
 30
-828.000
 70
    32
  0
VERTEX
  8
W62LXLIFT
 62
6
 10
1640.324
 20
-8410.636
 30
-828.000
 70
    32
  0
VERTEX
  8
W62LXLIFT
 62
6
 10
1630.987
 20
-8410.749
 30
-828.000
 70
    32
  0
VERTEX
  8
W62LXLIFT
 62
6
 10
1623.404
 20
-8419.019
 30
-828.000
 70
    32
  0
VERTEX
  8
W62LXLIFT
 62
6
 10
1619.545
 20
-8422.986
 30
-828.000
 70
    32
  0
VERTEX
  8
W62LXLIFT
 62
6
 10
1619.612
 20
-8433.764
 30
-828.000
 70
    32
  0
VERTEX
  8
W62LXLIFT
 62
6
 10
1625.509
 20
-8461.675
 30
-828.000
 70
    32
  0
VERTEX
  8
W62LXLIFT
 62
6
 10
1634.211
 20
-8482.047
 30
-828.000
 70
    32
  0
VERTEX
  8
W62LXLIFT
 62
6
 10
1644.192
 20
-8497.277
 30
-828.000
 70
    32
  0
VERTEX
  8
W62LXLIFT
 62
6
 10
1654.768
 20
-8525.070
 30
-828.000
 70
    32
  0
VERTEX
  8
W62LXLIFT
 62
6
 10
1663.799
 20
-8555.381
 30
-828.000
 70
    32
  0
VERTEX
  8
W62LXLIFT
 62
6
 10
1668.262
 20
-8588.222
 30
-828.000
 70
    32
  0
VERTEX
  8
W62LXLIFT
 62
6
 10
1675.157
 20
-8594.195
 30
-828.000
 70
    32
  0
VERTEX
  8
W62LXLIFT
 62
6
 10
1676.820
 20
-8602.526
 30
-828.000
 70
    32
  0
VERTEX
  8
W62LXLIFT
 62
6
 10
1679.297
 20
-8613.193
 30
-828.000
 70
    32
  0
VERTEX
  8
W62LXLIFT
 62
6
 10
1697.130
 20
-8620.826
 30
-828.000
 70
    32
  0
VERTEX
  8
W62LXLIFT
 62
6
 10
1704.544
 20
-8665.293
 30
-828.000
 70
    32
  0
VERTEX
  8
W62LXLIFT
 62
6
 10
1705.275
 20
-8670.071
 30
-828.000
 70
    32
  0
VERTEX
  8
W62LXLIFT
 62
6
 10
1710.711
 20
-8673.414
 30
-828.000
 70
    32
  0
SEQEND
  8
W62LXLIFT
  0
POLYLINE
  8
W62LXLIFT
 62
2
 66
     1
 70
     9
  0
VERTEX
  8
W62LXLIFT
 62
2
 10
1288.643
 20
-7056.074
 30
-838.000
 70
    32
  0
VERTEX
  8
W62LXLIFT
 62
2
 10
1285.866
 20
-7058.711
 30
-838.000
 70
    32
  0
VERTEX
  8
W62LXLIFT
 62
2
 10
1287.346
 20
-7065.025
 30
-838.000
 70
    32
  0
VERTEX
  8
W62LXLIFT
 62
2
 10
1279.563
 20
-7079.159
 30
-838.000
 70
    32
  0
VERTEX
  8
W62LXLIFT
 62
2
 10
1294.787
 20
-7108.175
 30
-838.000
 70
    32
  0
VERTEX
  8
W62LXLIFT
 62
2
 10
1300.541
 20
-7111.975
 30
-838.000
 70
    32
  0
VERTEX
  8
W62LXLIFT
 62
2
 10
1309.686
 20
-7111.723
 30
-838.000
 70
    32
  0
VERTEX
  8
W62LXLIFT
 62
2
 10
1327.099
 20
-7132.884
 30
-838.000
 70
    32
  0
VERTEX
  8
W62LXLIFT
 62
2
 10
1335.622
 20
-7154.656
 30
-838.000
 70
    32
  0
VERTEX
  8
W62LXLIFT
 62
2
 10
1335.308
 20
-7176.351
 30
-838.000
 70
    32
  0
VERTEX
  8
W62LXLIFT
 62
2
 10
1344.496
 20
-7178.129
 30
-838.000
 70
    32
  0
VERTEX
  8
W62LXLIFT
 62
2
 10
1371.217
 20
-7262.032
 30
-838.000
 70
    32
  0
VERTEX
  8
W62LXLIFT
 62
2
 10
1375.994
 20
-7277.049
 30
-838.000
 70
    32
  0
VERTEX
  8
W62LXLIFT
 62
2
 10
1375.673
 20
-7288.122
 30
-838.000
 70
    32
  0
VERTEX
  8
W62LXLIFT
 62
2
 10
1383.701
 20
-7288.886
 30
-838.000
 70
    32
  0
VERTEX
  8
W62LXLIFT
 62
2
 10
1389.793
 20
-7291.794
 30
-838.000
 70
    32
  0
VERTEX
  8
W62LXLIFT
 62
2
 10
1398.355
 20
-7293.152
 30
-838.000
 70
    32
  0
VERTEX
  8
W62LXLIFT
 62
2
 10
1402.206
 20
-7286.711
 30
-838.000
 70
    32
  0
VERTEX
  8
W62LXLIFT
 62
2
 10
1387.836
 20
-7245.698
 30
-838.000
 70
    32
  0
VERTEX
  8
W62LXLIFT
 62
2
 10
1383.513
 20
-7218.429
 30
-838.000
 70
    32
  0
VERTEX
  8
W62LXLIFT
 62
2
 10
1368.551
 20
-7181.743
 30
-838.000
 70
    32
  0
VERTEX
  8
W62LXLIFT
 62
2
 10
1354.382
 20
-7149.804
 30
-838.000
 70
    32
  0
VERTEX
  8
W62LXLIFT
 62
2
 10
1359.040
 20
-7138.124
 30
-838.000
 70
    32
  0
VERTEX
  8
W62LXLIFT
 62
2
 10
1340.196
 20
-7107.685
 30
-838.000
 70
    32
  0
VERTEX
  8
W62LXLIFT
 62
2
 10
1300.449
 20
-7064.545
 30
-838.000
 70
    32
  0
VERTEX
  8
W62LXLIFT
 62
2
 10
1296.599
 20
-7056.130
 30
-838.000
 70
    32
  0
SEQEND
  8
W62LXLIFT
  0
POLYLINE
  8
W62LXLIFT
 62
11
 66
     1
 70
     9
  0
VERTEX
  8
W62LXLIFT
 62
11
 10
1546.029
 20
-8054.803
 30
-840.000
 70
    32
  0
VERTEX
  8
W62LXLIFT
 62
11
 10
1553.140
 20
-8047.765
 30
-840.000
 70
    32
  0
VERTEX
  8
W62LXLIFT
 62
11
 10
1553.893
 20
-8039.419
 30
-840.000
 70
    32
  0
VERTEX
  8
W62LXLIFT
 62
11
 10
1551.592
 20
-8031.197
 30
-840.000
 70
    32
  0
VERTEX
  8
W62LXLIFT
 62
11
 10
1542.182
 20
-8018.951
 30
-840.000
 70
    32
  0
VERTEX
  8
W62LXLIFT
 62
11
 10
1529.318
 20
-8007.333
 30
-840.000
 70
    32
  0
VERTEX
  8
W62LXLIFT
 62
11
 10
1521.421
 20
-8003.872
 30
-840.000
 70
    32
  0
VERTEX
  8
W62LXLIFT
 62
11
 10
1510.946
 20
-7993.472
 30
-840.000
 70
    32
  0
VERTEX
  8
W62LXLIFT
 62
11
 10
1504.594
 20
-7984.895
 30
-840.000
 70
    32
  0
VERTEX
  8
W62LXLIFT
 62
11
 10
1500.492
 20
-7982.949
 30
-840.000
 70
    32
  0
VERTEX
  8
W62LXLIFT
 62
11
 10
1494.844
 20
-7985.362
 30
-840.000
 70
    32
  0
VERTEX
  8
W62LXLIFT
 62
11
 10
1490.151
 20
-7990.779
 30
-840.000
 70
    32
  0
VERTEX
  8
W62LXLIFT
 62
11
 10
1487.817
 20
-7996.460
 30
-840.000
 70
    32
  0
VERTEX
  8
W62LXLIFT
 62
11
 10
1495.696
 20
-8020.211
 30
-840.000
 70
    32
  0
VERTEX
  8
W62LXLIFT
 62
11
 10
1497.217
 20
-8041.136
 30
-840.000
 70
    32
  0
VERTEX
  8
W62LXLIFT
 62
11
 10
1495.922
 20
-8053.123
 30
-840.000
 70
    32
  0
VERTEX
  8
W62LXLIFT
 62
11
 10
1492.774
 20
-8052.663
 30
-840.000
 70
    32
  0
VERTEX
  8
W62LXLIFT
 62
11
 10
1485.078
 20
-8042.661
 30
-840.000
 70
    32
  0
VERTEX
  8
W62LXLIFT
 62
11
 10
1479.058
 20
-8039.702
 30
-840.000
 70
    32
  0
VERTEX
  8
W62LXLIFT
 62
11
 10
1463.642
 20
-8030.125
 30
-840.000
 70
    32
  0
VERTEX
  8
W62LXLIFT
 62
11
 10
1451.209
 20
-8018.958
 30
-840.000
 70
    32
  0
VERTEX
  8
W62LXLIFT
 62
11
 10
1446.344
 20
-8010.943
 30
-840.000
 70
    32
  0
VERTEX
  8
W62LXLIFT
 62
11
 10
1437.215
 20
-8005.761
 30
-840.000
 70
    32
  0
VERTEX
  8
W62LXLIFT
 62
11
 10
1420.353
 20
-7979.760
 30
-840.000
 70
    32
  0
VERTEX
  8
W62LXLIFT
 62
11
 10
1404.898
 20
-7989.080
 30
-840.000
 70
    32
  0
VERTEX
  8
W62LXLIFT
 62
11
 10
1398.950
 20
-8003.202
 30
-840.000
 70
    32
  0
VERTEX
  8
W62LXLIFT
 62
11
 10
1403.385
 20
-8012.283
 30
-840.000
 70
    32
  0
VERTEX
  8
W62LXLIFT
 62
11
 10
1404.491
 20
-8025.806
 30
-840.000
 70
    32
  0
VERTEX
  8
W62LXLIFT
 62
11
 10
1402.833
 20
-8031.220
 30
-840.000
 70
    32
  0
VERTEX
  8
W62LXLIFT
 62
11
 10
1412.988
 20
-8054.969
 30
-840.000
 70
    32
  0
VERTEX
  8
W62LXLIFT
 62
11
 10
1422.051
 20
-8069.307
 30
-840.000
 70
    32
  0
VERTEX
  8
W62LXLIFT
 62
11
 10
1434.731
 20
-8081.275
 30
-840.000
 70
    32
  0
VERTEX
  8
W62LXLIFT
 62
11
 10
1437.861
 20
-8085.651
 30
-840.000
 70
    32
  0
VERTEX
  8
W62LXLIFT
 62
11
 10
1444.444
 20
-8087.123
 30
-840.000
 70
    32
  0
VERTEX
  8
W62LXLIFT
 62
11
 10
1455.903
 20
-8096.928
 30
-840.000
 70
    32
  0
VERTEX
  8
W62LXLIFT
 62
11
 10
1462.280
 20
-8097.354
 30
-840.000
 70
    32
  0
VERTEX
  8
W62LXLIFT
 62
11
 10
1489.330
 20
-8085.597
 30
-840.000
 70
    32
  0
VERTEX
  8
W62LXLIFT
 62
11
 10
1516.245
 20
-8071.985
 30
-840.000
 70
    32
  0
VERTEX
  8
W62LXLIFT
 62
11
 10
1525.777
 20
-8066.360
 30
-840.000
 70
    32
  0
SEQEND
  8
W62LXLIFT
  0
POLYLINE
  8
W62LXLIFT
 62
2
 66
     1
 70
     9
  0
VERTEX
  8
W62LXLIFT
 62
2
 10
1275.738
 20
-7063.777
 30
-827.000
 70
    32
  0
VERTEX
  8
W62LXLIFT
 62
2
 10
1277.309
 20
-7069.167
 30
-827.000
 70
    32
  0
VERTEX
  8
W62LXLIFT
 62
2
 10
1275.582
 20
-7089.394
 30
-827.000
 70
    32
  0
VERTEX
  8
W62LXLIFT
 62
2
 10
1277.583
 20
-7094.476
 30
-827.000
 70
    32
  0
VERTEX
  8
W62LXLIFT
 62
2
 10
1281.741
 20
-7099.538
 30
-827.000
 70
    32
  0
VERTEX
  8
W62LXLIFT
 62
2
 10
1298.793
 20
-7116.121
 30
-827.000
 70
    32
  0
VERTEX
  8
W62LXLIFT
 62
2
 10
1311.256
 20
-7130.989
 30
-827.000
 70
    32
  0
VERTEX
  8
W62LXLIFT
 62
2
 10
1324.765
 20
-7157.809
 30
-827.000
 70
    32
  0
VERTEX
  8
W62LXLIFT
 62
2
 10
1327.094
 20
-7166.238
 30
-827.000
 70
    32
  0
VERTEX
  8
W62LXLIFT
 62
2
 10
1324.044
 20
-7178.836
 30
-827.000
 70
    32
  0
VERTEX
  8
W62LXLIFT
 62
2
 10
1327.000
 20
-7180.848
 30
-827.000
 70
    32
  0
VERTEX
  8
W62LXLIFT
 62
2
 10
1323.427
 20
-7184.811
 30
-827.000
 70
    32
  0
VERTEX
  8
W62LXLIFT
 62
2
 10
1324.433
 20
-7188.651
 30
-827.000
 70
    32
  0
VERTEX
  8
W62LXLIFT
 62
2
 10
1331.148
 20
-7187.112
 30
-827.000
 70
    32
  0
VERTEX
  8
W62LXLIFT
 62
2
 10
1336.055
 20
-7188.817
 30
-827.000
 70
    32
  0
VERTEX
  8
W62LXLIFT
 62
2
 10
1340.869
 20
-7201.333
 30
-827.000
 70
    32
  0
VERTEX
  8
W62LXLIFT
 62
2
 10
1350.981
 20
-7220.051
 30
-827.000
 70
    32
  0
VERTEX
  8
W62LXLIFT
 62
2
 10
1354.756
 20
-7251.325
 30
-827.000
 70
    32
  0
VERTEX
  8
W62LXLIFT
 62
2
 10
1355.616
 20
-7267.424
 30
-827.000
 70
    32
  0
VERTEX
  8
W62LXLIFT
 62
2
 10
1361.858
 20
-7274.037
 30
-827.000
 70
    32
  0
VERTEX
  8
W62LXLIFT
 62
2
 10
1365.841
 20
-7279.766
 30
-827.000
 70
    32
  0
VERTEX
  8
W62LXLIFT
 62
2
 10
1367.473
 20
-7290.105
 30
-827.000
 70
    32
  0
VERTEX
  8
W62LXLIFT
 62
2
 10
1375.316
 20
-7293.946
 30
-827.000
 70
    32
  0
VERTEX
  8
W62LXLIFT
 62
2
 10
1386.405
 20
-7292.756
 30
-827.000
 70
    32
  0
VERTEX
  8
W62LXLIFT
 62
2
 10
1390.440
 20
-7290.200
 30
-827.000
 70
    32
  0
VERTEX
  8
W62LXLIFT
 62
2
 10
1388.542
 20
-7279.943
 30
-827.000
 70
    32
  0
VERTEX
  8
W62LXLIFT
 62
2
 10
1390.812
 20
-7273.547
 30
-827.000
 70
    32
  0
VERTEX
  8
W62LXLIFT
 62
2
 10
1383.543
 20
-7266.256
 30
-827.000
 70
    32
  0
VERTEX
  8
W62LXLIFT
 62
2
 10
1380.978
 20
-7251.266
 30
-827.000
 70
    32
  0
VERTEX
  8
W62LXLIFT
 62
2
 10
1369.216
 20
-7211.695
 30
-827.000
 70
    32
  0
VERTEX
  8
W62LXLIFT
 62
2
 10
1356.653
 20
-7174.650
 30
-827.000
 70
    32
  0
VERTEX
  8
W62LXLIFT
 62
2
 10
1349.817
 20
-7154.136
 30
-827.000
 70
    32
  0
VERTEX
  8
W62LXLIFT
 62
2
 10
1349.459
 20
-7142.996
 30
-827.000
 70
    32
  0
VERTEX
  8
W62LXLIFT
 62
2
 10
1350.773
 20
-7136.630
 30
-827.000
 70
    32
  0
VERTEX
  8
W62LXLIFT
 62
2
 10
1337.951
 20
-7124.298
 30
-827.000
 70
    32
  0
VERTEX
  8
W62LXLIFT
 62
2
 10
1323.312
 20
-7105.015
 30
-827.000
 70
    32
  0
VERTEX
  8
W62LXLIFT
 62
2
 10
1307.472
 20
-7085.721
 30
-827.000
 70
    32
  0
VERTEX
  8
W62LXLIFT
 62
2
 10
1298.716
 20
-7069.508
 30
-827.000
 70
    32
  0
VERTEX
  8
W62LXLIFT
 62
2
 10
1291.837
 20
-7068.994
 30
-827.000
 70
    32
  0
VERTEX
  8
W62LXLIFT
 62
2
 10
1286.561
 20
-7055.831
 30
-827.000
 70
    32
  0
SEQEND
  8
W62LXLIFT
  0
POLYLINE
  8
W62LXLIFT
 62
11
 66
     1
 70
     9
  0
VERTEX
  8
W62LXLIFT
 62
11
 10
1477.087
 20
-7969.586
 30
-826.000
 70
    32
  0
VERTEX
  8
W62LXLIFT
 62
11
 10
1488.764
 20
-8040.801
 30
-826.000
 70
    32
  0
VERTEX
  8
W62LXLIFT
 62
11
 10
1486.535
 20
-8044.671
 30
-826.000
 70
    32
  0
VERTEX
  8
W62LXLIFT
 62
11
 10
1480.251
 20
-8047.422
 30
-826.000
 70
    32
  0
VERTEX
  8
W62LXLIFT
 62
11
 10
1468.558
 20
-8035.911
 30
-826.000
 70
    32
  0
VERTEX
  8
W62LXLIFT
 62
11
 10
1458.775
 20
-8027.378
 30
-826.000
 70
    32
  0
VERTEX
  8
W62LXLIFT
 62
11
 10
1447.183
 20
-8023.609
 30
-826.000
 70
    32
  0
VERTEX
  8
W62LXLIFT
 62
11
 10
1423.351
 20
-8041.605
 30
-826.000
 70
    32
  0
VERTEX
  8
W62LXLIFT
 62
11
 10
1402.179
 20
-8058.461
 30
-826.000
 70
    32
  0
VERTEX
  8
W62LXLIFT
 62
11
 10
1401.900
 20
-8071.901
 30
-826.000
 70
    32
  0
VERTEX
  8
W62LXLIFT
 62
11
 10
1429.496
 20
-8095.498
 30
-826.000
 70
    32
  0
VERTEX
  8
W62LXLIFT
 62
11
 10
1434.291
 20
-8096.741
 30
-826.000
 70
    32
  0
VERTEX
  8
W62LXLIFT
 62
11
 10
1443.778
 20
-8093.004
 30
-826.000
 70
    32
  0
VERTEX
  8
W62LXLIFT
 62
11
 10
1466.499
 20
-8094.578
 30
-826.000
 70
    32
  0
VERTEX
  8
W62LXLIFT
 62
11
 10
1473.676
 20
-8092.925
 30
-826.000
 70
    32
  0
VERTEX
  8
W62LXLIFT
 62
11
 10
1533.259
 20
-8059.491
 30
-826.000
 70
    32
  0
VERTEX
  8
W62LXLIFT
 62
11
 10
1536.361
 20
-8055.323
 30
-826.000
 70
    32
  0
VERTEX
  8
W62LXLIFT
 62
11
 10
1537.193
 20
-8047.674
 30
-826.000
 70
    32
  0
VERTEX
  8
W62LXLIFT
 62
11
 10
1534.844
 20
-8031.010
 30
-826.000
 70
    32
  0
VERTEX
  8
W62LXLIFT
 62
11
 10
1528.089
 20
-8022.919
 30
-826.000
 70
    32
  0
VERTEX
  8
W62LXLIFT
 62
11
 10
1517.504
 20
-8013.873
 30
-826.000
 70
    32
  0
VERTEX
  8
W62LXLIFT
 62
11
 10
1511.693
 20
-8007.712
 30
-826.000
 70
    32
  0
VERTEX
  8
W62LXLIFT
 62
11
 10
1508.758
 20
-8001.777
 30
-826.000
 70
    32
  0
VERTEX
  8
W62LXLIFT
 62
11
 10
1495.926
 20
-7983.049
 30
-826.000
 70
    32
  0
VERTEX
  8
W62LXLIFT
 62
11
 10
1488.361
 20
-7965.008
 30
-826.000
 70
    32
  0
SEQEND
  8
W62LXLIFT
  0
POLYLINE
  8
W62LXLIFT
 62
2
 66
     1
 70
     9
  0
VERTEX
  8
W62LXLIFT
 62
2
 10
1270.439
 20
-7058.331
 30
-816.000
 70
    32
  0
VERTEX
  8
W62LXLIFT
 62
2
 10
1270.491
 20
-7071.706
 30
-816.000
 70
    32
  0
VERTEX
  8
W62LXLIFT
 62
2
 10
1283.607
 20
-7094.225
 30
-816.000
 70
    32
  0
VERTEX
  8
W62LXLIFT
 62
2
 10
1289.375
 20
-7103.449
 30
-816.000
 70
    32
  0
VERTEX
  8
W62LXLIFT
 62
2
 10
1300.102
 20
-7112.193
 30
-816.000
 70
    32
  0
VERTEX
  8
W62LXLIFT
 62
2
 10
1313.597
 20
-7130.660
 30
-816.000
 70
    32
  0
VERTEX
  8
W62LXLIFT
 62
2
 10
1319.425
 20
-7146.545
 30
-816.000
 70
    32
  0
VERTEX
  8
W62LXLIFT
 62
2
 10
1322.021
 20
-7162.447
 30
-816.000
 70
    32
  0
VERTEX
  8
W62LXLIFT
 62
2
 10
1328.027
 20
-7177.666
 30
-816.000
 70
    32
  0
VERTEX
  8
W62LXLIFT
 62
2
 10
1324.739
 20
-7182.804
 30
-816.000
 70
    32
  0
VERTEX
  8
W62LXLIFT
 62
2
 10
1326.067
 20
-7186.516
 30
-816.000
 70
    32
  0
VERTEX
  8
W62LXLIFT
 62
2
 10
1328.003
 20
-7187.418
 30
-816.000
 70
    32
  0
VERTEX
  8
W62LXLIFT
 62
2
 10
1334.074
 20
-7186.368
 30
-816.000
 70
    32
  0
VERTEX
  8
W62LXLIFT
 62
2
 10
1358.349
 20
-7255.397
 30
-816.000
 70
    32
  0
VERTEX
  8
W62LXLIFT
 62
2
 10
1361.781
 20
-7267.894
 30
-816.000
 70
    32
  0
VERTEX
  8
W62LXLIFT
 62
2
 10
1364.929
 20
-7270.968
 30
-816.000
 70
    32
  0
VERTEX
  8
W62LXLIFT
 62
2
 10
1367.234
 20
-7276.367
 30
-816.000
 70
    32
  0
VERTEX
  8
W62LXLIFT
 62
2
 10
1370.091
 20
-7277.807
 30
-816.000
 70
    32
  0
VERTEX
  8
W62LXLIFT
 62
2
 10
1374.669
 20
-7282.140
 30
-816.000
 70
    32
  0
VERTEX
  8
W62LXLIFT
 62
2
 10
1378.110
 20
-7281.652
 30
-816.000
 70
    32
  0
VERTEX
  8
W62LXLIFT
 62
2
 10
1378.799
 20
-7279.110
 30
-816.000
 70
    32
  0
VERTEX
  8
W62LXLIFT
 62
2
 10
1374.652
 20
-7268.200
 30
-816.000
 70
    32
  0
VERTEX
  8
W62LXLIFT
 62
2
 10
1373.190
 20
-7262.312
 30
-816.000
 70
    32
  0
VERTEX
  8
W62LXLIFT
 62
2
 10
1373.586
 20
-7245.593
 30
-816.000
 70
    32
  0
VERTEX
  8
W62LXLIFT
 62
2
 10
1367.056
 20
-7232.691
 30
-816.000
 70
    32
  0
VERTEX
  8
W62LXLIFT
 62
2
 10
1363.669
 20
-7219.187
 30
-816.000
 70
    32
  0
VERTEX
  8
W62LXLIFT
 62
2
 10
1355.032
 20
-7195.662
 30
-816.000
 70
    32
  0
VERTEX
  8
W62LXLIFT
 62
2
 10
1347.327
 20
-7152.659
 30
-816.000
 70
    32
  0
VERTEX
  8
W62LXLIFT
 62
2
 10
1342.754
 20
-7144.970
 30
-816.000
 70
    32
  0
VERTEX
  8
W62LXLIFT
 62
2
 10
1340.767
 20
-7126.258
 30
-816.000
 70
    32
  0
VERTEX
  8
W62LXLIFT
 62
2
 10
1329.781
 20
-7117.914
 30
-816.000
 70
    32
  0
VERTEX
  8
W62LXLIFT
 62
2
 10
1313.283
 20
-7096.272
 30
-816.000
 70
    32
  0
VERTEX
  8
W62LXLIFT
 62
2
 10
1286.937
 20
-7057.801
 30
-816.000
 70
    32
  0
VERTEX
  8
W62LXLIFT
 62
2
 10
1274.761
 20
-7056.031
 30
-816.000
 70
    32
  0
SEQEND
  8
W62LXLIFT
  0
POLYLINE
  8
W62LXLIFT
 62
11
 66
     1
 70
     9
  0
VERTEX
  8
W62LXLIFT
 62
11
 10
1527.695
 20
-8059.796
 30
-817.000
 70
    32
  0
VERTEX
  8
W62LXLIFT
 62
11
 10
1531.990
 20
-8052.107
 30
-817.000
 70
    32
  0
VERTEX
  8
W62LXLIFT
 62
11
 10
1529.323
 20
-8040.691
 30
-817.000
 70
    32
  0
VERTEX
  8
W62LXLIFT
 62
11
 10
1523.162
 20
-8027.852
 30
-817.000
 70
    32
  0
VERTEX
  8
W62LXLIFT
 62
11
 10
1510.973
 20
-8017.655
 30
-817.000
 70
    32
  0
VERTEX
  8
W62LXLIFT
 62
11
 10
1500.932
 20
-8015.997
 30
-817.000
 70
    32
  0
VERTEX
  8
W62LXLIFT
 62
11
 10
1491.297
 20
-7999.775
 30
-817.000
 70
    32
  0
VERTEX
  8
W62LXLIFT
 62
11
 10
1482.071
 20
-7977.099
 30
-817.000
 70
    32
  0
VERTEX
  8
W62LXLIFT
 62
11
 10
1475.178
 20
-7971.483
 30
-817.000
 70
    32
  0
VERTEX
  8
W62LXLIFT
 62
11
 10
1468.504
 20
-7963.117
 30
-817.000
 70
    32
  0
VERTEX
  8
W62LXLIFT
 62
11
 10
1463.275
 20
-7966.275
 30
-817.000
 70
    32
  0
VERTEX
  8
W62LXLIFT
 62
11
 10
1468.335
 20
-7986.274
 30
-817.000
 70
    32
  0
VERTEX
  8
W62LXLIFT
 62
11
 10
1475.219
 20
-8004.874
 30
-817.000
 70
    32
  0
VERTEX
  8
W62LXLIFT
 62
11
 10
1478.045
 20
-8035.322
 30
-817.000
 70
    32
  0
VERTEX
  8
W62LXLIFT
 62
11
 10
1479.018
 20
-8058.103
 30
-817.000
 70
    32
  0
VERTEX
  8
W62LXLIFT
 62
11
 10
1479.018
 20
-8066.972
 30
-817.000
 70
    32
  0
VERTEX
  8
W62LXLIFT
 62
11
 10
1492.952
 20
-8079.180
 30
-817.000
 70
    32
  0
VERTEX
  8
W62LXLIFT
 62
11
 10
1508.678
 20
-8070.219
 30
-817.000
 70
    32
  0
SEQEND
  8
W62LXLIFT
  0
POLYLINE
  8
W62LXLIFT
 62
2
 66
     1
 70
     9
  0
VERTEX
  8
W62LXLIFT
 62
2
 10
1335.718
 20
-7137.875
 30
-810.000
 70
    32
  0
VERTEX
  8
W62LXLIFT
 62
2
 10
1331.122
 20
-7136.511
 30
-810.000
 70
    32
  0
VERTEX
  8
W62LXLIFT
 62
2
 10
1321.693
 20
-7137.670
 30
-810.000
 70
    32
  0
VERTEX
  8
W62LXLIFT
 62
2
 10
1311.057
 20
-7141.235
 30
-810.000
 70
    32
  0
VERTEX
  8
W62LXLIFT
 62
2
 10
1314.804
 20
-7151.519
 30
-810.000
 70
    32
  0
VERTEX
  8
W62LXLIFT
 62
2
 10
1314.741
 20
-7166.643
 30
-810.000
 70
    32
  0
VERTEX
  8
W62LXLIFT
 62
2
 10
1323.844
 20
-7178.286
 30
-810.000
 70
    32
  0
VERTEX
  8
W62LXLIFT
 62
2
 10
1324.215
 20
-7189.490
 30
-810.000
 70
    32
  0
VERTEX
  8
W62LXLIFT
 62
2
 10
1340.158
 20
-7201.525
 30
-810.000
 70
    32
  0
VERTEX
  8
W62LXLIFT
 62
2
 10
1349.388
 20
-7220.723
 30
-810.000
 70
    32
  0
VERTEX
  8
W62LXLIFT
 62
2
 10
1352.860
 20
-7243.882
 30
-810.000
 70
    32
  0
VERTEX
  8
W62LXLIFT
 62
2
 10
1355.213
 20
-7256.161
 30
-810.000
 70
    32
  0
VERTEX
  8
W62LXLIFT
 62
2
 10
1362.136
 20
-7269.167
 30
-810.000
 70
    32
  0
VERTEX
  8
W62LXLIFT
 62
2
 10
1371.320
 20
-7277.910
 30
-810.000
 70
    32
  0
VERTEX
  8
W62LXLIFT
 62
2
 10
1375.363
 20
-7273.994
 30
-810.000
 70
    32
  0
VERTEX
  8
W62LXLIFT
 62
2
 10
1363.998
 20
-7227.607
 30
-810.000
 70
    32
  0
VERTEX
  8
W62LXLIFT
 62
2
 10
1355.811
 20
-7205.028
 30
-810.000
 70
    32
  0
VERTEX
  8
W62LXLIFT
 62
2
 10
1346.659
 20
-7190.907
 30
-810.000
 70
    32
  0
VERTEX
  8
W62LXLIFT
 62
2
 10
1343.710
 20
-7177.204
 30
-810.000
 70
    32
  0
VERTEX
  8
W62LXLIFT
 62
2
 10
1342.794
 20
-7164.647
 30
-810.000
 70
    32
  0
VERTEX
  8
W62LXLIFT
 62
2
 10
1344.165
 20
-7154.036
 30
-810.000
 70
    32
  0
SEQEND
  8
W62LXLIFT
  0
POLYLINE
  8
W62LXLIFT
 62
11
 66
     1
 70
     9
  0
VERTEX
  8
W62LXLIFT
 62
11
 10
1519.242
 20
-8060.558
 30
-807.000
 70
    32
  0
VERTEX
  8
W62LXLIFT
 62
11
 10
1518.856
 20
-8034.724
 30
-807.000
 70
    32
  0
VERTEX
  8
W62LXLIFT
 62
11
 10
1505.468
 20
-8023.349
 30
-807.000
 70
    32
  0
VERTEX
  8
W62LXLIFT
 62
11
 10
1499.909
 20
-8016.893
 30
-807.000
 70
    32
  0
VERTEX
  8
W62LXLIFT
 62
11
 10
1490.034
 20
-8009.306
 30
-807.000
 70
    32
  0
VERTEX
  8
W62LXLIFT
 62
11
 10
1486.788
 20
-8005.434
 30
-807.000
 70
    32
  0
VERTEX
  8
W62LXLIFT
 62
11
 10
1473.478
 20
-7976.848
 30
-807.000
 70
    32
  0
VERTEX
  8
W62LXLIFT
 62
11
 10
1465.209
 20
-7980.661
 30
-807.000
 70
    32
  0
VERTEX
  8
W62LXLIFT
 62
11
 10
1461.967
 20
-7984.325
 30
-807.000
 70
    32
  0
VERTEX
  8
W62LXLIFT
 62
11
 10
1460.972
 20
-7995.755
 30
-807.000
 70
    32
  0
VERTEX
  8
W62LXLIFT
 62
11
 10
1462.410
 20
-7999.846
 30
-807.000
 70
    32
  0
VERTEX
  8
W62LXLIFT
 62
11
 10
1461.449
 20
-8004.696
 30
-807.000
 70
    32
  0
VERTEX
  8
W62LXLIFT
 62
11
 10
1467.766
 20
-8019.125
 30
-807.000
 70
    32
  0
VERTEX
  8
W62LXLIFT
 62
11
 10
1469.507
 20
-8032.067
 30
-807.000
 70
    32
  0
VERTEX
  8
W62LXLIFT
 62
11
 10
1468.306
 20
-8058.725
 30
-807.000
 70
    32
  0
VERTEX
  8
W62LXLIFT
 62
11
 10
1470.559
 20
-8061.680
 30
-807.000
 70
    32
  0
VERTEX
  8
W62LXLIFT
 62
11
 10
1470.917
 20
-8066.992
 30
-807.000
 70
    32
  0
VERTEX
  8
W62LXLIFT
 62
11
 10
1473.965
 20
-8073.303
 30
-807.000
 70
    32
  0
VERTEX
  8
W62LXLIFT
 62
11
 10
1477.897
 20
-8075.258
 30
-807.000
 70
    32
  0
VERTEX
  8
W62LXLIFT
 62
11
 10
1488.221
 20
-8076.837
 30
-807.000
 70
    32
  0
VERTEX
  8
W62LXLIFT
 62
11
 10
1504.889
 20
-8068.787
 30
-807.000
 70
    32
  0
SEQEND
  8
W62LXLIFT
  0
POLYLINE
  8
W62LXLIFT
 62
1
 66
     1
 70
     9
  0
VERTEX
  8
W62LXLIFT
 62
1
 10
1505.889
 20
-8067.787
 30
-797.000
 70
    32
  0
VERTEX
  8
W62LXLIFT
 62
1
 10
1489.221
 20
-8075.837
 30
-797.000
 70
    32
  0
VERTEX
  8
W62LXLIFT
 62
1
 10
1478.897
 20
-8074.258
 30
-797.000
 70
    32
  0
VERTEX
  8
W62LXLIFT
 62
1
 10
1474.965
 20
-8072.303
 30
-797.000
 70
    32
  0
VERTEX
  8
W62LXLIFT
 62
1
 10
1471.917
 20
-8065.992
 30
-797.000
 70
    32
  0
VERTEX
  8
W62LXLIFT
 62
1
 10
1471.559
 20
-8060.680
 30
-797.000
 70
    32
  0
VERTEX
  8
W62LXLIFT
 62
1
 10
1469.306
 20
-8057.725
 30
-797.000
 70
    32
  0
VERTEX
  8
W62LXLIFT
 62
1
 10
1470.507
 20
-8031.067
 30
-797.000
 70
    32
  0
VERTEX
  8
W62LXLIFT
 62
1
 10
1468.766
 20
-8018.125
 30
-797.000
 70
    32
  0
VERTEX
  8
W62LXLIFT
 62
1
 10
1462.449
 20
-8003.696
 30
-797.000
 70
    32
  0
VERTEX
  8
W62LXLIFT
 62
1
 10
1463.410
 20
-7998.846
 30
-797.000
 70
    32
  0
VERTEX
  8
W62LXLIFT
 62
1
 10
1461.972
 20
-7994.755
 30
-797.000
 70
    32
  0
VERTEX
  8
W62LXLIFT
 62
1
 10
1462.967
 20
-7983.325
 30
-797.000
 70
    32
  0
VERTEX
  8
W62LXLIFT
 62
1
 10
1466.209
 20
-7979.661
 30
-797.000
 70
    32
  0
VERTEX
  8
W62LXLIFT
 62
1
 10
1474.478
 20
-7975.848
 30
-797.000
 70
    32
  0
VERTEX
  8
W62LXLIFT
 62
1
 10
1487.788
 20
-8004.434
 30
-797.000
 70
    32
  0
VERTEX
  8
W62LXLIFT
 62
1
 10
1491.034
 20
-8008.306
 30
-797.000
 70
    32
  0
VERTEX
  8
W62LXLIFT
 62
1
 10
1500.909
 20
-8015.893
 30
-797.000
 70
    32
  0
VERTEX
  8
W62LXLIFT
 62
1
 10
1506.468
 20
-8022.349
 30
-797.000
 70
    32
  0
VERTEX
  8
W62LXLIFT
 62
1
 10
1519.856
 20
-8033.724
 30
-797.000
 70
    32
  0
VERTEX
  8
W62LXLIFT
 62
1
 10
1520.242
 20
-8059.558
 30
-797.000
 70
    32
  0
SEQEND
  8
W62LXLIFT
  0
POLYLINE
  8
W62LXLIFT
 62
2
 66
     1
 70
     9
  0
VERTEX
  8
W62LXLIFT
 62
2
 10
1314.276
 20
-7135.032
 30
-804.000
 70
    32
  0
VERTEX
  8
W62LXLIFT
 62
2
 10
1302.210
 20
-7142.937
 30
-804.000
 70
    32
  0
VERTEX
  8
W62LXLIFT
 62
2
 10
1306.951
 20
-7155.752
 30
-804.000
 70
    32
  0
VERTEX
  8
W62LXLIFT
 62
2
 10
1305.379
 20
-7167.658
 30
-804.000
 70
    32
  0
VERTEX
  8
W62LXLIFT
 62
2
 10
1318.086
 20
-7192.170
 30
-804.000
 70
    32
  0
VERTEX
  8
W62LXLIFT
 62
2
 10
1324.703
 20
-7195.472
 30
-804.000
 70
    32
  0
VERTEX
  8
W62LXLIFT
 62
2
 10
1342.388
 20
-7217.062
 30
-804.000
 70
    32
  0
VERTEX
  8
W62LXLIFT
 62
2
 10
1344.363
 20
-7221.630
 30
-804.000
 70
    32
  0
VERTEX
  8
W62LXLIFT
 62
2
 10
1347.483
 20
-7223.852
 30
-804.000
 70
    32
  0
VERTEX
  8
W62LXLIFT
 62
2
 10
1346.887
 20
-7220.143
 30
-804.000
 70
    32
  0
VERTEX
  8
W62LXLIFT
 62
2
 10
1338.693
 20
-7199.793
 30
-804.000
 70
    32
  0
VERTEX
  8
W62LXLIFT
 62
2
 10
1332.435
 20
-7180.774
 30
-804.000
 70
    32
  0
VERTEX
  8
W62LXLIFT
 62
2
 10
1331.838
 20
-7160.846
 30
-804.000
 70
    32
  0
VERTEX
  8
W62LXLIFT
 62
2
 10
1329.174
 20
-7156.228
 30
-804.000
 70
    32
  0
VERTEX
  8
W62LXLIFT
 62
2
 10
1325.080
 20
-7147.194
 30
-804.000
 70
    32
  0
VERTEX
  8
W62LXLIFT
 62
2
 10
1323.023
 20
-7138.874
 30
-804.000
 70
    32
  0
SEQEND
  8
W62LXLIFT
  0
POLYLINE
  8
W62LXLIFT
 62
13
 66
     1
 70
     9
  0
VERTEX
  8
W62LXLIFT
 62
13
 10
1682.230
 20
-8663.818
 30
-806.000
 70
    32
  0
VERTEX
  8
W62LXLIFT
 62
13
 10
1679.921
 20
-8642.684
 30
-806.000
 70
    32
  0
VERTEX
  8
W62LXLIFT
 62
13
 10
1682.307
 20
-8641.944
 30
-806.000
 70
    32
  0
VERTEX
  8
W62LXLIFT
 62
13
 10
1680.931
 20
-8633.102
 30
-806.000
 70
    32
  0
VERTEX
  8
W62LXLIFT
 62
13
 10
1687.056
 20
-8629.896
 30
-806.000
 70
    32
  0
VERTEX
  8
W62LXLIFT
 62
13
 10
1686.605
 20
-8618.878
 30
-806.000
 70
    32
  0
VERTEX
  8
W62LXLIFT
 62
13
 10
1698.864
 20
-8616.996
 30
-806.000
 70
    32
  0
VERTEX
  8
W62LXLIFT
 62
13
 10
1703.977
 20
-8627.585
 30
-806.000
 70
    32
  0
VERTEX
  8
W62LXLIFT
 62
13
 10
1704.711
 20
-8636.888
 30
-806.000
 70
    32
  0
VERTEX
  8
W62LXLIFT
 62
13
 10
1712.251
 20
-8647.248
 30
-806.000
 70
    32
  0
VERTEX
  8
W62LXLIFT
 62
13
 10
1712.198
 20
-8665.541
 30
-806.000
 70
    32
  0
VERTEX
  8
W62LXLIFT
 62
13
 10
1704.627
 20
-8684.799
 30
-806.000
 70
    32
  0
VERTEX
  8
W62LXLIFT
 62
13
 10
1703.477
 20
-8695.993
 30
-806.000
 70
    32
  0
VERTEX
  8
W62LXLIFT
 62
13
 10
1703.240
 20
-8709.665
 30
-806.000
 70
    32
  0
VERTEX
  8
W62LXLIFT
 62
13
 10
1712.720
 20
-8730.407
 30
-806.000
 70
    32
  0
VERTEX
  8
W62LXLIFT
 62
13
 10
1701.481
 20
-8732.206
 30
-806.000
 70
    32
  0
VERTEX
  8
W62LXLIFT
 62
13
 10
1682.293
 20
-8674.898
 30
-806.000
 70
    32
  0
SEQEND
  8
W62LXLIFT
  0
POLYLINE
  8
W62LXLIFT
 62
1
 66
     1
 70
     9
  0
VERTEX
  8
W62LXLIFT
 62
1
 10
1683.230
 20
-8662.818
 30
-796.000
 70
    32
  0
VERTEX
  8
W62LXLIFT
 62
1
 10
1680.921
 20
-8641.684
 30
-796.000
 70
    32
  0
VERTEX
  8
W62LXLIFT
 62
1
 10
1683.307
 20
-8640.944
 30
-796.000
 70
    32
  0
VERTEX
  8
W62LXLIFT
 62
1
 10
1681.931
 20
-8632.102
 30
-796.000
 70
    32
  0
VERTEX
  8
W62LXLIFT
 62
1
 10
1688.056
 20
-8628.896
 30
-796.000
 70
    32
  0
VERTEX
  8
W62LXLIFT
 62
1
 10
1687.605
 20
-8617.878
 30
-796.000
 70
    32
  0
VERTEX
  8
W62LXLIFT
 62
1
 10
1699.864
 20
-8615.996
 30
-796.000
 70
    32
  0
VERTEX
  8
W62LXLIFT
 62
1
 10
1704.977
 20
-8626.585
 30
-796.000
 70
    32
  0
VERTEX
  8
W62LXLIFT
 62
1
 10
1705.711
 20
-8635.888
 30
-796.000
 70
    32
  0
VERTEX
  8
W62LXLIFT
 62
1
 10
1713.251
 20
-8646.248
 30
-796.000
 70
    32
  0
VERTEX
  8
W62LXLIFT
 62
1
 10
1713.198
 20
-8664.541
 30
-796.000
 70
    32
  0
VERTEX
  8
W62LXLIFT
 62
1
 10
1705.627
 20
-8683.799
 30
-796.000
 70
    32
  0
VERTEX
  8
W62LXLIFT
 62
1
 10
1704.477
 20
-8694.993
 30
-796.000
 70
    32
  0
VERTEX
  8
W62LXLIFT
 62
1
 10
1704.240
 20
-8708.665
 30
-796.000
 70
    32
  0
VERTEX
  8
W62LXLIFT
 62
1
 10
1713.720
 20
-8729.407
 30
-796.000
 70
    32
  0
VERTEX
  8
W62LXLIFT
 62
1
 10
1702.481
 20
-8731.206
 30
-796.000
 70
    32
  0
VERTEX
  8
W62LXLIFT
 62
1
 10
1683.293
 20
-8673.898
 30
-796.000
 70
    32
  0
SEQEND
  8
W62LXLIFT
  0
POLYLINE
  8
W62LXLIFT
 62
8
 66
     1
 70
     9
  0
VERTEX
  8
W62LXLIFT
 62
8
 10
1374.076
 20
-7567.444
 30
-814.000
 70
    32
  0
VERTEX
  8
W62LXLIFT
 62
8
 10
1380.977
 20
-7555.025
 30
-814.000
 70
    32
  0
VERTEX
  8
W62LXLIFT
 62
8
 10
1378.809
 20
-7538.623
 30
-814.000
 70
    32
  0
VERTEX
  8
W62LXLIFT
 62
8
 10
1371.964
 20
-7526.313
 30
-814.000
 70
    32
  0
VERTEX
  8
W62LXLIFT
 62
8
 10
1369.457
 20
-7524.094
 30
-814.000
 70
    32
  0
VERTEX
  8
W62LXLIFT
 62
8
 10
1369.843
 20
-7517.447
 30
-814.000
 70
    32
  0
VERTEX
  8
W62LXLIFT
 62
8
 10
1382.651
 20
-7506.945
 30
-814.000
 70
    32
  0
VERTEX
  8
W62LXLIFT
 62
8
 10
1385.152
 20
-7507.961
 30
-814.000
 70
    32
  0
VERTEX
  8
W62LXLIFT
 62
8
 10
1389.054
 20
-7520.896
 30
-814.000
 70
    32
  0
VERTEX
  8
W62LXLIFT
 62
8
 10
1395.075
 20
-7530.740
 30
-814.000
 70
    32
  0
VERTEX
  8
W62LXLIFT
 62
8
 10
1409.042
 20
-7536.613
 30
-814.000
 70
    32
  0
VERTEX
  8
W62LXLIFT
 62
8
 10
1407.654
 20
-7553.103
 30
-814.000
 70
    32
  0
VERTEX
  8
W62LXLIFT
 62
8
 10
1411.527
 20
-7556.733
 30
-814.000
 70
    32
  0
VERTEX
  8
W62LXLIFT
 62
8
 10
1402.935
 20
-7564.906
 30
-814.000
 70
    32
  0
VERTEX
  8
W62LXLIFT
 62
8
 10
1383.119
 20
-7574.080
 30
-814.000
 70
    32
  0
SEQEND
  8
W62LXLIFT
  0
POLYLINE
  8
W62LXLIFT
 62
1
 66
     1
 70
     9
  0
VERTEX
  8
W62LXLIFT
 62
1
 10
1384.119
 20
-7573.080
 30
-804.000
 70
    32
  0
VERTEX
  8
W62LXLIFT
 62
1
 10
1403.935
 20
-7563.906
 30
-804.000
 70
    32
  0
VERTEX
  8
W62LXLIFT
 62
1
 10
1412.527
 20
-7555.733
 30
-804.000
 70
    32
  0
VERTEX
  8
W62LXLIFT
 62
1
 10
1408.654
 20
-7552.103
 30
-804.000
 70
    32
  0
VERTEX
  8
W62LXLIFT
 62
1
 10
1410.042
 20
-7535.613
 30
-804.000
 70
    32
  0
VERTEX
  8
W62LXLIFT
 62
1
 10
1396.075
 20
-7529.740
 30
-804.000
 70
    32
  0
VERTEX
  8
W62LXLIFT
 62
1
 10
1390.054
 20
-7519.896
 30
-804.000
 70
    32
  0
VERTEX
  8
W62LXLIFT
 62
1
 10
1386.152
 20
-7506.961
 30
-804.000
 70
    32
  0
VERTEX
  8
W62LXLIFT
 62
1
 10
1383.651
 20
-7505.945
 30
-804.000
 70
    32
  0
VERTEX
  8
W62LXLIFT
 62
1
 10
1370.843
 20
-7516.447
 30
-804.000
 70
    32
  0
VERTEX
  8
W62LXLIFT
 62
1
 10
1370.457
 20
-7523.094
 30
-804.000
 70
    32
  0
VERTEX
  8
W62LXLIFT
 62
1
 10
1372.964
 20
-7525.313
 30
-804.000
 70
    32
  0
VERTEX
  8
W62LXLIFT
 62
1
 10
1379.809
 20
-7537.623
 30
-804.000
 70
    32
  0
VERTEX
  8
W62LXLIFT
 62
1
 10
1381.977
 20
-7554.025
 30
-804.000
 70
    32
  0
VERTEX
  8
W62LXLIFT
 62
1
 10
1375.076
 20
-7566.444
 30
-804.000
 70
    32
  0
SEQEND
  8
W62LXLIFT
  0
POLYLINE
  8
W62LXLIFT
 62
6
 66
     1
 70
     9
  0
VERTEX
  8
W62LXLIFT
 62
6
 10
1723.268
 20
-8613.548
 30
-934.000
 70
    32
  0
VERTEX
  8
W62LXLIFT
 62
6
 10
1711.909
 20
-8569.829
 30
-934.000
 70
    32
  0
VERTEX
  8
W62LXLIFT
 62
6
 10
1701.376
 20
-8528.007
 30
-934.000
 70
    32
  0
VERTEX
  8
W62LXLIFT
 62
6
 10
1691.692
 20
-8493.375
 30
-934.000
 70
    32
  0
VERTEX
  8
W62LXLIFT
 62
6
 10
1678.258
 20
-8454.294
 30
-934.000
 70
    32
  0
VERTEX
  8
W62LXLIFT
 62
6
 10
1694.263
 20
-8442.974
 30
-934.000
 70
    32
  0
VERTEX
  8
W62LXLIFT
 62
6
 10
1702.812
 20
-8477.232
 30
-934.000
 70
    32
  0
VERTEX
  8
W62LXLIFT
 62
6
 10
1712.950
 20
-8517.605
 30
-934.000
 70
    32
  0
VERTEX
  8
W62LXLIFT
 62
6
 10
1726.052
 20
-8560.284
 30
-934.000
 70
    32
  0
VERTEX
  8
W62LXLIFT
 62
6
 10
1738.371
 20
-8601.577
 30
-934.000
 70
    32
  0
SEQEND
  8
W62LXLIFT
  0
POLYLINE
  8
W62LXLIFT
 62
3
 66
     1
 70
     9
  0
VERTEX
  8
W62LXLIFT
 62
3
 10
1366.351
 20
-6711.545
 30
-915.000
 70
    32
  0
VERTEX
  8
W62LXLIFT
 62
3
 10
1360.631
 20
-6699.459
 30
-915.000
 70
    32
  0
VERTEX
  8
W62LXLIFT
 62
3
 10
1338.992
 20
-6677.611
 30
-915.000
 70
    32
  0
VERTEX
  8
W62LXLIFT
 62
3
 10
1327.653
 20
-6660.373
 30
-915.000
 70
    32
  0
VERTEX
  8
W62LXLIFT
 62
3
 10
1323.975
 20
-6632.276
 30
-915.000
 70
    32
  0
VERTEX
  8
W62LXLIFT
 62
3
 10
1319.661
 20
-6631.367
 30
-915.000
 70
    32
  0
VERTEX
  8
W62LXLIFT
 62
3
 10
1317.377
 20
-6628.471
 30
-915.000
 70
    32
  0
VERTEX
  8
W62LXLIFT
 62
3
 10
1295.572
 20
-6630.243
 30
-915.000
 70
    32
  0
VERTEX
  8
W62LXLIFT
 62
3
 10
1295.328
 20
-6626.428
 30
-915.000
 70
    32
  0
VERTEX
  8
W62LXLIFT
 62
3
 10
1308.637
 20
-6623.931
 30
-915.000
 70
    32
  0
VERTEX
  8
W62LXLIFT
 62
3
 10
1313.462
 20
-6621.025
 30
-915.000
 70
    32
  0
VERTEX
  8
W62LXLIFT
 62
3
 10
1314.748
 20
-6613.315
 30
-915.000
 70
    32
  0
VERTEX
  8
W62LXLIFT
 62
3
 10
1312.823
 20
-6590.541
 30
-915.000
 70
    32
  0
VERTEX
  8
W62LXLIFT
 62
3
 10
1312.446
 20
-6584.881
 30
-915.000
 70
    32
  0
VERTEX
  8
W62LXLIFT
 62
3
 10
1316.935
 20
-6573.806
 30
-915.000
 70
    32
  0
VERTEX
  8
W62LXLIFT
 62
3
 10
1320.495
 20
-6564.903
 30
-915.000
 70
    32
  0
VERTEX
  8
W62LXLIFT
 62
3
 10
1320.815
 20
-6534.705
 30
-915.000
 70
    32
  0
VERTEX
  8
W62LXLIFT
 62
3
 10
1322.103
 20
-6514.165
 30
-915.000
 70
    32
  0
VERTEX
  8
W62LXLIFT
 62
3
 10
1325.663
 20
-6506.771
 30
-915.000
 70
    32
  0
VERTEX
  8
W62LXLIFT
 62
3
 10
1327.836
 20
-6500.152
 30
-915.000
 70
    32
  0
VERTEX
  8
W62LXLIFT
 62
3
 10
1329.013
 20
-6470.852
 30
-915.000
 70
    32
  0
VERTEX
  8
W62LXLIFT
 62
3
 10
1339.273
 20
-6468.915
 30
-915.000
 70
    32
  0
VERTEX
  8
W62LXLIFT
 62
3
 10
1341.780
 20
-6478.767
 30
-915.000
 70
    32
  0
VERTEX
  8
W62LXLIFT
 62
3
 10
1346.696
 20
-6482.480
 30
-915.000
 70
    32
  0
VERTEX
  8
W62LXLIFT
 62
3
 10
1343.827
 20
-6503.826
 30
-915.000
 70
    32
  0
VERTEX
  8
W62LXLIFT
 62
3
 10
1344.275
 20
-6512.454
 30
-915.000
 70
    32
  0
VERTEX
  8
W62LXLIFT
 62
3
 10
1352.451
 20
-6536.585
 30
-915.000
 70
    32
  0
VERTEX
  8
W62LXLIFT
 62
3
 10
1353.521
 20
-6545.631
 30
-915.000
 70
    32
  0
VERTEX
  8
W62LXLIFT
 62
3
 10
1350.082
 20
-6560.592
 30
-915.000
 70
    32
  0
VERTEX
  8
W62LXLIFT
 62
3
 10
1337.923
 20
-6579.948
 30
-915.000
 70
    32
  0
VERTEX
  8
W62LXLIFT
 62
3
 10
1340.747
 20
-6586.771
 30
-915.000
 70
    32
  0
VERTEX
  8
W62LXLIFT
 62
3
 10
1333.800
 20
-6601.650
 30
-915.000
 70
    32
  0
VERTEX
  8
W62LXLIFT
 62
3
 10
1343.323
 20
-6622.987
 30
-915.000
 70
    32
  0
VERTEX
  8
W62LXLIFT
 62
3
 10
1356.337
 20
-6621.887
 30
-915.000
 70
    32
  0
VERTEX
  8
W62LXLIFT
 62
3
 10
1361.077
 20
-6642.866
 30
-915.000
 70
    32
  0
VERTEX
  8
W62LXLIFT
 62
3
 10
1372.140
 20
-6658.359
 30
-915.000
 70
    32
  0
VERTEX
  8
W62LXLIFT
 62
3
 10
1366.825
 20
-6670.240
 30
-915.000
 70
    32
  0
VERTEX
  8
W62LXLIFT
 62
3
 10
1374.136
 20
-6681.082
 30
-915.000
 70
    32
  0
VERTEX
  8
W62LXLIFT
 62
3
 10
1367.689
 20
-6696.359
 30
-915.000
 70
    32
  0
VERTEX
  8
W62LXLIFT
 62
3
 10
1372.960
 20
-6707.364
 30
-915.000
 70
    32
  0
SEQEND
  8
W62LXLIFT
  0
POLYLINE
  8
W62LXLIFT
 62
2
 66
     1
 70
     9
  0
VERTEX
  8
W62LXLIFT
 62
2
 10
832.367
 20
-6058.581
 30
-914.000
 70
    32
  0
VERTEX
  8
W62LXLIFT
 62
2
 10
845.401
 20
-6065.661
 30
-914.000
 70
    32
  0
VERTEX
  8
W62LXLIFT
 62
2
 10
842.982
 20
-6076.012
 30
-914.000
 70
    32
  0
VERTEX
  8
W62LXLIFT
 62
2
 10
847.520
 20
-6081.611
 30
-914.000
 70
    32
  0
VERTEX
  8
W62LXLIFT
 62
2
 10
854.944
 20
-6088.384
 30
-914.000
 70
    32
  0
VERTEX
  8
W62LXLIFT
 62
2
 10
876.124
 20
-6108.081
 30
-914.000
 70
    32
  0
VERTEX
  8
W62LXLIFT
 62
2
 10
879.162
 20
-6114.751
 30
-914.000
 70
    32
  0
VERTEX
  8
W62LXLIFT
 62
2
 10
884.516
 20
-6119.229
 30
-914.000
 70
    32
  0
VERTEX
  8
W62LXLIFT
 62
2
 10
887.544
 20
-6125.583
 30
-914.000
 70
    32
  0
VERTEX
  8
W62LXLIFT
 62
2
 10
905.511
 20
-6149.837
 30
-914.000
 70
    32
  0
VERTEX
  8
W62LXLIFT
 62
2
 10
902.380
 20
-6150.888
 30
-914.000
 70
    32
  0
VERTEX
  8
W62LXLIFT
 62
2
 10
894.813
 20
-6151.764
 30
-914.000
 70
    32
  0
VERTEX
  8
W62LXLIFT
 62
2
 10
889.183
 20
-6154.598
 30
-914.000
 70
    32
  0
VERTEX
  8
W62LXLIFT
 62
2
 10
880.809
 20
-6161.441
 30
-914.000
 70
    32
  0
VERTEX
  8
W62LXLIFT
 62
2
 10
872.528
 20
-6156.789
 30
-914.000
 70
    32
  0
VERTEX
  8
W62LXLIFT
 62
2
 10
856.691
 20
-6148.047
 30
-914.000
 70
    32
  0
VERTEX
  8
W62LXLIFT
 62
2
 10
841.660
 20
-6132.584
 30
-914.000
 70
    32
  0
VERTEX
  8
W62LXLIFT
 62
2
 10
840.202
 20
-6128.127
 30
-914.000
 70
    32
  0
VERTEX
  8
W62LXLIFT
 62
2
 10
840.233
 20
-6121.528
 30
-914.000
 70
    32
  0
VERTEX
  8
W62LXLIFT
 62
2
 10
840.152
 20
-6115.980
 30
-914.000
 70
    32
  0
VERTEX
  8
W62LXLIFT
 62
2
 10
837.266
 20
-6113.298
 30
-914.000
 70
    32
  0
VERTEX
  8
W62LXLIFT
 62
2
 10
834.219
 20
-6098.764
 30
-914.000
 70
    32
  0
VERTEX
  8
W62LXLIFT
 62
2
 10
828.101
 20
-6086.423
 30
-914.000
 70
    32
  0
VERTEX
  8
W62LXLIFT
 62
2
 10
821.126
 20
-6076.958
 30
-914.000
 70
    32
  0
VERTEX
  8
W62LXLIFT
 62
2
 10
821.761
 20
-6060.334
 30
-914.000
 70
    32
  0
VERTEX
  8
W62LXLIFT
 62
2
 10
824.443
 20
-6055.939
 30
-914.000
 70
    32
  0
SEQEND
  8
W62LXLIFT
  0
POLYLINE
  8
W62LXLIFT
 62
6
 66
     1
 70
     9
  0
VERTEX
  8
W62LXLIFT
 62
6
 10
706.603
 20
-5843.516
 30
-912.000
 70
    32
  0
VERTEX
  8
W62LXLIFT
 62
6
 10
711.528
 20
-5855.093
 30
-912.000
 70
    32
  0
VERTEX
  8
W62LXLIFT
 62
6
 10
719.298
 20
-5869.596
 30
-912.000
 70
    32
  0
VERTEX
  8
W62LXLIFT
 62
6
 10
742.016
 20
-5900.052
 30
-912.000
 70
    32
  0
VERTEX
  8
W62LXLIFT
 62
6
 10
744.719
 20
-5903.836
 30
-912.000
 70
    32
  0
VERTEX
  8
W62LXLIFT
 62
6
 10
747.146
 20
-5907.386
 30
-912.000
 70
    32
  0
VERTEX
  8
W62LXLIFT
 62
6
 10
757.894
 20
-5913.832
 30
-912.000
 70
    32
  0
VERTEX
  8
W62LXLIFT
 62
6
 10
758.933
 20
-5921.176
 30
-912.000
 70
    32
  0
VERTEX
  8
W62LXLIFT
 62
6
 10
761.697
 20
-5927.611
 30
-912.000
 70
    32
  0
VERTEX
  8
W62LXLIFT
 62
6
 10
758.585
 20
-5932.312
 30
-912.000
 70
    32
  0
VERTEX
  8
W62LXLIFT
 62
6
 10
762.857
 20
-5941.767
 30
-912.000
 70
    32
  0
VERTEX
  8
W62LXLIFT
 62
6
 10
760.899
 20
-5948.233
 30
-912.000
 70
    32
  0
VERTEX
  8
W62LXLIFT
 62
6
 10
762.948
 20
-5954.424
 30
-912.000
 70
    32
  0
VERTEX
  8
W62LXLIFT
 62
6
 10
764.099
 20
-5959.962
 30
-912.000
 70
    32
  0
VERTEX
  8
W62LXLIFT
 62
6
 10
766.913
 20
-5966.469
 30
-912.000
 70
    32
  0
VERTEX
  8
W62LXLIFT
 62
6
 10
771.941
 20
-5970.641
 30
-912.000
 70
    32
  0
VERTEX
  8
W62LXLIFT
 62
6
 10
776.927
 20
-5975.812
 30
-912.000
 70
    32
  0
VERTEX
  8
W62LXLIFT
 62
6
 10
780.822
 20
-5985.644
 30
-912.000
 70
    32
  0
VERTEX
  8
W62LXLIFT
 62
6
 10
782.320
 20
-5995.894
 30
-912.000
 70
    32
  0
VERTEX
  8
W62LXLIFT
 62
6
 10
780.718
 20
-6001.350
 30
-912.000
 70
    32
  0
VERTEX
  8
W62LXLIFT
 62
6
 10
770.855
 20
-6011.089
 30
-912.000
 70
    32
  0
VERTEX
  8
W62LXLIFT
 62
6
 10
767.551
 20
-6010.537
 30
-912.000
 70
    32
  0
VERTEX
  8
W62LXLIFT
 62
6
 10
762.646
 20
-6004.877
 30
-912.000
 70
    32
  0
VERTEX
  8
W62LXLIFT
 62
6
 10
760.862
 20
-5994.076
 30
-912.000
 70
    32
  0
VERTEX
  8
W62LXLIFT
 62
6
 10
760.354
 20
-5978.268
 30
-912.000
 70
    32
  0
VERTEX
  8
W62LXLIFT
 62
6
 10
759.448
 20
-5969.752
 30
-912.000
 70
    32
  0
VERTEX
  8
W62LXLIFT
 62
6
 10
756.491
 20
-5964.101
 30
-912.000
 70
    32
  0
VERTEX
  8
W62LXLIFT
 62
6
 10
752.535
 20
-5954.637
 30
-912.000
 70
    32
  0
VERTEX
  8
W62LXLIFT
 62
6
 10
749.088
 20
-5952.678
 30
-912.000
 70
    32
  0
VERTEX
  8
W62LXLIFT
 62
6
 10
743.621
 20
-5953.779
 30
-912.000
 70
    32
  0
VERTEX
  8
W62LXLIFT
 62
6
 10
738.247
 20
-5949.423
 30
-912.000
 70
    32
  0
VERTEX
  8
W62LXLIFT
 62
6
 10
733.516
 20
-5940.081
 30
-912.000
 70
    32
  0
VERTEX
  8
W62LXLIFT
 62
6
 10
727.644
 20
-5921.743
 30
-912.000
 70
    32
  0
VERTEX
  8
W62LXLIFT
 62
6
 10
722.810
 20
-5916.786
 30
-912.000
 70
    32
  0
VERTEX
  8
W62LXLIFT
 62
6
 10
717.315
 20
-5906.372
 30
-912.000
 70
    32
  0
VERTEX
  8
W62LXLIFT
 62
6
 10
717.927
 20
-5898.927
 30
-912.000
 70
    32
  0
VERTEX
  8
W62LXLIFT
 62
6
 10
714.604
 20
-5890.197
 30
-912.000
 70
    32
  0
VERTEX
  8
W62LXLIFT
 62
6
 10
701.350
 20
-5856.540
 30
-912.000
 70
    32
  0
VERTEX
  8
W62LXLIFT
 62
6
 10
698.066
 20
-5851.338
 30
-912.000
 70
    32
  0
VERTEX
  8
W62LXLIFT
 62
6
 10
696.506
 20
-5847.493
 30
-912.000
 70
    32
  0
VERTEX
  8
W62LXLIFT
 62
6
 10
696.558
 20
-5843.791
 30
-912.000
 70
    32
  0
VERTEX
  8
W62LXLIFT
 62
6
 10
700.678
 20
-5840.201
 30
-912.000
 70
    32
  0
SEQEND
  8
W62LXLIFT
  0
POLYLINE
  8
W62LXLIFT
 62
13
 66
     1
 70
     9
  0
VERTEX
  8
W62LXLIFT
 62
13
 10
755.471
 20
-5709.655
 30
-920.000
 70
    32
  0
VERTEX
  8
W62LXLIFT
 62
13
 10
760.784
 20
-5715.887
 30
-920.000
 70
    32
  0
VERTEX
  8
W62LXLIFT
 62
13
 10
764.832
 20
-5723.669
 30
-920.000
 70
    32
  0
VERTEX
  8
W62LXLIFT
 62
13
 10
785.277
 20
-5752.299
 30
-920.000
 70
    32
  0
VERTEX
  8
W62LXLIFT
 62
13
 10
792.243
 20
-5753.146
 30
-920.000
 70
    32
  0
VERTEX
  8
W62LXLIFT
 62
13
 10
794.128
 20
-5760.316
 30
-920.000
 70
    32
  0
VERTEX
  8
W62LXLIFT
 62
13
 10
808.638
 20
-5783.051
 30
-920.000
 70
    32
  0
VERTEX
  8
W62LXLIFT
 62
13
 10
813.787
 20
-5798.564
 30
-920.000
 70
    32
  0
VERTEX
  8
W62LXLIFT
 62
13
 10
817.436
 20
-5812.883
 30
-920.000
 70
    32
  0
VERTEX
  8
W62LXLIFT
 62
13
 10
822.249
 20
-5824.000
 30
-920.000
 70
    32
  0
VERTEX
  8
W62LXLIFT
 62
13
 10
830.457
 20
-5837.005
 30
-920.000
 70
    32
  0
VERTEX
  8
W62LXLIFT
 62
13
 10
829.692
 20
-5839.707
 30
-920.000
 70
    32
  0
VERTEX
  8
W62LXLIFT
 62
13
 10
835.657
 20
-5845.796
 30
-920.000
 70
    32
  0
VERTEX
  8
W62LXLIFT
 62
13
 10
835.381
 20
-5852.354
 30
-920.000
 70
    32
  0
VERTEX
  8
W62LXLIFT
 62
13
 10
843.027
 20
-5874.384
 30
-920.000
 70
    32
  0
VERTEX
  8
W62LXLIFT
 62
13
 10
841.059
 20
-5876.006
 30
-920.000
 70
    32
  0
VERTEX
  8
W62LXLIFT
 62
13
 10
845.727
 20
-5896.281
 30
-920.000
 70
    32
  0
VERTEX
  8
W62LXLIFT
 62
13
 10
844.564
 20
-5897.974
 30
-920.000
 70
    32
  0
VERTEX
  8
W62LXLIFT
 62
13
 10
847.490
 20
-5910.223
 30
-920.000
 70
    32
  0
VERTEX
  8
W62LXLIFT
 62
13
 10
837.199
 20
-5913.475
 30
-920.000
 70
    32
  0
VERTEX
  8
W62LXLIFT
 62
13
 10
832.071
 20
-5900.104
 30
-920.000
 70
    32
  0
VERTEX
  8
W62LXLIFT
 62
13
 10
821.793
 20
-5883.295
 30
-920.000
 70
    32
  0
VERTEX
  8
W62LXLIFT
 62
13
 10
817.429
 20
-5873.259
 30
-920.000
 70
    32
  0
VERTEX
  8
W62LXLIFT
 62
13
 10
814.053
 20
-5871.250
 30
-920.000
 70
    32
  0
VERTEX
  8
W62LXLIFT
 62
13
 10
807.446
 20
-5858.827
 30
-920.000
 70
    32
  0
VERTEX
  8
W62LXLIFT
 62
13
 10
810.130
 20
-5848.394
 30
-920.000
 70
    32
  0
VERTEX
  8
W62LXLIFT
 62
13
 10
808.549
 20
-5842.407
 30
-920.000
 70
    32
  0
VERTEX
  8
W62LXLIFT
 62
13
 10
794.161
 20
-5823.466
 30
-920.000
 70
    32
  0
VERTEX
  8
W62LXLIFT
 62
13
 10
791.827
 20
-5815.215
 30
-920.000
 70
    32
  0
VERTEX
  8
W62LXLIFT
 62
13
 10
787.770
 20
-5795.797
 30
-920.000
 70
    32
  0
VERTEX
  8
W62LXLIFT
 62
13
 10
780.724
 20
-5787.137
 30
-920.000
 70
    32
  0
VERTEX
  8
W62LXLIFT
 62
13
 10
777.023
 20
-5779.539
 30
-920.000
 70
    32
  0
VERTEX
  8
W62LXLIFT
 62
13
 10
767.530
 20
-5764.433
 30
-920.000
 70
    32
  0
VERTEX
  8
W62LXLIFT
 62
13
 10
763.644
 20
-5761.710
 30
-920.000
 70
    32
  0
VERTEX
  8
W62LXLIFT
 62
13
 10
758.861
 20
-5762.862
 30
-920.000
 70
    32
  0
VERTEX
  8
W62LXLIFT
 62
13
 10
757.832
 20
-5752.816
 30
-920.000
 70
    32
  0
VERTEX
  8
W62LXLIFT
 62
13
 10
749.674
 20
-5745.920
 30
-920.000
 70
    32
  0
VERTEX
  8
W62LXLIFT
 62
13
 10
741.873
 20
-5734.997
 30
-920.000
 70
    32
  0
VERTEX
  8
W62LXLIFT
 62
13
 10
741.772
 20
-5728.816
 30
-920.000
 70
    32
  0
VERTEX
  8
W62LXLIFT
 62
13
 10
740.009
 20
-5719.403
 30
-920.000
 70
    32
  0
SEQEND
  8
W62LXLIFT
  0
POLYLINE
  8
W62LXLIFT
 62
2
 66
     1
 70
     9
  0
VERTEX
  8
W62LXLIFT
 62
2
 10
894.846
 20
-6164.123
 30
-905.000
 70
    32
  0
VERTEX
  8
W62LXLIFT
 62
2
 10
894.204
 20
-6152.256
 30
-905.000
 70
    32
  0
VERTEX
  8
W62LXLIFT
 62
2
 10
903.171
 20
-6148.184
 30
-905.000
 70
    32
  0
VERTEX
  8
W62LXLIFT
 62
2
 10
903.118
 20
-6144.653
 30
-905.000
 70
    32
  0
VERTEX
  8
W62LXLIFT
 62
2
 10
893.376
 20
-6131.112
 30
-905.000
 70
    32
  0
VERTEX
  8
W62LXLIFT
 62
2
 10
875.580
 20
-6111.036
 30
-905.000
 70
    32
  0
VERTEX
  8
W62LXLIFT
 62
2
 10
855.362
 20
-6089.999
 30
-905.000
 70
    32
  0
VERTEX
  8
W62LXLIFT
 62
2
 10
844.480
 20
-6077.279
 30
-905.000
 70
    32
  0
VERTEX
  8
W62LXLIFT
 62
2
 10
843.914
 20
-6066.871
 30
-905.000
 70
    32
  0
VERTEX
  8
W62LXLIFT
 62
2
 10
835.594
 20
-6060.418
 30
-905.000
 70
    32
  0
VERTEX
  8
W62LXLIFT
 62
2
 10
830.315
 20
-6038.800
 30
-905.000
 70
    32
  0
VERTEX
  8
W62LXLIFT
 62
2
 10
823.540
 20
-6042.160
 30
-905.000
 70
    32
  0
VERTEX
  8
W62LXLIFT
 62
2
 10
822.369
 20
-6063.984
 30
-905.000
 70
    32
  0
VERTEX
  8
W62LXLIFT
 62
2
 10
822.602
 20
-6075.282
 30
-905.000
 70
    32
  0
VERTEX
  8
W62LXLIFT
 62
2
 10
823.623
 20
-6078.656
 30
-905.000
 70
    32
  0
VERTEX
  8
W62LXLIFT
 62
2
 10
828.858
 20
-6087.436
 30
-905.000
 70
    32
  0
VERTEX
  8
W62LXLIFT
 62
2
 10
836.759
 20
-6102.626
 30
-905.000
 70
    32
  0
VERTEX
  8
W62LXLIFT
 62
2
 10
835.421
 20
-6114.296
 30
-905.000
 70
    32
  0
VERTEX
  8
W62LXLIFT
 62
2
 10
838.474
 20
-6126.808
 30
-905.000
 70
    32
  0
VERTEX
  8
W62LXLIFT
 62
2
 10
840.595
 20
-6132.312
 30
-905.000
 70
    32
  0
VERTEX
  8
W62LXLIFT
 62
2
 10
849.395
 20
-6141.988
 30
-905.000
 70
    32
  0
VERTEX
  8
W62LXLIFT
 62
2
 10
871.194
 20
-6156.805
 30
-905.000
 70
    32
  0
VERTEX
  8
W62LXLIFT
 62
2
 10
877.317
 20
-6162.458
 30
-905.000
 70
    32
  0
VERTEX
  8
W62LXLIFT
 62
2
 10
882.042
 20
-6171.280
 30
-905.000
 70
    32
  0
SEQEND
  8
W62LXLIFT
  0
POLYLINE
  8
W62LXLIFT
 62
6
 66
     1
 70
     9
  0
VERTEX
  8
W62LXLIFT
 62
6
 10
791.608
 20
-6054.751
 30
-904.000
 70
    32
  0
VERTEX
  8
W62LXLIFT
 62
6
 10
778.984
 20
-6004.132
 30
-904.000
 70
    32
  0
VERTEX
  8
W62LXLIFT
 62
6
 10
775.407
 20
-5981.721
 30
-904.000
 70
    32
  0
VERTEX
  8
W62LXLIFT
 62
6
 10
765.010
 20
-5967.570
 30
-904.000
 70
    32
  0
VERTEX
  8
W62LXLIFT
 62
6
 10
756.780
 20
-5942.451
 30
-904.000
 70
    32
  0
VERTEX
  8
W62LXLIFT
 62
6
 10
756.848
 20
-5935.480
 30
-904.000
 70
    32
  0
VERTEX
  8
W62LXLIFT
 62
6
 10
761.972
 20
-5926.818
 30
-904.000
 70
    32
  0
VERTEX
  8
W62LXLIFT
 62
6
 10
758.486
 20
-5921.972
 30
-904.000
 70
    32
  0
VERTEX
  8
W62LXLIFT
 62
6
 10
758.217
 20
-5915.135
 30
-904.000
 70
    32
  0
VERTEX
  8
W62LXLIFT
 62
6
 10
751.454
 20
-5909.943
 30
-904.000
 70
    32
  0
VERTEX
  8
W62LXLIFT
 62
6
 10
738.386
 20
-5896.740
 30
-904.000
 70
    32
  0
VERTEX
  8
W62LXLIFT
 62
6
 10
717.354
 20
-5864.500
 30
-904.000
 70
    32
  0
VERTEX
  8
W62LXLIFT
 62
6
 10
715.113
 20
-5857.026
 30
-904.000
 70
    32
  0
VERTEX
  8
W62LXLIFT
 62
6
 10
701.294
 20
-5833.008
 30
-904.000
 70
    32
  0
VERTEX
  8
W62LXLIFT
 62
6
 10
695.475
 20
-5817.402
 30
-904.000
 70
    32
  0
VERTEX
  8
W62LXLIFT
 62
6
 10
690.853
 20
-5814.887
 30
-904.000
 70
    32
  0
VERTEX
  8
W62LXLIFT
 62
6
 10
688.814
 20
-5818.517
 30
-904.000
 70
    32
  0
VERTEX
  8
W62LXLIFT
 62
6
 10
694.928
 20
-5839.643
 30
-904.000
 70
    32
  0
VERTEX
  8
W62LXLIFT
 62
6
 10
701.405
 20
-5856.614
 30
-904.000
 70
    32
  0
VERTEX
  8
W62LXLIFT
 62
6
 10
707.735
 20
-5881.046
 30
-904.000
 70
    32
  0
VERTEX
  8
W62LXLIFT
 62
6
 10
716.982
 20
-5905.325
 30
-904.000
 70
    32
  0
VERTEX
  8
W62LXLIFT
 62
6
 10
729.803
 20
-5938.930
 30
-904.000
 70
    32
  0
VERTEX
  8
W62LXLIFT
 62
6
 10
742.314
 20
-5947.450
 30
-904.000
 70
    32
  0
VERTEX
  8
W62LXLIFT
 62
6
 10
748.835
 20
-5956.062
 30
-904.000
 70
    32
  0
VERTEX
  8
W62LXLIFT
 62
6
 10
751.854
 20
-5967.625
 30
-904.000
 70
    32
  0
VERTEX
  8
W62LXLIFT
 62
6
 10
749.885
 20
-5982.778
 30
-904.000
 70
    32
  0
VERTEX
  8
W62LXLIFT
 62
6
 10
751.842
 20
-5985.047
 30
-904.000
 70
    32
  0
VERTEX
  8
W62LXLIFT
 62
6
 10
752.620
 20
-5994.546
 30
-904.000
 70
    32
  0
VERTEX
  8
W62LXLIFT
 62
6
 10
755.704
 20
-6001.088
 30
-904.000
 70
    32
  0
VERTEX
  8
W62LXLIFT
 62
6
 10
770.463
 20
-6025.511
 30
-904.000
 70
    32
  0
VERTEX
  8
W62LXLIFT
 62
6
 10
776.169
 20
-6040.658
 30
-904.000
 70
    32
  0
VERTEX
  8
W62LXLIFT
 62
6
 10
778.886
 20
-6053.304
 30
-904.000
 70
    32
  0
VERTEX
  8
W62LXLIFT
 62
6
 10
784.037
 20
-6058.359
 30
-904.000
 70
    32
  0
SEQEND
  8
W62LXLIFT
  0
POLYLINE
  8
W62LXLIFT
 62
13
 66
     1
 70
     9
  0
VERTEX
  8
W62LXLIFT
 62
13
 10
846.636
 20
-5907.547
 30
-910.000
 70
    32
  0
VERTEX
  8
W62LXLIFT
 62
13
 10
843.232
 20
-5887.932
 30
-910.000
 70
    32
  0
VERTEX
  8
W62LXLIFT
 62
13
 10
839.061
 20
-5876.873
 30
-910.000
 70
    32
  0
VERTEX
  8
W62LXLIFT
 62
13
 10
838.578
 20
-5864.025
 30
-910.000
 70
    32
  0
VERTEX
  8
W62LXLIFT
 62
13
 10
832.738
 20
-5836.213
 30
-910.000
 70
    32
  0
VERTEX
  8
W62LXLIFT
 62
13
 10
821.748
 20
-5821.840
 30
-910.000
 70
    32
  0
VERTEX
  8
W62LXLIFT
 62
13
 10
813.094
 20
-5801.243
 30
-910.000
 70
    32
  0
VERTEX
  8
W62LXLIFT
 62
13
 10
809.733
 20
-5782.139
 30
-910.000
 70
    32
  0
VERTEX
  8
W62LXLIFT
 62
13
 10
792.284
 20
-5756.081
 30
-910.000
 70
    32
  0
VERTEX
  8
W62LXLIFT
 62
13
 10
766.685
 20
-5725.612
 30
-910.000
 70
    32
  0
VERTEX
  8
W62LXLIFT
 62
13
 10
754.941
 20
-5708.537
 30
-910.000
 70
    32
  0
VERTEX
  8
W62LXLIFT
 62
13
 10
748.675
 20
-5705.690
 30
-910.000
 70
    32
  0
VERTEX
  8
W62LXLIFT
 62
13
 10
743.661
 20
-5707.891
 30
-910.000
 70
    32
  0
VERTEX
  8
W62LXLIFT
 62
13
 10
740.166
 20
-5712.353
 30
-910.000
 70
    32
  0
VERTEX
  8
W62LXLIFT
 62
13
 10
742.762
 20
-5743.472
 30
-910.000
 70
    32
  0
VERTEX
  8
W62LXLIFT
 62
13
 10
743.622
 20
-5747.072
 30
-910.000
 70
    32
  0
VERTEX
  8
W62LXLIFT
 62
13
 10
748.779
 20
-5748.228
 30
-910.000
 70
    32
  0
VERTEX
  8
W62LXLIFT
 62
13
 10
757.471
 20
-5750.087
 30
-910.000
 70
    32
  0
VERTEX
  8
W62LXLIFT
 62
13
 10
772.853
 20
-5771.467
 30
-910.000
 70
    32
  0
VERTEX
  8
W62LXLIFT
 62
13
 10
780.911
 20
-5782.217
 30
-910.000
 70
    32
  0
VERTEX
  8
W62LXLIFT
 62
13
 10
786.511
 20
-5799.170
 30
-910.000
 70
    32
  0
VERTEX
  8
W62LXLIFT
 62
13
 10
795.652
 20
-5819.092
 30
-910.000
 70
    32
  0
VERTEX
  8
W62LXLIFT
 62
13
 10
808.738
 20
-5843.746
 30
-910.000
 70
    32
  0
VERTEX
  8
W62LXLIFT
 62
13
 10
813.061
 20
-5854.263
 30
-910.000
 70
    32
  0
VERTEX
  8
W62LXLIFT
 62
13
 10
815.943
 20
-5867.440
 30
-910.000
 70
    32
  0
VERTEX
  8
W62LXLIFT
 62
13
 10
821.464
 20
-5882.179
 30
-910.000
 70
    32
  0
VERTEX
  8
W62LXLIFT
 62
13
 10
830.536
 20
-5894.038
 30
-910.000
 70
    32
  0
VERTEX
  8
W62LXLIFT
 62
13
 10
840.879
 20
-5910.067
 30
-910.000
 70
    32
  0
SEQEND
  8
W62LXLIFT
  0
POLYLINE
  8
W62LXLIFT
 62
7
 66
     1
 70
     9
  0
VERTEX
  8
W62LXLIFT
 62
7
 10
1231.471
 20
-6234.398
 30
-898.000
 70
    32
  0
VERTEX
  8
W62LXLIFT
 62
7
 10
1233.061
 20
-6229.381
 30
-898.000
 70
    32
  0
VERTEX
  8
W62LXLIFT
 62
7
 10
1226.698
 20
-6217.756
 30
-898.000
 70
    32
  0
VERTEX
  8
W62LXLIFT
 62
7
 10
1216.622
 20
-6205.009
 30
-898.000
 70
    32
  0
VERTEX
  8
W62LXLIFT
 62
7
 10
1207.087
 20
-6197.697
 30
-898.000
 70
    32
  0
VERTEX
  8
W62LXLIFT
 62
7
 10
1199.867
 20
-6198.003
 30
-898.000
 70
    32
  0
VERTEX
  8
W62LXLIFT
 62
7
 10
1184.081
 20
-6172.734
 30
-898.000
 70
    32
  0
VERTEX
  8
W62LXLIFT
 62
7
 10
1183.673
 20
-6167.635
 30
-898.000
 70
    32
  0
VERTEX
  8
W62LXLIFT
 62
7
 10
1178.747
 20
-6161.343
 30
-898.000
 70
    32
  0
VERTEX
  8
W62LXLIFT
 62
7
 10
1167.683
 20
-6142.835
 30
-898.000
 70
    32
  0
VERTEX
  8
W62LXLIFT
 62
7
 10
1159.687
 20
-6133.453
 30
-898.000
 70
    32
  0
VERTEX
  8
W62LXLIFT
 62
7
 10
1151.397
 20
-6123.205
 30
-898.000
 70
    32
  0
VERTEX
  8
W62LXLIFT
 62
7
 10
1147.603
 20
-6114.272
 30
-898.000
 70
    32
  0
VERTEX
  8
W62LXLIFT
 62
7
 10
1138.465
 20
-6100.423
 30
-898.000
 70
    32
  0
VERTEX
  8
W62LXLIFT
 62
7
 10
1126.605
 20
-6081.405
 30
-898.000
 70
    32
  0
VERTEX
  8
W62LXLIFT
 62
7
 10
1122.526
 20
-6060.602
 30
-898.000
 70
    32
  0
VERTEX
  8
W62LXLIFT
 62
7
 10
1115.764
 20
-6044.949
 30
-898.000
 70
    32
  0
VERTEX
  8
W62LXLIFT
 62
7
 10
1108.095
 20
-6023.044
 30
-898.000
 70
    32
  0
VERTEX
  8
W62LXLIFT
 62
7
 10
1128.531
 20
-6012.867
 30
-898.000
 70
    32
  0
VERTEX
  8
W62LXLIFT
 62
7
 10
1131.560
 20
-6025.257
 30
-898.000
 70
    32
  0
VERTEX
  8
W62LXLIFT
 62
7
 10
1134.375
 20
-6047.610
 30
-898.000
 70
    32
  0
VERTEX
  8
W62LXLIFT
 62
7
 10
1137.608
 20
-6058.776
 30
-898.000
 70
    32
  0
VERTEX
  8
W62LXLIFT
 62
7
 10
1150.743
 20
-6075.051
 30
-898.000
 70
    32
  0
VERTEX
  8
W62LXLIFT
 62
7
 10
1159.697
 20
-6082.455
 30
-898.000
 70
    32
  0
VERTEX
  8
W62LXLIFT
 62
7
 10
1162.776
 20
-6089.634
 30
-898.000
 70
    32
  0
VERTEX
  8
W62LXLIFT
 62
7
 10
1167.080
 20
-6093.998
 30
-898.000
 70
    32
  0
VERTEX
  8
W62LXLIFT
 62
7
 10
1172.648
 20
-6102.850
 30
-898.000
 70
    32
  0
VERTEX
  8
W62LXLIFT
 62
7
 10
1184.416
 20
-6125.060
 30
-898.000
 70
    32
  0
VERTEX
  8
W62LXLIFT
 62
7
 10
1192.086
 20
-6144.700
 30
-898.000
 70
    32
  0
VERTEX
  8
W62LXLIFT
 62
7
 10
1194.380
 20
-6150.177
 30
-898.000
 70
    32
  0
VERTEX
  8
W62LXLIFT
 62
7
 10
1207.189
 20
-6163.882
 30
-898.000
 70
    32
  0
VERTEX
  8
W62LXLIFT
 62
7
 10
1212.594
 20
-6173.712
 30
-898.000
 70
    32
  0
VERTEX
  8
W62LXLIFT
 62
7
 10
1220.273
 20
-6184.613
 30
-898.000
 70
    32
  0
VERTEX
  8
W62LXLIFT
 62
7
 10
1227.962
 20
-6191.303
 30
-898.000
 70
    32
  0
VERTEX
  8
W62LXLIFT
 62
7
 10
1228.176
 20
-6199.451
 30
-898.000
 70
    32
  0
VERTEX
  8
W62LXLIFT
 62
7
 10
1238.170
 20
-6214.951
 30
-898.000
 70
    32
  0
VERTEX
  8
W62LXLIFT
 62
7
 10
1244.942
 20
-6227.902
 30
-898.000
 70
    32
  0
VERTEX
  8
W62LXLIFT
 62
7
 10
1245.890
 20
-6235.417
 30
-898.000
 70
    32
  0
VERTEX
  8
W62LXLIFT
 62
7
 10
1237.528
 20
-6244.840
 30
-898.000
 70
    32
  0
SEQEND
  8
W62LXLIFT
  0
POLYLINE
  8
W62LXLIFT
 62
2
 66
     1
 70
     9
  0
VERTEX
  8
W62LXLIFT
 62
2
 10
894.509
 20
-6165.479
 30
-895.000
 70
    32
  0
VERTEX
  8
W62LXLIFT
 62
2
 10
893.693
 20
-6156.036
 30
-895.000
 70
    32
  0
VERTEX
  8
W62LXLIFT
 62
2
 10
895.610
 20
-6153.589
 30
-895.000
 70
    32
  0
VERTEX
  8
W62LXLIFT
 62
2
 10
903.319
 20
-6149.591
 30
-895.000
 70
    32
  0
VERTEX
  8
W62LXLIFT
 62
2
 10
904.003
 20
-6146.623
 30
-895.000
 70
    32
  0
VERTEX
  8
W62LXLIFT
 62
2
 10
900.974
 20
-6141.780
 30
-895.000
 70
    32
  0
VERTEX
  8
W62LXLIFT
 62
2
 10
851.157
 20
-6085.622
 30
-895.000
 70
    32
  0
VERTEX
  8
W62LXLIFT
 62
2
 10
846.660
 20
-6079.025
 30
-895.000
 70
    32
  0
VERTEX
  8
W62LXLIFT
 62
2
 10
843.621
 20
-6067.073
 30
-895.000
 70
    32
  0
VERTEX
  8
W62LXLIFT
 62
2
 10
839.368
 20
-6063.535
 30
-895.000
 70
    32
  0
VERTEX
  8
W62LXLIFT
 62
2
 10
835.931
 20
-6056.610
 30
-895.000
 70
    32
  0
VERTEX
  8
W62LXLIFT
 62
2
 10
831.811
 20
-6039.825
 30
-895.000
 70
    32
  0
VERTEX
  8
W62LXLIFT
 62
2
 10
825.101
 20
-6042.354
 30
-895.000
 70
    32
  0
VERTEX
  8
W62LXLIFT
 62
2
 10
822.991
 20
-6054.643
 30
-895.000
 70
    32
  0
VERTEX
  8
W62LXLIFT
 62
2
 10
823.236
 20
-6066.757
 30
-895.000
 70
    32
  0
VERTEX
  8
W62LXLIFT
 62
2
 10
824.011
 20
-6077.954
 30
-895.000
 70
    32
  0
VERTEX
  8
W62LXLIFT
 62
2
 10
828.906
 20
-6088.580
 30
-895.000
 70
    32
  0
VERTEX
  8
W62LXLIFT
 62
2
 10
835.086
 20
-6099.043
 30
-895.000
 70
    32
  0
VERTEX
  8
W62LXLIFT
 62
2
 10
835.688
 20
-6108.639
 30
-895.000
 70
    32
  0
VERTEX
  8
W62LXLIFT
 62
2
 10
835.668
 20
-6121.590
 30
-895.000
 70
    32
  0
VERTEX
  8
W62LXLIFT
 62
2
 10
838.564
 20
-6129.115
 30
-895.000
 70
    32
  0
VERTEX
  8
W62LXLIFT
 62
2
 10
846.651
 20
-6138.324
 30
-895.000
 70
    32
  0
VERTEX
  8
W62LXLIFT
 62
2
 10
865.129
 20
-6151.968
 30
-895.000
 70
    32
  0
VERTEX
  8
W62LXLIFT
 62
2
 10
873.247
 20
-6158.351
 30
-895.000
 70
    32
  0
VERTEX
  8
W62LXLIFT
 62
2
 10
878.284
 20
-6165.102
 30
-895.000
 70
    32
  0
SEQEND
  8
W62LXLIFT
  0
POLYLINE
  8
W62LXLIFT
 62
6
 66
     1
 70
     9
  0
VERTEX
  8
W62LXLIFT
 62
6
 10
687.725
 20
-5827.850
 30
-894.000
 70
    32
  0
VERTEX
  8
W62LXLIFT
 62
6
 10
705.174
 20
-5874.463
 30
-894.000
 70
    32
  0
VERTEX
  8
W62LXLIFT
 62
6
 10
706.816
 20
-5884.610
 30
-894.000
 70
    32
  0
VERTEX
  8
W62LXLIFT
 62
6
 10
712.476
 20
-5895.552
 30
-894.000
 70
    32
  0
VERTEX
  8
W62LXLIFT
 62
6
 10
722.970
 20
-5924.278
 30
-894.000
 70
    32
  0
VERTEX
  8
W62LXLIFT
 62
6
 10
726.060
 20
-5928.755
 30
-894.000
 70
    32
  0
VERTEX
  8
W62LXLIFT
 62
6
 10
733.586
 20
-5934.159
 30
-894.000
 70
    32
  0
VERTEX
  8
W62LXLIFT
 62
6
 10
744.304
 20
-5944.938
 30
-894.000
 70
    32
  0
VERTEX
  8
W62LXLIFT
 62
6
 10
751.035
 20
-5974.735
 30
-894.000
 70
    32
  0
VERTEX
  8
W62LXLIFT
 62
6
 10
757.286
 20
-5997.976
 30
-894.000
 70
    32
  0
VERTEX
  8
W62LXLIFT
 62
6
 10
763.813
 20
-6015.413
 30
-894.000
 70
    32
  0
VERTEX
  8
W62LXLIFT
 62
6
 10
774.908
 20
-6012.232
 30
-894.000
 70
    32
  0
VERTEX
  8
W62LXLIFT
 62
6
 10
771.695
 20
-5990.378
 30
-894.000
 70
    32
  0
VERTEX
  8
W62LXLIFT
 62
6
 10
767.636
 20
-5977.754
 30
-894.000
 70
    32
  0
VERTEX
  8
W62LXLIFT
 62
6
 10
760.885
 20
-5963.171
 30
-894.000
 70
    32
  0
VERTEX
  8
W62LXLIFT
 62
6
 10
755.592
 20
-5947.008
 30
-894.000
 70
    32
  0
VERTEX
  8
W62LXLIFT
 62
6
 10
754.501
 20
-5927.520
 30
-894.000
 70
    32
  0
VERTEX
  8
W62LXLIFT
 62
6
 10
754.664
 20
-5917.486
 30
-894.000
 70
    32
  0
VERTEX
  8
W62LXLIFT
 62
6
 10
752.196
 20
-5913.427
 30
-894.000
 70
    32
  0
VERTEX
  8
W62LXLIFT
 62
6
 10
733.728
 20
-5897.835
 30
-894.000
 70
    32
  0
VERTEX
  8
W62LXLIFT
 62
6
 10
718.645
 20
-5874.004
 30
-894.000
 70
    32
  0
VERTEX
  8
W62LXLIFT
 62
6
 10
708.559
 20
-5854.904
 30
-894.000
 70
    32
  0
VERTEX
  8
W62LXLIFT
 62
6
 10
696.994
 20
-5831.470
 30
-894.000
 70
    32
  0
VERTEX
  8
W62LXLIFT
 62
6
 10
694.537
 20
-5824.709
 30
-894.000
 70
    32
  0
SEQEND
  8
W62LXLIFT
  0
POLYLINE
  8
W62LXLIFT
 62
13
 66
     1
 70
     9
  0
VERTEX
  8
W62LXLIFT
 62
13
 10
733.395
 20
-5673.120
 30
-889.000
 70
    32
  0
VERTEX
  8
W62LXLIFT
 62
13
 10
728.622
 20
-5688.057
 30
-889.000
 70
    32
  0
VERTEX
  8
W62LXLIFT
 62
13
 10
751.987
 20
-5731.666
 30
-889.000
 70
    32
  0
VERTEX
  8
W62LXLIFT
 62
13
 10
733.071
 20
-5741.581
 30
-889.000
 70
    32
  0
VERTEX
  8
W62LXLIFT
 62
13
 10
760.427
 20
-5749.593
 30
-889.000
 70
    32
  0
VERTEX
  8
W62LXLIFT
 62
13
 10
765.299
 20
-5754.077
 30
-889.000
 70
    32
  0
VERTEX
  8
W62LXLIFT
 62
13
 10
775.893
 20
-5764.812
 30
-889.000
 70
    32
  0
VERTEX
  8
W62LXLIFT
 62
13
 10
795.941
 20
-5788.299
 30
-889.000
 70
    32
  0
VERTEX
  8
W62LXLIFT
 62
13
 10
804.058
 20
-5806.677
 30
-889.000
 70
    32
  0
VERTEX
  8
W62LXLIFT
 62
13
 10
809.937
 20
-5842.595
 30
-889.000
 70
    32
  0
VERTEX
  8
W62LXLIFT
 62
13
 10
823.726
 20
-5882.854
 30
-889.000
 70
    32
  0
VERTEX
  8
W62LXLIFT
 62
13
 10
824.958
 20
-5890.084
 30
-889.000
 70
    32
  0
VERTEX
  8
W62LXLIFT
 62
13
 10
827.778
 20
-5895.621
 30
-889.000
 70
    32
  0
VERTEX
  8
W62LXLIFT
 62
13
 10
826.246
 20
-5908.752
 30
-889.000
 70
    32
  0
VERTEX
  8
W62LXLIFT
 62
13
 10
836.605
 20
-5934.710
 30
-889.000
 70
    32
  0
VERTEX
  8
W62LXLIFT
 62
13
 10
835.351
 20
-5943.741
 30
-889.000
 70
    32
  0
VERTEX
  8
W62LXLIFT
 62
13
 10
836.829
 20
-5949.817
 30
-889.000
 70
    32
  0
VERTEX
  8
W62LXLIFT
 62
13
 10
841.707
 20
-5955.055
 30
-889.000
 70
    32
  0
VERTEX
  8
W62LXLIFT
 62
13
 10
849.772
 20
-5941.523
 30
-889.000
 70
    32
  0
VERTEX
  8
W62LXLIFT
 62
13
 10
854.547
 20
-5928.534
 30
-889.000
 70
    32
  0
VERTEX
  8
W62LXLIFT
 62
13
 10
852.179
 20
-5908.374
 30
-889.000
 70
    32
  0
VERTEX
  8
W62LXLIFT
 62
13
 10
833.325
 20
-5891.169
 30
-889.000
 70
    32
  0
VERTEX
  8
W62LXLIFT
 62
13
 10
831.590
 20
-5856.039
 30
-889.000
 70
    32
  0
VERTEX
  8
W62LXLIFT
 62
13
 10
822.838
 20
-5843.211
 30
-889.000
 70
    32
  0
VERTEX
  8
W62LXLIFT
 62
13
 10
819.038
 20
-5816.292
 30
-889.000
 70
    32
  0
VERTEX
  8
W62LXLIFT
 62
13
 10
807.398
 20
-5784.980
 30
-889.000
 70
    32
  0
VERTEX
  8
W62LXLIFT
 62
13
 10
792.042
 20
-5755.712
 30
-889.000
 70
    32
  0
VERTEX
  8
W62LXLIFT
 62
13
 10
787.404
 20
-5752.899
 30
-889.000
 70
    32
  0
VERTEX
  8
W62LXLIFT
 62
13
 10
765.777
 20
-5722.001
 30
-889.000
 70
    32
  0
VERTEX
  8
W62LXLIFT
 62
13
 10
746.998
 20
-5691.746
 30
-889.000
 70
    32
  0
VERTEX
  8
W62LXLIFT
 62
13
 10
743.055
 20
-5683.015
 30
-889.000
 70
    32
  0
SEQEND
  8
W62LXLIFT
  0
POLYLINE
  8
W62LXLIFT
 62
6
 66
     1
 70
     9
  0
VERTEX
  8
W62LXLIFT
 62
6
 10
685.587
 20
-5821.033
 30
-890.000
 70
    32
  0
VERTEX
  8
W62LXLIFT
 62
6
 10
693.851
 20
-5850.676
 30
-890.000
 70
    32
  0
VERTEX
  8
W62LXLIFT
 62
6
 10
699.809
 20
-5864.878
 30
-890.000
 70
    32
  0
VERTEX
  8
W62LXLIFT
 62
6
 10
701.512
 20
-5878.589
 30
-890.000
 70
    32
  0
VERTEX
  8
W62LXLIFT
 62
6
 10
705.510
 20
-5892.478
 30
-890.000
 70
    32
  0
VERTEX
  8
W62LXLIFT
 62
6
 10
711.535
 20
-5904.681
 30
-890.000
 70
    32
  0
VERTEX
  8
W62LXLIFT
 62
6
 10
714.845
 20
-5917.770
 30
-890.000
 70
    32
  0
VERTEX
  8
W62LXLIFT
 62
6
 10
723.640
 20
-5935.440
 30
-890.000
 70
    32
  0
VERTEX
  8
W62LXLIFT
 62
6
 10
731.042
 20
-5946.105
 30
-890.000
 70
    32
  0
VERTEX
  8
W62LXLIFT
 62
6
 10
744.538
 20
-5956.362
 30
-890.000
 70
    32
  0
VERTEX
  8
W62LXLIFT
 62
6
 10
745.947
 20
-5961.297
 30
-890.000
 70
    32
  0
VERTEX
  8
W62LXLIFT
 62
6
 10
746.946
 20
-5971.944
 30
-890.000
 70
    32
  0
VERTEX
  8
W62LXLIFT
 62
6
 10
749.096
 20
-5988.363
 30
-890.000
 70
    32
  0
VERTEX
  8
W62LXLIFT
 62
6
 10
757.610
 20
-6011.326
 30
-890.000
 70
    32
  0
VERTEX
  8
W62LXLIFT
 62
6
 10
759.784
 20
-6014.625
 30
-890.000
 70
    32
  0
VERTEX
  8
W62LXLIFT
 62
6
 10
762.389
 20
-6021.509
 30
-890.000
 70
    32
  0
VERTEX
  8
W62LXLIFT
 62
6
 10
765.404
 20
-6022.682
 30
-890.000
 70
    32
  0
VERTEX
  8
W62LXLIFT
 62
6
 10
776.773
 20
-6018.344
 30
-890.000
 70
    32
  0
VERTEX
  8
W62LXLIFT
 62
6
 10
776.843
 20
-6015.153
 30
-890.000
 70
    32
  0
VERTEX
  8
W62LXLIFT
 62
6
 10
774.911
 20
-6006.806
 30
-890.000
 70
    32
  0
VERTEX
  8
W62LXLIFT
 62
6
 10
774.681
 20
-5998.417
 30
-890.000
 70
    32
  0
VERTEX
  8
W62LXLIFT
 62
6
 10
768.795
 20
-5984.163
 30
-890.000
 70
    32
  0
VERTEX
  8
W62LXLIFT
 62
6
 10
764.181
 20
-5975.702
 30
-890.000
 70
    32
  0
VERTEX
  8
W62LXLIFT
 62
6
 10
761.810
 20
-5967.348
 30
-890.000
 70
    32
  0
VERTEX
  8
W62LXLIFT
 62
6
 10
757.789
 20
-5959.107
 30
-890.000
 70
    32
  0
VERTEX
  8
W62LXLIFT
 62
6
 10
755.003
 20
-5945.097
 30
-890.000
 70
    32
  0
VERTEX
  8
W62LXLIFT
 62
6
 10
754.464
 20
-5933.142
 30
-890.000
 70
    32
  0
VERTEX
  8
W62LXLIFT
 62
6
 10
755.471
 20
-5925.265
 30
-890.000
 70
    32
  0
VERTEX
  8
W62LXLIFT
 62
6
 10
754.069
 20
-5919.891
 30
-890.000
 70
    32
  0
VERTEX
  8
W62LXLIFT
 62
6
 10
747.868
 20
-5911.930
 30
-890.000
 70
    32
  0
VERTEX
  8
W62LXLIFT
 62
6
 10
738.401
 20
-5902.003
 30
-890.000
 70
    32
  0
VERTEX
  8
W62LXLIFT
 62
6
 10
728.270
 20
-5888.767
 30
-890.000
 70
    32
  0
VERTEX
  8
W62LXLIFT
 62
6
 10
716.504
 20
-5870.434
 30
-890.000
 70
    32
  0
VERTEX
  8
W62LXLIFT
 62
6
 10
707.105
 20
-5852.228
 30
-890.000
 70
    32
  0
VERTEX
  8
W62LXLIFT
 62
6
 10
697.613
 20
-5831.056
 30
-890.000
 70
    32
  0
VERTEX
  8
W62LXLIFT
 62
6
 10
693.724
 20
-5821.203
 30
-890.000
 70
    32
  0
VERTEX
  8
W62LXLIFT
 62
6
 10
692.604
 20
-5816.816
 30
-890.000
 70
    32
  0
SEQEND
  8
W62LXLIFT
  0
POLYLINE
  8
W62LXLIFT
 62
2
 66
     1
 70
     9
  0
VERTEX
  8
W62LXLIFT
 62
2
 10
813.395
 20
-6039.894
 30
-888.000
 70
    32
  0
VERTEX
  8
W62LXLIFT
 62
2
 10
816.021
 20
-6060.409
 30
-888.000
 70
    32
  0
VERTEX
  8
W62LXLIFT
 62
2
 10
815.719
 20
-6067.018
 30
-888.000
 70
    32
  0
VERTEX
  8
W62LXLIFT
 62
2
 10
817.884
 20
-6075.088
 30
-888.000
 70
    32
  0
VERTEX
  8
W62LXLIFT
 62
2
 10
821.522
 20
-6081.007
 30
-888.000
 70
    32
  0
VERTEX
  8
W62LXLIFT
 62
2
 10
826.390
 20
-6084.736
 30
-888.000
 70
    32
  0
VERTEX
  8
W62LXLIFT
 62
2
 10
829.916
 20
-6102.757
 30
-888.000
 70
    32
  0
VERTEX
  8
W62LXLIFT
 62
2
 10
831.146
 20
-6114.320
 30
-888.000
 70
    32
  0
VERTEX
  8
W62LXLIFT
 62
2
 10
834.827
 20
-6121.942
 30
-888.000
 70
    32
  0
VERTEX
  8
W62LXLIFT
 62
2
 10
842.995
 20
-6132.918
 30
-888.000
 70
    32
  0
VERTEX
  8
W62LXLIFT
 62
2
 10
846.219
 20
-6143.794
 30
-888.000
 70
    32
  0
VERTEX
  8
W62LXLIFT
 62
2
 10
855.606
 20
-6147.931
 30
-888.000
 70
    32
  0
VERTEX
  8
W62LXLIFT
 62
2
 10
868.590
 20
-6148.813
 30
-888.000
 70
    32
  0
VERTEX
  8
W62LXLIFT
 62
2
 10
874.843
 20
-6149.372
 30
-888.000
 70
    32
  0
VERTEX
  8
W62LXLIFT
 62
2
 10
878.925
 20
-6145.440
 30
-888.000
 70
    32
  0
VERTEX
  8
W62LXLIFT
 62
2
 10
878.760
 20
-6140.578
 30
-888.000
 70
    32
  0
VERTEX
  8
W62LXLIFT
 62
2
 10
866.380
 20
-6126.480
 30
-888.000
 70
    32
  0
VERTEX
  8
W62LXLIFT
 62
2
 10
860.012
 20
-6117.990
 30
-888.000
 70
    32
  0
VERTEX
  8
W62LXLIFT
 62
2
 10
851.752
 20
-6111.521
 30
-888.000
 70
    32
  0
VERTEX
  8
W62LXLIFT
 62
2
 10
846.374
 20
-6104.696
 30
-888.000
 70
    32
  0
VERTEX
  8
W62LXLIFT
 62
2
 10
841.441
 20
-6097.440
 30
-888.000
 70
    32
  0
VERTEX
  8
W62LXLIFT
 62
2
 10
837.657
 20
-6075.923
 30
-888.000
 70
    32
  0
VERTEX
  8
W62LXLIFT
 62
2
 10
834.335
 20
-6073.132
 30
-888.000
 70
    32
  0
VERTEX
  8
W62LXLIFT
 62
2
 10
836.651
 20
-6068.855
 30
-888.000
 70
    32
  0
VERTEX
  8
W62LXLIFT
 62
2
 10
833.524
 20
-6061.698
 30
-888.000
 70
    32
  0
VERTEX
  8
W62LXLIFT
 62
2
 10
828.608
 20
-6059.845
 30
-888.000
 70
    32
  0
VERTEX
  8
W62LXLIFT
 62
2
 10
825.874
 20
-6049.047
 30
-888.000
 70
    32
  0
VERTEX
  8
W62LXLIFT
 62
2
 10
821.620
 20
-6037.943
 30
-888.000
 70
    32
  0
SEQEND
  8
W62LXLIFT
  0
POLYLINE
  8
W62LXLIFT
 62
1
 66
     1
 70
     9
  0
VERTEX
  8
W62LXLIFT
 62
1
 10
822.620
 20
-6036.943
 30
-878.000
 70
    32
  0
VERTEX
  8
W62LXLIFT
 62
1
 10
826.874
 20
-6048.047
 30
-878.000
 70
    32
  0
VERTEX
  8
W62LXLIFT
 62
1
 10
829.608
 20
-6058.845
 30
-878.000
 70
    32
  0
VERTEX
  8
W62LXLIFT
 62
1
 10
834.524
 20
-6060.698
 30
-878.000
 70
    32
  0
VERTEX
  8
W62LXLIFT
 62
1
 10
837.651
 20
-6067.855
 30
-878.000
 70
    32
  0
VERTEX
  8
W62LXLIFT
 62
1
 10
835.335
 20
-6072.132
 30
-878.000
 70
    32
  0
VERTEX
  8
W62LXLIFT
 62
1
 10
838.657
 20
-6074.923
 30
-878.000
 70
    32
  0
VERTEX
  8
W62LXLIFT
 62
1
 10
842.441
 20
-6096.440
 30
-878.000
 70
    32
  0
VERTEX
  8
W62LXLIFT
 62
1
 10
847.374
 20
-6103.696
 30
-878.000
 70
    32
  0
VERTEX
  8
W62LXLIFT
 62
1
 10
852.752
 20
-6110.521
 30
-878.000
 70
    32
  0
VERTEX
  8
W62LXLIFT
 62
1
 10
861.012
 20
-6116.990
 30
-878.000
 70
    32
  0
VERTEX
  8
W62LXLIFT
 62
1
 10
867.380
 20
-6125.480
 30
-878.000
 70
    32
  0
VERTEX
  8
W62LXLIFT
 62
1
 10
879.760
 20
-6139.578
 30
-878.000
 70
    32
  0
VERTEX
  8
W62LXLIFT
 62
1
 10
879.925
 20
-6144.440
 30
-878.000
 70
    32
  0
VERTEX
  8
W62LXLIFT
 62
1
 10
875.843
 20
-6148.372
 30
-878.000
 70
    32
  0
VERTEX
  8
W62LXLIFT
 62
1
 10
869.590
 20
-6147.813
 30
-878.000
 70
    32
  0
VERTEX
  8
W62LXLIFT
 62
1
 10
856.606
 20
-6146.931
 30
-878.000
 70
    32
  0
VERTEX
  8
W62LXLIFT
 62
1
 10
847.219
 20
-6142.794
 30
-878.000
 70
    32
  0
VERTEX
  8
W62LXLIFT
 62
1
 10
843.995
 20
-6131.918
 30
-878.000
 70
    32
  0
VERTEX
  8
W62LXLIFT
 62
1
 10
835.827
 20
-6120.942
 30
-878.000
 70
    32
  0
VERTEX
  8
W62LXLIFT
 62
1
 10
832.146
 20
-6113.320
 30
-878.000
 70
    32
  0
VERTEX
  8
W62LXLIFT
 62
1
 10
830.916
 20
-6101.757
 30
-878.000
 70
    32
  0
VERTEX
  8
W62LXLIFT
 62
1
 10
827.390
 20
-6083.736
 30
-878.000
 70
    32
  0
VERTEX
  8
W62LXLIFT
 62
1
 10
822.522
 20
-6080.007
 30
-878.000
 70
    32
  0
VERTEX
  8
W62LXLIFT
 62
1
 10
818.884
 20
-6074.088
 30
-878.000
 70
    32
  0
VERTEX
  8
W62LXLIFT
 62
1
 10
816.719
 20
-6066.018
 30
-878.000
 70
    32
  0
VERTEX
  8
W62LXLIFT
 62
1
 10
817.021
 20
-6059.409
 30
-878.000
 70
    32
  0
VERTEX
  8
W62LXLIFT
 62
1
 10
814.395
 20
-6038.894
 30
-878.000
 70
    32
  0
SEQEND
  8
W62LXLIFT
  0
POLYLINE
  8
W62LXLIFT
 62
7
 66
     1
 70
     9
  0
VERTEX
  8
W62LXLIFT
 62
7
 10
1113.238
 20
-6026.255
 30
-887.000
 70
    32
  0
VERTEX
  8
W62LXLIFT
 62
7
 10
1110.921
 20
-6034.865
 30
-887.000
 70
    32
  0
VERTEX
  8
W62LXLIFT
 62
7
 10
1115.434
 20
-6052.604
 30
-887.000
 70
    32
  0
VERTEX
  8
W62LXLIFT
 62
7
 10
1125.541
 20
-6068.348
 30
-887.000
 70
    32
  0
VERTEX
  8
W62LXLIFT
 62
7
 10
1130.513
 20
-6085.972
 30
-887.000
 70
    32
  0
VERTEX
  8
W62LXLIFT
 62
7
 10
1165.153
 20
-6137.224
 30
-887.000
 70
    32
  0
VERTEX
  8
W62LXLIFT
 62
7
 10
1169.829
 20
-6147.265
 30
-887.000
 70
    32
  0
VERTEX
  8
W62LXLIFT
 62
7
 10
1177.865
 20
-6156.712
 30
-887.000
 70
    32
  0
VERTEX
  8
W62LXLIFT
 62
7
 10
1201.030
 20
-6185.847
 30
-887.000
 70
    32
  0
VERTEX
  8
W62LXLIFT
 62
7
 10
1206.656
 20
-6194.658
 30
-887.000
 70
    32
  0
VERTEX
  8
W62LXLIFT
 62
7
 10
1207.176
 20
-6199.263
 30
-887.000
 70
    32
  0
VERTEX
  8
W62LXLIFT
 62
7
 10
1216.161
 20
-6201.200
 30
-887.000
 70
    32
  0
VERTEX
  8
W62LXLIFT
 62
7
 10
1227.608
 20
-6217.598
 30
-887.000
 70
    32
  0
VERTEX
  8
W62LXLIFT
 62
7
 10
1228.366
 20
-6222.680
 30
-887.000
 70
    32
  0
VERTEX
  8
W62LXLIFT
 62
7
 10
1235.212
 20
-6234.073
 30
-887.000
 70
    32
  0
VERTEX
  8
W62LXLIFT
 62
7
 10
1239.727
 20
-6247.480
 30
-887.000
 70
    32
  0
VERTEX
  8
W62LXLIFT
 62
7
 10
1250.140
 20
-6251.090
 30
-887.000
 70
    32
  0
VERTEX
  8
W62LXLIFT
 62
7
 10
1254.815
 20
-6247.378
 30
-887.000
 70
    32
  0
VERTEX
  8
W62LXLIFT
 62
7
 10
1254.939
 20
-6235.592
 30
-887.000
 70
    32
  0
VERTEX
  8
W62LXLIFT
 62
7
 10
1251.472
 20
-6227.816
 30
-887.000
 70
    32
  0
VERTEX
  8
W62LXLIFT
 62
7
 10
1237.013
 20
-6204.720
 30
-887.000
 70
    32
  0
VERTEX
  8
W62LXLIFT
 62
7
 10
1217.517
 20
-6175.418
 30
-887.000
 70
    32
  0
VERTEX
  8
W62LXLIFT
 62
7
 10
1207.273
 20
-6160.531
 30
-887.000
 70
    32
  0
VERTEX
  8
W62LXLIFT
 62
7
 10
1196.217
 20
-6141.684
 30
-887.000
 70
    32
  0
VERTEX
  8
W62LXLIFT
 62
7
 10
1191.875
 20
-6135.841
 30
-887.000
 70
    32
  0
VERTEX
  8
W62LXLIFT
 62
7
 10
1187.929
 20
-6132.636
 30
-887.000
 70
    32
  0
VERTEX
  8
W62LXLIFT
 62
7
 10
1185.134
 20
-6123.397
 30
-887.000
 70
    32
  0
VERTEX
  8
W62LXLIFT
 62
7
 10
1178.241
 20
-6109.548
 30
-887.000
 70
    32
  0
VERTEX
  8
W62LXLIFT
 62
7
 10
1165.960
 20
-6097.978
 30
-887.000
 70
    32
  0
VERTEX
  8
W62LXLIFT
 62
7
 10
1164.471
 20
-6087.253
 30
-887.000
 70
    32
  0
VERTEX
  8
W62LXLIFT
 62
7
 10
1160.783
 20
-6083.210
 30
-887.000
 70
    32
  0
VERTEX
  8
W62LXLIFT
 62
7
 10
1154.545
 20
-6081.774
 30
-887.000
 70
    32
  0
VERTEX
  8
W62LXLIFT
 62
7
 10
1142.890
 20
-6066.284
 30
-887.000
 70
    32
  0
VERTEX
  8
W62LXLIFT
 62
7
 10
1136.504
 20
-6053.584
 30
-887.000
 70
    32
  0
VERTEX
  8
W62LXLIFT
 62
7
 10
1136.591
 20
-6040.850
 30
-887.000
 70
    32
  0
VERTEX
  8
W62LXLIFT
 62
7
 10
1129.133
 20
-6018.746
 30
-887.000
 70
    32
  0
SEQEND
  8
W62LXLIFT
  0
POLYLINE
  8
W62LXLIFT
 62
7
 66
     1
 70
     9
  0
VERTEX
  8
W62LXLIFT
 62
7
 10
1113.862
 20
-6031.638
 30
-882.000
 70
    32
  0
VERTEX
  8
W62LXLIFT
 62
7
 10
1123.052
 20
-6050.510
 30
-882.000
 70
    32
  0
VERTEX
  8
W62LXLIFT
 62
7
 10
1125.891
 20
-6056.889
 30
-882.000
 70
    32
  0
VERTEX
  8
W62LXLIFT
 62
7
 10
1130.127
 20
-6063.562
 30
-882.000
 70
    32
  0
VERTEX
  8
W62LXLIFT
 62
7
 10
1132.869
 20
-6075.079
 30
-882.000
 70
    32
  0
VERTEX
  8
W62LXLIFT
 62
7
 10
1141.027
 20
-6090.699
 30
-882.000
 70
    32
  0
VERTEX
  8
W62LXLIFT
 62
7
 10
1151.284
 20
-6105.788
 30
-882.000
 70
    32
  0
VERTEX
  8
W62LXLIFT
 62
7
 10
1165.339
 20
-6127.540
 30
-882.000
 70
    32
  0
VERTEX
  8
W62LXLIFT
 62
7
 10
1170.569
 20
-6139.972
 30
-882.000
 70
    32
  0
VERTEX
  8
W62LXLIFT
 62
7
 10
1178.209
 20
-6145.828
 30
-882.000
 70
    32
  0
VERTEX
  8
W62LXLIFT
 62
7
 10
1195.305
 20
-6171.227
 30
-882.000
 70
    32
  0
VERTEX
  8
W62LXLIFT
 62
7
 10
1201.249
 20
-6183.903
 30
-882.000
 70
    32
  0
VERTEX
  8
W62LXLIFT
 62
7
 10
1213.868
 20
-6195.360
 30
-882.000
 70
    32
  0
VERTEX
  8
W62LXLIFT
 62
7
 10
1225.310
 20
-6212.405
 30
-882.000
 70
    32
  0
VERTEX
  8
W62LXLIFT
 62
7
 10
1229.771
 20
-6220.750
 30
-882.000
 70
    32
  0
VERTEX
  8
W62LXLIFT
 62
7
 10
1231.880
 20
-6231.534
 30
-882.000
 70
    32
  0
VERTEX
  8
W62LXLIFT
 62
7
 10
1239.352
 20
-6243.332
 30
-882.000
 70
    32
  0
VERTEX
  8
W62LXLIFT
 62
7
 10
1251.421
 20
-6242.567
 30
-882.000
 70
    32
  0
VERTEX
  8
W62LXLIFT
 62
7
 10
1246.435
 20
-6229.422
 30
-882.000
 70
    32
  0
VERTEX
  8
W62LXLIFT
 62
7
 10
1238.450
 20
-6213.138
 30
-882.000
 70
    32
  0
VERTEX
  8
W62LXLIFT
 62
7
 10
1228.701
 20
-6196.500
 30
-882.000
 70
    32
  0
VERTEX
  8
W62LXLIFT
 62
7
 10
1217.368
 20
-6174.633
 30
-882.000
 70
    32
  0
VERTEX
  8
W62LXLIFT
 62
7
 10
1208.533
 20
-6167.260
 30
-882.000
 70
    32
  0
VERTEX
  8
W62LXLIFT
 62
7
 10
1194.522
 20
-6149.035
 30
-882.000
 70
    32
  0
VERTEX
  8
W62LXLIFT
 62
7
 10
1181.912
 20
-6124.631
 30
-882.000
 70
    32
  0
VERTEX
  8
W62LXLIFT
 62
7
 10
1178.765
 20
-6116.316
 30
-882.000
 70
    32
  0
VERTEX
  8
W62LXLIFT
 62
7
 10
1168.590
 20
-6102.246
 30
-882.000
 70
    32
  0
VERTEX
  8
W62LXLIFT
 62
7
 10
1161.036
 20
-6088.675
 30
-882.000
 70
    32
  0
VERTEX
  8
W62LXLIFT
 62
7
 10
1155.722
 20
-6085.468
 30
-882.000
 70
    32
  0
VERTEX
  8
W62LXLIFT
 62
7
 10
1144.312
 20
-6069.371
 30
-882.000
 70
    32
  0
VERTEX
  8
W62LXLIFT
 62
7
 10
1138.818
 20
-6057.775
 30
-882.000
 70
    32
  0
VERTEX
  8
W62LXLIFT
 62
7
 10
1136.639
 20
-6049.306
 30
-882.000
 70
    32
  0
VERTEX
  8
W62LXLIFT
 62
7
 10
1136.703
 20
-6040.203
 30
-882.000
 70
    32
  0
VERTEX
  8
W62LXLIFT
 62
7
 10
1133.456
 20
-6033.253
 30
-882.000
 70
    32
  0
VERTEX
  8
W62LXLIFT
 62
7
 10
1126.485
 20
-6023.361
 30
-882.000
 70
    32
  0
SEQEND
  8
W62LXLIFT
  0
POLYLINE
  8
W62LXLIFT
 62
6
 66
     1
 70
     9
  0
VERTEX
  8
W62LXLIFT
 62
6
 10
678.235
 20
-5810.571
 30
-884.000
 70
    32
  0
VERTEX
  8
W62LXLIFT
 62
6
 10
676.640
 20
-5817.535
 30
-884.000
 70
    32
  0
VERTEX
  8
W62LXLIFT
 62
6
 10
681.875
 20
-5823.494
 30
-884.000
 70
    32
  0
VERTEX
  8
W62LXLIFT
 62
6
 10
685.584
 20
-5834.857
 30
-884.000
 70
    32
  0
VERTEX
  8
W62LXLIFT
 62
6
 10
689.322
 20
-5843.396
 30
-884.000
 70
    32
  0
VERTEX
  8
W62LXLIFT
 62
6
 10
693.843
 20
-5848.357
 30
-884.000
 70
    32
  0
VERTEX
  8
W62LXLIFT
 62
6
 10
705.513
 20
-5882.599
 30
-884.000
 70
    32
  0
VERTEX
  8
W62LXLIFT
 62
6
 10
715.437
 20
-5913.345
 30
-884.000
 70
    32
  0
VERTEX
  8
W62LXLIFT
 62
6
 10
717.727
 20
-5921.519
 30
-884.000
 70
    32
  0
VERTEX
  8
W62LXLIFT
 62
6
 10
726.687
 20
-5933.438
 30
-884.000
 70
    32
  0
VERTEX
  8
W62LXLIFT
 62
6
 10
740.771
 20
-5941.367
 30
-884.000
 70
    32
  0
VERTEX
  8
W62LXLIFT
 62
6
 10
747.838
 20
-5956.367
 30
-884.000
 70
    32
  0
VERTEX
  8
W62LXLIFT
 62
6
 10
748.009
 20
-5965.949
 30
-884.000
 70
    32
  0
VERTEX
  8
W62LXLIFT
 62
6
 10
756.541
 20
-5989.174
 30
-884.000
 70
    32
  0
VERTEX
  8
W62LXLIFT
 62
6
 10
767.505
 20
-6020.470
 30
-884.000
 70
    32
  0
VERTEX
  8
W62LXLIFT
 62
6
 10
775.792
 20
-6020.147
 30
-884.000
 70
    32
  0
VERTEX
  8
W62LXLIFT
 62
6
 10
778.066
 20
-6021.216
 30
-884.000
 70
    32
  0
VERTEX
  8
W62LXLIFT
 62
6
 10
778.716
 20
-6018.055
 30
-884.000
 70
    32
  0
VERTEX
  8
W62LXLIFT
 62
6
 10
765.276
 20
-5976.669
 30
-884.000
 70
    32
  0
VERTEX
  8
W62LXLIFT
 62
6
 10
751.690
 20
-5942.612
 30
-884.000
 70
    32
  0
VERTEX
  8
W62LXLIFT
 62
6
 10
747.222
 20
-5926.724
 30
-884.000
 70
    32
  0
VERTEX
  8
W62LXLIFT
 62
6
 10
738.237
 20
-5908.892
 30
-884.000
 70
    32
  0
VERTEX
  8
W62LXLIFT
 62
6
 10
728.153
 20
-5894.649
 30
-884.000
 70
    32
  0
VERTEX
  8
W62LXLIFT
 62
6
 10
718.884
 20
-5879.285
 30
-884.000
 70
    32
  0
VERTEX
  8
W62LXLIFT
 62
6
 10
713.680
 20
-5860.257
 30
-884.000
 70
    32
  0
VERTEX
  8
W62LXLIFT
 62
6
 10
711.528
 20
-5846.701
 30
-884.000
 70
    32
  0
VERTEX
  8
W62LXLIFT
 62
6
 10
705.371
 20
-5834.932
 30
-884.000
 70
    32
  0
VERTEX
  8
W62LXLIFT
 62
6
 10
697.193
 20
-5819.434
 30
-884.000
 70
    32
  0
VERTEX
  8
W62LXLIFT
 62
6
 10
688.160
 20
-5806.811
 30
-884.000
 70
    32
  0
SEQEND
  8
W62LXLIFT
  0
POLYLINE
  8
W62LXLIFT
 62
13
 66
     1
 70
     9
  0
VERTEX
  8
W62LXLIFT
 62
13
 10
831.852
 20
-5975.828
 30
-882.000
 70
    32
  0
VERTEX
  8
W62LXLIFT
 62
13
 10
848.754
 20
-5939.473
 30
-882.000
 70
    32
  0
VERTEX
  8
W62LXLIFT
 62
13
 10
848.831
 20
-5921.949
 30
-882.000
 70
    32
  0
VERTEX
  8
W62LXLIFT
 62
13
 10
840.376
 20
-5905.463
 30
-882.000
 70
    32
  0
VERTEX
  8
W62LXLIFT
 62
13
 10
836.432
 20
-5894.375
 30
-882.000
 70
    32
  0
VERTEX
  8
W62LXLIFT
 62
13
 10
831.842
 20
-5866.713
 30
-882.000
 70
    32
  0
VERTEX
  8
W62LXLIFT
 62
13
 10
819.567
 20
-5828.160
 30
-882.000
 70
    32
  0
VERTEX
  8
W62LXLIFT
 62
13
 10
809.284
 20
-5794.651
 30
-882.000
 70
    32
  0
VERTEX
  8
W62LXLIFT
 62
13
 10
797.268
 20
-5773.488
 30
-882.000
 70
    32
  0
VERTEX
  8
W62LXLIFT
 62
13
 10
784.280
 20
-5747.953
 30
-882.000
 70
    32
  0
VERTEX
  8
W62LXLIFT
 62
13
 10
762.844
 20
-5725.228
 30
-882.000
 70
    32
  0
VERTEX
  8
W62LXLIFT
 62
13
 10
746.180
 20
-5704.803
 30
-882.000
 70
    32
  0
VERTEX
  8
W62LXLIFT
 62
13
 10
731.884
 20
-5675.029
 30
-882.000
 70
    32
  0
VERTEX
  8
W62LXLIFT
 62
13
 10
720.316
 20
-5652.683
 30
-882.000
 70
    32
  0
VERTEX
  8
W62LXLIFT
 62
13
 10
697.383
 20
-5620.031
 30
-882.000
 70
    32
  0
VERTEX
  8
W62LXLIFT
 62
13
 10
682.203
 20
-5594.447
 30
-882.000
 70
    32
  0
VERTEX
  8
W62LXLIFT
 62
13
 10
676.725
 20
-5589.956
 30
-882.000
 70
    32
  0
VERTEX
  8
W62LXLIFT
 62
13
 10
672.372
 20
-5590.051
 30
-882.000
 70
    32
  0
VERTEX
  8
W62LXLIFT
 62
13
 10
669.542
 20
-5594.233
 30
-882.000
 70
    32
  0
VERTEX
  8
W62LXLIFT
 62
13
 10
671.199
 20
-5600.919
 30
-882.000
 70
    32
  0
VERTEX
  8
W62LXLIFT
 62
13
 10
673.329
 20
-5613.089
 30
-882.000
 70
    32
  0
VERTEX
  8
W62LXLIFT
 62
13
 10
676.792
 20
-5633.902
 30
-882.000
 70
    32
  0
VERTEX
  8
W62LXLIFT
 62
13
 10
680.059
 20
-5651.728
 30
-882.000
 70
    32
  0
VERTEX
  8
W62LXLIFT
 62
13
 10
683.932
 20
-5662.867
 30
-882.000
 70
    32
  0
VERTEX
  8
W62LXLIFT
 62
13
 10
706.693
 20
-5685.183
 30
-882.000
 70
    32
  0
VERTEX
  8
W62LXLIFT
 62
13
 10
723.107
 20
-5699.532
 30
-882.000
 70
    32
  0
VERTEX
  8
W62LXLIFT
 62
13
 10
734.438
 20
-5718.381
 30
-882.000
 70
    32
  0
VERTEX
  8
W62LXLIFT
 62
13
 10
743.158
 20
-5735.541
 30
-882.000
 70
    32
  0
VERTEX
  8
W62LXLIFT
 62
13
 10
723.744
 20
-5741.561
 30
-882.000
 70
    32
  0
VERTEX
  8
W62LXLIFT
 62
13
 10
723.900
 20
-5745.547
 30
-882.000
 70
    32
  0
VERTEX
  8
W62LXLIFT
 62
13
 10
738.355
 20
-5746.309
 30
-882.000
 70
    32
  0
VERTEX
  8
W62LXLIFT
 62
13
 10
752.588
 20
-5748.418
 30
-882.000
 70
    32
  0
VERTEX
  8
W62LXLIFT
 62
13
 10
756.470
 20
-5745.856
 30
-882.000
 70
    32
  0
VERTEX
  8
W62LXLIFT
 62
13
 10
767.227
 20
-5748.834
 30
-882.000
 70
    32
  0
VERTEX
  8
W62LXLIFT
 62
13
 10
787.300
 20
-5775.229
 30
-882.000
 70
    32
  0
VERTEX
  8
W62LXLIFT
 62
13
 10
804.513
 20
-5806.367
 30
-882.000
 70
    32
  0
VERTEX
  8
W62LXLIFT
 62
13
 10
809.811
 20
-5827.485
 30
-882.000
 70
    32
  0
VERTEX
  8
W62LXLIFT
 62
13
 10
813.932
 20
-5842.436
 30
-882.000
 70
    32
  0
VERTEX
  8
W62LXLIFT
 62
13
 10
812.463
 20
-5853.946
 30
-882.000
 70
    32
  0
VERTEX
  8
W62LXLIFT
 62
13
 10
814.874
 20
-5871.630
 30
-882.000
 70
    32
  0
VERTEX
  8
W62LXLIFT
 62
13
 10
818.191
 20
-5877.020
 30
-882.000
 70
    32
  0
VERTEX
  8
W62LXLIFT
 62
13
 10
822.772
 20
-5881.614
 30
-882.000
 70
    32
  0
VERTEX
  8
W62LXLIFT
 62
13
 10
827.875
 20
-5901.253
 30
-882.000
 70
    32
  0
VERTEX
  8
W62LXLIFT
 62
13
 10
836.127
 20
-5931.471
 30
-882.000
 70
    32
  0
VERTEX
  8
W62LXLIFT
 62
13
 10
834.132
 20
-5947.671
 30
-882.000
 70
    32
  0
VERTEX
  8
W62LXLIFT
 62
13
 10
827.599
 20
-5961.295
 30
-882.000
 70
    32
  0
VERTEX
  8
W62LXLIFT
 62
13
 10
824.263
 20
-5970.044
 30
-882.000
 70
    32
  0
VERTEX
  8
W62LXLIFT
 62
13
 10
824.847
 20
-5973.724
 30
-882.000
 70
    32
  0
VERTEX
  8
W62LXLIFT
 62
13
 10
826.867
 20
-5975.190
 30
-882.000
 70
    32
  0
SEQEND
  8
W62LXLIFT
  0
POLYLINE
  8
W62LXLIFT
 62
7
 66
     1
 70
     9
  0
VERTEX
  8
W62LXLIFT
 62
7
 10
1121.355
 20
-6037.685
 30
-871.000
 70
    32
  0
VERTEX
  8
W62LXLIFT
 62
7
 10
1126.626
 20
-6045.798
 30
-871.000
 70
    32
  0
VERTEX
  8
W62LXLIFT
 62
7
 10
1123.567
 20
-6049.070
 30
-871.000
 70
    32
  0
VERTEX
  8
W62LXLIFT
 62
7
 10
1141.703
 20
-6082.987
 30
-871.000
 70
    32
  0
VERTEX
  8
W62LXLIFT
 62
7
 10
1162.800
 20
-6122.997
 30
-871.000
 70
    32
  0
VERTEX
  8
W62LXLIFT
 62
7
 10
1183.942
 20
-6152.057
 30
-871.000
 70
    32
  0
VERTEX
  8
W62LXLIFT
 62
7
 10
1188.195
 20
-6161.765
 30
-871.000
 70
    32
  0
VERTEX
  8
W62LXLIFT
 62
7
 10
1187.912
 20
-6164.237
 30
-871.000
 70
    32
  0
VERTEX
  8
W62LXLIFT
 62
7
 10
1197.652
 20
-6176.174
 30
-871.000
 70
    32
  0
VERTEX
  8
W62LXLIFT
 62
7
 10
1210.399
 20
-6197.738
 30
-871.000
 70
    32
  0
VERTEX
  8
W62LXLIFT
 62
7
 10
1224.270
 20
-6220.119
 30
-871.000
 70
    32
  0
VERTEX
  8
W62LXLIFT
 62
7
 10
1229.122
 20
-6227.344
 30
-871.000
 70
    32
  0
VERTEX
  8
W62LXLIFT
 62
7
 10
1235.233
 20
-6229.991
 30
-871.000
 70
    32
  0
VERTEX
  8
W62LXLIFT
 62
7
 10
1240.982
 20
-6228.359
 30
-871.000
 70
    32
  0
VERTEX
  8
W62LXLIFT
 62
7
 10
1240.384
 20
-6224.356
 30
-871.000
 70
    32
  0
VERTEX
  8
W62LXLIFT
 62
7
 10
1227.712
 20
-6197.765
 30
-871.000
 70
    32
  0
VERTEX
  8
W62LXLIFT
 62
7
 10
1219.817
 20
-6183.426
 30
-871.000
 70
    32
  0
VERTEX
  8
W62LXLIFT
 62
7
 10
1206.773
 20
-6153.751
 30
-871.000
 70
    32
  0
VERTEX
  8
W62LXLIFT
 62
7
 10
1196.046
 20
-6145.115
 30
-871.000
 70
    32
  0
VERTEX
  8
W62LXLIFT
 62
7
 10
1190.461
 20
-6139.280
 30
-871.000
 70
    32
  0
VERTEX
  8
W62LXLIFT
 62
7
 10
1184.854
 20
-6132.057
 30
-871.000
 70
    32
  0
VERTEX
  8
W62LXLIFT
 62
7
 10
1164.904
 20
-6101.493
 30
-871.000
 70
    32
  0
VERTEX
  8
W62LXLIFT
 62
7
 10
1154.679
 20
-6086.012
 30
-871.000
 70
    32
  0
VERTEX
  8
W62LXLIFT
 62
7
 10
1148.449
 20
-6071.885
 30
-871.000
 70
    32
  0
VERTEX
  8
W62LXLIFT
 62
7
 10
1140.890
 20
-6056.656
 30
-871.000
 70
    32
  0
VERTEX
  8
W62LXLIFT
 62
7
 10
1128.182
 20
-6033.334
 30
-871.000
 70
    32
  0
SEQEND
  8
W62LXLIFT
  0
POLYLINE
  8
W62LXLIFT
 62
6
 66
     1
 70
     9
  0
VERTEX
  8
W62LXLIFT
 62
6
 10
656.582
 20
-5772.284
 30
-863.000
 70
    32
  0
VERTEX
  8
W62LXLIFT
 62
6
 10
672.726
 20
-5791.199
 30
-863.000
 70
    32
  0
VERTEX
  8
W62LXLIFT
 62
6
 10
688.188
 20
-5833.300
 30
-863.000
 70
    32
  0
VERTEX
  8
W62LXLIFT
 62
6
 10
693.533
 20
-5858.113
 30
-863.000
 70
    32
  0
VERTEX
  8
W62LXLIFT
 62
6
 10
694.409
 20
-5878.346
 30
-863.000
 70
    32
  0
VERTEX
  8
W62LXLIFT
 62
6
 10
697.148
 20
-5886.544
 30
-863.000
 70
    32
  0
VERTEX
  8
W62LXLIFT
 62
6
 10
709.305
 20
-5895.669
 30
-863.000
 70
    32
  0
VERTEX
  8
W62LXLIFT
 62
6
 10
712.670
 20
-5906.552
 30
-863.000
 70
    32
  0
VERTEX
  8
W62LXLIFT
 62
6
 10
712.473
 20
-5911.557
 30
-863.000
 70
    32
  0
VERTEX
  8
W62LXLIFT
 62
6
 10
720.311
 20
-5958.255
 30
-863.000
 70
    32
  0
VERTEX
  8
W62LXLIFT
 62
6
 10
729.730
 20
-5959.182
 30
-863.000
 70
    32
  0
VERTEX
  8
W62LXLIFT
 62
6
 10
737.545
 20
-5953.043
 30
-863.000
 70
    32
  0
VERTEX
  8
W62LXLIFT
 62
6
 10
740.947
 20
-5946.174
 30
-863.000
 70
    32
  0
VERTEX
  8
W62LXLIFT
 62
6
 10
740.763
 20
-5938.524
 30
-863.000
 70
    32
  0
VERTEX
  8
W62LXLIFT
 62
6
 10
746.685
 20
-5922.500
 30
-863.000
 70
    32
  0
VERTEX
  8
W62LXLIFT
 62
6
 10
767.222
 20
-5905.302
 30
-863.000
 70
    32
  0
VERTEX
  8
W62LXLIFT
 62
6
 10
775.407
 20
-5907.977
 30
-863.000
 70
    32
  0
VERTEX
  8
W62LXLIFT
 62
6
 10
779.248
 20
-5908.359
 30
-863.000
 70
    32
  0
VERTEX
  8
W62LXLIFT
 62
6
 10
783.045
 20
-5905.964
 30
-863.000
 70
    32
  0
VERTEX
  8
W62LXLIFT
 62
6
 10
785.243
 20
-5900.282
 30
-863.000
 70
    32
  0
VERTEX
  8
W62LXLIFT
 62
6
 10
781.351
 20
-5892.586
 30
-863.000
 70
    32
  0
VERTEX
  8
W62LXLIFT
 62
6
 10
768.237
 20
-5893.442
 30
-863.000
 70
    32
  0
VERTEX
  8
W62LXLIFT
 62
6
 10
762.789
 20
-5890.211
 30
-863.000
 70
    32
  0
VERTEX
  8
W62LXLIFT
 62
6
 10
730.643
 20
-5874.005
 30
-863.000
 70
    32
  0
VERTEX
  8
W62LXLIFT
 62
6
 10
724.446
 20
-5868.825
 30
-863.000
 70
    32
  0
VERTEX
  8
W62LXLIFT
 62
6
 10
719.719
 20
-5863.132
 30
-863.000
 70
    32
  0
VERTEX
  8
W62LXLIFT
 62
6
 10
710.558
 20
-5848.835
 30
-863.000
 70
    32
  0
VERTEX
  8
W62LXLIFT
 62
6
 10
707.002
 20
-5833.008
 30
-863.000
 70
    32
  0
VERTEX
  8
W62LXLIFT
 62
6
 10
699.113
 20
-5823.204
 30
-863.000
 70
    32
  0
VERTEX
  8
W62LXLIFT
 62
6
 10
696.283
 20
-5815.179
 30
-863.000
 70
    32
  0
VERTEX
  8
W62LXLIFT
 62
6
 10
688.060
 20
-5792.536
 30
-863.000
 70
    32
  0
VERTEX
  8
W62LXLIFT
 62
6
 10
683.091
 20
-5789.070
 30
-863.000
 70
    32
  0
VERTEX
  8
W62LXLIFT
 62
6
 10
663.234
 20
-5766.330
 30
-863.000
 70
    32
  0
SEQEND
  8
W62LXLIFT
  0
POLYLINE
  8
W62LXLIFT
 62
6
 66
     1
 70
     9
  0
VERTEX
  8
W62LXLIFT
 62
6
 10
733.807
 20
-5894.113
 30
-863.000
 70
    32
  0
VERTEX
  8
W62LXLIFT
 62
6
 10
741.335
 20
-5916.389
 30
-863.000
 70
    32
  0
VERTEX
  8
W62LXLIFT
 62
6
 10
751.984
 20
-5906.058
 30
-863.000
 70
    32
  0
VERTEX
  8
W62LXLIFT
 62
6
 10
761.504
 20
-5899.130
 30
-863.000
 70
    32
  0
VERTEX
  8
W62LXLIFT
 62
6
 10
754.095
 20
-5896.332
 30
-863.000
 70
    32
  0
VERTEX
  8
W62LXLIFT
 62
6
 10
747.024
 20
-5894.156
 30
-863.000
 70
    32
  0
VERTEX
  8
W62LXLIFT
 62
6
 10
740.230
 20
-5892.970
 30
-863.000
 70
    32
  0
SEQEND
  8
W62LXLIFT
  0
POLYLINE
  8
W62LXLIFT
 62
13
 66
     1
 70
     9
  0
VERTEX
  8
W62LXLIFT
 62
13
 10
760.986
 20
-5746.778
 30
-872.000
 70
    32
  0
VERTEX
  8
W62LXLIFT
 62
13
 10
768.802
 20
-5763.119
 30
-872.000
 70
    32
  0
VERTEX
  8
W62LXLIFT
 62
13
 10
787.315
 20
-5774.176
 30
-872.000
 70
    32
  0
VERTEX
  8
W62LXLIFT
 62
13
 10
793.778
 20
-5787.272
 30
-872.000
 70
    32
  0
VERTEX
  8
W62LXLIFT
 62
13
 10
801.503
 20
-5819.027
 30
-872.000
 70
    32
  0
VERTEX
  8
W62LXLIFT
 62
13
 10
805.755
 20
-5827.979
 30
-872.000
 70
    32
  0
VERTEX
  8
W62LXLIFT
 62
13
 10
807.414
 20
-5838.895
 30
-872.000
 70
    32
  0
VERTEX
  8
W62LXLIFT
 62
13
 10
807.362
 20
-5852.551
 30
-872.000
 70
    32
  0
VERTEX
  8
W62LXLIFT
 62
13
 10
814.459
 20
-5873.623
 30
-872.000
 70
    32
  0
VERTEX
  8
W62LXLIFT
 62
13
 10
820.694
 20
-5906.014
 30
-872.000
 70
    32
  0
VERTEX
  8
W62LXLIFT
 62
13
 10
826.574
 20
-5925.688
 30
-872.000
 70
    32
  0
VERTEX
  8
W62LXLIFT
 62
13
 10
824.749
 20
-5950.450
 30
-872.000
 70
    32
  0
VERTEX
  8
W62LXLIFT
 62
13
 10
818.556
 20
-5970.018
 30
-872.000
 70
    32
  0
VERTEX
  8
W62LXLIFT
 62
13
 10
821.924
 20
-5975.172
 30
-872.000
 70
    32
  0
VERTEX
  8
W62LXLIFT
 62
13
 10
827.567
 20
-5971.129
 30
-872.000
 70
    32
  0
VERTEX
  8
W62LXLIFT
 62
13
 10
829.526
 20
-5962.700
 30
-872.000
 70
    32
  0
VERTEX
  8
W62LXLIFT
 62
13
 10
833.930
 20
-5949.385
 30
-872.000
 70
    32
  0
VERTEX
  8
W62LXLIFT
 62
13
 10
836.473
 20
-5934.377
 30
-872.000
 70
    32
  0
VERTEX
  8
W62LXLIFT
 62
13
 10
835.558
 20
-5922.387
 30
-872.000
 70
    32
  0
VERTEX
  8
W62LXLIFT
 62
13
 10
831.455
 20
-5902.628
 30
-872.000
 70
    32
  0
VERTEX
  8
W62LXLIFT
 62
13
 10
828.889
 20
-5886.524
 30
-872.000
 70
    32
  0
VERTEX
  8
W62LXLIFT
 62
13
 10
829.972
 20
-5871.590
 30
-872.000
 70
    32
  0
VERTEX
  8
W62LXLIFT
 62
13
 10
829.349
 20
-5864.686
 30
-872.000
 70
    32
  0
VERTEX
  8
W62LXLIFT
 62
13
 10
820.910
 20
-5848.682
 30
-872.000
 70
    32
  0
VERTEX
  8
W62LXLIFT
 62
13
 10
810.205
 20
-5810.956
 30
-872.000
 70
    32
  0
VERTEX
  8
W62LXLIFT
 62
13
 10
804.667
 20
-5787.686
 30
-872.000
 70
    32
  0
VERTEX
  8
W62LXLIFT
 62
13
 10
796.931
 20
-5770.097
 30
-872.000
 70
    32
  0
VERTEX
  8
W62LXLIFT
 62
13
 10
782.409
 20
-5750.129
 30
-872.000
 70
    32
  0
VERTEX
  8
W62LXLIFT
 62
13
 10
769.224
 20
-5735.796
 30
-872.000
 70
    32
  0
SEQEND
  8
W62LXLIFT
  0
POLYLINE
  8
W62LXLIFT
 62
13
 66
     1
 70
     8
  0
VERTEX
  8
W62LXLIFT
 62
13
 10
769.120
 20
-5735.934
 30
-872.000
 70
    32
  0
VERTEX
  8
W62LXLIFT
 62
13
 10
756.366
 20
-5722.525
 30
-872.000
 70
    32
  0
VERTEX
  8
W62LXLIFT
 62
13
 10
749.681
 20
-5704.292
 30
-872.000
 70
    32
  0
VERTEX
  8
W62LXLIFT
 62
13
 10
739.583
 20
-5691.855
 30
-872.000
 70
    32
  0
VERTEX
  8
W62LXLIFT
 62
13
 10
736.371
 20
-5681.186
 30
-872.000
 70
    32
  0
VERTEX
  8
W62LXLIFT
 62
13
 10
722.868
 20
-5651.625
 30
-872.000
 70
    32
  0
VERTEX
  8
W62LXLIFT
 62
13
 10
711.256
 20
-5631.192
 30
-872.000
 70
    32
  0
VERTEX
  8
W62LXLIFT
 62
13
 10
701.251
 20
-5612.096
 30
-872.000
 70
    32
  0
VERTEX
  8
W62LXLIFT
 62
13
 10
695.286
 20
-5597.886
 30
-872.000
 70
    32
  0
VERTEX
  8
W62LXLIFT
 62
13
 10
679.435
 20
-5584.058
 30
-872.000
 70
    32
  0
VERTEX
  8
W62LXLIFT
 62
13
 10
670.931
 20
-5579.882
 30
-872.000
 70
    32
  0
VERTEX
  8
W62LXLIFT
 62
13
 10
665.187
 20
-5584.537
 30
-872.000
 70
    32
  0
VERTEX
  8
W62LXLIFT
 62
13
 10
670.770
 20
-5603.344
 30
-872.000
 70
    32
  0
VERTEX
  8
W62LXLIFT
 62
13
 10
674.647
 20
-5629.425
 30
-872.000
 70
    32
  0
VERTEX
  8
W62LXLIFT
 62
13
 10
678.376
 20
-5637.346
 30
-872.000
 70
    32
  0
VERTEX
  8
W62LXLIFT
 62
13
 10
684.714
 20
-5648.910
 30
-872.000
 70
    32
  0
VERTEX
  8
W62LXLIFT
 62
13
 10
684.484
 20
-5674.691
 30
-872.000
 70
    32
  0
VERTEX
  8
W62LXLIFT
 62
13
 10
694.728
 20
-5688.537
 30
-872.000
 70
    32
  0
VERTEX
  8
W62LXLIFT
 62
13
 10
701.857
 20
-5710.559
 30
-872.000
 70
    32
  0
VERTEX
  8
W62LXLIFT
 62
13
 10
705.974
 20
-5718.418
 30
-872.000
 70
    32
  0
VERTEX
  8
W62LXLIFT
 62
13
 10
715.444
 20
-5726.658
 30
-872.000
 70
    32
  0
VERTEX
  8
W62LXLIFT
 62
13
 10
717.300
 20
-5731.813
 30
-872.000
 70
    32
  0
VERTEX
  8
W62LXLIFT
 62
13
 10
716.332
 20
-5740.721
 30
-872.000
 70
    32
  0
VERTEX
  8
W62LXLIFT
 62
13
 10
719.657
 20
-5744.608
 30
-872.000
 70
    32
  0
VERTEX
  8
W62LXLIFT
 62
13
 10
729.377
 20
-5749.426
 30
-872.000
 70
    32
  0
VERTEX
  8
W62LXLIFT
 62
13
 10
736.874
 20
-5749.027
 30
-872.000
 70
    32
  0
VERTEX
  8
W62LXLIFT
 62
13
 10
747.365
 20
-5749.942
 30
-872.000
 70
    32
  0
VERTEX
  8
W62LXLIFT
 62
13
 10
760.745
 20
-5746.346
 30
-872.000
 70
    32
  0
SEQEND
  8
W62LXLIFT
  0
POLYLINE
  8
W62LXLIFT
 62
13
 66
     1
 70
     9
  0
VERTEX
  8
W62LXLIFT
 62
13
 10
669.804
 20
-5611.125
 30
-864.000
 70
    32
  0
VERTEX
  8
W62LXLIFT
 62
13
 10
669.289
 20
-5619.363
 30
-864.000
 70
    32
  0
VERTEX
  8
W62LXLIFT
 62
13
 10
672.315
 20
-5630.158
 30
-864.000
 70
    32
  0
VERTEX
  8
W62LXLIFT
 62
13
 10
676.011
 20
-5642.202
 30
-864.000
 70
    32
  0
VERTEX
  8
W62LXLIFT
 62
13
 10
687.593
 20
-5660.188
 30
-864.000
 70
    32
  0
VERTEX
  8
W62LXLIFT
 62
13
 10
684.724
 20
-5679.696
 30
-864.000
 70
    32
  0
VERTEX
  8
W62LXLIFT
 62
13
 10
697.251
 20
-5706.611
 30
-864.000
 70
    32
  0
VERTEX
  8
W62LXLIFT
 62
13
 10
713.665
 20
-5718.794
 30
-864.000
 70
    32
  0
VERTEX
  8
W62LXLIFT
 62
13
 10
694.550
 20
-5735.167
 30
-864.000
 70
    32
  0
VERTEX
  8
W62LXLIFT
 62
13
 10
695.830
 20
-5738.033
 30
-864.000
 70
    32
  0
VERTEX
  8
W62LXLIFT
 62
13
 10
687.797
 20
-5754.521
 30
-864.000
 70
    32
  0
VERTEX
  8
W62LXLIFT
 62
13
 10
693.735
 20
-5762.277
 30
-864.000
 70
    32
  0
VERTEX
  8
W62LXLIFT
 62
13
 10
712.666
 20
-5759.624
 30
-864.000
 70
    32
  0
VERTEX
  8
W62LXLIFT
 62
13
 10
735.038
 20
-5755.283
 30
-864.000
 70
    32
  0
VERTEX
  8
W62LXLIFT
 62
13
 10
760.924
 20
-5755.133
 30
-864.000
 70
    32
  0
VERTEX
  8
W62LXLIFT
 62
13
 10
778.812
 20
-5770.153
 30
-864.000
 70
    32
  0
VERTEX
  8
W62LXLIFT
 62
13
 10
786.691
 20
-5764.236
 30
-864.000
 70
    32
  0
VERTEX
  8
W62LXLIFT
 62
13
 10
782.448
 20
-5760.993
 30
-864.000
 70
    32
  0
VERTEX
  8
W62LXLIFT
 62
13
 10
767.981
 20
-5740.310
 30
-864.000
 70
    32
  0
VERTEX
  8
W62LXLIFT
 62
13
 10
757.145
 20
-5726.108
 30
-864.000
 70
    32
  0
VERTEX
  8
W62LXLIFT
 62
13
 10
752.507
 20
-5714.409
 30
-864.000
 70
    32
  0
VERTEX
  8
W62LXLIFT
 62
13
 10
738.642
 20
-5697.612
 30
-864.000
 70
    32
  0
VERTEX
  8
W62LXLIFT
 62
13
 10
730.601
 20
-5674.739
 30
-864.000
 70
    32
  0
VERTEX
  8
W62LXLIFT
 62
13
 10
720.566
 20
-5662.881
 30
-864.000
 70
    32
  0
VERTEX
  8
W62LXLIFT
 62
13
 10
710.524
 20
-5642.507
 30
-864.000
 70
    32
  0
VERTEX
  8
W62LXLIFT
 62
13
 10
702.136
 20
-5630.235
 30
-864.000
 70
    32
  0
VERTEX
  8
W62LXLIFT
 62
13
 10
696.995
 20
-5605.520
 30
-864.000
 70
    32
  0
SEQEND
  8
W62LXLIFT
  0
POLYLINE
  8
W62LXLIFT
 62
7
 66
     1
 70
     9
  0
VERTEX
  8
W62LXLIFT
 62
7
 10
1148.219
 20
-6098.190
 30
-862.000
 70
    32
  0
VERTEX
  8
W62LXLIFT
 62
7
 10
1150.075
 20
-6103.236
 30
-862.000
 70
    32
  0
VERTEX
  8
W62LXLIFT
 62
7
 10
1153.750
 20
-6108.716
 30
-862.000
 70
    32
  0
VERTEX
  8
W62LXLIFT
 62
7
 10
1166.234
 20
-6129.190
 30
-862.000
 70
    32
  0
VERTEX
  8
W62LXLIFT
 62
7
 10
1177.661
 20
-6144.374
 30
-862.000
 70
    32
  0
VERTEX
  8
W62LXLIFT
 62
7
 10
1189.982
 20
-6157.629
 30
-862.000
 70
    32
  0
VERTEX
  8
W62LXLIFT
 62
7
 10
1193.042
 20
-6163.762
 30
-862.000
 70
    32
  0
VERTEX
  8
W62LXLIFT
 62
7
 10
1197.595
 20
-6183.394
 30
-862.000
 70
    32
  0
VERTEX
  8
W62LXLIFT
 62
7
 10
1199.078
 20
-6186.547
 30
-862.000
 70
    32
  0
VERTEX
  8
W62LXLIFT
 62
7
 10
1201.848
 20
-6186.954
 30
-862.000
 70
    32
  0
VERTEX
  8
W62LXLIFT
 62
7
 10
1208.006
 20
-6199.731
 30
-862.000
 70
    32
  0
VERTEX
  8
W62LXLIFT
 62
7
 10
1211.754
 20
-6201.061
 30
-862.000
 70
    32
  0
VERTEX
  8
W62LXLIFT
 62
7
 10
1213.186
 20
-6204.142
 30
-862.000
 70
    32
  0
VERTEX
  8
W62LXLIFT
 62
7
 10
1215.104
 20
-6216.263
 30
-862.000
 70
    32
  0
VERTEX
  8
W62LXLIFT
 62
7
 10
1220.484
 20
-6225.817
 30
-862.000
 70
    32
  0
VERTEX
  8
W62LXLIFT
 62
7
 10
1229.168
 20
-6238.203
 30
-862.000
 70
    32
  0
VERTEX
  8
W62LXLIFT
 62
7
 10
1234.339
 20
-6238.954
 30
-862.000
 70
    32
  0
VERTEX
  8
W62LXLIFT
 62
7
 10
1235.889
 20
-6240.226
 30
-862.000
 70
    32
  0
VERTEX
  8
W62LXLIFT
 62
7
 10
1238.223
 20
-6235.765
 30
-862.000
 70
    32
  0
VERTEX
  8
W62LXLIFT
 62
7
 10
1238.533
 20
-6231.339
 30
-862.000
 70
    32
  0
VERTEX
  8
W62LXLIFT
 62
7
 10
1234.865
 20
-6226.932
 30
-862.000
 70
    32
  0
VERTEX
  8
W62LXLIFT
 62
7
 10
1235.236
 20
-6215.453
 30
-862.000
 70
    32
  0
VERTEX
  8
W62LXLIFT
 62
7
 10
1230.263
 20
-6209.815
 30
-862.000
 70
    32
  0
VERTEX
  8
W62LXLIFT
 62
7
 10
1228.530
 20
-6204.790
 30
-862.000
 70
    32
  0
VERTEX
  8
W62LXLIFT
 62
7
 10
1202.026
 20
-6157.276
 30
-862.000
 70
    32
  0
VERTEX
  8
W62LXLIFT
 62
7
 10
1190.397
 20
-6141.804
 30
-862.000
 70
    32
  0
VERTEX
  8
W62LXLIFT
 62
7
 10
1176.201
 20
-6126.213
 30
-862.000
 70
    32
  0
VERTEX
  8
W62LXLIFT
 62
7
 10
1173.269
 20
-6121.931
 30
-862.000
 70
    32
  0
VERTEX
  8
W62LXLIFT
 62
7
 10
1169.760
 20
-6112.127
 30
-862.000
 70
    32
  0
VERTEX
  8
W62LXLIFT
 62
7
 10
1159.826
 20
-6097.069
 30
-862.000
 70
    32
  0
VERTEX
  8
W62LXLIFT
 62
7
 10
1153.889
 20
-6089.312
 30
-862.000
 70
    32
  0
VERTEX
  8
W62LXLIFT
 62
7
 10
1150.797
 20
-6087.085
 30
-862.000
 70
    32
  0
VERTEX
  8
W62LXLIFT
 62
7
 10
1147.084
 20
-6087.780
 30
-862.000
 70
    32
  0
VERTEX
  8
W62LXLIFT
 62
7
 10
1145.398
 20
-6091.026
 30
-862.000
 70
    32
  0
SEQEND
  8
W62LXLIFT
  0
POLYLINE
  8
W62LXLIFT
 62
7
 66
     1
 70
     9
  0
VERTEX
  8
W62LXLIFT
 62
7
 10
1194.484
 20
-6167.201
 30
-852.000
 70
    32
  0
VERTEX
  8
W62LXLIFT
 62
7
 10
1191.261
 20
-6175.008
 30
-852.000
 70
    32
  0
VERTEX
  8
W62LXLIFT
 62
7
 10
1191.913
 20
-6183.794
 30
-852.000
 70
    32
  0
VERTEX
  8
W62LXLIFT
 62
7
 10
1194.377
 20
-6188.204
 30
-852.000
 70
    32
  0
VERTEX
  8
W62LXLIFT
 62
7
 10
1199.612
 20
-6187.316
 30
-852.000
 70
    32
  0
VERTEX
  8
W62LXLIFT
 62
7
 10
1215.422
 20
-6209.967
 30
-852.000
 70
    32
  0
VERTEX
  8
W62LXLIFT
 62
7
 10
1211.380
 20
-6218.591
 30
-852.000
 70
    32
  0
VERTEX
  8
W62LXLIFT
 62
7
 10
1211.248
 20
-6222.284
 30
-852.000
 70
    32
  0
VERTEX
  8
W62LXLIFT
 62
7
 10
1223.199
 20
-6238.170
 30
-852.000
 70
    32
  0
VERTEX
  8
W62LXLIFT
 62
7
 10
1227.345
 20
-6238.623
 30
-852.000
 70
    32
  0
VERTEX
  8
W62LXLIFT
 62
7
 10
1231.273
 20
-6239.672
 30
-852.000
 70
    32
  0
VERTEX
  8
W62LXLIFT
 62
7
 10
1237.581
 20
-6238.762
 30
-852.000
 70
    32
  0
VERTEX
  8
W62LXLIFT
 62
7
 10
1236.202
 20
-6228.982
 30
-852.000
 70
    32
  0
VERTEX
  8
W62LXLIFT
 62
7
 10
1233.474
 20
-6215.721
 30
-852.000
 70
    32
  0
VERTEX
  8
W62LXLIFT
 62
7
 10
1228.467
 20
-6206.198
 30
-852.000
 70
    32
  0
VERTEX
  8
W62LXLIFT
 62
7
 10
1223.296
 20
-6195.705
 30
-852.000
 70
    32
  0
VERTEX
  8
W62LXLIFT
 62
7
 10
1216.022
 20
-6184.572
 30
-852.000
 70
    32
  0
VERTEX
  8
W62LXLIFT
 62
7
 10
1207.757
 20
-6170.894
 30
-852.000
 70
    32
  0
SEQEND
  8
W62LXLIFT
  0
POLYLINE
  8
W62LXLIFT
 62
13
 66
     1
 70
     9
  0
VERTEX
  8
W62LXLIFT
 62
13
 10
694.490
 20
-5745.553
 30
-855.000
 70
    32
  0
VERTEX
  8
W62LXLIFT
 62
13
 10
687.938
 20
-5749.258
 30
-855.000
 70
    32
  0
VERTEX
  8
W62LXLIFT
 62
13
 10
684.584
 20
-5754.654
 30
-855.000
 70
    32
  0
VERTEX
  8
W62LXLIFT
 62
13
 10
685.914
 20
-5758.258
 30
-855.000
 70
    32
  0
VERTEX
  8
W62LXLIFT
 62
13
 10
691.043
 20
-5758.864
 30
-855.000
 70
    32
  0
VERTEX
  8
W62LXLIFT
 62
13
 10
695.475
 20
-5761.942
 30
-855.000
 70
    32
  0
VERTEX
  8
W62LXLIFT
 62
13
 10
715.557
 20
-5761.089
 30
-855.000
 70
    32
  0
VERTEX
  8
W62LXLIFT
 62
13
 10
722.411
 20
-5754.221
 30
-855.000
 70
    32
  0
VERTEX
  8
W62LXLIFT
 62
13
 10
733.814
 20
-5755.359
 30
-855.000
 70
    32
  0
VERTEX
  8
W62LXLIFT
 62
13
 10
741.037
 20
-5757.485
 30
-855.000
 70
    32
  0
VERTEX
  8
W62LXLIFT
 62
13
 10
749.700
 20
-5756.813
 30
-855.000
 70
    32
  0
VERTEX
  8
W62LXLIFT
 62
13
 10
758.191
 20
-5748.311
 30
-855.000
 70
    32
  0
VERTEX
  8
W62LXLIFT
 62
13
 10
760.404
 20
-5735.249
 30
-855.000
 70
    32
  0
VERTEX
  8
W62LXLIFT
 62
13
 10
749.534
 20
-5726.202
 30
-855.000
 70
    32
  0
VERTEX
  8
W62LXLIFT
 62
13
 10
736.153
 20
-5707.767
 30
-855.000
 70
    32
  0
VERTEX
  8
W62LXLIFT
 62
13
 10
726.416
 20
-5687.756
 30
-855.000
 70
    32
  0
VERTEX
  8
W62LXLIFT
 62
13
 10
713.399
 20
-5660.880
 30
-855.000
 70
    32
  0
VERTEX
  8
W62LXLIFT
 62
13
 10
702.271
 20
-5645.374
 30
-855.000
 70
    32
  0
VERTEX
  8
W62LXLIFT
 62
13
 10
697.701
 20
-5630.191
 30
-855.000
 70
    32
  0
VERTEX
  8
W62LXLIFT
 62
13
 10
692.400
 20
-5621.755
 30
-855.000
 70
    32
  0
VERTEX
  8
W62LXLIFT
 62
13
 10
682.522
 20
-5618.085
 30
-855.000
 70
    32
  0
VERTEX
  8
W62LXLIFT
 62
13
 10
669.201
 20
-5606.581
 30
-855.000
 70
    32
  0
VERTEX
  8
W62LXLIFT
 62
13
 10
664.400
 20
-5607.914
 30
-855.000
 70
    32
  0
VERTEX
  8
W62LXLIFT
 62
13
 10
662.248
 20
-5612.867
 30
-855.000
 70
    32
  0
VERTEX
  8
W62LXLIFT
 62
13
 10
663.714
 20
-5616.807
 30
-855.000
 70
    32
  0
VERTEX
  8
W62LXLIFT
 62
13
 10
668.037
 20
-5624.651
 30
-855.000
 70
    32
  0
VERTEX
  8
W62LXLIFT
 62
13
 10
667.351
 20
-5642.481
 30
-855.000
 70
    32
  0
VERTEX
  8
W62LXLIFT
 62
13
 10
662.431
 20
-5653.927
 30
-855.000
 70
    32
  0
VERTEX
  8
W62LXLIFT
 62
13
 10
657.191
 20
-5659.723
 30
-855.000
 70
    32
  0
VERTEX
  8
W62LXLIFT
 62
13
 10
665.473
 20
-5670.446
 30
-855.000
 70
    32
  0
VERTEX
  8
W62LXLIFT
 62
13
 10
670.277
 20
-5683.714
 30
-855.000
 70
    32
  0
VERTEX
  8
W62LXLIFT
 62
13
 10
673.441
 20
-5700.252
 30
-855.000
 70
    32
  0
VERTEX
  8
W62LXLIFT
 62
13
 10
681.770
 20
-5715.954
 30
-855.000
 70
    32
  0
VERTEX
  8
W62LXLIFT
 62
13
 10
687.749
 20
-5730.978
 30
-855.000
 70
    32
  0
SEQEND
  8
W62LXLIFT
  0
POLYLINE
  8
W62LXLIFT
 62
6
 66
     1
 70
     9
  0
VERTEX
  8
W62LXLIFT
 62
6
 10
655.902
 20
-5768.775
 30
-851.000
 70
    32
  0
VERTEX
  8
W62LXLIFT
 62
6
 10
660.179
 20
-5774.472
 30
-851.000
 70
    32
  0
VERTEX
  8
W62LXLIFT
 62
6
 10
666.211
 20
-5789.566
 30
-851.000
 70
    32
  0
VERTEX
  8
W62LXLIFT
 62
6
 10
673.527
 20
-5797.182
 30
-851.000
 70
    32
  0
VERTEX
  8
W62LXLIFT
 62
6
 10
684.367
 20
-5829.573
 30
-851.000
 70
    32
  0
VERTEX
  8
W62LXLIFT
 62
6
 10
696.167
 20
-5858.210
 30
-851.000
 70
    32
  0
VERTEX
  8
W62LXLIFT
 62
6
 10
701.386
 20
-5880.983
 30
-851.000
 70
    32
  0
VERTEX
  8
W62LXLIFT
 62
6
 10
706.290
 20
-5888.728
 30
-851.000
 70
    32
  0
VERTEX
  8
W62LXLIFT
 62
6
 10
714.693
 20
-5927.915
 30
-851.000
 70
    32
  0
VERTEX
  8
W62LXLIFT
 62
6
 10
721.940
 20
-5951.820
 30
-851.000
 70
    32
  0
VERTEX
  8
W62LXLIFT
 62
6
 10
727.081
 20
-5958.847
 30
-851.000
 70
    32
  0
VERTEX
  8
W62LXLIFT
 62
6
 10
732.943
 20
-5960.007
 30
-851.000
 70
    32
  0
VERTEX
  8
W62LXLIFT
 62
6
 10
735.545
 20
-5958.648
 30
-851.000
 70
    32
  0
VERTEX
  8
W62LXLIFT
 62
6
 10
741.119
 20
-5949.883
 30
-851.000
 70
    32
  0
VERTEX
  8
W62LXLIFT
 62
6
 10
750.823
 20
-5966.868
 30
-851.000
 70
    32
  0
VERTEX
  8
W62LXLIFT
 62
6
 10
756.335
 20
-5990.189
 30
-851.000
 70
    32
  0
VERTEX
  8
W62LXLIFT
 62
6
 10
756.281
 20
-5996.222
 30
-851.000
 70
    32
  0
VERTEX
  8
W62LXLIFT
 62
6
 10
760.934
 20
-6004.369
 30
-851.000
 70
    32
  0
VERTEX
  8
W62LXLIFT
 62
6
 10
764.499
 20
-6009.389
 30
-851.000
 70
    32
  0
VERTEX
  8
W62LXLIFT
 62
6
 10
768.736
 20
-6021.437
 30
-851.000
 70
    32
  0
VERTEX
  8
W62LXLIFT
 62
6
 10
775.618
 20
-6019.671
 30
-851.000
 70
    32
  0
VERTEX
  8
W62LXLIFT
 62
6
 10
778.352
 20
-6014.619
 30
-851.000
 70
    32
  0
VERTEX
  8
W62LXLIFT
 62
6
 10
775.331
 20
-6005.278
 30
-851.000
 70
    32
  0
VERTEX
  8
W62LXLIFT
 62
6
 10
772.648
 20
-5994.164
 30
-851.000
 70
    32
  0
VERTEX
  8
W62LXLIFT
 62
6
 10
771.780
 20
-5982.701
 30
-851.000
 70
    32
  0
VERTEX
  8
W62LXLIFT
 62
6
 10
771.661
 20
-5974.942
 30
-851.000
 70
    32
  0
VERTEX
  8
W62LXLIFT
 62
6
 10
769.140
 20
-5966.433
 30
-851.000
 70
    32
  0
VERTEX
  8
W62LXLIFT
 62
6
 10
758.175
 20
-5944.596
 30
-851.000
 70
    32
  0
VERTEX
  8
W62LXLIFT
 62
6
 10
749.405
 20
-5921.588
 30
-851.000
 70
    32
  0
VERTEX
  8
W62LXLIFT
 62
6
 10
763.915
 20
-5905.523
 30
-851.000
 70
    32
  0
VERTEX
  8
W62LXLIFT
 62
6
 10
768.977
 20
-5902.909
 30
-851.000
 70
    32
  0
VERTEX
  8
W62LXLIFT
 62
6
 10
768.089
 20
-5897.674
 30
-851.000
 70
    32
  0
VERTEX
  8
W62LXLIFT
 62
6
 10
765.405
 20
-5895.496
 30
-851.000
 70
    32
  0
VERTEX
  8
W62LXLIFT
 62
6
 10
755.697
 20
-5901.292
 30
-851.000
 70
    32
  0
VERTEX
  8
W62LXLIFT
 62
6
 10
739.434
 20
-5907.960
 30
-851.000
 70
    32
  0
VERTEX
  8
W62LXLIFT
 62
6
 10
736.631
 20
-5898.023
 30
-851.000
 70
    32
  0
VERTEX
  8
W62LXLIFT
 62
6
 10
742.998
 20
-5890.640
 30
-851.000
 70
    32
  0
VERTEX
  8
W62LXLIFT
 62
6
 10
743.130
 20
-5886.947
 30
-851.000
 70
    32
  0
VERTEX
  8
W62LXLIFT
 62
6
 10
736.701
 20
-5877.266
 30
-851.000
 70
    32
  0
VERTEX
  8
W62LXLIFT
 62
6
 10
731.699
 20
-5871.771
 30
-851.000
 70
    32
  0
VERTEX
  8
W62LXLIFT
 62
6
 10
726.068
 20
-5867.500
 30
-851.000
 70
    32
  0
VERTEX
  8
W62LXLIFT
 62
6
 10
716.127
 20
-5851.234
 30
-851.000
 70
    32
  0
VERTEX
  8
W62LXLIFT
 62
6
 10
710.638
 20
-5842.391
 30
-851.000
 70
    32
  0
VERTEX
  8
W62LXLIFT
 62
6
 10
709.002
 20
-5833.453
 30
-851.000
 70
    32
  0
VERTEX
  8
W62LXLIFT
 62
6
 10
701.376
 20
-5819.307
 30
-851.000
 70
    32
  0
VERTEX
  8
W62LXLIFT
 62
6
 10
694.041
 20
-5807.346
 30
-851.000
 70
    32
  0
VERTEX
  8
W62LXLIFT
 62
6
 10
690.747
 20
-5797.333
 30
-851.000
 70
    32
  0
VERTEX
  8
W62LXLIFT
 62
6
 10
684.231
 20
-5784.555
 30
-851.000
 70
    32
  0
VERTEX
  8
W62LXLIFT
 62
6
 10
678.435
 20
-5779.314
 30
-851.000
 70
    32
  0
VERTEX
  8
W62LXLIFT
 62
6
 10
672.102
 20
-5771.851
 30
-851.000
 70
    32
  0
VERTEX
  8
W62LXLIFT
 62
6
 10
664.232
 20
-5764.968
 30
-851.000
 70
    32
  0
SEQEND
  8
W62LXLIFT
  0
POLYLINE
  8
W62LXLIFT
 62
7
 66
     1
 70
     9
  0
VERTEX
  8
W62LXLIFT
 62
7
 10
1209.102
 20
-6176.504
 30
-839.000
 70
    32
  0
VERTEX
  8
W62LXLIFT
 62
7
 10
1206.656
 20
-6171.126
 30
-839.000
 70
    32
  0
VERTEX
  8
W62LXLIFT
 62
7
 10
1201.633
 20
-6171.050
 30
-839.000
 70
    32
  0
VERTEX
  8
W62LXLIFT
 62
7
 10
1193.413
 20
-6179.635
 30
-839.000
 70
    32
  0
VERTEX
  8
W62LXLIFT
 62
7
 10
1188.526
 20
-6182.917
 30
-839.000
 70
    32
  0
VERTEX
  8
W62LXLIFT
 62
7
 10
1183.437
 20
-6188.181
 30
-839.000
 70
    32
  0
VERTEX
  8
W62LXLIFT
 62
7
 10
1185.453
 20
-6192.354
 30
-839.000
 70
    32
  0
VERTEX
  8
W62LXLIFT
 62
7
 10
1189.150
 20
-6192.840
 30
-839.000
 70
    32
  0
VERTEX
  8
W62LXLIFT
 62
7
 10
1191.285
 20
-6194.012
 30
-839.000
 70
    32
  0
VERTEX
  8
W62LXLIFT
 62
7
 10
1196.175
 20
-6203.257
 30
-839.000
 70
    32
  0
VERTEX
  8
W62LXLIFT
 62
7
 10
1202.992
 20
-6210.366
 30
-839.000
 70
    32
  0
VERTEX
  8
W62LXLIFT
 62
7
 10
1207.862
 20
-6218.977
 30
-839.000
 70
    32
  0
VERTEX
  8
W62LXLIFT
 62
7
 10
1220.705
 20
-6237.219
 30
-839.000
 70
    32
  0
VERTEX
  8
W62LXLIFT
 62
7
 10
1224.886
 20
-6242.758
 30
-839.000
 70
    32
  0
VERTEX
  8
W62LXLIFT
 62
7
 10
1229.545
 20
-6245.040
 30
-839.000
 70
    32
  0
VERTEX
  8
W62LXLIFT
 62
7
 10
1233.955
 20
-6245.015
 30
-839.000
 70
    32
  0
VERTEX
  8
W62LXLIFT
 62
7
 10
1235.757
 20
-6239.836
 30
-839.000
 70
    32
  0
VERTEX
  8
W62LXLIFT
 62
7
 10
1234.086
 20
-6233.580
 30
-839.000
 70
    32
  0
VERTEX
  8
W62LXLIFT
 62
7
 10
1231.873
 20
-6227.170
 30
-839.000
 70
    32
  0
VERTEX
  8
W62LXLIFT
 62
7
 10
1230.915
 20
-6218.891
 30
-839.000
 70
    32
  0
VERTEX
  8
W62LXLIFT
 62
7
 10
1228.741
 20
-6209.970
 30
-839.000
 70
    32
  0
VERTEX
  8
W62LXLIFT
 62
7
 10
1224.933
 20
-6201.031
 30
-839.000
 70
    32
  0
VERTEX
  8
W62LXLIFT
 62
7
 10
1218.172
 20
-6189.777
 30
-839.000
 70
    32
  0
SEQEND
  8
W62LXLIFT
  0
POLYLINE
  8
W62LXLIFT
 62
1
 66
     1
 70
     9
  0
VERTEX
  8
W62LXLIFT
 62
1
 10
1219.172
 20
-6188.777
 30
-829.000
 70
    32
  0
VERTEX
  8
W62LXLIFT
 62
1
 10
1225.933
 20
-6200.031
 30
-829.000
 70
    32
  0
VERTEX
  8
W62LXLIFT
 62
1
 10
1229.741
 20
-6208.970
 30
-829.000
 70
    32
  0
VERTEX
  8
W62LXLIFT
 62
1
 10
1231.915
 20
-6217.891
 30
-829.000
 70
    32
  0
VERTEX
  8
W62LXLIFT
 62
1
 10
1232.873
 20
-6226.170
 30
-829.000
 70
    32
  0
VERTEX
  8
W62LXLIFT
 62
1
 10
1235.086
 20
-6232.580
 30
-829.000
 70
    32
  0
VERTEX
  8
W62LXLIFT
 62
1
 10
1236.757
 20
-6238.836
 30
-829.000
 70
    32
  0
VERTEX
  8
W62LXLIFT
 62
1
 10
1234.955
 20
-6244.015
 30
-829.000
 70
    32
  0
VERTEX
  8
W62LXLIFT
 62
1
 10
1230.545
 20
-6244.040
 30
-829.000
 70
    32
  0
VERTEX
  8
W62LXLIFT
 62
1
 10
1225.886
 20
-6241.758
 30
-829.000
 70
    32
  0
VERTEX
  8
W62LXLIFT
 62
1
 10
1221.705
 20
-6236.219
 30
-829.000
 70
    32
  0
VERTEX
  8
W62LXLIFT
 62
1
 10
1208.862
 20
-6217.977
 30
-829.000
 70
    32
  0
VERTEX
  8
W62LXLIFT
 62
1
 10
1203.992
 20
-6209.366
 30
-829.000
 70
    32
  0
VERTEX
  8
W62LXLIFT
 62
1
 10
1197.175
 20
-6202.257
 30
-829.000
 70
    32
  0
VERTEX
  8
W62LXLIFT
 62
1
 10
1192.285
 20
-6193.012
 30
-829.000
 70
    32
  0
VERTEX
  8
W62LXLIFT
 62
1
 10
1190.150
 20
-6191.840
 30
-829.000
 70
    32
  0
VERTEX
  8
W62LXLIFT
 62
1
 10
1186.453
 20
-6191.354
 30
-829.000
 70
    32
  0
VERTEX
  8
W62LXLIFT
 62
1
 10
1184.437
 20
-6187.181
 30
-829.000
 70
    32
  0
VERTEX
  8
W62LXLIFT
 62
1
 10
1189.526
 20
-6181.917
 30
-829.000
 70
    32
  0
VERTEX
  8
W62LXLIFT
 62
1
 10
1194.413
 20
-6178.635
 30
-829.000
 70
    32
  0
VERTEX
  8
W62LXLIFT
 62
1
 10
1202.633
 20
-6170.050
 30
-829.000
 70
    32
  0
VERTEX
  8
W62LXLIFT
 62
1
 10
1207.656
 20
-6170.126
 30
-829.000
 70
    32
  0
VERTEX
  8
W62LXLIFT
 62
1
 10
1210.102
 20
-6175.504
 30
-829.000
 70
    32
  0
SEQEND
  8
W62LXLIFT
  0
POLYLINE
  8
W62LXLIFT
 62
6
 66
     1
 70
     9
  0
VERTEX
  8
W62LXLIFT
 62
6
 10
776.520
 20
-6009.961
 30
-841.000
 70
    32
  0
VERTEX
  8
W62LXLIFT
 62
6
 10
775.722
 20
-5999.191
 30
-841.000
 70
    32
  0
VERTEX
  8
W62LXLIFT
 62
6
 10
771.348
 20
-5984.933
 30
-841.000
 70
    32
  0
VERTEX
  8
W62LXLIFT
 62
6
 10
769.703
 20
-5975.093
 30
-841.000
 70
    32
  0
VERTEX
  8
W62LXLIFT
 62
6
 10
763.666
 20
-5953.383
 30
-841.000
 70
    32
  0
VERTEX
  8
W62LXLIFT
 62
6
 10
757.637
 20
-5938.473
 30
-841.000
 70
    32
  0
VERTEX
  8
W62LXLIFT
 62
6
 10
761.580
 20
-5922.256
 30
-841.000
 70
    32
  0
VERTEX
  8
W62LXLIFT
 62
6
 10
758.806
 20
-5915.061
 30
-841.000
 70
    32
  0
VERTEX
  8
W62LXLIFT
 62
6
 10
760.025
 20
-5909.220
 30
-841.000
 70
    32
  0
VERTEX
  8
W62LXLIFT
 62
6
 10
756.066
 20
-5892.827
 30
-841.000
 70
    32
  0
VERTEX
  8
W62LXLIFT
 62
6
 10
749.734
 20
-5881.266
 30
-841.000
 70
    32
  0
VERTEX
  8
W62LXLIFT
 62
6
 10
738.510
 20
-5878.716
 30
-841.000
 70
    32
  0
VERTEX
  8
W62LXLIFT
 62
6
 10
729.662
 20
-5872.089
 30
-841.000
 70
    32
  0
VERTEX
  8
W62LXLIFT
 62
6
 10
724.302
 20
-5862.641
 30
-841.000
 70
    32
  0
VERTEX
  8
W62LXLIFT
 62
6
 10
715.034
 20
-5836.871
 30
-841.000
 70
    32
  0
VERTEX
  8
W62LXLIFT
 62
6
 10
701.830
 20
-5815.108
 30
-841.000
 70
    32
  0
VERTEX
  8
W62LXLIFT
 62
6
 10
689.713
 20
-5798.184
 30
-841.000
 70
    32
  0
VERTEX
  8
W62LXLIFT
 62
6
 10
680.556
 20
-5780.868
 30
-841.000
 70
    32
  0
VERTEX
  8
W62LXLIFT
 62
6
 10
673.378
 20
-5770.992
 30
-841.000
 70
    32
  0
VERTEX
  8
W62LXLIFT
 62
6
 10
663.996
 20
-5762.263
 30
-841.000
 70
    32
  0
VERTEX
  8
W62LXLIFT
 62
6
 10
658.498
 20
-5766.200
 30
-841.000
 70
    32
  0
VERTEX
  8
W62LXLIFT
 62
6
 10
667.050
 20
-5781.464
 30
-841.000
 70
    32
  0
VERTEX
  8
W62LXLIFT
 62
6
 10
671.905
 20
-5796.243
 30
-841.000
 70
    32
  0
VERTEX
  8
W62LXLIFT
 62
6
 10
680.104
 20
-5815.540
 30
-841.000
 70
    32
  0
VERTEX
  8
W62LXLIFT
 62
6
 10
682.393
 20
-5827.187
 30
-841.000
 70
    32
  0
VERTEX
  8
W62LXLIFT
 62
6
 10
685.208
 20
-5834.137
 30
-841.000
 70
    32
  0
VERTEX
  8
W62LXLIFT
 62
6
 10
689.881
 20
-5840.513
 30
-841.000
 70
    32
  0
VERTEX
  8
W62LXLIFT
 62
6
 10
693.782
 20
-5850.790
 30
-841.000
 70
    32
  0
VERTEX
  8
W62LXLIFT
 62
6
 10
696.740
 20
-5867.143
 30
-841.000
 70
    32
  0
VERTEX
  8
W62LXLIFT
 62
6
 10
699.675
 20
-5880.596
 30
-841.000
 70
    32
  0
VERTEX
  8
W62LXLIFT
 62
6
 10
705.077
 20
-5900.815
 30
-841.000
 70
    32
  0
VERTEX
  8
W62LXLIFT
 62
6
 10
711.367
 20
-5919.860
 30
-841.000
 70
    32
  0
VERTEX
  8
W62LXLIFT
 62
6
 10
714.340
 20
-5931.557
 30
-841.000
 70
    32
  0
VERTEX
  8
W62LXLIFT
 62
6
 10
718.803
 20
-5952.125
 30
-841.000
 70
    32
  0
VERTEX
  8
W62LXLIFT
 62
6
 10
722.532
 20
-5963.065
 30
-841.000
 70
    32
  0
VERTEX
  8
W62LXLIFT
 62
6
 10
730.347
 20
-5967.192
 30
-841.000
 70
    32
  0
VERTEX
  8
W62LXLIFT
 62
6
 10
736.104
 20
-5966.634
 30
-841.000
 70
    32
  0
VERTEX
  8
W62LXLIFT
 62
6
 10
739.011
 20
-5963.905
 30
-841.000
 70
    32
  0
VERTEX
  8
W62LXLIFT
 62
6
 10
741.381
 20
-5955.296
 30
-841.000
 70
    32
  0
VERTEX
  8
W62LXLIFT
 62
6
 10
743.899
 20
-5952.628
 30
-841.000
 70
    32
  0
VERTEX
  8
W62LXLIFT
 62
6
 10
746.298
 20
-5952.207
 30
-841.000
 70
    32
  0
VERTEX
  8
W62LXLIFT
 62
6
 10
748.414
 20
-5954.257
 30
-841.000
 70
    32
  0
VERTEX
  8
W62LXLIFT
 62
6
 10
753.905
 20
-5971.281
 30
-841.000
 70
    32
  0
VERTEX
  8
W62LXLIFT
 62
6
 10
760.001
 20
-5991.112
 30
-841.000
 70
    32
  0
VERTEX
  8
W62LXLIFT
 62
6
 10
764.183
 20
-6006.156
 30
-841.000
 70
    32
  0
VERTEX
  8
W62LXLIFT
 62
6
 10
766.088
 20
-6012.137
 30
-841.000
 70
    32
  0
SEQEND
  8
W62LXLIFT
  0
POLYLINE
  8
W62LXLIFT
 62
13
 66
     1
 70
     9
  0
VERTEX
  8
W62LXLIFT
 62
13
 10
671.025
 20
-5606.118
 30
-841.000
 70
    32
  0
VERTEX
  8
W62LXLIFT
 62
13
 10
681.763
 20
-5613.121
 30
-841.000
 70
    32
  0
VERTEX
  8
W62LXLIFT
 62
13
 10
686.016
 20
-5617.854
 30
-841.000
 70
    32
  0
VERTEX
  8
W62LXLIFT
 62
13
 10
689.586
 20
-5624.802
 30
-841.000
 70
    32
  0
VERTEX
  8
W62LXLIFT
 62
13
 10
691.933
 20
-5633.060
 30
-841.000
 70
    32
  0
VERTEX
  8
W62LXLIFT
 62
13
 10
697.151
 20
-5643.366
 30
-841.000
 70
    32
  0
VERTEX
  8
W62LXLIFT
 62
13
 10
710.796
 20
-5665.894
 30
-841.000
 70
    32
  0
VERTEX
  8
W62LXLIFT
 62
13
 10
724.706
 20
-5689.096
 30
-841.000
 70
    32
  0
VERTEX
  8
W62LXLIFT
 62
13
 10
732.286
 20
-5702.248
 30
-841.000
 70
    32
  0
VERTEX
  8
W62LXLIFT
 62
13
 10
736.989
 20
-5708.818
 30
-841.000
 70
    32
  0
VERTEX
  8
W62LXLIFT
 62
13
 10
745.657
 20
-5718.059
 30
-841.000
 70
    32
  0
VERTEX
  8
W62LXLIFT
 62
13
 10
743.025
 20
-5739.277
 30
-841.000
 70
    32
  0
VERTEX
  8
W62LXLIFT
 62
13
 10
722.465
 20
-5741.035
 30
-841.000
 70
    32
  0
VERTEX
  8
W62LXLIFT
 62
13
 10
713.130
 20
-5747.610
 30
-841.000
 70
    32
  0
VERTEX
  8
W62LXLIFT
 62
13
 10
705.732
 20
-5751.610
 30
-841.000
 70
    32
  0
VERTEX
  8
W62LXLIFT
 62
13
 10
701.005
 20
-5750.890
 30
-841.000
 70
    32
  0
VERTEX
  8
W62LXLIFT
 62
13
 10
698.337
 20
-5748.371
 30
-841.000
 70
    32
  0
VERTEX
  8
W62LXLIFT
 62
13
 10
691.547
 20
-5747.940
 30
-841.000
 70
    32
  0
VERTEX
  8
W62LXLIFT
 62
13
 10
682.268
 20
-5748.858
 30
-841.000
 70
    32
  0
VERTEX
  8
W62LXLIFT
 62
13
 10
677.651
 20
-5747.087
 30
-841.000
 70
    32
  0
VERTEX
  8
W62LXLIFT
 62
13
 10
674.818
 20
-5742.526
 30
-841.000
 70
    32
  0
VERTEX
  8
W62LXLIFT
 62
13
 10
673.224
 20
-5732.002
 30
-841.000
 70
    32
  0
VERTEX
  8
W62LXLIFT
 62
13
 10
669.837
 20
-5724.705
 30
-841.000
 70
    32
  0
VERTEX
  8
W62LXLIFT
 62
13
 10
664.168
 20
-5713.318
 30
-841.000
 70
    32
  0
VERTEX
  8
W62LXLIFT
 62
13
 10
660.937
 20
-5709.258
 30
-841.000
 70
    32
  0
VERTEX
  8
W62LXLIFT
 62
13
 10
664.469
 20
-5698.952
 30
-841.000
 70
    32
  0
VERTEX
  8
W62LXLIFT
 62
13
 10
649.328
 20
-5671.014
 30
-841.000
 70
    32
  0
VERTEX
  8
W62LXLIFT
 62
13
 10
649.987
 20
-5666.654
 30
-841.000
 70
    32
  0
VERTEX
  8
W62LXLIFT
 62
13
 10
653.098
 20
-5663.455
 30
-841.000
 70
    32
  0
VERTEX
  8
W62LXLIFT
 62
13
 10
655.084
 20
-5649.180
 30
-841.000
 70
    32
  0
VERTEX
  8
W62LXLIFT
 62
13
 10
654.584
 20
-5640.788
 30
-841.000
 70
    32
  0
VERTEX
  8
W62LXLIFT
 62
13
 10
656.397
 20
-5636.682
 30
-841.000
 70
    32
  0
VERTEX
  8
W62LXLIFT
 62
13
 10
662.385
 20
-5632.071
 30
-841.000
 70
    32
  0
VERTEX
  8
W62LXLIFT
 62
13
 10
665.348
 20
-5624.441
 30
-841.000
 70
    32
  0
SEQEND
  8
W62LXLIFT
  0
POLYLINE
  8
W62LXLIFT
 62
13
 66
     1
 70
     9
  0
VERTEX
  8
W62LXLIFT
 62
13
 10
692.539
 20
-5754.598
 30
-830.000
 70
    32
  0
VERTEX
  8
W62LXLIFT
 62
13
 10
695.828
 20
-5750.110
 30
-830.000
 70
    32
  0
VERTEX
  8
W62LXLIFT
 62
13
 10
709.612
 20
-5742.928
 30
-830.000
 70
    32
  0
VERTEX
  8
W62LXLIFT
 62
13
 10
716.054
 20
-5735.127
 30
-830.000
 70
    32
  0
VERTEX
  8
W62LXLIFT
 62
13
 10
737.503
 20
-5729.630
 30
-830.000
 70
    32
  0
VERTEX
  8
W62LXLIFT
 62
13
 10
740.047
 20
-5722.111
 30
-830.000
 70
    32
  0
VERTEX
  8
W62LXLIFT
 62
13
 10
731.486
 20
-5716.423
 30
-830.000
 70
    32
  0
VERTEX
  8
W62LXLIFT
 62
13
 10
720.977
 20
-5700.684
 30
-830.000
 70
    32
  0
VERTEX
  8
W62LXLIFT
 62
13
 10
704.038
 20
-5672.677
 30
-830.000
 70
    32
  0
VERTEX
  8
W62LXLIFT
 62
13
 10
701.795
 20
-5667.688
 30
-830.000
 70
    32
  0
VERTEX
  8
W62LXLIFT
 62
13
 10
682.545
 20
-5645.094
 30
-830.000
 70
    32
  0
VERTEX
  8
W62LXLIFT
 62
13
 10
670.418
 20
-5629.963
 30
-830.000
 70
    32
  0
VERTEX
  8
W62LXLIFT
 62
13
 10
657.245
 20
-5638.006
 30
-830.000
 70
    32
  0
VERTEX
  8
W62LXLIFT
 62
13
 10
653.493
 20
-5648.538
 30
-830.000
 70
    32
  0
VERTEX
  8
W62LXLIFT
 62
13
 10
658.055
 20
-5676.581
 30
-830.000
 70
    32
  0
VERTEX
  8
W62LXLIFT
 62
13
 10
663.709
 20
-5711.185
 30
-830.000
 70
    32
  0
VERTEX
  8
W62LXLIFT
 62
13
 10
664.557
 20
-5725.467
 30
-830.000
 70
    32
  0
VERTEX
  8
W62LXLIFT
 62
13
 10
670.424
 20
-5735.114
 30
-830.000
 70
    32
  0
VERTEX
  8
W62LXLIFT
 62
13
 10
675.975
 20
-5741.425
 30
-830.000
 70
    32
  0
VERTEX
  8
W62LXLIFT
 62
13
 10
679.474
 20
-5744.230
 30
-830.000
 70
    32
  0
VERTEX
  8
W62LXLIFT
 62
13
 10
683.707
 20
-5753.093
 30
-830.000
 70
    32
  0
SEQEND
  8
W62LXLIFT
  0
POLYLINE
  8
W62LXLIFT
 62
27
 66
     1
 70
     9
  0
VERTEX
  8
W62LXLIFT
 62
27
 10
1120.500
 20
-6570.512
 30
-834.000
 70
    32
  0
VERTEX
  8
W62LXLIFT
 62
27
 10
1127.624
 20
-6550.399
 30
-834.000
 70
    32
  0
VERTEX
  8
W62LXLIFT
 62
27
 10
1130.993
 20
-6532.136
 30
-834.000
 70
    32
  0
VERTEX
  8
W62LXLIFT
 62
27
 10
1128.266
 20
-6511.890
 30
-834.000
 70
    32
  0
VERTEX
  8
W62LXLIFT
 62
27
 10
1114.255
 20
-6496.123
 30
-834.000
 70
    32
  0
VERTEX
  8
W62LXLIFT
 62
27
 10
1098.540
 20
-6480.397
 30
-834.000
 70
    32
  0
VERTEX
  8
W62LXLIFT
 62
27
 10
1088.665
 20
-6476.487
 30
-834.000
 70
    32
  0
VERTEX
  8
W62LXLIFT
 62
27
 10
1076.005
 20
-6471.124
 30
-834.000
 70
    32
  0
VERTEX
  8
W62LXLIFT
 62
27
 10
1070.349
 20
-6466.004
 30
-834.000
 70
    32
  0
VERTEX
  8
W62LXLIFT
 62
27
 10
1069.297
 20
-6457.660
 30
-834.000
 70
    32
  0
VERTEX
  8
W62LXLIFT
 62
27
 10
1065.526
 20
-6450.201
 30
-834.000
 70
    32
  0
VERTEX
  8
W62LXLIFT
 62
27
 10
1069.517
 20
-6446.879
 30
-834.000
 70
    32
  0
VERTEX
  8
W62LXLIFT
 62
27
 10
1079.835
 20
-6446.458
 30
-834.000
 70
    32
  0
VERTEX
  8
W62LXLIFT
 62
27
 10
1093.166
 20
-6462.934
 30
-834.000
 70
    32
  0
VERTEX
  8
W62LXLIFT
 62
27
 10
1098.513
 20
-6467.627
 30
-834.000
 70
    32
  0
VERTEX
  8
W62LXLIFT
 62
27
 10
1108.659
 20
-6474.159
 30
-834.000
 70
    32
  0
VERTEX
  8
W62LXLIFT
 62
27
 10
1121.522
 20
-6481.001
 30
-834.000
 70
    32
  0
VERTEX
  8
W62LXLIFT
 62
27
 10
1128.014
 20
-6487.576
 30
-834.000
 70
    32
  0
VERTEX
  8
W62LXLIFT
 62
27
 10
1136.947
 20
-6499.322
 30
-834.000
 70
    32
  0
VERTEX
  8
W62LXLIFT
 62
27
 10
1142.752
 20
-6512.138
 30
-834.000
 70
    32
  0
VERTEX
  8
W62LXLIFT
 62
27
 10
1144.387
 20
-6530.574
 30
-834.000
 70
    32
  0
VERTEX
  8
W62LXLIFT
 62
27
 10
1143.026
 20
-6543.373
 30
-834.000
 70
    32
  0
VERTEX
  8
W62LXLIFT
 62
27
 10
1138.204
 20
-6559.327
 30
-834.000
 70
    32
  0
VERTEX
  8
W62LXLIFT
 62
27
 10
1130.647
 20
-6573.900
 30
-834.000
 70
    32
  0
SEQEND
  8
W62LXLIFT
  0
POLYLINE
  8
W62LXLIFT
 62
13
 66
     1
 70
     9
  0
VERTEX
  8
W62LXLIFT
 62
13
 10
655.301
 20
-5647.215
 30
-819.000
 70
    32
  0
VERTEX
  8
W62LXLIFT
 62
13
 10
660.471
 20
-5674.582
 30
-819.000
 70
    32
  0
VERTEX
  8
W62LXLIFT
 62
13
 10
666.711
 20
-5694.888
 30
-819.000
 70
    32
  0
VERTEX
  8
W62LXLIFT
 62
13
 10
666.180
 20
-5711.531
 30
-819.000
 70
    32
  0
VERTEX
  8
W62LXLIFT
 62
13
 10
665.667
 20
-5721.007
 30
-819.000
 70
    32
  0
VERTEX
  8
W62LXLIFT
 62
13
 10
667.928
 20
-5728.475
 30
-819.000
 70
    32
  0
VERTEX
  8
W62LXLIFT
 62
13
 10
677.911
 20
-5738.377
 30
-819.000
 70
    32
  0
VERTEX
  8
W62LXLIFT
 62
13
 10
672.283
 20
-5742.883
 30
-819.000
 70
    32
  0
VERTEX
  8
W62LXLIFT
 62
13
 10
663.507
 20
-5746.632
 30
-819.000
 70
    32
  0
VERTEX
  8
W62LXLIFT
 62
13
 10
649.817
 20
-5748.084
 30
-819.000
 70
    32
  0
VERTEX
  8
W62LXLIFT
 62
13
 10
646.623
 20
-5758.199
 30
-819.000
 70
    32
  0
VERTEX
  8
W62LXLIFT
 62
13
 10
656.750
 20
-5761.710
 30
-819.000
 70
    32
  0
VERTEX
  8
W62LXLIFT
 62
13
 10
661.006
 20
-5766.543
 30
-819.000
 70
    32
  0
VERTEX
  8
W62LXLIFT
 62
13
 10
670.431
 20
-5780.317
 30
-819.000
 70
    32
  0
VERTEX
  8
W62LXLIFT
 62
13
 10
678.439
 20
-5784.494
 30
-819.000
 70
    32
  0
VERTEX
  8
W62LXLIFT
 62
13
 10
685.139
 20
-5785.065
 30
-819.000
 70
    32
  0
VERTEX
  8
W62LXLIFT
 62
13
 10
692.883
 20
-5781.087
 30
-819.000
 70
    32
  0
VERTEX
  8
W62LXLIFT
 62
13
 10
697.142
 20
-5771.394
 30
-819.000
 70
    32
  0
VERTEX
  8
W62LXLIFT
 62
13
 10
693.515
 20
-5762.638
 30
-819.000
 70
    32
  0
VERTEX
  8
W62LXLIFT
 62
13
 10
703.683
 20
-5732.951
 30
-819.000
 70
    32
  0
VERTEX
  8
W62LXLIFT
 62
13
 10
703.901
 20
-5728.459
 30
-819.000
 70
    32
  0
VERTEX
  8
W62LXLIFT
 62
13
 10
696.439
 20
-5703.617
 30
-819.000
 70
    32
  0
VERTEX
  8
W62LXLIFT
 62
13
 10
688.840
 20
-5679.634
 30
-819.000
 70
    32
  0
VERTEX
  8
W62LXLIFT
 62
13
 10
681.909
 20
-5659.720
 30
-819.000
 70
    32
  0
VERTEX
  8
W62LXLIFT
 62
13
 10
668.257
 20
-5642.501
 30
-819.000
 70
    32
  0
SEQEND
  8
W62LXLIFT
  0
POLYLINE
  8
W62LXLIFT
 62
6
 66
     1
 70
     9
  0
VERTEX
  8
W62LXLIFT
 62
6
 10
783.299
 20
-6042.348
 30
-823.000
 70
    32
  0
VERTEX
  8
W62LXLIFT
 62
6
 10
774.146
 20
-6019.813
 30
-823.000
 70
    32
  0
VERTEX
  8
W62LXLIFT
 62
6
 10
769.017
 20
-6002.389
 30
-823.000
 70
    32
  0
VERTEX
  8
W62LXLIFT
 62
6
 10
765.447
 20
-5986.221
 30
-823.000
 70
    32
  0
VERTEX
  8
W62LXLIFT
 62
6
 10
765.572
 20
-5979.953
 30
-823.000
 70
    32
  0
VERTEX
  8
W62LXLIFT
 62
6
 10
753.105
 20
-5947.894
 30
-823.000
 70
    32
  0
VERTEX
  8
W62LXLIFT
 62
6
 10
746.878
 20
-5932.998
 30
-823.000
 70
    32
  0
VERTEX
  8
W62LXLIFT
 62
6
 10
747.600
 20
-5922.612
 30
-823.000
 70
    32
  0
VERTEX
  8
W62LXLIFT
 62
6
 10
746.305
 20
-5916.179
 30
-823.000
 70
    32
  0
VERTEX
  8
W62LXLIFT
 62
6
 10
748.199
 20
-5907.113
 30
-823.000
 70
    32
  0
VERTEX
  8
W62LXLIFT
 62
6
 10
741.087
 20
-5900.879
 30
-823.000
 70
    32
  0
VERTEX
  8
W62LXLIFT
 62
6
 10
741.624
 20
-5892.035
 30
-823.000
 70
    32
  0
VERTEX
  8
W62LXLIFT
 62
6
 10
737.286
 20
-5878.699
 30
-823.000
 70
    32
  0
VERTEX
  8
W62LXLIFT
 62
6
 10
727.698
 20
-5868.295
 30
-823.000
 70
    32
  0
VERTEX
  8
W62LXLIFT
 62
6
 10
721.724
 20
-5866.331
 30
-823.000
 70
    32
  0
VERTEX
  8
W62LXLIFT
 62
6
 10
714.595
 20
-5845.693
 30
-823.000
 70
    32
  0
VERTEX
  8
W62LXLIFT
 62
6
 10
710.780
 20
-5834.580
 30
-823.000
 70
    32
  0
VERTEX
  8
W62LXLIFT
 62
6
 10
691.716
 20
-5802.093
 30
-823.000
 70
    32
  0
VERTEX
  8
W62LXLIFT
 62
6
 10
676.139
 20
-5812.172
 30
-823.000
 70
    32
  0
VERTEX
  8
W62LXLIFT
 62
6
 10
680.219
 20
-5823.202
 30
-823.000
 70
    32
  0
VERTEX
  8
W62LXLIFT
 62
6
 10
680.307
 20
-5829.316
 30
-823.000
 70
    32
  0
VERTEX
  8
W62LXLIFT
 62
6
 10
686.638
 20
-5841.210
 30
-823.000
 70
    32
  0
VERTEX
  8
W62LXLIFT
 62
6
 10
693.051
 20
-5861.607
 30
-823.000
 70
    32
  0
VERTEX
  8
W62LXLIFT
 62
6
 10
694.765
 20
-5876.409
 30
-823.000
 70
    32
  0
VERTEX
  8
W62LXLIFT
 62
6
 10
697.737
 20
-5886.507
 30
-823.000
 70
    32
  0
VERTEX
  8
W62LXLIFT
 62
6
 10
702.096
 20
-5909.907
 30
-823.000
 70
    32
  0
VERTEX
  8
W62LXLIFT
 62
6
 10
708.992
 20
-5933.966
 30
-823.000
 70
    32
  0
VERTEX
  8
W62LXLIFT
 62
6
 10
709.739
 20
-5942.638
 30
-823.000
 70
    32
  0
VERTEX
  8
W62LXLIFT
 62
6
 10
717.924
 20
-5962.187
 30
-823.000
 70
    32
  0
VERTEX
  8
W62LXLIFT
 62
6
 10
727.401
 20
-5959.557
 30
-823.000
 70
    32
  0
VERTEX
  8
W62LXLIFT
 62
6
 10
737.598
 20
-5952.828
 30
-823.000
 70
    32
  0
VERTEX
  8
W62LXLIFT
 62
6
 10
741.820
 20
-5950.424
 30
-823.000
 70
    32
  0
VERTEX
  8
W62LXLIFT
 62
6
 10
746.280
 20
-5953.592
 30
-823.000
 70
    32
  0
VERTEX
  8
W62LXLIFT
 62
6
 10
752.852
 20
-5969.864
 30
-823.000
 70
    32
  0
VERTEX
  8
W62LXLIFT
 62
6
 10
755.333
 20
-5979.883
 30
-823.000
 70
    32
  0
VERTEX
  8
W62LXLIFT
 62
6
 10
754.656
 20
-5992.729
 30
-823.000
 70
    32
  0
VERTEX
  8
W62LXLIFT
 62
6
 10
761.231
 20
-6007.806
 30
-823.000
 70
    32
  0
VERTEX
  8
W62LXLIFT
 62
6
 10
762.048
 20
-6019.571
 30
-823.000
 70
    32
  0
VERTEX
  8
W62LXLIFT
 62
6
 10
762.924
 20
-6025.875
 30
-823.000
 70
    32
  0
VERTEX
  8
W62LXLIFT
 62
6
 10
772.939
 20
-6044.208
 30
-823.000
 70
    32
  0
VERTEX
  8
W62LXLIFT
 62
6
 10
776.069
 20
-6047.037
 30
-823.000
 70
    32
  0
VERTEX
  8
W62LXLIFT
 62
6
 10
778.620
 20
-6046.817
 30
-823.000
 70
    32
  0
SEQEND
  8
W62LXLIFT
  0
POLYLINE
  8
W62LXLIFT
 62
6
 66
     1
 70
     9
  0
VERTEX
  8
W62LXLIFT
 62
6
 10
681.431
 20
-5814.523
 30
-812.000
 70
    32
  0
VERTEX
  8
W62LXLIFT
 62
6
 10
679.259
 20
-5818.719
 30
-812.000
 70
    32
  0
VERTEX
  8
W62LXLIFT
 62
6
 10
680.653
 20
-5822.278
 30
-812.000
 70
    32
  0
VERTEX
  8
W62LXLIFT
 62
6
 10
681.123
 20
-5841.321
 30
-812.000
 70
    32
  0
VERTEX
  8
W62LXLIFT
 62
6
 10
686.268
 20
-5851.079
 30
-812.000
 70
    32
  0
VERTEX
  8
W62LXLIFT
 62
6
 10
690.706
 20
-5879.758
 30
-812.000
 70
    32
  0
VERTEX
  8
W62LXLIFT
 62
6
 10
691.696
 20
-5890.690
 30
-812.000
 70
    32
  0
VERTEX
  8
W62LXLIFT
 62
6
 10
696.995
 20
-5908.287
 30
-812.000
 70
    32
  0
VERTEX
  8
W62LXLIFT
 62
6
 10
695.856
 20
-5920.334
 30
-812.000
 70
    32
  0
VERTEX
  8
W62LXLIFT
 62
6
 10
701.448
 20
-5940.876
 30
-812.000
 70
    32
  0
VERTEX
  8
W62LXLIFT
 62
6
 10
703.933
 20
-5950.719
 30
-812.000
 70
    32
  0
VERTEX
  8
W62LXLIFT
 62
6
 10
706.518
 20
-5954.718
 30
-812.000
 70
    32
  0
VERTEX
  8
W62LXLIFT
 62
6
 10
712.266
 20
-5955.433
 30
-812.000
 70
    32
  0
VERTEX
  8
W62LXLIFT
 62
6
 10
716.044
 20
-5951.049
 30
-812.000
 70
    32
  0
VERTEX
  8
W62LXLIFT
 62
6
 10
739.246
 20
-5935.352
 30
-812.000
 70
    32
  0
VERTEX
  8
W62LXLIFT
 62
6
 10
739.069
 20
-5919.254
 30
-812.000
 70
    32
  0
VERTEX
  8
W62LXLIFT
 62
6
 10
736.842
 20
-5908.568
 30
-812.000
 70
    32
  0
VERTEX
  8
W62LXLIFT
 62
6
 10
730.715
 20
-5901.050
 30
-812.000
 70
    32
  0
VERTEX
  8
W62LXLIFT
 62
6
 10
735.692
 20
-5889.040
 30
-812.000
 70
    32
  0
VERTEX
  8
W62LXLIFT
 62
6
 10
731.971
 20
-5868.225
 30
-812.000
 70
    32
  0
VERTEX
  8
W62LXLIFT
 62
6
 10
722.529
 20
-5860.942
 30
-812.000
 70
    32
  0
VERTEX
  8
W62LXLIFT
 62
6
 10
713.640
 20
-5846.940
 30
-812.000
 70
    32
  0
VERTEX
  8
W62LXLIFT
 62
6
 10
706.570
 20
-5832.594
 30
-812.000
 70
    32
  0
VERTEX
  8
W62LXLIFT
 62
6
 10
704.779
 20
-5825.947
 30
-812.000
 70
    32
  0
VERTEX
  8
W62LXLIFT
 62
6
 10
699.585
 20
-5820.908
 30
-812.000
 70
    32
  0
VERTEX
  8
W62LXLIFT
 62
6
 10
697.457
 20
-5812.002
 30
-812.000
 70
    32
  0
SEQEND
  8
W62LXLIFT
  0
POLYLINE
  8
W62LXLIFT
 62
1
 66
     1
 70
     9
  0
VERTEX
  8
W62LXLIFT
 62
1
 10
698.457
 20
-5811.002
 30
-802.000
 70
    32
  0
VERTEX
  8
W62LXLIFT
 62
1
 10
700.585
 20
-5819.908
 30
-802.000
 70
    32
  0
VERTEX
  8
W62LXLIFT
 62
1
 10
705.779
 20
-5824.947
 30
-802.000
 70
    32
  0
VERTEX
  8
W62LXLIFT
 62
1
 10
707.570
 20
-5831.594
 30
-802.000
 70
    32
  0
VERTEX
  8
W62LXLIFT
 62
1
 10
714.640
 20
-5845.940
 30
-802.000
 70
    32
  0
VERTEX
  8
W62LXLIFT
 62
1
 10
723.529
 20
-5859.942
 30
-802.000
 70
    32
  0
VERTEX
  8
W62LXLIFT
 62
1
 10
732.971
 20
-5867.225
 30
-802.000
 70
    32
  0
VERTEX
  8
W62LXLIFT
 62
1
 10
736.692
 20
-5888.040
 30
-802.000
 70
    32
  0
VERTEX
  8
W62LXLIFT
 62
1
 10
731.715
 20
-5900.050
 30
-802.000
 70
    32
  0
VERTEX
  8
W62LXLIFT
 62
1
 10
737.842
 20
-5907.568
 30
-802.000
 70
    32
  0
VERTEX
  8
W62LXLIFT
 62
1
 10
740.069
 20
-5918.254
 30
-802.000
 70
    32
  0
VERTEX
  8
W62LXLIFT
 62
1
 10
740.246
 20
-5934.352
 30
-802.000
 70
    32
  0
VERTEX
  8
W62LXLIFT
 62
1
 10
717.044
 20
-5950.049
 30
-802.000
 70
    32
  0
VERTEX
  8
W62LXLIFT
 62
1
 10
713.266
 20
-5954.433
 30
-802.000
 70
    32
  0
VERTEX
  8
W62LXLIFT
 62
1
 10
707.518
 20
-5953.718
 30
-802.000
 70
    32
  0
VERTEX
  8
W62LXLIFT
 62
1
 10
704.933
 20
-5949.719
 30
-802.000
 70
    32
  0
VERTEX
  8
W62LXLIFT
 62
1
 10
702.448
 20
-5939.876
 30
-802.000
 70
    32
  0
VERTEX
  8
W62LXLIFT
 62
1
 10
696.856
 20
-5919.334
 30
-802.000
 70
    32
  0
VERTEX
  8
W62LXLIFT
 62
1
 10
697.995
 20
-5907.287
 30
-802.000
 70
    32
  0
VERTEX
  8
W62LXLIFT
 62
1
 10
692.696
 20
-5889.690
 30
-802.000
 70
    32
  0
VERTEX
  8
W62LXLIFT
 62
1
 10
691.706
 20
-5878.758
 30
-802.000
 70
    32
  0
VERTEX
  8
W62LXLIFT
 62
1
 10
687.268
 20
-5850.079
 30
-802.000
 70
    32
  0
VERTEX
  8
W62LXLIFT
 62
1
 10
682.123
 20
-5840.321
 30
-802.000
 70
    32
  0
VERTEX
  8
W62LXLIFT
 62
1
 10
681.653
 20
-5821.278
 30
-802.000
 70
    32
  0
VERTEX
  8
W62LXLIFT
 62
1
 10
680.259
 20
-5817.719
 30
-802.000
 70
    32
  0
VERTEX
  8
W62LXLIFT
 62
1
 10
682.431
 20
-5813.523
 30
-802.000
 70
    32
  0
SEQEND
  8
W62LXLIFT
  0
POLYLINE
  8
W62LXLIFT
 62
13
 66
     1
 70
     9
  0
VERTEX
  8
W62LXLIFT
 62
13
 10
712.127
 20
-5738.371
 30
-812.000
 70
    32
  0
VERTEX
  8
W62LXLIFT
 62
13
 10
718.504
 20
-5729.480
 30
-812.000
 70
    32
  0
VERTEX
  8
W62LXLIFT
 62
13
 10
718.565
 20
-5722.683
 30
-812.000
 70
    32
  0
VERTEX
  8
W62LXLIFT
 62
13
 10
707.429
 20
-5708.139
 30
-812.000
 70
    32
  0
VERTEX
  8
W62LXLIFT
 62
13
 10
700.601
 20
-5710.279
 30
-812.000
 70
    32
  0
VERTEX
  8
W62LXLIFT
 62
13
 10
697.770
 20
-5705.044
 30
-812.000
 70
    32
  0
VERTEX
  8
W62LXLIFT
 62
13
 10
683.077
 20
-5673.050
 30
-812.000
 70
    32
  0
VERTEX
  8
W62LXLIFT
 62
13
 10
685.713
 20
-5664.705
 30
-812.000
 70
    32
  0
VERTEX
  8
W62LXLIFT
 62
13
 10
680.256
 20
-5653.322
 30
-812.000
 70
    32
  0
VERTEX
  8
W62LXLIFT
 62
13
 10
674.926
 20
-5647.947
 30
-812.000
 70
    32
  0
VERTEX
  8
W62LXLIFT
 62
13
 10
669.545
 20
-5644.894
 30
-812.000
 70
    32
  0
VERTEX
  8
W62LXLIFT
 62
13
 10
669.218
 20
-5638.163
 30
-812.000
 70
    32
  0
VERTEX
  8
W62LXLIFT
 62
13
 10
665.634
 20
-5631.297
 30
-812.000
 70
    32
  0
VERTEX
  8
W62LXLIFT
 62
13
 10
662.306
 20
-5628.820
 30
-812.000
 70
    32
  0
VERTEX
  8
W62LXLIFT
 62
13
 10
654.287
 20
-5631.718
 30
-812.000
 70
    32
  0
VERTEX
  8
W62LXLIFT
 62
13
 10
635.937
 20
-5654.229
 30
-812.000
 70
    32
  0
VERTEX
  8
W62LXLIFT
 62
13
 10
632.920
 20
-5653.376
 30
-812.000
 70
    32
  0
VERTEX
  8
W62LXLIFT
 62
13
 10
629.122
 20
-5655.488
 30
-812.000
 70
    32
  0
VERTEX
  8
W62LXLIFT
 62
13
 10
627.700
 20
-5658.920
 30
-812.000
 70
    32
  0
VERTEX
  8
W62LXLIFT
 62
13
 10
629.349
 20
-5668.065
 30
-812.000
 70
    32
  0
VERTEX
  8
W62LXLIFT
 62
13
 10
633.857
 20
-5684.277
 30
-812.000
 70
    32
  0
VERTEX
  8
W62LXLIFT
 62
13
 10
634.249
 20
-5690.199
 30
-812.000
 70
    32
  0
VERTEX
  8
W62LXLIFT
 62
13
 10
636.109
 20
-5694.399
 30
-812.000
 70
    32
  0
VERTEX
  8
W62LXLIFT
 62
13
 10
647.774
 20
-5707.578
 30
-812.000
 70
    32
  0
VERTEX
  8
W62LXLIFT
 62
13
 10
651.750
 20
-5720.366
 30
-812.000
 70
    32
  0
VERTEX
  8
W62LXLIFT
 62
13
 10
655.299
 20
-5724.643
 30
-812.000
 70
    32
  0
VERTEX
  8
W62LXLIFT
 62
13
 10
660.440
 20
-5727.216
 30
-812.000
 70
    32
  0
VERTEX
  8
W62LXLIFT
 62
13
 10
663.838
 20
-5726.049
 30
-812.000
 70
    32
  0
VERTEX
  8
W62LXLIFT
 62
13
 10
670.083
 20
-5735.224
 30
-812.000
 70
    32
  0
VERTEX
  8
W62LXLIFT
 62
13
 10
660.733
 20
-5751.398
 30
-812.000
 70
    32
  0
VERTEX
  8
W62LXLIFT
 62
13
 10
658.099
 20
-5763.336
 30
-812.000
 70
    32
  0
VERTEX
  8
W62LXLIFT
 62
13
 10
653.044
 20
-5764.621
 30
-812.000
 70
    32
  0
VERTEX
  8
W62LXLIFT
 62
13
 10
651.351
 20
-5768.576
 30
-812.000
 70
    32
  0
VERTEX
  8
W62LXLIFT
 62
13
 10
652.817
 20
-5774.479
 30
-812.000
 70
    32
  0
VERTEX
  8
W62LXLIFT
 62
13
 10
659.170
 20
-5779.764
 30
-812.000
 70
    32
  0
VERTEX
  8
W62LXLIFT
 62
13
 10
662.297
 20
-5780.318
 30
-812.000
 70
    32
  0
VERTEX
  8
W62LXLIFT
 62
13
 10
674.900
 20
-5769.508
 30
-812.000
 70
    32
  0
VERTEX
  8
W62LXLIFT
 62
13
 10
689.097
 20
-5750.566
 30
-812.000
 70
    32
  0
VERTEX
  8
W62LXLIFT
 62
13
 10
695.498
 20
-5738.717
 30
-812.000
 70
    32
  0
SEQEND
  8
W62LXLIFT
  0
POLYLINE
  8
W62LXLIFT
 62
13
 66
     1
 70
     9
  0
VERTEX
  8
W62LXLIFT
 62
13
 10
653.379
 20
-5661.131
 30
-812.000
 70
    32
  0
VERTEX
  8
W62LXLIFT
 62
13
 10
664.341
 20
-5689.198
 30
-812.000
 70
    32
  0
VERTEX
  8
W62LXLIFT
 62
13
 10
663.409
 20
-5690.312
 30
-812.000
 70
    32
  0
VERTEX
  8
W62LXLIFT
 62
13
 10
658.334
 20
-5689.325
 30
-812.000
 70
    32
  0
VERTEX
  8
W62LXLIFT
 62
13
 10
659.193
 20
-5685.868
 30
-812.000
 70
    32
  0
VERTEX
  8
W62LXLIFT
 62
13
 10
650.611
 20
-5665.107
 30
-812.000
 70
    32
  0
SEQEND
  8
W62LXLIFT
  0
POLYLINE
  8
W62LXLIFT
 62
1
 66
     1
 70
     9
  0
VERTEX
  8
W62LXLIFT
 62
1
 10
654.379
 20
-5660.131
 30
-802.000
 70
    32
  0
VERTEX
  8
W62LXLIFT
 62
1
 10
665.341
 20
-5688.198
 30
-802.000
 70
    32
  0
VERTEX
  8
W62LXLIFT
 62
1
 10
664.409
 20
-5689.312
 30
-802.000
 70
    32
  0
VERTEX
  8
W62LXLIFT
 62
1
 10
659.334
 20
-5688.325
 30
-802.000
 70
    32
  0
VERTEX
  8
W62LXLIFT
 62
1
 10
660.193
 20
-5684.868
 30
-802.000
 70
    32
  0
VERTEX
  8
W62LXLIFT
 62
1
 10
651.611
 20
-5664.107
 30
-802.000
 70
    32
  0
SEQEND
  8
W62LXLIFT
  0
POLYLINE
  8
W62LXLIFT
 62
1
 66
     1
 70
     9
  0
VERTEX
  8
W62LXLIFT
 62
1
 10
696.498
 20
-5737.717
 30
-802.000
 70
    32
  0
VERTEX
  8
W62LXLIFT
 62
1
 10
690.097
 20
-5749.566
 30
-802.000
 70
    32
  0
VERTEX
  8
W62LXLIFT
 62
1
 10
675.900
 20
-5768.508
 30
-802.000
 70
    32
  0
VERTEX
  8
W62LXLIFT
 62
1
 10
663.297
 20
-5779.318
 30
-802.000
 70
    32
  0
VERTEX
  8
W62LXLIFT
 62
1
 10
660.170
 20
-5778.764
 30
-802.000
 70
    32
  0
VERTEX
  8
W62LXLIFT
 62
1
 10
653.817
 20
-5773.479
 30
-802.000
 70
    32
  0
VERTEX
  8
W62LXLIFT
 62
1
 10
652.351
 20
-5767.576
 30
-802.000
 70
    32
  0
VERTEX
  8
W62LXLIFT
 62
1
 10
654.044
 20
-5763.621
 30
-802.000
 70
    32
  0
VERTEX
  8
W62LXLIFT
 62
1
 10
659.099
 20
-5762.336
 30
-802.000
 70
    32
  0
VERTEX
  8
W62LXLIFT
 62
1
 10
661.733
 20
-5750.398
 30
-802.000
 70
    32
  0
VERTEX
  8
W62LXLIFT
 62
1
 10
671.083
 20
-5734.224
 30
-802.000
 70
    32
  0
VERTEX
  8
W62LXLIFT
 62
1
 10
664.838
 20
-5725.049
 30
-802.000
 70
    32
  0
VERTEX
  8
W62LXLIFT
 62
1
 10
661.440
 20
-5726.216
 30
-802.000
 70
    32
  0
VERTEX
  8
W62LXLIFT
 62
1
 10
656.299
 20
-5723.643
 30
-802.000
 70
    32
  0
VERTEX
  8
W62LXLIFT
 62
1
 10
652.750
 20
-5719.366
 30
-802.000
 70
    32
  0
VERTEX
  8
W62LXLIFT
 62
1
 10
648.774
 20
-5706.578
 30
-802.000
 70
    32
  0
VERTEX
  8
W62LXLIFT
 62
1
 10
637.109
 20
-5693.399
 30
-802.000
 70
    32
  0
VERTEX
  8
W62LXLIFT
 62
1
 10
635.249
 20
-5689.199
 30
-802.000
 70
    32
  0
VERTEX
  8
W62LXLIFT
 62
1
 10
634.857
 20
-5683.277
 30
-802.000
 70
    32
  0
VERTEX
  8
W62LXLIFT
 62
1
 10
630.349
 20
-5667.065
 30
-802.000
 70
    32
  0
VERTEX
  8
W62LXLIFT
 62
1
 10
628.700
 20
-5657.920
 30
-802.000
 70
    32
  0
VERTEX
  8
W62LXLIFT
 62
1
 10
630.122
 20
-5654.488
 30
-802.000
 70
    32
  0
VERTEX
  8
W62LXLIFT
 62
1
 10
633.920
 20
-5652.376
 30
-802.000
 70
    32
  0
VERTEX
  8
W62LXLIFT
 62
1
 10
636.937
 20
-5653.229
 30
-802.000
 70
    32
  0
VERTEX
  8
W62LXLIFT
 62
1
 10
655.287
 20
-5630.718
 30
-802.000
 70
    32
  0
VERTEX
  8
W62LXLIFT
 62
1
 10
663.306
 20
-5627.820
 30
-802.000
 70
    32
  0
VERTEX
  8
W62LXLIFT
 62
1
 10
666.634
 20
-5630.297
 30
-802.000
 70
    32
  0
VERTEX
  8
W62LXLIFT
 62
1
 10
670.218
 20
-5637.163
 30
-802.000
 70
    32
  0
VERTEX
  8
W62LXLIFT
 62
1
 10
670.545
 20
-5643.894
 30
-802.000
 70
    32
  0
VERTEX
  8
W62LXLIFT
 62
1
 10
675.926
 20
-5646.947
 30
-802.000
 70
    32
  0
VERTEX
  8
W62LXLIFT
 62
1
 10
681.256
 20
-5652.322
 30
-802.000
 70
    32
  0
VERTEX
  8
W62LXLIFT
 62
1
 10
686.713
 20
-5663.705
 30
-802.000
 70
    32
  0
VERTEX
  8
W62LXLIFT
 62
1
 10
684.077
 20
-5672.050
 30
-802.000
 70
    32
  0
VERTEX
  8
W62LXLIFT
 62
1
 10
698.770
 20
-5704.044
 30
-802.000
 70
    32
  0
VERTEX
  8
W62LXLIFT
 62
1
 10
701.601
 20
-5709.279
 30
-802.000
 70
    32
  0
VERTEX
  8
W62LXLIFT
 62
1
 10
708.429
 20
-5707.139
 30
-802.000
 70
    32
  0
VERTEX
  8
W62LXLIFT
 62
1
 10
719.565
 20
-5721.683
 30
-802.000
 70
    32
  0
VERTEX
  8
W62LXLIFT
 62
1
 10
719.504
 20
-5728.480
 30
-802.000
 70
    32
  0
VERTEX
  8
W62LXLIFT
 62
1
 10
713.127
 20
-5737.371
 30
-802.000
 70
    32
  0
SEQEND
  8
W62LXLIFT
  0
POLYLINE
  8
W62LXLIFT
 62
4
 66
     1
 70
     9
  0
VERTEX
  8
W62LXLIFT
 62
4
 10
1035.595
 20
-5955.162
 30
-816.000
 70
    32
  0
VERTEX
  8
W62LXLIFT
 62
4
 10
1037.372
 20
-5949.081
 30
-816.000
 70
    32
  0
VERTEX
  8
W62LXLIFT
 62
4
 10
1037.999
 20
-5944.708
 30
-816.000
 70
    32
  0
VERTEX
  8
W62LXLIFT
 62
4
 10
1035.889
 20
-5940.912
 30
-816.000
 70
    32
  0
VERTEX
  8
W62LXLIFT
 62
4
 10
1016.069
 20
-5921.603
 30
-816.000
 70
    32
  0
VERTEX
  8
W62LXLIFT
 62
4
 10
1015.123
 20
-5916.415
 30
-816.000
 70
    32
  0
VERTEX
  8
W62LXLIFT
 62
4
 10
1012.567
 20
-5910.659
 30
-816.000
 70
    32
  0
VERTEX
  8
W62LXLIFT
 62
4
 10
1009.711
 20
-5902.399
 30
-816.000
 70
    32
  0
VERTEX
  8
W62LXLIFT
 62
4
 10
1003.595
 20
-5890.855
 30
-816.000
 70
    32
  0
VERTEX
  8
W62LXLIFT
 62
4
 10
999.478
 20
-5879.814
 30
-816.000
 70
    32
  0
VERTEX
  8
W62LXLIFT
 62
4
 10
1003.144
 20
-5875.732
 30
-816.000
 70
    32
  0
VERTEX
  8
W62LXLIFT
 62
4
 10
997.657
 20
-5869.388
 30
-816.000
 70
    32
  0
VERTEX
  8
W62LXLIFT
 62
4
 10
997.397
 20
-5866.639
 30
-816.000
 70
    32
  0
VERTEX
  8
W62LXLIFT
 62
4
 10
1002.875
 20
-5863.849
 30
-816.000
 70
    32
  0
VERTEX
  8
W62LXLIFT
 62
4
 10
1010.533
 20
-5860.017
 30
-816.000
 70
    32
  0
VERTEX
  8
W62LXLIFT
 62
4
 10
1010.353
 20
-5843.173
 30
-816.000
 70
    32
  0
VERTEX
  8
W62LXLIFT
 62
4
 10
1008.629
 20
-5833.328
 30
-816.000
 70
    32
  0
VERTEX
  8
W62LXLIFT
 62
4
 10
1019.044
 20
-5833.584
 30
-816.000
 70
    32
  0
VERTEX
  8
W62LXLIFT
 62
4
 10
1023.873
 20
-5845.304
 30
-816.000
 70
    32
  0
VERTEX
  8
W62LXLIFT
 62
4
 10
1026.425
 20
-5856.286
 30
-816.000
 70
    32
  0
VERTEX
  8
W62LXLIFT
 62
4
 10
1024.970
 20
-5859.521
 30
-816.000
 70
    32
  0
VERTEX
  8
W62LXLIFT
 62
4
 10
1025.567
 20
-5863.331
 30
-816.000
 70
    32
  0
VERTEX
  8
W62LXLIFT
 62
4
 10
1021.801
 20
-5880.435
 30
-816.000
 70
    32
  0
VERTEX
  8
W62LXLIFT
 62
4
 10
1029.068
 20
-5891.468
 30
-816.000
 70
    32
  0
VERTEX
  8
W62LXLIFT
 62
4
 10
1032.208
 20
-5900.717
 30
-816.000
 70
    32
  0
VERTEX
  8
W62LXLIFT
 62
4
 10
1035.244
 20
-5905.037
 30
-816.000
 70
    32
  0
VERTEX
  8
W62LXLIFT
 62
4
 10
1042.224
 20
-5906.704
 30
-816.000
 70
    32
  0
VERTEX
  8
W62LXLIFT
 62
4
 10
1044.314
 20
-5909.426
 30
-816.000
 70
    32
  0
VERTEX
  8
W62LXLIFT
 62
4
 10
1044.419
 20
-5915.552
 30
-816.000
 70
    32
  0
VERTEX
  8
W62LXLIFT
 62
4
 10
1050.136
 20
-5931.631
 30
-816.000
 70
    32
  0
VERTEX
  8
W62LXLIFT
 62
4
 10
1053.107
 20
-5936.760
 30
-816.000
 70
    32
  0
VERTEX
  8
W62LXLIFT
 62
4
 10
1062.671
 20
-5949.603
 30
-816.000
 70
    32
  0
VERTEX
  8
W62LXLIFT
 62
4
 10
1064.873
 20
-5958.012
 30
-816.000
 70
    32
  0
VERTEX
  8
W62LXLIFT
 62
4
 10
1065.619
 20
-5966.065
 30
-816.000
 70
    32
  0
VERTEX
  8
W62LXLIFT
 62
4
 10
1063.279
 20
-5969.727
 30
-816.000
 70
    32
  0
VERTEX
  8
W62LXLIFT
 62
4
 10
1064.556
 20
-5980.005
 30
-816.000
 70
    32
  0
VERTEX
  8
W62LXLIFT
 62
4
 10
1083.556
 20
-6026.896
 30
-816.000
 70
    32
  0
VERTEX
  8
W62LXLIFT
 62
4
 10
1069.636
 20
-6025.710
 30
-816.000
 70
    32
  0
VERTEX
  8
W62LXLIFT
 62
4
 10
1072.388
 20
-6036.221
 30
-816.000
 70
    32
  0
VERTEX
  8
W62LXLIFT
 62
4
 10
1062.038
 20
-6036.353
 30
-816.000
 70
    32
  0
VERTEX
  8
W62LXLIFT
 62
4
 10
1054.380
 20
-6017.008
 30
-816.000
 70
    32
  0
VERTEX
  8
W62LXLIFT
 62
4
 10
1051.739
 20
-6012.184
 30
-816.000
 70
    32
  0
VERTEX
  8
W62LXLIFT
 62
4
 10
1051.609
 20
-6007.817
 30
-816.000
 70
    32
  0
VERTEX
  8
W62LXLIFT
 62
4
 10
1050.952
 20
-5996.000
 30
-816.000
 70
    32
  0
VERTEX
  8
W62LXLIFT
 62
4
 10
1052.986
 20
-5984.291
 30
-816.000
 70
    32
  0
VERTEX
  8
W62LXLIFT
 62
4
 10
1050.525
 20
-5976.723
 30
-816.000
 70
    32
  0
VERTEX
  8
W62LXLIFT
 62
4
 10
1043.245
 20
-5967.767
 30
-816.000
 70
    32
  0
SEQEND
  8
W62LXLIFT
  0
POLYLINE
  8
W62LXLIFT
 62
1
 66
     1
 70
     9
  0
VERTEX
  8
W62LXLIFT
 62
1
 10
1036.595
 20
-5954.162
 30
-804.000
 70
    32
  0
VERTEX
  8
W62LXLIFT
 62
1
 10
1038.372
 20
-5948.081
 30
-804.000
 70
    32
  0
VERTEX
  8
W62LXLIFT
 62
1
 10
1038.999
 20
-5943.708
 30
-804.000
 70
    32
  0
VERTEX
  8
W62LXLIFT
 62
1
 10
1036.889
 20
-5939.912
 30
-804.000
 70
    32
  0
VERTEX
  8
W62LXLIFT
 62
1
 10
1017.069
 20
-5920.603
 30
-804.000
 70
    32
  0
VERTEX
  8
W62LXLIFT
 62
1
 10
1016.123
 20
-5915.415
 30
-804.000
 70
    32
  0
VERTEX
  8
W62LXLIFT
 62
1
 10
1013.567
 20
-5909.659
 30
-804.000
 70
    32
  0
VERTEX
  8
W62LXLIFT
 62
1
 10
1010.711
 20
-5901.399
 30
-804.000
 70
    32
  0
VERTEX
  8
W62LXLIFT
 62
1
 10
1004.595
 20
-5889.855
 30
-804.000
 70
    32
  0
VERTEX
  8
W62LXLIFT
 62
1
 10
1000.478
 20
-5878.814
 30
-804.000
 70
    32
  0
VERTEX
  8
W62LXLIFT
 62
1
 10
1004.144
 20
-5874.732
 30
-804.000
 70
    32
  0
VERTEX
  8
W62LXLIFT
 62
1
 10
998.657
 20
-5868.388
 30
-804.000
 70
    32
  0
VERTEX
  8
W62LXLIFT
 62
1
 10
998.397
 20
-5865.639
 30
-804.000
 70
    32
  0
VERTEX
  8
W62LXLIFT
 62
1
 10
1003.875
 20
-5862.849
 30
-804.000
 70
    32
  0
VERTEX
  8
W62LXLIFT
 62
1
 10
1011.533
 20
-5859.017
 30
-804.000
 70
    32
  0
VERTEX
  8
W62LXLIFT
 62
1
 10
1011.353
 20
-5842.173
 30
-804.000
 70
    32
  0
VERTEX
  8
W62LXLIFT
 62
1
 10
1009.629
 20
-5832.328
 30
-804.000
 70
    32
  0
VERTEX
  8
W62LXLIFT
 62
1
 10
1020.044
 20
-5832.584
 30
-804.000
 70
    32
  0
VERTEX
  8
W62LXLIFT
 62
1
 10
1024.873
 20
-5844.304
 30
-804.000
 70
    32
  0
VERTEX
  8
W62LXLIFT
 62
1
 10
1027.425
 20
-5855.286
 30
-804.000
 70
    32
  0
VERTEX
  8
W62LXLIFT
 62
1
 10
1025.970
 20
-5858.521
 30
-804.000
 70
    32
  0
VERTEX
  8
W62LXLIFT
 62
1
 10
1026.567
 20
-5862.331
 30
-804.000
 70
    32
  0
VERTEX
  8
W62LXLIFT
 62
1
 10
1022.801
 20
-5879.435
 30
-804.000
 70
    32
  0
VERTEX
  8
W62LXLIFT
 62
1
 10
1030.068
 20
-5890.468
 30
-804.000
 70
    32
  0
VERTEX
  8
W62LXLIFT
 62
1
 10
1033.208
 20
-5899.717
 30
-804.000
 70
    32
  0
VERTEX
  8
W62LXLIFT
 62
1
 10
1036.244
 20
-5904.037
 30
-804.000
 70
    32
  0
VERTEX
  8
W62LXLIFT
 62
1
 10
1043.224
 20
-5905.704
 30
-804.000
 70
    32
  0
VERTEX
  8
W62LXLIFT
 62
1
 10
1045.314
 20
-5908.426
 30
-804.000
 70
    32
  0
VERTEX
  8
W62LXLIFT
 62
1
 10
1045.419
 20
-5914.552
 30
-804.000
 70
    32
  0
VERTEX
  8
W62LXLIFT
 62
1
 10
1051.136
 20
-5930.631
 30
-804.000
 70
    32
  0
VERTEX
  8
W62LXLIFT
 62
1
 10
1054.107
 20
-5935.760
 30
-804.000
 70
    32
  0
VERTEX
  8
W62LXLIFT
 62
1
 10
1063.671
 20
-5948.603
 30
-804.000
 70
    32
  0
VERTEX
  8
W62LXLIFT
 62
1
 10
1065.873
 20
-5957.012
 30
-804.000
 70
    32
  0
VERTEX
  8
W62LXLIFT
 62
1
 10
1066.619
 20
-5965.065
 30
-804.000
 70
    32
  0
VERTEX
  8
W62LXLIFT
 62
1
 10
1064.279
 20
-5968.727
 30
-804.000
 70
    32
  0
VERTEX
  8
W62LXLIFT
 62
1
 10
1065.556
 20
-5979.005
 30
-804.000
 70
    32
  0
VERTEX
  8
W62LXLIFT
 62
1
 10
1084.556
 20
-6025.896
 30
-804.000
 70
    32
  0
VERTEX
  8
W62LXLIFT
 62
1
 10
1070.636
 20
-6024.710
 30
-804.000
 70
    32
  0
VERTEX
  8
W62LXLIFT
 62
1
 10
1073.388
 20
-6035.221
 30
-804.000
 70
    32
  0
VERTEX
  8
W62LXLIFT
 62
1
 10
1063.038
 20
-6035.353
 30
-804.000
 70
    32
  0
VERTEX
  8
W62LXLIFT
 62
1
 10
1055.380
 20
-6016.008
 30
-804.000
 70
    32
  0
VERTEX
  8
W62LXLIFT
 62
1
 10
1052.739
 20
-6011.184
 30
-804.000
 70
    32
  0
VERTEX
  8
W62LXLIFT
 62
1
 10
1052.609
 20
-6006.817
 30
-804.000
 70
    32
  0
VERTEX
  8
W62LXLIFT
 62
1
 10
1051.952
 20
-5995.000
 30
-804.000
 70
    32
  0
VERTEX
  8
W62LXLIFT
 62
1
 10
1053.986
 20
-5983.291
 30
-804.000
 70
    32
  0
VERTEX
  8
W62LXLIFT
 62
1
 10
1051.525
 20
-5975.723
 30
-804.000
 70
    32
  0
VERTEX
  8
W62LXLIFT
 62
1
 10
1044.245
 20
-5966.767
 30
-804.000
 70
    32
  0
SEQEND
  8
W62LXLIFT
  0
POLYLINE
  8
W62LXLIFT
 62
5
 66
     1
 70
     9
  0
VERTEX
  8
W62LXLIFT
 62
5
 10
1439.323
 20
-7281.103
 30
-920.000
 70
    32
  0
VERTEX
  8
W62LXLIFT
 62
5
 10
1441.805
 20
-7290.193
 30
-920.000
 70
    32
  0
VERTEX
  8
W62LXLIFT
 62
5
 10
1438.903
 20
-7309.078
 30
-920.000
 70
    32
  0
VERTEX
  8
W62LXLIFT
 62
5
 10
1430.898
 20
-7324.741
 30
-920.000
 70
    32
  0
VERTEX
  8
W62LXLIFT
 62
5
 10
1411.554
 20
-7348.666
 30
-920.000
 70
    32
  0
VERTEX
  8
W62LXLIFT
 62
5
 10
1418.949
 20
-7359.052
 30
-920.000
 70
    32
  0
VERTEX
  8
W62LXLIFT
 62
5
 10
1419.586
 20
-7365.856
 30
-920.000
 70
    32
  0
VERTEX
  8
W62LXLIFT
 62
5
 10
1419.654
 20
-7367.324
 30
-920.000
 70
    32
  0
VERTEX
  8
W62LXLIFT
 62
5
 10
1430.060
 20
-7381.793
 30
-920.000
 70
    32
  0
VERTEX
  8
W62LXLIFT
 62
5
 10
1433.229
 20
-7410.687
 30
-920.000
 70
    32
  0
VERTEX
  8
W62LXLIFT
 62
5
 10
1432.394
 20
-7422.792
 30
-920.000
 70
    32
  0
VERTEX
  8
W62LXLIFT
 62
5
 10
1424.586
 20
-7435.566
 30
-920.000
 70
    32
  0
VERTEX
  8
W62LXLIFT
 62
5
 10
1433.241
 20
-7443.723
 30
-920.000
 70
    32
  0
VERTEX
  8
W62LXLIFT
 62
5
 10
1444.033
 20
-7429.599
 30
-920.000
 70
    32
  0
VERTEX
  8
W62LXLIFT
 62
5
 10
1454.072
 20
-7429.466
 30
-920.000
 70
    32
  0
VERTEX
  8
W62LXLIFT
 62
5
 10
1454.768
 20
-7415.687
 30
-920.000
 70
    32
  0
VERTEX
  8
W62LXLIFT
 62
5
 10
1449.524
 20
-7390.105
 30
-920.000
 70
    32
  0
VERTEX
  8
W62LXLIFT
 62
5
 10
1449.094
 20
-7377.813
 30
-920.000
 70
    32
  0
VERTEX
  8
W62LXLIFT
 62
5
 10
1439.752
 20
-7370.096
 30
-920.000
 70
    32
  0
VERTEX
  8
W62LXLIFT
 62
5
 10
1438.817
 20
-7366.998
 30
-920.000
 70
    32
  0
VERTEX
  8
W62LXLIFT
 62
5
 10
1436.149
 20
-7357.173
 30
-920.000
 70
    32
  0
VERTEX
  8
W62LXLIFT
 62
5
 10
1443.848
 20
-7324.768
 30
-920.000
 70
    32
  0
VERTEX
  8
W62LXLIFT
 62
5
 10
1448.083
 20
-7320.287
 30
-920.000
 70
    32
  0
VERTEX
  8
W62LXLIFT
 62
5
 10
1450.911
 20
-7297.904
 30
-920.000
 70
    32
  0
SEQEND
  8
W62LXLIFT
  0
POLYLINE
  8
W62LXLIFT
 62
5
 66
     1
 70
     9
  0
VERTEX
  8
W62LXLIFT
 62
5
 10
1436.748
 20
-8155.793
 30
-874.000
 70
    32
  0
VERTEX
  8
W62LXLIFT
 62
5
 10
1467.014
 20
-8142.634
 30
-874.000
 70
    32
  0
VERTEX
  8
W62LXLIFT
 62
5
 10
1475.342
 20
-8133.888
 30
-874.000
 70
    32
  0
VERTEX
  8
W62LXLIFT
 62
5
 10
1472.182
 20
-8128.464
 30
-874.000
 70
    32
  0
VERTEX
  8
W62LXLIFT
 62
5
 10
1461.972
 20
-8117.224
 30
-874.000
 70
    32
  0
VERTEX
  8
W62LXLIFT
 62
5
 10
1455.014
 20
-8106.581
 30
-874.000
 70
    32
  0
VERTEX
  8
W62LXLIFT
 62
5
 10
1463.161
 20
-8099.170
 30
-874.000
 70
    32
  0
VERTEX
  8
W62LXLIFT
 62
5
 10
1466.787
 20
-8097.482
 30
-874.000
 70
    32
  0
VERTEX
  8
W62LXLIFT
 62
5
 10
1476.450
 20
-8103.106
 30
-874.000
 70
    32
  0
VERTEX
  8
W62LXLIFT
 62
5
 10
1478.924
 20
-8105.396
 30
-874.000
 70
    32
  0
VERTEX
  8
W62LXLIFT
 62
5
 10
1485.188
 20
-8104.881
 30
-874.000
 70
    32
  0
VERTEX
  8
W62LXLIFT
 62
5
 10
1494.902
 20
-8107.531
 30
-874.000
 70
    32
  0
VERTEX
  8
W62LXLIFT
 62
5
 10
1504.027
 20
-8098.796
 30
-874.000
 70
    32
  0
VERTEX
  8
W62LXLIFT
 62
5
 10
1519.668
 20
-8086.691
 30
-874.000
 70
    32
  0
VERTEX
  8
W62LXLIFT
 62
5
 10
1519.969
 20
-8075.861
 30
-874.000
 70
    32
  0
VERTEX
  8
W62LXLIFT
 62
5
 10
1529.970
 20
-8061.650
 30
-874.000
 70
    32
  0
VERTEX
  8
W62LXLIFT
 62
5
 10
1534.650
 20
-8053.101
 30
-874.000
 70
    32
  0
VERTEX
  8
W62LXLIFT
 62
5
 10
1545.351
 20
-8045.713
 30
-874.000
 70
    32
  0
VERTEX
  8
W62LXLIFT
 62
5
 10
1553.647
 20
-8049.202
 30
-874.000
 70
    32
  0
VERTEX
  8
W62LXLIFT
 62
5
 10
1564.939
 20
-8053.506
 30
-874.000
 70
    32
  0
VERTEX
  8
W62LXLIFT
 62
5
 10
1572.771
 20
-8066.120
 30
-874.000
 70
    32
  0
VERTEX
  8
W62LXLIFT
 62
5
 10
1572.471
 20
-8079.342
 30
-874.000
 70
    32
  0
VERTEX
  8
W62LXLIFT
 62
5
 10
1571.856
 20
-8083.691
 30
-874.000
 70
    32
  0
VERTEX
  8
W62LXLIFT
 62
5
 10
1571.030
 20
-8084.877
 30
-874.000
 70
    32
  0
VERTEX
  8
W62LXLIFT
 62
5
 10
1569.643
 20
-8097.084
 30
-874.000
 70
    32
  0
VERTEX
  8
W62LXLIFT
 62
5
 10
1569.969
 20
-8105.866
 30
-874.000
 70
    32
  0
VERTEX
  8
W62LXLIFT
 62
5
 10
1554.060
 20
-8117.312
 30
-874.000
 70
    32
  0
VERTEX
  8
W62LXLIFT
 62
5
 10
1531.463
 20
-8117.413
 30
-874.000
 70
    32
  0
VERTEX
  8
W62LXLIFT
 62
5
 10
1526.875
 20
-8119.172
 30
-874.000
 70
    32
  0
VERTEX
  8
W62LXLIFT
 62
5
 10
1516.816
 20
-8129.583
 30
-874.000
 70
    32
  0
VERTEX
  8
W62LXLIFT
 62
5
 10
1514.290
 20
-8141.211
 30
-874.000
 70
    32
  0
VERTEX
  8
W62LXLIFT
 62
5
 10
1514.794
 20
-8146.008
 30
-874.000
 70
    32
  0
VERTEX
  8
W62LXLIFT
 62
5
 10
1517.844
 20
-8151.495
 30
-874.000
 70
    32
  0
VERTEX
  8
W62LXLIFT
 62
5
 10
1524.058
 20
-8163.023
 30
-874.000
 70
    32
  0
VERTEX
  8
W62LXLIFT
 62
5
 10
1519.303
 20
-8169.986
 30
-874.000
 70
    32
  0
VERTEX
  8
W62LXLIFT
 62
5
 10
1513.117
 20
-8171.511
 30
-874.000
 70
    32
  0
VERTEX
  8
W62LXLIFT
 62
5
 10
1506.970
 20
-8164.994
 30
-874.000
 70
    32
  0
VERTEX
  8
W62LXLIFT
 62
5
 10
1506.768
 20
-8165.165
 30
-874.000
 70
    32
  0
VERTEX
  8
W62LXLIFT
 62
5
 10
1495.126
 20
-8158.599
 30
-874.000
 70
    32
  0
VERTEX
  8
W62LXLIFT
 62
5
 10
1483.648
 20
-8151.728
 30
-874.000
 70
    32
  0
VERTEX
  8
W62LXLIFT
 62
5
 10
1475.040
 20
-8152.031
 30
-874.000
 70
    32
  0
VERTEX
  8
W62LXLIFT
 62
5
 10
1440.609
 20
-8164.701
 30
-874.000
 70
    32
  0
SEQEND
  8
W62LXLIFT
  0
POLYLINE
  8
W62LXLIFT
 62
5
 66
     1
 70
     9
  0
VERTEX
  8
W62LXLIFT
 62
5
 10
1573.023
 20
-8276.981
 30
-888.000
 70
    32
  0
VERTEX
  8
W62LXLIFT
 62
5
 10
1591.516
 20
-8275.212
 30
-888.000
 70
    32
  0
VERTEX
  8
W62LXLIFT
 62
5
 10
1614.384
 20
-8270.187
 30
-888.000
 70
    32
  0
VERTEX
  8
W62LXLIFT
 62
5
 10
1619.805
 20
-8267.155
 30
-888.000
 70
    32
  0
VERTEX
  8
W62LXLIFT
 62
5
 10
1622.899
 20
-8255.000
 30
-888.000
 70
    32
  0
VERTEX
  8
W62LXLIFT
 62
5
 10
1624.852
 20
-8254.973
 30
-888.000
 70
    32
  0
VERTEX
  8
W62LXLIFT
 62
5
 10
1628.349
 20
-8245.548
 30
-888.000
 70
    32
  0
VERTEX
  8
W62LXLIFT
 62
5
 10
1620.604
 20
-8234.243
 30
-888.000
 70
    32
  0
VERTEX
  8
W62LXLIFT
 62
5
 10
1609.584
 20
-8218.816
 30
-888.000
 70
    32
  0
VERTEX
  8
W62LXLIFT
 62
5
 10
1620.016
 20
-8212.176
 30
-888.000
 70
    32
  0
VERTEX
  8
W62LXLIFT
 62
5
 10
1627.194
 20
-8224.887
 30
-888.000
 70
    32
  0
VERTEX
  8
W62LXLIFT
 62
5
 10
1631.959
 20
-8228.934
 30
-888.000
 70
    32
  0
VERTEX
  8
W62LXLIFT
 62
5
 10
1638.116
 20
-8230.571
 30
-888.000
 70
    32
  0
VERTEX
  8
W62LXLIFT
 62
5
 10
1641.588
 20
-8243.295
 30
-888.000
 70
    32
  0
VERTEX
  8
W62LXLIFT
 62
5
 10
1643.485
 20
-8255.143
 30
-888.000
 70
    32
  0
VERTEX
  8
W62LXLIFT
 62
5
 10
1649.850
 20
-8272.044
 30
-888.000
 70
    32
  0
VERTEX
  8
W62LXLIFT
 62
5
 10
1653.764
 20
-8275.136
 30
-888.000
 70
    32
  0
VERTEX
  8
W62LXLIFT
 62
5
 10
1666.330
 20
-8276.256
 30
-888.000
 70
    32
  0
VERTEX
  8
W62LXLIFT
 62
5
 10
1681.197
 20
-8277.022
 30
-888.000
 70
    32
  0
VERTEX
  8
W62LXLIFT
 62
5
 10
1679.604
 20
-8288.992
 30
-888.000
 70
    32
  0
VERTEX
  8
W62LXLIFT
 62
5
 10
1676.890
 20
-8289.346
 30
-888.000
 70
    32
  0
VERTEX
  8
W62LXLIFT
 62
5
 10
1673.528
 20
-8289.758
 30
-888.000
 70
    32
  0
VERTEX
  8
W62LXLIFT
 62
5
 10
1671.463
 20
-8288.048
 30
-888.000
 70
    32
  0
VERTEX
  8
W62LXLIFT
 62
5
 10
1669.280
 20
-8288.756
 30
-888.000
 70
    32
  0
VERTEX
  8
W62LXLIFT
 62
5
 10
1663.793
 20
-8291.586
 30
-888.000
 70
    32
  0
VERTEX
  8
W62LXLIFT
 62
5
 10
1656.537
 20
-8286.574
 30
-888.000
 70
    32
  0
VERTEX
  8
W62LXLIFT
 62
5
 10
1651.227
 20
-8285.690
 30
-888.000
 70
    32
  0
VERTEX
  8
W62LXLIFT
 62
5
 10
1649.827
 20
-8287.300
 30
-888.000
 70
    32
  0
VERTEX
  8
W62LXLIFT
 62
5
 10
1649.798
 20
-8288.115
 30
-888.000
 70
    32
  0
VERTEX
  8
W62LXLIFT
 62
5
 10
1651.599
 20
-8299.861
 30
-888.000
 70
    32
  0
VERTEX
  8
W62LXLIFT
 62
5
 10
1651.777
 20
-8307.723
 30
-888.000
 70
    32
  0
VERTEX
  8
W62LXLIFT
 62
5
 10
1653.565
 20
-8318.503
 30
-888.000
 70
    32
  0
VERTEX
  8
W62LXLIFT
 62
5
 10
1654.134
 20
-8323.711
 30
-888.000
 70
    32
  0
VERTEX
  8
W62LXLIFT
 62
5
 10
1649.968
 20
-8330.447
 30
-888.000
 70
    32
  0
VERTEX
  8
W62LXLIFT
 62
5
 10
1651.222
 20
-8340.486
 30
-888.000
 70
    32
  0
VERTEX
  8
W62LXLIFT
 62
5
 10
1655.425
 20
-8356.167
 30
-888.000
 70
    32
  0
VERTEX
  8
W62LXLIFT
 62
5
 10
1656.818
 20
-8366.899
 30
-888.000
 70
    32
  0
VERTEX
  8
W62LXLIFT
 62
5
 10
1650.023
 20
-8369.983
 30
-888.000
 70
    32
  0
VERTEX
  8
W62LXLIFT
 62
5
 10
1643.120
 20
-8365.956
 30
-888.000
 70
    32
  0
VERTEX
  8
W62LXLIFT
 62
5
 10
1640.655
 20
-8355.167
 30
-888.000
 70
    32
  0
VERTEX
  8
W62LXLIFT
 62
5
 10
1635.595
 20
-8349.701
 30
-888.000
 70
    32
  0
VERTEX
  8
W62LXLIFT
 62
5
 10
1639.349
 20
-8329.570
 30
-888.000
 70
    32
  0
VERTEX
  8
W62LXLIFT
 62
5
 10
1641.529
 20
-8321.996
 30
-888.000
 70
    32
  0
VERTEX
  8
W62LXLIFT
 62
5
 10
1642.487
 20
-8306.346
 30
-888.000
 70
    32
  0
VERTEX
  8
W62LXLIFT
 62
5
 10
1641.084
 20
-8304.120
 30
-888.000
 70
    32
  0
VERTEX
  8
W62LXLIFT
 62
5
 10
1640.499
 20
-8304.230
 30
-888.000
 70
    32
  0
VERTEX
  8
W62LXLIFT
 62
5
 10
1635.264
 20
-8294.286
 30
-888.000
 70
    32
  0
VERTEX
  8
W62LXLIFT
 62
5
 10
1632.988
 20
-8289.002
 30
-888.000
 70
    32
  0
VERTEX
  8
W62LXLIFT
 62
5
 10
1631.118
 20
-8289.383
 30
-888.000
 70
    32
  0
VERTEX
  8
W62LXLIFT
 62
5
 10
1628.020
 20
-8282.838
 30
-888.000
 70
    32
  0
VERTEX
  8
W62LXLIFT
 62
5
 10
1620.360
 20
-8280.500
 30
-888.000
 70
    32
  0
VERTEX
  8
W62LXLIFT
 62
5
 10
1607.939
 20
-8281.969
 30
-888.000
 70
    32
  0
VERTEX
  8
W62LXLIFT
 62
5
 10
1593.265
 20
-8287.168
 30
-888.000
 70
    32
  0
VERTEX
  8
W62LXLIFT
 62
5
 10
1574.453
 20
-8288.131
 30
-888.000
 70
    32
  0
SEQEND
  8
W62LXLIFT
  0
POLYLINE
  8
W62LXLIFT
 62
5
 66
     1
 70
     9
  0
VERTEX
  8
W62LXLIFT
 62
5
 10
1440.604
 20
-7806.458
 30
-934.500
 70
    32
  0
VERTEX
  8
W62LXLIFT
 62
5
 10
1439.893
 20
-7811.391
 30
-934.500
 70
    32
  0
VERTEX
  8
W62LXLIFT
 62
5
 10
1438.702
 20
-7813.609
 30
-934.500
 70
    32
  0
VERTEX
  8
W62LXLIFT
 62
5
 10
1436.405
 20
-7815.073
 30
-934.500
 70
    32
  0
VERTEX
  8
W62LXLIFT
 62
5
 10
1427.930
 20
-7817.142
 30
-934.500
 70
    32
  0
VERTEX
  8
W62LXLIFT
 62
5
 10
1412.742
 20
-7826.823
 30
-934.500
 70
    32
  0
VERTEX
  8
W62LXLIFT
 62
5
 10
1418.995
 20
-7834.506
 30
-934.500
 70
    32
  0
VERTEX
  8
W62LXLIFT
 62
5
 10
1431.374
 20
-7827.449
 30
-934.500
 70
    32
  0
VERTEX
  8
W62LXLIFT
 62
5
 10
1442.343
 20
-7826.187
 30
-934.500
 70
    32
  0
VERTEX
  8
W62LXLIFT
 62
5
 10
1446.632
 20
-7829.809
 30
-934.500
 70
    32
  0
VERTEX
  8
W62LXLIFT
 62
5
 10
1456.006
 20
-7823.104
 30
-934.500
 70
    32
  0
VERTEX
  8
W62LXLIFT
 62
5
 10
1462.705
 20
-7823.315
 30
-934.500
 70
    32
  0
VERTEX
  8
W62LXLIFT
 62
5
 10
1472.154
 20
-7817.708
 30
-934.500
 70
    32
  0
VERTEX
  8
W62LXLIFT
 62
5
 10
1481.690
 20
-7819.325
 30
-934.470
 70
    32
  0
VERTEX
  8
W62LXLIFT
 62
5
 10
1484.236
 20
-7810.037
 30
-934.453
 70
    32
  0
VERTEX
  8
W62LXLIFT
 62
5
 10
1476.217
 20
-7808.554
 30
-934.500
 70
    32
  0
VERTEX
  8
W62LXLIFT
 62
5
 10
1471.365
 20
-7799.144
 30
-934.500
 70
    32
  0
VERTEX
  8
W62LXLIFT
 62
5
 10
1457.995
 20
-7797.456
 30
-934.500
 70
    32
  0
VERTEX
  8
W62LXLIFT
 62
5
 10
1445.491
 20
-7801.051
 30
-934.500
 70
    32
  0
SEQEND
  8
W62LXLIFT
  0
POLYLINE
  8
W62LXLIFT
 62
5
 66
     1
 70
     9
  0
VERTEX
  8
W62LXLIFT
 62
5
 10
1448.385
 20
-7870.333
 30
-774.542
 70
    32
  0
VERTEX
  8
W62LXLIFT
 62
5
 10
1451.286
 20
-7869.985
 30
-774.306
 70
    32
  0
VERTEX
  8
W62LXLIFT
 62
5
 10
1452.375
 20
-7867.913
 30
-774.182
 70
    32
  0
VERTEX
  8
W62LXLIFT
 62
5
 10
1461.824
 20
-7866.772
 30
-773.438
 70
    32
  0
VERTEX
  8
W62LXLIFT
 62
5
 10
1468.885
 20
-7869.191
 30
-772.815
 70
    32
  0
VERTEX
  8
W62LXLIFT
 62
5
 10
1473.642
 20
-7867.620
 30
-772.326
 70
    32
  0
VERTEX
  8
W62LXLIFT
 62
5
 10
1482.701
 20
-7866.525
 30
-774.144
 70
    32
  0
VERTEX
  8
W62LXLIFT
 62
5
 10
1487.849
 20
-7866.981
 30
-774.830
 70
    32
  0
VERTEX
  8
W62LXLIFT
 62
5
 10
1504.454
 20
-7870.396
 30
-774.830
 70
    32
  0
VERTEX
  8
W62LXLIFT
 62
5
 10
1506.756
 20
-7870.895
 30
-775.376
 70
    32
  0
VERTEX
  8
W62LXLIFT
 62
5
 10
1513.752
 20
-7872.411
 30
-782.560
 70
    32
  0
VERTEX
  8
W62LXLIFT
 62
5
 10
1520.678
 20
-7873.913
 30
-782.560
 70
    32
  0
VERTEX
  8
W62LXLIFT
 62
5
 10
1522.723
 20
-7864.462
 30
-782.560
 70
    32
  0
VERTEX
  8
W62LXLIFT
 62
5
 10
1521.908
 20
-7863.162
 30
-782.560
 70
    32
  0
VERTEX
  8
W62LXLIFT
 62
5
 10
1521.424
 20
-7862.119
 30
-781.350
 70
    32
  0
VERTEX
  8
W62LXLIFT
 62
5
 10
1521.513
 20
-7860.127
 30
-781.545
 70
    32
  0
VERTEX
  8
W62LXLIFT
 62
5
 10
1523.553
 20
-7858.346
 30
-781.846
 70
    32
  0
VERTEX
  8
W62LXLIFT
 62
5
 10
1534.029
 20
-7851.084
 30
-782.563
 70
    32
  0
VERTEX
  8
W62LXLIFT
 62
5
 10
1536.687
 20
-7850.453
 30
-782.562
 70
    32
  0
VERTEX
  8
W62LXLIFT
 62
5
 10
1539.776
 20
-7849.721
 30
-783.230
 70
    32
  0
VERTEX
  8
W62LXLIFT
 62
5
 10
1544.031
 20
-7850.047
 30
-784.154
 70
    32
  0
VERTEX
  8
W62LXLIFT
 62
5
 10
1552.888
 20
-7847.427
 30
-787.201
 70
    32
  0
VERTEX
  8
W62LXLIFT
 62
5
 10
1558.944
 20
-7837.841
 30
-787.222
 70
    32
  0
VERTEX
  8
W62LXLIFT
 62
5
 10
1554.987
 20
-7838.004
 30
-787.211
 70
    32
  0
VERTEX
  8
W62LXLIFT
 62
5
 10
1549.571
 20
-7837.245
 30
-786.155
 70
    32
  0
VERTEX
  8
W62LXLIFT
 62
5
 10
1538.989
 20
-7838.690
 30
-784.078
 70
    32
  0
VERTEX
  8
W62LXLIFT
 62
5
 10
1534.814
 20
-7840.013
 30
-783.249
 70
    32
  0
VERTEX
  8
W62LXLIFT
 62
5
 10
1500.748
 20
-7858.523
 30
-775.317
 70
    32
  0
VERTEX
  8
W62LXLIFT
 62
5
 10
1484.323
 20
-7855.906
 30
-773.319
 70
    32
  0
VERTEX
  8
W62LXLIFT
 62
5
 10
1482.939
 20
-7854.053
 30
-773.169
 70
    32
  0
VERTEX
  8
W62LXLIFT
 62
5
 10
1479.559
 20
-7852.564
 30
-772.712
 70
    32
  0
VERTEX
  8
W62LXLIFT
 62
5
 10
1480.294
 20
-7844.208
 30
-772.687
 70
    32
  0
VERTEX
  8
W62LXLIFT
 62
5
 10
1474.306
 20
-7835.942
 30
-772.021
 70
    32
  0
VERTEX
  8
W62LXLIFT
 62
5
 10
1458.453
 20
-7854.626
 30
-773.479
 70
    32
  0
VERTEX
  8
W62LXLIFT
 62
5
 10
1443.459
 20
-7860.507
 30
-774.920
 70
    32
  0
SEQEND
  8
W62LXLIFT
  0
POLYLINE
  8
W62LXLIFT
 62
5
 66
     1
 70
     9
  0
VERTEX
  8
W62LXLIFT
 62
5
 10
1474.914
 20
-7901.131
 30
-814.106
 70
    32
  0
VERTEX
  8
W62LXLIFT
 62
5
 10
1482.968
 20
-7899.238
 30
-814.106
 70
    32
  0
VERTEX
  8
W62LXLIFT
 62
5
 10
1485.898
 20
-7896.884
 30
-814.106
 70
    32
  0
VERTEX
  8
W62LXLIFT
 62
5
 10
1489.981
 20
-7895.012
 30
-814.106
 70
    32
  0
VERTEX
  8
W62LXLIFT
 62
5
 10
1500.058
 20
-7892.243
 30
-814.106
 70
    32
  0
VERTEX
  8
W62LXLIFT
 62
5
 10
1510.116
 20
-7891.874
 30
-814.106
 70
    32
  0
VERTEX
  8
W62LXLIFT
 62
5
 10
1518.994
 20
-7890.229
 30
-814.106
 70
    32
  0
VERTEX
  8
W62LXLIFT
 62
5
 10
1523.057
 20
-7892.323
 30
-814.106
 70
    32
  0
VERTEX
  8
W62LXLIFT
 62
5
 10
1526.586
 20
-7891.050
 30
-814.106
 70
    32
  0
VERTEX
  8
W62LXLIFT
 62
5
 10
1528.612
 20
-7887.927
 30
-814.106
 70
    32
  0
VERTEX
  8
W62LXLIFT
 62
5
 10
1527.223
 20
-7884.284
 30
-814.106
 70
    32
  0
VERTEX
  8
W62LXLIFT
 62
5
 10
1523.577
 20
-7882.491
 30
-814.106
 70
    32
  0
VERTEX
  8
W62LXLIFT
 62
5
 10
1519.238
 20
-7883.084
 30
-814.106
 70
    32
  0
VERTEX
  8
W62LXLIFT
 62
5
 10
1501.216
 20
-7880.377
 30
-814.106
 70
    32
  0
VERTEX
  8
W62LXLIFT
 62
5
 10
1497.433
 20
-7878.505
 30
-814.106
 70
    32
  0
VERTEX
  8
W62LXLIFT
 62
5
 10
1494.737
 20
-7876.056
 30
-814.106
 70
    32
  0
VERTEX
  8
W62LXLIFT
 62
5
 10
1492.411
 20
-7871.119
 30
-814.106
 70
    32
  0
VERTEX
  8
W62LXLIFT
 62
5
 10
1472.910
 20
-7871.332
 30
-814.106
 70
    32
  0
VERTEX
  8
W62LXLIFT
 62
5
 10
1471.296
 20
-7883.839
 30
-814.106
 70
    32
  0
VERTEX
  8
W62LXLIFT
 62
5
 10
1468.978
 20
-7888.655
 30
-814.106
 70
    32
  0
VERTEX
  8
W62LXLIFT
 62
5
 10
1464.734
 20
-7891.908
 30
-814.106
 70
    32
  0
SEQEND
  8
W62LXLIFT
  0
POLYLINE
  8
W62LXLIFT
 62
5
 66
     1
 70
     9
  0
VERTEX
  8
W62LXLIFT
 62
5
 10
1417.482
 20
-7933.557
 30
-814.286
 70
    32
  0
VERTEX
  8
W62LXLIFT
 62
5
 10
1412.363
 20
-7941.157
 30
-814.286
 70
    32
  0
VERTEX
  8
W62LXLIFT
 62
5
 10
1415.175
 20
-7946.632
 30
-814.286
 70
    32
  0
VERTEX
  8
W62LXLIFT
 62
5
 10
1411.436
 20
-7954.394
 30
-814.286
 70
    32
  0
VERTEX
  8
W62LXLIFT
 62
5
 10
1414.361
 20
-7959.708
 30
-814.286
 70
    32
  0
VERTEX
  8
W62LXLIFT
 62
5
 10
1410.737
 20
-7967.311
 30
-814.286
 70
    32
  0
VERTEX
  8
W62LXLIFT
 62
5
 10
1416.165
 20
-7972.091
 30
-814.286
 70
    32
  0
VERTEX
  8
W62LXLIFT
 62
5
 10
1422.443
 20
-7976.220
 30
-814.286
 70
    32
  0
VERTEX
  8
W62LXLIFT
 62
5
 10
1419.350
 20
-7984.635
 30
-814.286
 70
    32
  0
VERTEX
  8
W62LXLIFT
 62
5
 10
1424.785
 20
-7988.117
 30
-814.286
 70
    32
  0
VERTEX
  8
W62LXLIFT
 62
5
 10
1459.939
 20
-8003.676
 30
-814.286
 70
    32
  0
VERTEX
  8
W62LXLIFT
 62
5
 10
1453.535
 20
-8013.353
 30
-814.286
 70
    32
  0
VERTEX
  8
W62LXLIFT
 62
5
 10
1450.380
 20
-8009.854
 30
-814.286
 70
    32
  0
VERTEX
  8
W62LXLIFT
 62
5
 10
1438.960
 20
-8007.662
 30
-814.286
 70
    32
  0
VERTEX
  8
W62LXLIFT
 62
5
 10
1431.030
 20
-8001.922
 30
-814.286
 70
    32
  0
VERTEX
  8
W62LXLIFT
 62
5
 10
1424.689
 20
-7998.423
 30
-814.286
 70
    32
  0
VERTEX
  8
W62LXLIFT
 62
5
 10
1416.340
 20
-7996.390
 30
-814.286
 70
    32
  0
VERTEX
  8
W62LXLIFT
 62
5
 10
1407.963
 20
-7996.364
 30
-814.286
 70
    32
  0
VERTEX
  8
W62LXLIFT
 62
5
 10
1402.766
 20
-8000.820
 30
-814.286
 70
    32
  0
VERTEX
  8
W62LXLIFT
 62
5
 10
1400.644
 20
-8005.631
 30
-814.286
 70
    32
  0
VERTEX
  8
W62LXLIFT
 62
5
 10
1397.839
 20
-8019.269
 30
-814.286
 70
    32
  0
VERTEX
  8
W62LXLIFT
 62
5
 10
1395.848
 20
-8035.561
 30
-814.286
 70
    32
  0
VERTEX
  8
W62LXLIFT
 62
5
 10
1395.853
 20
-8051.488
 30
-814.286
 70
    32
  0
VERTEX
  8
W62LXLIFT
 62
5
 10
1393.973
 20
-8061.249
 30
-814.286
 70
    32
  0
VERTEX
  8
W62LXLIFT
 62
5
 10
1397.096
 20
-8069.744
 30
-814.286
 70
    32
  0
VERTEX
  8
W62LXLIFT
 62
5
 10
1396.390
 20
-8076.093
 30
-814.286
 70
    32
  0
VERTEX
  8
W62LXLIFT
 62
5
 10
1398.926
 20
-8078.429
 30
-814.286
 70
    32
  0
VERTEX
  8
W62LXLIFT
 62
5
 10
1400.972
 20
-8083.215
 30
-814.286
 70
    32
  0
VERTEX
  8
W62LXLIFT
 62
5
 10
1416.970
 20
-8128.473
 30
-814.286
 70
    32
  0
VERTEX
  8
W62LXLIFT
 62
5
 10
1414.243
 20
-8129.524
 30
-814.286
 70
    32
  0
VERTEX
  8
W62LXLIFT
 62
5
 10
1410.153
 20
-8129.509
 30
-814.286
 70
    32
  0
VERTEX
  8
W62LXLIFT
 62
5
 10
1405.160
 20
-8127.982
 30
-814.286
 70
    32
  0
VERTEX
  8
W62LXLIFT
 62
5
 10
1400.651
 20
-8119.128
 30
-814.286
 70
    32
  0
VERTEX
  8
W62LXLIFT
 62
5
 10
1392.346
 20
-8107.813
 30
-814.286
 70
    32
  0
VERTEX
  8
W62LXLIFT
 62
5
 10
1386.461
 20
-8103.674
 30
-814.286
 70
    32
  0
VERTEX
  8
W62LXLIFT
 62
5
 10
1387.661
 20
-8099.750
 30
-814.286
 70
    32
  0
VERTEX
  8
W62LXLIFT
 62
5
 10
1384.295
 20
-8083.121
 30
-814.286
 70
    32
  0
VERTEX
  8
W62LXLIFT
 62
5
 10
1386.039
 20
-8082.094
 30
-814.286
 70
    32
  0
VERTEX
  8
W62LXLIFT
 62
5
 10
1384.877
 20
-8081.218
 30
-814.286
 70
    32
  0
VERTEX
  8
W62LXLIFT
 62
5
 10
1383.275
 20
-8076.893
 30
-814.286
 70
    32
  0
VERTEX
  8
W62LXLIFT
 62
5
 10
1380.926
 20
-8061.614
 30
-814.286
 70
    32
  0
VERTEX
  8
W62LXLIFT
 62
5
 10
1375.484
 20
-8046.885
 30
-814.286
 70
    32
  0
VERTEX
  8
W62LXLIFT
 62
5
 10
1379.044
 20
-8033.543
 30
-814.286
 70
    32
  0
VERTEX
  8
W62LXLIFT
 62
5
 10
1378.128
 20
-8029.948
 30
-814.286
 70
    32
  0
VERTEX
  8
W62LXLIFT
 62
5
 10
1385.747
 20
-7993.341
 30
-814.286
 70
    32
  0
VERTEX
  8
W62LXLIFT
 62
5
 10
1380.158
 20
-7988.447
 30
-814.286
 70
    32
  0
VERTEX
  8
W62LXLIFT
 62
5
 10
1377.532
 20
-7987.254
 30
-814.271
 70
    32
  0
VERTEX
  8
W62LXLIFT
 62
5
 10
1364.582
 20
-7996.230
 30
-811.798
 70
    32
  0
VERTEX
  8
W62LXLIFT
 62
5
 10
1357.716
 20
-8003.166
 30
-810.440
 70
    32
  0
VERTEX
  8
W62LXLIFT
 62
5
 10
1353.297
 20
-8005.714
 30
-810.440
 70
    32
  0
VERTEX
  8
W62LXLIFT
 62
5
 10
1351.939
 20
-8008.029
 30
-810.440
 70
    32
  0
VERTEX
  8
W62LXLIFT
 62
5
 10
1343.359
 20
-8012.491
 30
-810.440
 70
    32
  0
VERTEX
  8
W62LXLIFT
 62
5
 10
1336.688
 20
-8013.051
 30
-810.440
 70
    32
  0
VERTEX
  8
W62LXLIFT
 62
5
 10
1333.226
 20
-8014.593
 30
-810.440
 70
    32
  0
VERTEX
  8
W62LXLIFT
 62
5
 10
1330.038
 20
-8012.903
 30
-810.440
 70
    32
  0
VERTEX
  8
W62LXLIFT
 62
5
 10
1326.200
 20
-8013.550
 30
-810.440
 70
    32
  0
VERTEX
  8
W62LXLIFT
 62
5
 10
1323.887
 20
-8010.697
 30
-810.440
 70
    32
  0
VERTEX
  8
W62LXLIFT
 62
5
 10
1325.317
 20
-8004.959
 30
-810.440
 70
    32
  0
VERTEX
  8
W62LXLIFT
 62
5
 10
1327.167
 20
-7994.019
 30
-810.440
 70
    32
  0
VERTEX
  8
W62LXLIFT
 62
5
 10
1334.233
 20
-7991.955
 30
-810.440
 70
    32
  0
VERTEX
  8
W62LXLIFT
 62
5
 10
1339.137
 20
-7994.624
 30
-810.440
 70
    32
  0
VERTEX
  8
W62LXLIFT
 62
5
 10
1349.106
 20
-7995.398
 30
-810.440
 70
    32
  0
VERTEX
  8
W62LXLIFT
 62
5
 10
1352.527
 20
-7992.759
 30
-810.440
 70
    32
  0
VERTEX
  8
W62LXLIFT
 62
5
 10
1366.970
 20
-7981.619
 30
-813.444
 70
    32
  0
VERTEX
  8
W62LXLIFT
 62
5
 10
1366.431
 20
-7974.239
 30
-813.375
 70
    32
  0
VERTEX
  8
W62LXLIFT
 62
5
 10
1369.570
 20
-7966.099
 30
-813.582
 70
    32
  0
VERTEX
  8
W62LXLIFT
 62
5
 10
1375.952
 20
-7961.810
 30
-814.052
 70
    32
  0
VERTEX
  8
W62LXLIFT
 62
5
 10
1382.738
 20
-7961.089
 30
-814.286
 70
    32
  0
VERTEX
  8
W62LXLIFT
 62
5
 10
1385.659
 20
-7961.527
 30
-814.286
 70
    32
  0
VERTEX
  8
W62LXLIFT
 62
5
 10
1387.087
 20
-7960.469
 30
-814.286
 70
    32
  0
VERTEX
  8
W62LXLIFT
 62
5
 10
1388.331
 20
-7958.315
 30
-814.286
 70
    32
  0
VERTEX
  8
W62LXLIFT
 62
5
 10
1391.354
 20
-7956.509
 30
-814.286
 70
    32
  0
VERTEX
  8
W62LXLIFT
 62
5
 10
1395.030
 20
-7952.563
 30
-814.286
 70
    32
  0
VERTEX
  8
W62LXLIFT
 62
5
 10
1399.977
 20
-7945.950
 30
-814.286
 70
    32
  0
VERTEX
  8
W62LXLIFT
 62
5
 10
1399.134
 20
-7942.117
 30
-814.286
 70
    32
  0
SEQEND
  8
W62LXLIFT
  0
POLYLINE
  8
W62LXLIFT
 62
1
 66
     1
 70
     9
  0
VERTEX
  8
W62LXLIFT
 62
1
 10
1720.136
 20
-8671.333
 30
-818.000
 70
    32
  0
VERTEX
  8
W62LXLIFT
 62
1
 10
1728.371
 20
-8665.625
 30
-818.000
 70
    32
  0
VERTEX
  8
W62LXLIFT
 62
1
 10
1723.292
 20
-8653.148
 30
-818.000
 70
    32
  0
VERTEX
  8
W62LXLIFT
 62
1
 10
1723.517
 20
-8634.799
 30
-818.000
 70
    32
  0
VERTEX
  8
W62LXLIFT
 62
1
 10
1707.786
 20
-8599.239
 30
-818.000
 70
    32
  0
VERTEX
  8
W62LXLIFT
 62
1
 10
1703.959
 20
-8588.351
 30
-818.000
 70
    32
  0
VERTEX
  8
W62LXLIFT
 62
1
 10
1703.165
 20
-8577.014
 30
-818.000
 70
    32
  0
VERTEX
  8
W62LXLIFT
 62
1
 10
1695.109
 20
-8548.057
 30
-818.000
 70
    32
  0
VERTEX
  8
W62LXLIFT
 62
1
 10
1688.740
 20
-8525.358
 30
-818.000
 70
    32
  0
VERTEX
  8
W62LXLIFT
 62
1
 10
1678.642
 20
-8508.914
 30
-818.000
 70
    32
  0
VERTEX
  8
W62LXLIFT
 62
1
 10
1677.179
 20
-8499.356
 30
-818.000
 70
    32
  0
VERTEX
  8
W62LXLIFT
 62
1
 10
1670.967
 20
-8489.968
 30
-818.000
 70
    32
  0
VERTEX
  8
W62LXLIFT
 62
1
 10
1668.429
 20
-8479.668
 30
-818.000
 70
    32
  0
VERTEX
  8
W62LXLIFT
 62
1
 10
1654.992
 20
-8451.660
 30
-818.000
 70
    32
  0
VERTEX
  8
W62LXLIFT
 62
1
 10
1653.469
 20
-8436.300
 30
-818.000
 70
    32
  0
VERTEX
  8
W62LXLIFT
 62
1
 10
1648.918
 20
-8425.609
 30
-818.000
 70
    32
  0
VERTEX
  8
W62LXLIFT
 62
1
 10
1642.823
 20
-8414.729
 30
-818.000
 70
    32
  0
VERTEX
  8
W62LXLIFT
 62
1
 10
1641.324
 20
-8409.636
 30
-818.000
 70
    32
  0
VERTEX
  8
W62LXLIFT
 62
1
 10
1631.987
 20
-8409.749
 30
-818.000
 70
    32
  0
VERTEX
  8
W62LXLIFT
 62
1
 10
1624.404
 20
-8418.019
 30
-818.000
 70
    32
  0
VERTEX
  8
W62LXLIFT
 62
1
 10
1620.545
 20
-8421.986
 30
-818.000
 70
    32
  0
VERTEX
  8
W62LXLIFT
 62
1
 10
1620.612
 20
-8432.764
 30
-818.000
 70
    32
  0
VERTEX
  8
W62LXLIFT
 62
1
 10
1626.509
 20
-8460.675
 30
-818.000
 70
    32
  0
VERTEX
  8
W62LXLIFT
 62
1
 10
1635.211
 20
-8481.047
 30
-818.000
 70
    32
  0
VERTEX
  8
W62LXLIFT
 62
1
 10
1645.192
 20
-8496.277
 30
-818.000
 70
    32
  0
VERTEX
  8
W62LXLIFT
 62
1
 10
1655.768
 20
-8524.070
 30
-818.000
 70
    32
  0
VERTEX
  8
W62LXLIFT
 62
1
 10
1664.799
 20
-8554.381
 30
-818.000
 70
    32
  0
VERTEX
  8
W62LXLIFT
 62
1
 10
1669.262
 20
-8587.222
 30
-818.000
 70
    32
  0
VERTEX
  8
W62LXLIFT
 62
1
 10
1676.157
 20
-8593.195
 30
-818.000
 70
    32
  0
VERTEX
  8
W62LXLIFT
 62
1
 10
1677.820
 20
-8601.526
 30
-818.000
 70
    32
  0
VERTEX
  8
W62LXLIFT
 62
1
 10
1680.297
 20
-8612.193
 30
-818.000
 70
    32
  0
VERTEX
  8
W62LXLIFT
 62
1
 10
1698.130
 20
-8619.826
 30
-818.000
 70
    32
  0
VERTEX
  8
W62LXLIFT
 62
1
 10
1705.544
 20
-8664.293
 30
-818.000
 70
    32
  0
VERTEX
  8
W62LXLIFT
 62
1
 10
1706.275
 20
-8669.071
 30
-818.000
 70
    32
  0
VERTEX
  8
W62LXLIFT
 62
1
 10
1711.711
 20
-8672.414
 30
-818.000
 70
    32
  0
SEQEND
  8
W62LXLIFT
  0
POLYLINE
  8
W62LXLIFT
 62
1
 66
     1
 70
     9
  0
VERTEX
  8
W62LXLIFT
 62
1
 10
1739.371
 20
-8600.577
 30
-924.000
 70
    32
  0
VERTEX
  8
W62LXLIFT
 62
1
 10
1727.052
 20
-8559.284
 30
-924.000
 70
    32
  0
VERTEX
  8
W62LXLIFT
 62
1
 10
1713.950
 20
-8516.605
 30
-924.000
 70
    32
  0
VERTEX
  8
W62LXLIFT
 62
1
 10
1703.812
 20
-8476.232
 30
-924.000
 70
    32
  0
VERTEX
  8
W62LXLIFT
 62
1
 10
1695.263
 20
-8441.974
 30
-924.000
 70
    32
  0
VERTEX
  8
W62LXLIFT
 62
1
 10
1679.258
 20
-8453.294
 30
-924.000
 70
    32
  0
VERTEX
  8
W62LXLIFT
 62
1
 10
1692.692
 20
-8492.375
 30
-924.000
 70
    32
  0
VERTEX
  8
W62LXLIFT
 62
1
 10
1702.376
 20
-8527.007
 30
-924.000
 70
    32
  0
VERTEX
  8
W62LXLIFT
 62
1
 10
1712.909
 20
-8568.829
 30
-924.000
 70
    32
  0
VERTEX
  8
W62LXLIFT
 62
1
 10
1724.268
 20
-8612.548
 30
-924.000
 70
    32
  0
SEQEND
  8
W62LXLIFT
  0
POINT
  8
W62LXLIFT
 62
6
 10
1714.164
 20
-8546.539
 30
-924.000
  0
POINT
  8
W62LXLIFT
 62
6
 10
1681.599
 20
-8551.370
 30
-828.000
  0
LINE
  8
W62LXLIFT
 62
6
 10
1681.599
 20
-8551.370
 30
-828.000
 11
1714.164
 21
-8546.539
 31
-924.000
  0
POLYLINE
  8
W62LXLIFT
 62
1
 66
     1
 70
     9
  0
VERTEX
  8
W62LXLIFT
 62
1
 10
1697.960
 20
-8290.426
 30
-915.000
 70
    32
  0
VERTEX
  8
W62LXLIFT
 62
1
 10
1701.214
 20
-8311.287
 30
-915.000
 70
    32
  0
VERTEX
  8
W62LXLIFT
 62
1
 10
1702.392
 20
-8330.177
 30
-915.000
 70
    32
  0
VERTEX
  8
W62LXLIFT
 62
1
 10
1699.570
 20
-8331.675
 30
-915.000
 70
    32
  0
VERTEX
  8
W62LXLIFT
 62
1
 10
1697.908
 20
-8336.130
 30
-915.000
 70
    32
  0
VERTEX
  8
W62LXLIFT
 62
1
 10
1696.583
 20
-8338.498
 30
-915.000
 70
    32
  0
VERTEX
  8
W62LXLIFT
 62
1
 10
1691.542
 20
-8338.128
 30
-915.000
 70
    32
  0
VERTEX
  8
W62LXLIFT
 62
1
 10
1685.793
 20
-8339.028
 30
-915.000
 70
    32
  0
VERTEX
  8
W62LXLIFT
 62
1
 10
1681.331
 20
-8315.895
 30
-915.000
 70
    32
  0
VERTEX
  8
W62LXLIFT
 62
1
 10
1680.992
 20
-8310.174
 30
-915.000
 70
    32
  0
VERTEX
  8
W62LXLIFT
 62
1
 10
1677.898
 20
-8305.142
 30
-915.000
 70
    32
  0
VERTEX
  8
W62LXLIFT
 62
1
 10
1677.208
 20
-8300.435
 30
-915.000
 70
    32
  0
VERTEX
  8
W62LXLIFT
 62
1
 10
1684.871
 20
-8294.679
 30
-915.000
 70
    32
  0
VERTEX
  8
W62LXLIFT
 62
1
 10
1685.361
 20
-8290.854
 30
-915.000
 70
    32
  0
VERTEX
  8
W62LXLIFT
 62
1
 10
1687.891
 20
-8290.002
 30
-915.000
 70
    32
  0
VERTEX
  8
W62LXLIFT
 62
1
 10
1691.490
 20
-8290.329
 30
-915.000
 70
    32
  0
SEQEND
  8
W62LXLIFT
  0
POLYLINE
  8
W62LXLIFT
 62
13
 66
     1
 70
     9
  0
VERTEX
  8
W62LXLIFT
 62
13
 10
1696.256
 20
-8293.563
 30
-944.495
 70
    32
  0
VERTEX
  8
W62LXLIFT
 62
13
 10
1699.959
 20
-8305.115
 30
-944.500
 70
    32
  0
VERTEX
  8
W62LXLIFT
 62
13
 10
1701.230
 20
-8315.444
 30
-944.509
 70
    32
  0
VERTEX
  8
W62LXLIFT
 62
13
 10
1700.501
 20
-8326.280
 30
-944.524
 70
    32
  0
VERTEX
  8
W62LXLIFT
 62
13
 10
1698.058
 20
-8334.126
 30
-944.540
 70
    32
  0
VERTEX
  8
W62LXLIFT
 62
13
 10
1691.616
 20
-8337.976
 30
-944.561
 70
    32
  0
VERTEX
  8
W62LXLIFT
 62
13
 10
1682.996
 20
-8338.938
 30
-944.584
 70
    32
  0
VERTEX
  8
W62LXLIFT
 62
13
 10
1679.798
 20
-8331.732
 30
-944.584
 70
    32
  0
VERTEX
  8
W62LXLIFT
 62
13
 10
1680.940
 20
-8318.056
 30
-944.564
 70
    32
  0
VERTEX
  8
W62LXLIFT
 62
13
 10
1678.249
 20
-8297.181
 30
-944.546
 70
    32
  0
VERTEX
  8
W62LXLIFT
 62
13
 10
1679.729
 20
-8296.067
 30
-944.541
 70
    32
  0
VERTEX
  8
W62LXLIFT
 62
13
 10
1688.319
 20
-8289.263
 30
-944.511
 70
    32
  0
SEQEND
  8
W62LXLIFT
  0
POLYLINE
  8
W62LXLIFT
 62
1
 66
     1
 70
     9
  0
VERTEX
  8
W62LXLIFT
 62
1
 10
1577.011
 20
-8188.145
 30
-890.000
 70
    32
  0
VERTEX
  8
W62LXLIFT
 62
1
 10
1586.467
 20
-8204.253
 30
-890.000
 70
    32
  0
VERTEX
  8
W62LXLIFT
 62
1
 10
1593.822
 20
-8222.421
 30
-890.000
 70
    32
  0
VERTEX
  8
W62LXLIFT
 62
1
 10
1588.761
 20
-8226.401
 30
-890.000
 70
    32
  0
VERTEX
  8
W62LXLIFT
 62
1
 10
1580.724
 20
-8225.356
 30
-890.000
 70
    32
  0
VERTEX
  8
W62LXLIFT
 62
1
 10
1569.569
 20
-8233.844
 30
-890.000
 70
    32
  0
VERTEX
  8
W62LXLIFT
 62
1
 10
1565.393
 20
-8234.685
 30
-890.000
 70
    32
  0
VERTEX
  8
W62LXLIFT
 62
1
 10
1566.117
 20
-8225.901
 30
-890.000
 70
    32
  0
VERTEX
  8
W62LXLIFT
 62
1
 10
1561.297
 20
-8214.708
 30
-890.000
 70
    32
  0
VERTEX
  8
W62LXLIFT
 62
1
 10
1554.631
 20
-8201.259
 30
-890.000
 70
    32
  0
VERTEX
  8
W62LXLIFT
 62
1
 10
1568.843
 20
-8185.564
 30
-890.000
 70
    32
  0
SEQEND
  8
W62LXLIFT
  0
POLYLINE
  8
W62LXLIFT
 62
1
 66
     1
 70
     9
  0
VERTEX
  8
W62LXLIFT
 62
1
 10
1563.463
 20
-8219.665
 30
-882.000
 70
    32
  0
VERTEX
  8
W62LXLIFT
 62
1
 10
1555.929
 20
-8224.887
 30
-882.000
 70
    32
  0
VERTEX
  8
W62LXLIFT
 62
1
 10
1551.905
 20
-8219.314
 30
-882.000
 70
    32
  0
VERTEX
  8
W62LXLIFT
 62
1
 10
1548.155
 20
-8215.174
 30
-882.000
 70
    32
  0
VERTEX
  8
W62LXLIFT
 62
1
 10
1538.681
 20
-8211.687
 30
-882.000
 70
    32
  0
VERTEX
  8
W62LXLIFT
 62
1
 10
1538.564
 20
-8200.685
 30
-882.000
 70
    32
  0
VERTEX
  8
W62LXLIFT
 62
1
 10
1536.330
 20
-8198.493
 30
-882.000
 70
    32
  0
VERTEX
  8
W62LXLIFT
 62
1
 10
1522.081
 20
-8172.585
 30
-882.000
 70
    32
  0
VERTEX
  8
W62LXLIFT
 62
1
 10
1517.699
 20
-8154.770
 30
-882.000
 70
    32
  0
VERTEX
  8
W62LXLIFT
 62
1
 10
1518.839
 20
-8149.273
 30
-882.000
 70
    32
  0
VERTEX
  8
W62LXLIFT
 62
1
 10
1524.996
 20
-8143.198
 30
-882.000
 70
    32
  0
VERTEX
  8
W62LXLIFT
 62
1
 10
1530.210
 20
-8149.216
 30
-882.000
 70
    32
  0
VERTEX
  8
W62LXLIFT
 62
1
 10
1536.015
 20
-8160.569
 30
-882.000
 70
    32
  0
VERTEX
  8
W62LXLIFT
 62
1
 10
1561.489
 20
-8181.851
 30
-882.000
 70
    32
  0
VERTEX
  8
W62LXLIFT
 62
1
 10
1562.201
 20
-8193.076
 30
-882.000
 70
    32
  0
VERTEX
  8
W62LXLIFT
 62
1
 10
1569.618
 20
-8201.091
 30
-882.000
 70
    32
  0
VERTEX
  8
W62LXLIFT
 62
1
 10
1569.887
 20
-8207.636
 30
-882.000
 70
    32
  0
VERTEX
  8
W62LXLIFT
 62
1
 10
1570.985
 20
-8214.126
 30
-882.000
 70
    32
  0
SEQEND
  8
W62LXLIFT
  0
POLYLINE
  8
W62LXLIFT
 62
11
 66
     1
 70
     9
  0
VERTEX
  8
W62LXLIFT
 62
11
 10
1509.563
 20
-8059.618
 30
-904.000
 70
    32
  0
VERTEX
  8
W62LXLIFT
 62
11
 10
1497.183
 20
-8060.838
 30
-904.000
 70
    32
  0
VERTEX
  8
W62LXLIFT
 62
11
 10
1485.706
 20
-8052.167
 30
-904.000
 70
    32
  0
VERTEX
  8
W62LXLIFT
 62
11
 10
1465.523
 20
-8031.739
 30
-904.000
 70
    32
  0
VERTEX
  8
W62LXLIFT
 62
11
 10
1459.495
 20
-8022.938
 30
-904.000
 70
    32
  0
VERTEX
  8
W62LXLIFT
 62
11
 10
1454.107
 20
-8010.959
 30
-904.000
 70
    32
  0
VERTEX
  8
W62LXLIFT
 62
11
 10
1454.601
 20
-8003.211
 30
-904.000
 70
    32
  0
VERTEX
  8
W62LXLIFT
 62
11
 10
1455.316
 20
-7974.542
 30
-904.000
 70
    32
  0
VERTEX
  8
W62LXLIFT
 62
11
 10
1443.122
 20
-7959.759
 30
-904.000
 70
    32
  0
VERTEX
  8
W62LXLIFT
 62
11
 10
1430.603
 20
-7984.123
 30
-904.000
 70
    32
  0
VERTEX
  8
W62LXLIFT
 62
11
 10
1431.439
 20
-7991.454
 30
-904.000
 70
    32
  0
VERTEX
  8
W62LXLIFT
 62
11
 10
1423.904
 20
-8002.547
 30
-904.000
 70
    32
  0
VERTEX
  8
W62LXLIFT
 62
11
 10
1412.309
 20
-8007.113
 30
-904.000
 70
    32
  0
VERTEX
  8
W62LXLIFT
 62
11
 10
1410.872
 20
-8010.542
 30
-904.000
 70
    32
  0
VERTEX
  8
W62LXLIFT
 62
11
 10
1413.272
 20
-8017.179
 30
-904.000
 70
    32
  0
VERTEX
  8
W62LXLIFT
 62
11
 10
1434.277
 20
-8039.949
 30
-904.000
 70
    32
  0
VERTEX
  8
W62LXLIFT
 62
11
 10
1442.966
 20
-8056.502
 30
-904.000
 70
    32
  0
VERTEX
  8
W62LXLIFT
 62
11
 10
1456.003
 20
-8065.677
 30
-904.000
 70
    32
  0
VERTEX
  8
W62LXLIFT
 62
11
 10
1463.884
 20
-8076.292
 30
-904.000
 70
    32
  0
VERTEX
  8
W62LXLIFT
 62
11
 10
1468.994
 20
-8086.080
 30
-904.000
 70
    32
  0
VERTEX
  8
W62LXLIFT
 62
11
 10
1487.351
 20
-8085.762
 30
-904.000
 70
    32
  0
VERTEX
  8
W62LXLIFT
 62
11
 10
1491.511
 20
-8087.759
 30
-904.000
 70
    32
  0
VERTEX
  8
W62LXLIFT
 62
11
 10
1517.768
 20
-8079.564
 30
-904.000
 70
    32
  0
VERTEX
  8
W62LXLIFT
 62
11
 10
1515.105
 20
-8073.768
 30
-905.000
 70
    32
  0
VERTEX
  8
W62LXLIFT
 62
11
 10
1553.887
 20
-8054.466
 30
-905.000
 70
    32
  0
VERTEX
  8
W62LXLIFT
 62
11
 10
1569.520
 20
-8038.179
 30
-905.000
 70
    32
  0
VERTEX
  8
W62LXLIFT
 62
11
 10
1574.696
 20
-8034.659
 30
-905.000
 70
    32
  0
VERTEX
  8
W62LXLIFT
 62
11
 10
1581.708
 20
-8021.336
 30
-905.000
 70
    32
  0
VERTEX
  8
W62LXLIFT
 62
11
 10
1577.867
 20
-8015.414
 30
-905.000
 70
    32
  0
VERTEX
  8
W62LXLIFT
 62
11
 10
1574.511
 20
-8006.098
 30
-905.000
 70
    32
  0
VERTEX
  8
W62LXLIFT
 62
11
 10
1552.930
 20
-7986.895
 30
-905.000
 70
    32
  0
VERTEX
  8
W62LXLIFT
 62
11
 10
1545.093
 20
-7976.793
 30
-905.000
 70
    32
  0
VERTEX
  8
W62LXLIFT
 62
11
 10
1533.345
 20
-7975.274
 30
-905.000
 70
    32
  0
VERTEX
  8
W62LXLIFT
 62
11
 10
1524.716
 20
-7972.808
 30
-905.000
 70
    32
  0
VERTEX
  8
W62LXLIFT
 62
11
 10
1514.766
 20
-7974.231
 30
-905.000
 70
    32
  0
VERTEX
  8
W62LXLIFT
 62
11
 10
1509.257
 20
-7972.774
 30
-905.000
 70
    32
  0
VERTEX
  8
W62LXLIFT
 62
11
 10
1495.876
 20
-7978.630
 30
-905.000
 70
    32
  0
VERTEX
  8
W62LXLIFT
 62
11
 10
1491.818
 20
-8008.842
 30
-905.000
 70
    32
  0
VERTEX
  8
W62LXLIFT
 62
11
 10
1499.942
 20
-8014.825
 30
-905.000
 70
    32
  0
VERTEX
  8
W62LXLIFT
 62
11
 10
1503.690
 20
-8028.749
 30
-905.000
 70
    32
  0
VERTEX
  8
W62LXLIFT
 62
11
 10
1514.765
 20
-8046.949
 30
-905.000
 70
    32
  0
SEQEND
  8
W62LXLIFT
  0
POLYLINE
  8
W62LXLIFT
 62
11
 66
     1
 70
     9
  0
VERTEX
  8
W62LXLIFT
 62
11
 10
1485.933
 20
-8089.132
 30
-912.000
 70
    32
  0
VERTEX
  8
W62LXLIFT
 62
11
 10
1474.563
 20
-8077.773
 30
-912.000
 70
    32
  0
VERTEX
  8
W62LXLIFT
 62
11
 10
1461.294
 20
-8063.558
 30
-912.000
 70
    32
  0
VERTEX
  8
W62LXLIFT
 62
11
 10
1456.257
 20
-8059.858
 30
-912.000
 70
    32
  0
VERTEX
  8
W62LXLIFT
 62
11
 10
1436.870
 20
-8058.922
 30
-912.000
 70
    32
  0
VERTEX
  8
W62LXLIFT
 62
11
 10
1422.370
 20
-8020.478
 30
-912.000
 70
    32
  0
VERTEX
  8
W62LXLIFT
 62
11
 10
1415.720
 20
-8019.175
 30
-912.000
 70
    32
  0
VERTEX
  8
W62LXLIFT
 62
11
 10
1411.912
 20
-8009.317
 30
-912.000
 70
    32
  0
VERTEX
  8
W62LXLIFT
 62
11
 10
1425.697
 20
-7991.339
 30
-912.000
 70
    32
  0
VERTEX
  8
W62LXLIFT
 62
11
 10
1432.248
 20
-7973.039
 30
-912.000
 70
    32
  0
VERTEX
  8
W62LXLIFT
 62
11
 10
1426.508
 20
-7963.082
 30
-912.000
 70
    32
  0
VERTEX
  8
W62LXLIFT
 62
11
 10
1444.953
 20
-7953.456
 30
-912.000
 70
    32
  0
VERTEX
  8
W62LXLIFT
 62
11
 10
1456.021
 20
-7968.537
 30
-912.000
 70
    32
  0
VERTEX
  8
W62LXLIFT
 62
11
 10
1457.177
 20
-8000.037
 30
-912.000
 70
    32
  0
VERTEX
  8
W62LXLIFT
 62
11
 10
1457.776
 20
-8021.347
 30
-912.000
 70
    32
  0
VERTEX
  8
W62LXLIFT
 62
11
 10
1465.083
 20
-8030.469
 30
-912.000
 70
    32
  0
VERTEX
  8
W62LXLIFT
 62
11
 10
1475.428
 20
-8036.904
 30
-912.000
 70
    32
  0
VERTEX
  8
W62LXLIFT
 62
11
 10
1485.251
 20
-8042.195
 30
-912.000
 70
    32
  0
VERTEX
  8
W62LXLIFT
 62
11
 10
1491.365
 20
-8054.279
 30
-912.000
 70
    32
  0
VERTEX
  8
W62LXLIFT
 62
11
 10
1498.527
 20
-8064.384
 30
-912.000
 70
    32
  0
VERTEX
  8
W62LXLIFT
 62
11
 10
1512.088
 20
-8058.050
 30
-912.000
 70
    32
  0
VERTEX
  8
W62LXLIFT
 62
11
 10
1515.257
 20
-8053.624
 30
-912.000
 70
    32
  0
VERTEX
  8
W62LXLIFT
 62
11
 10
1519.887
 20
-8048.662
 30
-912.000
 70
    32
  0
VERTEX
  8
W62LXLIFT
 62
11
 10
1509.348
 20
-8036.360
 30
-912.000
 70
    32
  0
VERTEX
  8
W62LXLIFT
 62
11
 10
1510.393
 20
-8034.820
 30
-912.000
 70
    32
  0
VERTEX
  8
W62LXLIFT
 62
11
 10
1503.255
 20
-8023.713
 30
-912.000
 70
    32
  0
VERTEX
  8
W62LXLIFT
 62
11
 10
1499.669
 20
-8014.893
 30
-912.000
 70
    32
  0
VERTEX
  8
W62LXLIFT
 62
11
 10
1517.158
 20
-7994.389
 30
-912.000
 70
    32
  0
VERTEX
  8
W62LXLIFT
 62
11
 10
1541.043
 20
-7979.419
 30
-912.000
 70
    32
  0
VERTEX
  8
W62LXLIFT
 62
11
 10
1552.348
 20
-7980.660
 30
-912.000
 70
    32
  0
VERTEX
  8
W62LXLIFT
 62
11
 10
1561.001
 20
-7987.911
 30
-912.000
 70
    32
  0
VERTEX
  8
W62LXLIFT
 62
11
 10
1582.504
 20
-8008.813
 30
-912.000
 70
    32
  0
VERTEX
  8
W62LXLIFT
 62
11
 10
1584.260
 20
-8024.455
 30
-912.000
 70
    32
  0
VERTEX
  8
W62LXLIFT
 62
11
 10
1573.684
 20
-8040.274
 30
-912.000
 70
    32
  0
SEQEND
  8
W62LXLIFT
  0
POLYLINE
  8
W62LXLIFT
 62
6
 66
     1
 70
     9
  0
VERTEX
  8
W62LXLIFT
 62
6
 10
1585.040
 20
-8128.163
 30
-912.000
 70
    32
  0
VERTEX
  8
W62LXLIFT
 62
6
 10
1566.654
 20
-8115.007
 30
-912.000
 70
    32
  0
VERTEX
  8
W62LXLIFT
 62
6
 10
1548.346
 20
-8119.066
 30
-912.000
 70
    32
  0
VERTEX
  8
W62LXLIFT
 62
6
 10
1536.516
 20
-8126.850
 30
-912.000
 70
    32
  0
VERTEX
  8
W62LXLIFT
 62
6
 10
1533.663
 20
-8134.211
 30
-912.000
 70
    32
  0
VERTEX
  8
W62LXLIFT
 62
6
 10
1540.061
 20
-8173.522
 30
-912.000
 70
    32
  0
VERTEX
  8
W62LXLIFT
 62
6
 10
1525.533
 20
-8177.076
 30
-912.000
 70
    32
  0
VERTEX
  8
W62LXLIFT
 62
6
 10
1517.992
 20
-8175.013
 30
-912.000
 70
    32
  0
VERTEX
  8
W62LXLIFT
 62
6
 10
1512.459
 20
-8168.728
 30
-912.000
 70
    32
  0
VERTEX
  8
W62LXLIFT
 62
6
 10
1506.083
 20
-8144.049
 30
-912.000
 70
    32
  0
VERTEX
  8
W62LXLIFT
 62
6
 10
1503.158
 20
-8142.609
 30
-912.000
 70
    32
  0
VERTEX
  8
W62LXLIFT
 62
6
 10
1488.809
 20
-8142.422
 30
-912.000
 70
    32
  0
VERTEX
  8
W62LXLIFT
 62
6
 10
1489.354
 20
-8129.884
 30
-912.000
 70
    32
  0
VERTEX
  8
W62LXLIFT
 62
6
 10
1470.286
 20
-8104.008
 30
-912.000
 70
    32
  0
VERTEX
  8
W62LXLIFT
 62
6
 10
1479.488
 20
-8091.940
 30
-912.000
 70
    32
  0
VERTEX
  8
W62LXLIFT
 62
6
 10
1485.933
 20
-8089.132
 30
-912.000
 70
    32
  0
VERTEX
  8
W62LXLIFT
 62
6
 10
1573.684
 20
-8040.274
 30
-912.000
 70
    32
  0
VERTEX
  8
W62LXLIFT
 62
6
 10
1591.688
 20
-8024.744
 30
-912.000
 70
    32
  0
VERTEX
  8
W62LXLIFT
 62
6
 10
1595.005
 20
-8025.237
 30
-912.000
 70
    32
  0
VERTEX
  8
W62LXLIFT
 62
6
 10
1598.851
 20
-8031.459
 30
-912.000
 70
    32
  0
VERTEX
  8
W62LXLIFT
 62
6
 10
1584.615
 20
-8045.289
 30
-912.000
 70
    32
  0
VERTEX
  8
W62LXLIFT
 62
6
 10
1588.177
 20
-8052.160
 30
-912.000
 70
    32
  0
VERTEX
  8
W62LXLIFT
 62
6
 10
1592.566
 20
-8052.624
 30
-912.000
 70
    32
  0
VERTEX
  8
W62LXLIFT
 62
6
 10
1604.215
 20
-8070.554
 30
-912.000
 70
    32
  0
VERTEX
  8
W62LXLIFT
 62
6
 10
1592.220
 20
-8079.444
 30
-912.000
 70
    32
  0
VERTEX
  8
W62LXLIFT
 62
6
 10
1586.668
 20
-8088.915
 30
-912.000
 70
    32
  0
VERTEX
  8
W62LXLIFT
 62
6
 10
1588.901
 20
-8113.167
 30
-912.000
 70
    32
  0
SEQEND
  8
W62LXLIFT
  0
POLYLINE
  8
W62LXLIFT
 62
11
 66
     1
 70
     9
  0
VERTEX
  8
W62LXLIFT
 62
11
 10
1528.804
 20
-8060.416
 30
-922.000
 70
    32
  0
VERTEX
  8
W62LXLIFT
 62
11
 10
1523.062
 20
-8063.276
 30
-922.000
 70
    32
  0
VERTEX
  8
W62LXLIFT
 62
11
 10
1502.608
 20
-8066.343
 30
-922.000
 70
    32
  0
VERTEX
  8
W62LXLIFT
 62
11
 10
1491.543
 20
-8046.681
 30
-922.000
 70
    32
  0
VERTEX
  8
W62LXLIFT
 62
11
 10
1488.284
 20
-8045.023
 30
-922.000
 70
    32
  0
VERTEX
  8
W62LXLIFT
 62
11
 10
1482.496
 20
-8035.213
 30
-922.000
 70
    32
  0
VERTEX
  8
W62LXLIFT
 62
11
 10
1476.352
 20
-8038.569
 30
-922.000
 70
    32
  0
VERTEX
  8
W62LXLIFT
 62
11
 10
1481.228
 20
-8046.217
 30
-922.000
 70
    32
  0
VERTEX
  8
W62LXLIFT
 62
11
 10
1482.678
 20
-8080.640
 30
-922.000
 70
    32
  0
VERTEX
  8
W62LXLIFT
 62
11
 10
1488.097
 20
-8088.438
 30
-922.000
 70
    32
  0
VERTEX
  8
W62LXLIFT
 62
11
 10
1505.161
 20
-8086.084
 30
-922.000
 70
    32
  0
VERTEX
  8
W62LXLIFT
 62
11
 10
1511.179
 20
-8083.905
 30
-922.000
 70
    32
  0
VERTEX
  8
W62LXLIFT
 62
11
 10
1521.573
 20
-8074.873
 30
-922.000
 70
    32
  0
VERTEX
  8
W62LXLIFT
 62
11
 10
1532.373
 20
-8065.778
 30
-922.000
 70
    32
  0
VERTEX
  8
W62LXLIFT
 62
11
 10
1539.648
 20
-8063.112
 30
-922.000
 70
    32
  0
VERTEX
  8
W62LXLIFT
 62
11
 10
1553.632
 20
-8061.899
 30
-922.000
 70
    32
  0
VERTEX
  8
W62LXLIFT
 62
11
 10
1561.431
 20
-8058.432
 30
-922.000
 70
    32
  0
VERTEX
  8
W62LXLIFT
 62
11
 10
1573.304
 20
-8065.254
 30
-922.000
 70
    32
  0
VERTEX
  8
W62LXLIFT
 62
11
 10
1578.090
 20
-8064.072
 30
-922.000
 70
    32
  0
VERTEX
  8
W62LXLIFT
 62
11
 10
1594.952
 20
-8060.238
 30
-922.000
 70
    32
  0
VERTEX
  8
W62LXLIFT
 62
11
 10
1594.891
 20
-8041.842
 30
-922.000
 70
    32
  0
VERTEX
  8
W62LXLIFT
 62
11
 10
1593.688
 20
-8033.275
 30
-922.000
 70
    32
  0
VERTEX
  8
W62LXLIFT
 62
11
 10
1582.776
 20
-8011.874
 30
-922.000
 70
    32
  0
VERTEX
  8
W62LXLIFT
 62
11
 10
1579.720
 20
-8002.693
 30
-922.000
 70
    32
  0
VERTEX
  8
W62LXLIFT
 62
11
 10
1570.942
 20
-8002.854
 30
-922.000
 70
    32
  0
VERTEX
  8
W62LXLIFT
 62
11
 10
1560.145
 20
-7992.868
 30
-922.000
 70
    32
  0
VERTEX
  8
W62LXLIFT
 62
11
 10
1548.939
 20
-8001.076
 30
-922.000
 70
    32
  0
VERTEX
  8
W62LXLIFT
 62
11
 10
1553.408
 20
-8008.910
 30
-922.000
 70
    32
  0
VERTEX
  8
W62LXLIFT
 62
11
 10
1553.302
 20
-8011.915
 30
-922.000
 70
    32
  0
VERTEX
  8
W62LXLIFT
 62
11
 10
1536.826
 20
-8033.694
 30
-922.000
 70
    32
  0
VERTEX
  8
W62LXLIFT
 62
11
 10
1537.547
 20
-8045.647
 30
-922.000
 70
    32
  0
VERTEX
  8
W62LXLIFT
 62
11
 10
1537.498
 20
-8053.384
 30
-922.000
 70
    32
  0
SEQEND
  8
W62LXLIFT
  0
POLYLINE
  8
W62LXLIFT
 62
11
 66
     1
 70
     9
  0
VERTEX
  8
W62LXLIFT
 62
11
 10
1491.187
 20
-8041.539
 30
-944.439
 70
    32
  0
VERTEX
  8
W62LXLIFT
 62
11
 10
1491.541
 20
-8045.349
 30
-944.439
 70
    32
  0
VERTEX
  8
W62LXLIFT
 62
11
 10
1507.068
 20
-8053.440
 30
-944.488
 70
    32
  0
VERTEX
  8
W62LXLIFT
 62
11
 10
1506.767
 20
-8063.026
 30
-944.484
 70
    32
  0
VERTEX
  8
W62LXLIFT
 62
11
 10
1512.125
 20
-8071.213
 30
-944.499
 70
    32
  0
VERTEX
  8
W62LXLIFT
 62
11
 10
1521.531
 20
-8075.793
 30
-944.529
 70
    32
  0
VERTEX
  8
W62LXLIFT
 62
11
 10
1523.656
 20
-8083.302
 30
-944.534
 70
    32
  0
VERTEX
  8
W62LXLIFT
 62
11
 10
1532.550
 20
-8100.917
 30
-944.558
 70
    32
  0
VERTEX
  8
W62LXLIFT
 62
11
 10
1533.067
 20
-8103.870
 30
-944.558
 70
    32
  0
VERTEX
  8
W62LXLIFT
 62
11
 10
1530.252
 20
-8108.663
 30
-944.548
 70
    32
  0
VERTEX
  8
W62LXLIFT
 62
11
 10
1530.975
 20
-8117.873
 30
-944.547
 70
    32
  0
VERTEX
  8
W62LXLIFT
 62
11
 10
1526.888
 20
-8117.349
 30
-944.534
 70
    32
  0
VERTEX
  8
W62LXLIFT
 62
11
 10
1500.270
 20
-8104.865
 30
-944.450
 70
    32
  0
VERTEX
  8
W62LXLIFT
 62
11
 10
1492.540
 20
-8088.804
 30
-944.430
 70
    32
  0
VERTEX
  8
W62LXLIFT
 62
11
 10
1477.711
 20
-8074.375
 30
-944.385
 70
    32
  0
VERTEX
  8
W62LXLIFT
 62
11
 10
1480.558
 20
-8060.072
 30
-944.399
 70
    32
  0
VERTEX
  8
W62LXLIFT
 62
11
 10
1480.365
 20
-8056.127
 30
-944.399
 70
    32
  0
VERTEX
  8
W62LXLIFT
 62
11
 10
1477.031
 20
-8051.283
 30
-944.390
 70
    32
  0
VERTEX
  8
W62LXLIFT
 62
11
 10
1475.751
 20
-8042.981
 30
-944.388
 70
    32
  0
VERTEX
  8
W62LXLIFT
 62
11
 10
1471.320
 20
-8034.589
 30
-944.376
 70
    32
  0
VERTEX
  8
W62LXLIFT
 62
11
 10
1475.777
 20
-8030.171
 30
-944.392
 70
    32
  0
VERTEX
  8
W62LXLIFT
 62
11
 10
1489.671
 20
-8034.752
 30
-944.436
 70
    32
  0
SEQEND
  8
W62LXLIFT
  0
POLYLINE
  8
W62LXLIFT
 62
11
 66
     1
 70
     9
  0
VERTEX
  8
W62LXLIFT
 62
11
 10
1550.964
 20
-7990.624
 30
-944.501
 70
    32
  0
VERTEX
  8
W62LXLIFT
 62
11
 10
1525.524
 20
-7976.065
 30
-944.548
 70
    32
  0
VERTEX
  8
W62LXLIFT
 62
11
 10
1518.216
 20
-7968.459
 30
-944.550
 70
    32
  0
VERTEX
  8
W62LXLIFT
 62
11
 10
1514.566
 20
-7957.297
 30
-944.541
 70
    32
  0
VERTEX
  8
W62LXLIFT
 62
11
 10
1516.912
 20
-7954.635
 30
-944.544
 70
    32
  0
VERTEX
  8
W62LXLIFT
 62
11
 10
1528.967
 20
-7954.960
 30
-944.514
 70
    32
  0
VERTEX
  8
W62LXLIFT
 62
11
 10
1539.427
 20
-7965.006
 30
-944.499
 70
    32
  0
VERTEX
  8
W62LXLIFT
 62
11
 10
1556.127
 20
-7986.907
 30
-944.483
 70
    32
  0
VERTEX
  8
W62LXLIFT
 62
11
 10
1560.187
 20
-7993.059
 30
-944.480
 70
    32
  0
VERTEX
  8
W62LXLIFT
 62
11
 10
1572.433
 20
-7995.819
 30
-944.452
 70
    32
  0
VERTEX
  8
W62LXLIFT
 62
11
 10
1552.399
 20
-8007.068
 30
-944.517
 70
    32
  0
VERTEX
  8
W62LXLIFT
 62
11
 10
1554.084
 20
-7997.384
 30
-944.501
 70
    32
  0
SEQEND
  8
W62LXLIFT
  0
POLYLINE
  8
W62LXLIFT
 62
4
 66
     1
 70
     9
  0
VERTEX
  8
W62LXLIFT
 62
4
 10
1601.170
 20
-7208.312
 30
-943.423
 70
    32
  0
VERTEX
  8
W62LXLIFT
 62
4
 10
1602.428
 20
-7204.365
 30
-943.415
 70
    32
  0
VERTEX
  8
W62LXLIFT
 62
4
 10
1601.521
 20
-7201.464
 30
-943.414
 70
    32
  0
VERTEX
  8
W62LXLIFT
 62
4
 10
1605.724
 20
-7198.711
 30
-943.400
 70
    32
  0
VERTEX
  8
W62LXLIFT
 62
4
 10
1610.604
 20
-7200.400
 30
-943.389
 70
    32
  0
VERTEX
  8
W62LXLIFT
 62
4
 10
1614.781
 20
-7205.128
 30
-943.384
 70
    32
  0
VERTEX
  8
W62LXLIFT
 62
4
 10
1615.473
 20
-7211.159
 30
-943.390
 70
    32
  0
VERTEX
  8
W62LXLIFT
 62
4
 10
1614.988
 20
-7216.713
 30
-943.398
 70
    32
  0
VERTEX
  8
W62LXLIFT
 62
4
 10
1617.031
 20
-7223.318
 30
-943.400
 70
    32
  0
VERTEX
  8
W62LXLIFT
 62
4
 10
1648.542
 20
-7298.142
 30
-943.410
 70
    32
  0
VERTEX
  8
W62LXLIFT
 62
4
 10
1651.441
 20
-7302.246
 30
-943.408
 70
    32
  0
VERTEX
  8
W62LXLIFT
 62
4
 10
1661.956
 20
-7331.017
 30
-943.416
 70
    32
  0
VERTEX
  8
W62LXLIFT
 62
4
 10
1670.356
 20
-7345.556
 30
-943.412
 70
    32
  0
VERTEX
  8
W62LXLIFT
 62
4
 10
1678.004
 20
-7349.383
 30
-943.397
 70
    32
  0
VERTEX
  8
W62LXLIFT
 62
4
 10
1676.354
 20
-7356.719
 30
-943.410
 70
    32
  0
VERTEX
  8
W62LXLIFT
 62
4
 10
1679.102
 20
-7362.951
 30
-943.411
 70
    32
  0
VERTEX
  8
W62LXLIFT
 62
4
 10
1679.534
 20
-7375.024
 30
-943.424
 70
    32
  0
VERTEX
  8
W62LXLIFT
 62
4
 10
1676.634
 20
-7378.596
 30
-943.436
 70
    32
  0
VERTEX
  8
W62LXLIFT
 62
4
 10
1672.469
 20
-7380.151
 30
-943.448
 70
    32
  0
VERTEX
  8
W62LXLIFT
 62
4
 10
1667.530
 20
-7369.759
 30
-943.449
 70
    32
  0
VERTEX
  8
W62LXLIFT
 62
4
 10
1663.109
 20
-7364.104
 30
-943.453
 70
    32
  0
VERTEX
  8
W62LXLIFT
 62
4
 10
1658.123
 20
-7349.168
 30
-943.448
 70
    32
  0
VERTEX
  8
W62LXLIFT
 62
4
 10
1654.235
 20
-7344.149
 30
-943.452
 70
    32
  0
VERTEX
  8
W62LXLIFT
 62
4
 10
1652.247
 20
-7337.241
 30
-943.448
 70
    32
  0
VERTEX
  8
W62LXLIFT
 62
4
 10
1645.392
 20
-7331.087
 30
-943.458
 70
    32
  0
VERTEX
  8
W62LXLIFT
 62
4
 10
1642.039
 20
-7317.692
 30
-943.451
 70
    32
  0
VERTEX
  8
W62LXLIFT
 62
4
 10
1640.316
 20
-7311.460
 30
-943.448
 70
    32
  0
VERTEX
  8
W62LXLIFT
 62
4
 10
1639.278
 20
-7305.282
 30
-943.443
 70
    32
  0
VERTEX
  8
W62LXLIFT
 62
4
 10
1631.314
 20
-7293.000
 30
-943.448
 70
    32
  0
VERTEX
  8
W62LXLIFT
 62
4
 10
1629.934
 20
-7281.014
 30
-943.437
 70
    32
  0
VERTEX
  8
W62LXLIFT
 62
4
 10
1626.749
 20
-7269.985
 30
-943.432
 70
    32
  0
VERTEX
  8
W62LXLIFT
 62
4
 10
1621.166
 20
-7263.036
 30
-943.438
 70
    32
  0
VERTEX
  8
W62LXLIFT
 62
4
 10
1616.510
 20
-7254.348
 30
-943.439
 70
    32
  0
VERTEX
  8
W62LXLIFT
 62
4
 10
1616.252
 20
-7251.398
 30
-943.437
 70
    32
  0
VERTEX
  8
W62LXLIFT
 62
4
 10
1613.525
 20
-7245.123
 30
-943.436
 70
    32
  0
VERTEX
  8
W62LXLIFT
 62
4
 10
1607.571
 20
-7238.869
 30
-943.444
 70
    32
  0
VERTEX
  8
W62LXLIFT
 62
4
 10
1603.072
 20
-7228.881
 30
-943.443
 70
    32
  0
VERTEX
  8
W62LXLIFT
 62
4
 10
1599.773
 20
-7222.256
 30
-943.443
 70
    32
  0
SEQEND
  8
W62LXLIFT
  0
POLYLINE
  8
W62LXLIFT
 62
1
 66
     1
 70
     9
  0
VERTEX
  8
W62LXLIFT
 62
1
 10
1602.170
 20
-7207.312
 30
-933.423
 70
    32
  0
VERTEX
  8
W62LXLIFT
 62
1
 10
1603.428
 20
-7203.365
 30
-933.415
 70
    32
  0
VERTEX
  8
W62LXLIFT
 62
1
 10
1602.521
 20
-7200.464
 30
-933.414
 70
    32
  0
VERTEX
  8
W62LXLIFT
 62
1
 10
1606.724
 20
-7197.711
 30
-933.400
 70
    32
  0
VERTEX
  8
W62LXLIFT
 62
1
 10
1611.604
 20
-7199.400
 30
-933.389
 70
    32
  0
VERTEX
  8
W62LXLIFT
 62
1
 10
1615.781
 20
-7204.128
 30
-933.384
 70
    32
  0
VERTEX
  8
W62LXLIFT
 62
1
 10
1616.473
 20
-7210.159
 30
-933.390
 70
    32
  0
VERTEX
  8
W62LXLIFT
 62
1
 10
1615.988
 20
-7215.713
 30
-933.398
 70
    32
  0
VERTEX
  8
W62LXLIFT
 62
1
 10
1618.031
 20
-7222.318
 30
-933.400
 70
    32
  0
VERTEX
  8
W62LXLIFT
 62
1
 10
1649.542
 20
-7297.142
 30
-933.410
 70
    32
  0
VERTEX
  8
W62LXLIFT
 62
1
 10
1652.441
 20
-7301.246
 30
-933.408
 70
    32
  0
VERTEX
  8
W62LXLIFT
 62
1
 10
1662.956
 20
-7330.017
 30
-933.416
 70
    32
  0
VERTEX
  8
W62LXLIFT
 62
1
 10
1671.356
 20
-7344.556
 30
-933.412
 70
    32
  0
VERTEX
  8
W62LXLIFT
 62
1
 10
1679.004
 20
-7348.383
 30
-933.397
 70
    32
  0
VERTEX
  8
W62LXLIFT
 62
1
 10
1677.354
 20
-7355.719
 30
-933.410
 70
    32
  0
VERTEX
  8
W62LXLIFT
 62
1
 10
1680.102
 20
-7361.951
 30
-933.411
 70
    32
  0
VERTEX
  8
W62LXLIFT
 62
1
 10
1680.534
 20
-7374.024
 30
-933.424
 70
    32
  0
VERTEX
  8
W62LXLIFT
 62
1
 10
1677.634
 20
-7377.596
 30
-933.436
 70
    32
  0
VERTEX
  8
W62LXLIFT
 62
1
 10
1673.469
 20
-7379.151
 30
-933.448
 70
    32
  0
VERTEX
  8
W62LXLIFT
 62
1
 10
1668.530
 20
-7368.759
 30
-933.449
 70
    32
  0
VERTEX
  8
W62LXLIFT
 62
1
 10
1664.109
 20
-7363.104
 30
-933.453
 70
    32
  0
VERTEX
  8
W62LXLIFT
 62
1
 10
1659.123
 20
-7348.168
 30
-933.448
 70
    32
  0
VERTEX
  8
W62LXLIFT
 62
1
 10
1655.235
 20
-7343.149
 30
-933.452
 70
    32
  0
VERTEX
  8
W62LXLIFT
 62
1
 10
1653.247
 20
-7336.241
 30
-933.448
 70
    32
  0
VERTEX
  8
W62LXLIFT
 62
1
 10
1646.392
 20
-7330.087
 30
-933.458
 70
    32
  0
VERTEX
  8
W62LXLIFT
 62
1
 10
1643.039
 20
-7316.692
 30
-933.451
 70
    32
  0
VERTEX
  8
W62LXLIFT
 62
1
 10
1641.316
 20
-7310.460
 30
-933.448
 70
    32
  0
VERTEX
  8
W62LXLIFT
 62
1
 10
1640.278
 20
-7304.282
 30
-933.443
 70
    32
  0
VERTEX
  8
W62LXLIFT
 62
1
 10
1632.314
 20
-7292.000
 30
-933.448
 70
    32
  0
VERTEX
  8
W62LXLIFT
 62
1
 10
1630.934
 20
-7280.014
 30
-933.437
 70
    32
  0
VERTEX
  8
W62LXLIFT
 62
1
 10
1627.749
 20
-7268.985
 30
-933.432
 70
    32
  0
VERTEX
  8
W62LXLIFT
 62
1
 10
1622.166
 20
-7262.036
 30
-933.438
 70
    32
  0
VERTEX
  8
W62LXLIFT
 62
1
 10
1617.510
 20
-7253.348
 30
-933.439
 70
    32
  0
VERTEX
  8
W62LXLIFT
 62
1
 10
1617.252
 20
-7250.398
 30
-933.437
 70
    32
  0
VERTEX
  8
W62LXLIFT
 62
1
 10
1614.525
 20
-7244.123
 30
-933.436
 70
    32
  0
VERTEX
  8
W62LXLIFT
 62
1
 10
1608.571
 20
-7237.869
 30
-933.444
 70
    32
  0
VERTEX
  8
W62LXLIFT
 62
1
 10
1604.072
 20
-7227.881
 30
-933.443
 70
    32
  0
VERTEX
  8
W62LXLIFT
 62
1
 10
1600.773
 20
-7221.256
 30
-933.443
 70
    32
  0
SEQEND
  8
W62LXLIFT
  0
POINT
  8
W62LXLIFT
 62
6
 10
1568.836
 20
-7314.216
 30
-798.253
  0
POINT
  8
W62LXLIFT
 62
6
 10
1639.383
 20
-7292.805
 30
-933.432
  0
LINE
  8
W62LXLIFT
 62
4
 10
1568.836
 20
-7314.216
 30
-798.253
 11
1639.383
 21
-7292.805
 31
-933.432
  0
POLYLINE
  8
W62LXLIFT
 62
1
 66
     1
 70
     9
  0
VERTEX
  8
W62LXLIFT
 62
1
 10
1324.023
 20
-7137.874
 30
-794.000
 70
    32
  0
VERTEX
  8
W62LXLIFT
 62
1
 10
1326.080
 20
-7146.194
 30
-794.000
 70
    32
  0
VERTEX
  8
W62LXLIFT
 62
1
 10
1330.174
 20
-7155.228
 30
-794.000
 70
    32
  0
VERTEX
  8
W62LXLIFT
 62
1
 10
1332.838
 20
-7159.846
 30
-794.000
 70
    32
  0
VERTEX
  8
W62LXLIFT
 62
1
 10
1333.435
 20
-7179.774
 30
-794.000
 70
    32
  0
VERTEX
  8
W62LXLIFT
 62
1
 10
1339.693
 20
-7198.793
 30
-794.000
 70
    32
  0
VERTEX
  8
W62LXLIFT
 62
1
 10
1347.887
 20
-7219.143
 30
-794.000
 70
    32
  0
VERTEX
  8
W62LXLIFT
 62
1
 10
1348.483
 20
-7222.852
 30
-794.000
 70
    32
  0
VERTEX
  8
W62LXLIFT
 62
1
 10
1345.363
 20
-7220.630
 30
-794.000
 70
    32
  0
VERTEX
  8
W62LXLIFT
 62
1
 10
1343.388
 20
-7216.062
 30
-794.000
 70
    32
  0
VERTEX
  8
W62LXLIFT
 62
1
 10
1325.703
 20
-7194.472
 30
-794.000
 70
    32
  0
VERTEX
  8
W62LXLIFT
 62
1
 10
1319.086
 20
-7191.170
 30
-794.000
 70
    32
  0
VERTEX
  8
W62LXLIFT
 62
1
 10
1306.379
 20
-7166.658
 30
-794.000
 70
    32
  0
VERTEX
  8
W62LXLIFT
 62
1
 10
1307.951
 20
-7154.752
 30
-794.000
 70
    32
  0
VERTEX
  8
W62LXLIFT
 62
1
 10
1303.210
 20
-7141.937
 30
-794.000
 70
    32
  0
VERTEX
  8
W62LXLIFT
 62
1
 10
1315.276
 20
-7134.032
 30
-794.000
 70
    32
  0
SEQEND
  8
W62LXLIFT
  0
POINT
  8
W62LXLIFT
 62
3
 10
1260.187
 20
-6627.421
 30
-795.785
  0
POINT
  8
W62LXLIFT
 62
3
 10
1328.977
 20
-6589.060
 30
-905.000
  0
LINE
  8
W62LXLIFT
 62
3
 10
1260.187
 20
-6627.421
 30
-795.785
 11
1328.977
 21
-6589.060
 31
-905.000
  0
POLYLINE
  8
W62LXLIFT
 62
1
 66
     1
 70
     9
  0
VERTEX
  8
W62LXLIFT
 62
1
 10
1121.500
 20
-6569.512
 30
-824.000
 70
    32
  0
VERTEX
  8
W62LXLIFT
 62
1
 10
1128.624
 20
-6549.399
 30
-824.000
 70
    32
  0
VERTEX
  8
W62LXLIFT
 62
1
 10
1131.993
 20
-6531.136
 30
-824.000
 70
    32
  0
VERTEX
  8
W62LXLIFT
 62
1
 10
1129.266
 20
-6510.890
 30
-824.000
 70
    32
  0
VERTEX
  8
W62LXLIFT
 62
1
 10
1115.255
 20
-6495.123
 30
-824.000
 70
    32
  0
VERTEX
  8
W62LXLIFT
 62
1
 10
1099.540
 20
-6479.397
 30
-824.000
 70
    32
  0
VERTEX
  8
W62LXLIFT
 62
1
 10
1089.665
 20
-6475.487
 30
-824.000
 70
    32
  0
VERTEX
  8
W62LXLIFT
 62
1
 10
1077.005
 20
-6470.124
 30
-824.000
 70
    32
  0
VERTEX
  8
W62LXLIFT
 62
1
 10
1071.349
 20
-6465.004
 30
-824.000
 70
    32
  0
VERTEX
  8
W62LXLIFT
 62
1
 10
1070.297
 20
-6456.660
 30
-824.000
 70
    32
  0
VERTEX
  8
W62LXLIFT
 62
1
 10
1066.526
 20
-6449.201
 30
-824.000
 70
    32
  0
VERTEX
  8
W62LXLIFT
 62
1
 10
1070.517
 20
-6445.879
 30
-824.000
 70
    32
  0
VERTEX
  8
W62LXLIFT
 62
1
 10
1080.835
 20
-6445.458
 30
-824.000
 70
    32
  0
VERTEX
  8
W62LXLIFT
 62
1
 10
1094.166
 20
-6461.934
 30
-824.000
 70
    32
  0
VERTEX
  8
W62LXLIFT
 62
1
 10
1099.513
 20
-6466.627
 30
-824.000
 70
    32
  0
VERTEX
  8
W62LXLIFT
 62
1
 10
1109.659
 20
-6473.159
 30
-824.000
 70
    32
  0
VERTEX
  8
W62LXLIFT
 62
1
 10
1122.522
 20
-6480.001
 30
-824.000
 70
    32
  0
VERTEX
  8
W62LXLIFT
 62
1
 10
1129.014
 20
-6486.576
 30
-824.000
 70
    32
  0
VERTEX
  8
W62LXLIFT
 62
1
 10
1137.947
 20
-6498.322
 30
-824.000
 70
    32
  0
VERTEX
  8
W62LXLIFT
 62
1
 10
1143.752
 20
-6511.138
 30
-824.000
 70
    32
  0
VERTEX
  8
W62LXLIFT
 62
1
 10
1145.387
 20
-6529.574
 30
-824.000
 70
    32
  0
VERTEX
  8
W62LXLIFT
 62
1
 10
1144.026
 20
-6542.373
 30
-824.000
 70
    32
  0
VERTEX
  8
W62LXLIFT
 62
1
 10
1139.204
 20
-6558.327
 30
-824.000
 70
    32
  0
VERTEX
  8
W62LXLIFT
 62
1
 10
1131.647
 20
-6572.900
 30
-824.000
 70
    32
  0
SEQEND
  8
W62LXLIFT
  0
POLYLINE
  8
W62LXLIFT
 62
1
 66
     1
 70
     9
  0
VERTEX
  8
W62LXLIFT
 62
1
 10
1373.960
 20
-6706.364
 30
-905.000
 70
    32
  0
VERTEX
  8
W62LXLIFT
 62
1
 10
1368.689
 20
-6695.359
 30
-905.000
 70
    32
  0
VERTEX
  8
W62LXLIFT
 62
1
 10
1375.136
 20
-6680.082
 30
-905.000
 70
    32
  0
VERTEX
  8
W62LXLIFT
 62
1
 10
1367.825
 20
-6669.240
 30
-905.000
 70
    32
  0
VERTEX
  8
W62LXLIFT
 62
1
 10
1373.140
 20
-6657.359
 30
-905.000
 70
    32
  0
VERTEX
  8
W62LXLIFT
 62
1
 10
1362.077
 20
-6641.866
 30
-905.000
 70
    32
  0
VERTEX
  8
W62LXLIFT
 62
1
 10
1357.337
 20
-6620.887
 30
-905.000
 70
    32
  0
VERTEX
  8
W62LXLIFT
 62
1
 10
1344.323
 20
-6621.987
 30
-905.000
 70
    32
  0
VERTEX
  8
W62LXLIFT
 62
1
 10
1334.800
 20
-6600.650
 30
-905.000
 70
    32
  0
VERTEX
  8
W62LXLIFT
 62
1
 10
1341.747
 20
-6585.771
 30
-905.000
 70
    32
  0
VERTEX
  8
W62LXLIFT
 62
1
 10
1338.923
 20
-6578.948
 30
-905.000
 70
    32
  0
VERTEX
  8
W62LXLIFT
 62
1
 10
1351.082
 20
-6559.592
 30
-905.000
 70
    32
  0
VERTEX
  8
W62LXLIFT
 62
1
 10
1354.521
 20
-6544.631
 30
-905.000
 70
    32
  0
VERTEX
  8
W62LXLIFT
 62
1
 10
1353.451
 20
-6535.585
 30
-905.000
 70
    32
  0
VERTEX
  8
W62LXLIFT
 62
1
 10
1345.275
 20
-6511.454
 30
-905.000
 70
    32
  0
VERTEX
  8
W62LXLIFT
 62
1
 10
1344.827
 20
-6502.826
 30
-905.000
 70
    32
  0
VERTEX
  8
W62LXLIFT
 62
1
 10
1347.696
 20
-6481.480
 30
-905.000
 70
    32
  0
VERTEX
  8
W62LXLIFT
 62
1
 10
1342.780
 20
-6477.767
 30
-905.000
 70
    32
  0
VERTEX
  8
W62LXLIFT
 62
1
 10
1340.273
 20
-6467.915
 30
-905.000
 70
    32
  0
VERTEX
  8
W62LXLIFT
 62
1
 10
1330.013
 20
-6469.852
 30
-905.000
 70
    32
  0
VERTEX
  8
W62LXLIFT
 62
1
 10
1328.836
 20
-6499.152
 30
-905.000
 70
    32
  0
VERTEX
  8
W62LXLIFT
 62
1
 10
1326.663
 20
-6505.771
 30
-905.000
 70
    32
  0
VERTEX
  8
W62LXLIFT
 62
1
 10
1323.103
 20
-6513.165
 30
-905.000
 70
    32
  0
VERTEX
  8
W62LXLIFT
 62
1
 10
1321.815
 20
-6533.705
 30
-905.000
 70
    32
  0
VERTEX
  8
W62LXLIFT
 62
1
 10
1321.495
 20
-6563.903
 30
-905.000
 70
    32
  0
VERTEX
  8
W62LXLIFT
 62
1
 10
1317.935
 20
-6572.806
 30
-905.000
 70
    32
  0
VERTEX
  8
W62LXLIFT
 62
1
 10
1313.446
 20
-6583.881
 30
-905.000
 70
    32
  0
VERTEX
  8
W62LXLIFT
 62
1
 10
1313.823
 20
-6589.541
 30
-905.000
 70
    32
  0
VERTEX
  8
W62LXLIFT
 62
1
 10
1315.748
 20
-6612.315
 30
-905.000
 70
    32
  0
VERTEX
  8
W62LXLIFT
 62
1
 10
1314.462
 20
-6620.025
 30
-905.000
 70
    32
  0
VERTEX
  8
W62LXLIFT
 62
1
 10
1309.637
 20
-6622.931
 30
-905.000
 70
    32
  0
VERTEX
  8
W62LXLIFT
 62
1
 10
1296.328
 20
-6625.428
 30
-905.000
 70
    32
  0
VERTEX
  8
W62LXLIFT
 62
1
 10
1296.572
 20
-6629.243
 30
-905.000
 70
    32
  0
VERTEX
  8
W62LXLIFT
 62
1
 10
1318.377
 20
-6627.471
 30
-905.000
 70
    32
  0
VERTEX
  8
W62LXLIFT
 62
1
 10
1320.661
 20
-6630.367
 30
-905.000
 70
    32
  0
VERTEX
  8
W62LXLIFT
 62
1
 10
1324.975
 20
-6631.276
 30
-905.000
 70
    32
  0
VERTEX
  8
W62LXLIFT
 62
1
 10
1328.653
 20
-6659.373
 30
-905.000
 70
    32
  0
VERTEX
  8
W62LXLIFT
 62
1
 10
1339.992
 20
-6676.611
 30
-905.000
 70
    32
  0
VERTEX
  8
W62LXLIFT
 62
1
 10
1361.631
 20
-6698.459
 30
-905.000
 70
    32
  0
VERTEX
  8
W62LXLIFT
 62
1
 10
1367.351
 20
-6710.545
 30
-905.000
 70
    32
  0
SEQEND
  8
W62LXLIFT
  0
POLYLINE
  8
W62LXLIFT
 62
8
 66
     1
 70
     9
  0
VERTEX
  8
W62LXLIFT
 62
8
 10
1176.005
 20
-6067.972
 30
-941.552
 70
    32
  0
VERTEX
  8
W62LXLIFT
 62
8
 10
1161.072
 20
-6049.792
 30
-941.577
 70
    32
  0
VERTEX
  8
W62LXLIFT
 62
8
 10
1149.663
 20
-6041.382
 30
-941.600
 70
    32
  0
VERTEX
  8
W62LXLIFT
 62
8
 10
1143.866
 20
-6033.151
 30
-941.609
 70
    32
  0
VERTEX
  8
W62LXLIFT
 62
8
 10
1154.702
 20
-6022.607
 30
-941.577
 70
    32
  0
VERTEX
  8
W62LXLIFT
 62
8
 10
1159.941
 20
-6028.884
 30
-941.568
 70
    32
  0
VERTEX
  8
W62LXLIFT
 62
8
 10
1169.547
 20
-6034.872
 30
-941.549
 70
    32
  0
VERTEX
  8
W62LXLIFT
 62
8
 10
1176.469
 20
-6033.873
 30
-941.532
 70
    32
  0
VERTEX
  8
W62LXLIFT
 62
8
 10
1185.070
 20
-6046.847
 30
-941.519
 70
    32
  0
VERTEX
  8
W62LXLIFT
 62
8
 10
1190.913
 20
-6060.602
 30
-941.513
 70
    32
  0
VERTEX
  8
W62LXLIFT
 62
8
 10
1196.397
 20
-6074.112
 30
-941.507
 70
    32
  0
VERTEX
  8
W62LXLIFT
 62
8
 10
1201.023
 20
-6088.130
 30
-941.504
 70
    32
  0
VERTEX
  8
W62LXLIFT
 62
8
 10
1232.300
 20
-6126.401
 30
-941.452
 70
    32
  0
VERTEX
  8
W62LXLIFT
 62
8
 10
1216.854
 20
-6137.621
 30
-941.495
 70
    32
  0
VERTEX
  8
W62LXLIFT
 62
8
 10
1206.092
 20
-6124.804
 30
-941.513
 70
    32
  0
VERTEX
  8
W62LXLIFT
 62
8
 10
1197.907
 20
-6110.478
 30
-941.524
 70
    32
  0
VERTEX
  8
W62LXLIFT
 62
8
 10
1195.830
 20
-6101.585
 30
-941.524
 70
    32
  0
VERTEX
  8
W62LXLIFT
 62
8
 10
1189.518
 20
-6096.484
 30
-941.536
 70
    32
  0
VERTEX
  8
W62LXLIFT
 62
8
 10
1188.006
 20
-6088.012
 30
-941.535
 70
    32
  0
VERTEX
  8
W62LXLIFT
 62
8
 10
1181.559
 20
-6075.927
 30
-941.544
 70
    32
  0
SEQEND
  8
W62LXLIFT
  0
POLYLINE
  8
W62LXLIFT
 62
1
 66
     1
 70
     9
  0
VERTEX
  8
W62LXLIFT
 62
1
 10
1177.005
 20
-6066.972
 30
-931.552
 70
    32
  0
VERTEX
  8
W62LXLIFT
 62
1
 10
1162.072
 20
-6048.792
 30
-931.577
 70
    32
  0
VERTEX
  8
W62LXLIFT
 62
1
 10
1150.663
 20
-6040.382
 30
-931.600
 70
    32
  0
VERTEX
  8
W62LXLIFT
 62
1
 10
1144.866
 20
-6032.151
 30
-931.609
 70
    32
  0
VERTEX
  8
W62LXLIFT
 62
1
 10
1155.702
 20
-6021.607
 30
-931.577
 70
    32
  0
VERTEX
  8
W62LXLIFT
 62
1
 10
1160.941
 20
-6027.884
 30
-931.568
 70
    32
  0
VERTEX
  8
W62LXLIFT
 62
1
 10
1170.547
 20
-6033.872
 30
-931.549
 70
    32
  0
VERTEX
  8
W62LXLIFT
 62
1
 10
1177.469
 20
-6032.873
 30
-931.532
 70
    32
  0
VERTEX
  8
W62LXLIFT
 62
1
 10
1186.070
 20
-6045.847
 30
-931.519
 70
    32
  0
VERTEX
  8
W62LXLIFT
 62
1
 10
1191.913
 20
-6059.602
 30
-931.513
 70
    32
  0
VERTEX
  8
W62LXLIFT
 62
1
 10
1197.397
 20
-6073.112
 30
-931.507
 70
    32
  0
VERTEX
  8
W62LXLIFT
 62
1
 10
1202.023
 20
-6087.130
 30
-931.504
 70
    32
  0
VERTEX
  8
W62LXLIFT
 62
1
 10
1233.300
 20
-6125.401
 30
-931.452
 70
    32
  0
VERTEX
  8
W62LXLIFT
 62
1
 10
1217.854
 20
-6136.621
 30
-931.495
 70
    32
  0
VERTEX
  8
W62LXLIFT
 62
1
 10
1207.092
 20
-6123.804
 30
-931.513
 70
    32
  0
VERTEX
  8
W62LXLIFT
 62
1
 10
1198.907
 20
-6109.478
 30
-931.524
 70
    32
  0
VERTEX
  8
W62LXLIFT
 62
1
 10
1196.830
 20
-6100.585
 30
-931.524
 70
    32
  0
VERTEX
  8
W62LXLIFT
 62
1
 10
1190.518
 20
-6095.484
 30
-931.536
 70
    32
  0
VERTEX
  8
W62LXLIFT
 62
1
 10
1189.006
 20
-6087.012
 30
-931.535
 70
    32
  0
VERTEX
  8
W62LXLIFT
 62
1
 10
1182.559
 20
-6074.927
 30
-931.544
 70
    32
  0
SEQEND
  8
W62LXLIFT
  0
POLYLINE
  8
W62LXLIFT
 62
11
 66
     1
 70
     9
  0
VERTEX
  8
W62LXLIFT
 62
11
 10
1055.577
 20
-6082.724
 30
-941.846
 70
    32
  0
VERTEX
  8
W62LXLIFT
 62
11
 10
1038.774
 20
-6054.471
 30
-941.870
 70
    32
  0
VERTEX
  8
W62LXLIFT
 62
11
 10
1032.162
 20
-6036.509
 30
-941.876
 70
    32
  0
VERTEX
  8
W62LXLIFT
 62
11
 10
1032.766
 20
-6021.976
 30
-941.866
 70
    32
  0
VERTEX
  8
W62LXLIFT
 62
11
 10
1037.873
 20
-6020.617
 30
-941.853
 70
    32
  0
VERTEX
  8
W62LXLIFT
 62
11
 10
1044.629
 20
-6022.639
 30
-941.838
 70
    32
  0
VERTEX
  8
W62LXLIFT
 62
11
 10
1053.048
 20
-6040.398
 30
-941.828
 70
    32
  0
VERTEX
  8
W62LXLIFT
 62
11
 10
1062.826
 20
-6056.105
 30
-941.814
 70
    32
  0
VERTEX
  8
W62LXLIFT
 62
11
 10
1070.454
 20
-6074.428
 30
-941.806
 70
    32
  0
VERTEX
  8
W62LXLIFT
 62
11
 10
1083.218
 20
-6086.543
 30
-941.783
 70
    32
  0
VERTEX
  8
W62LXLIFT
 62
11
 10
1083.576
 20
-6094.053
 30
-941.786
 70
    32
  0
VERTEX
  8
W62LXLIFT
 62
11
 10
1088.720
 20
-6118.802
 30
-941.788
 70
    32
  0
VERTEX
  8
W62LXLIFT
 62
11
 10
1087.885
 20
-6121.132
 30
-941.791
 70
    32
  0
VERTEX
  8
W62LXLIFT
 62
11
 10
1082.878
 20
-6124.916
 30
-941.805
 70
    32
  0
VERTEX
  8
W62LXLIFT
 62
11
 10
1078.800
 20
-6124.674
 30
-941.815
 70
    32
  0
VERTEX
  8
W62LXLIFT
 62
11
 10
1073.660
 20
-6120.959
 30
-941.825
 70
    32
  0
VERTEX
  8
W62LXLIFT
 62
11
 10
1068.950
 20
-6109.018
 30
-941.830
 70
    32
  0
VERTEX
  8
W62LXLIFT
 62
11
 10
1061.736
 20
-6098.480
 30
-941.841
 70
    32
  0
SEQEND
  8
W62LXLIFT
  0
POLYLINE
  8
W62LXLIFT
 62
1
 66
     1
 70
     9
  0
VERTEX
  8
W62LXLIFT
 62
1
 10
1056.577
 20
-6081.724
 30
-931.846
 70
    32
  0
VERTEX
  8
W62LXLIFT
 62
1
 10
1039.774
 20
-6053.471
 30
-931.870
 70
    32
  0
VERTEX
  8
W62LXLIFT
 62
1
 10
1033.162
 20
-6035.509
 30
-931.876
 70
    32
  0
VERTEX
  8
W62LXLIFT
 62
1
 10
1033.766
 20
-6020.976
 30
-931.866
 70
    32
  0
VERTEX
  8
W62LXLIFT
 62
1
 10
1038.873
 20
-6019.617
 30
-931.853
 70
    32
  0
VERTEX
  8
W62LXLIFT
 62
1
 10
1045.629
 20
-6021.639
 30
-931.838
 70
    32
  0
VERTEX
  8
W62LXLIFT
 62
1
 10
1054.048
 20
-6039.398
 30
-931.828
 70
    32
  0
VERTEX
  8
W62LXLIFT
 62
1
 10
1063.826
 20
-6055.105
 30
-931.814
 70
    32
  0
VERTEX
  8
W62LXLIFT
 62
1
 10
1071.454
 20
-6073.428
 30
-931.806
 70
    32
  0
VERTEX
  8
W62LXLIFT
 62
1
 10
1084.218
 20
-6085.543
 30
-931.783
 70
    32
  0
VERTEX
  8
W62LXLIFT
 62
1
 10
1084.576
 20
-6093.053
 30
-931.786
 70
    32
  0
VERTEX
  8
W62LXLIFT
 62
1
 10
1089.720
 20
-6117.802
 30
-931.788
 70
    32
  0
VERTEX
  8
W62LXLIFT
 62
1
 10
1088.885
 20
-6120.132
 30
-931.791
 70
    32
  0
VERTEX
  8
W62LXLIFT
 62
1
 10
1083.878
 20
-6123.916
 30
-931.805
 70
    32
  0
VERTEX
  8
W62LXLIFT
 62
1
 10
1079.800
 20
-6123.674
 30
-931.815
 70
    32
  0
VERTEX
  8
W62LXLIFT
 62
1
 10
1074.660
 20
-6119.959
 30
-931.825
 70
    32
  0
VERTEX
  8
W62LXLIFT
 62
1
 10
1069.950
 20
-6108.018
 30
-931.830
 70
    32
  0
VERTEX
  8
W62LXLIFT
 62
1
 10
1062.736
 20
-6097.480
 30
-931.841
 70
    32
  0
SEQEND
  8
W62LXLIFT
  0
POLYLINE
  8
W62LXLIFT
 62
1
 66
     1
 70
     9
  0
VERTEX
  8
W62LXLIFT
 62
1
 10
1456.415
 20
-8207.907
 30
-860.000
 70
    32
  0
VERTEX
  8
W62LXLIFT
 62
1
 10
1469.254
 20
-8198.259
 30
-860.000
 70
    32
  0
VERTEX
  8
W62LXLIFT
 62
1
 10
1473.137
 20
-8199.127
 30
-860.000
 70
    32
  0
VERTEX
  8
W62LXLIFT
 62
1
 10
1474.423
 20
-8204.482
 30
-860.000
 70
    32
  0
VERTEX
  8
W62LXLIFT
 62
1
 10
1478.863
 20
-8211.343
 30
-860.000
 70
    32
  0
VERTEX
  8
W62LXLIFT
 62
1
 10
1487.549
 20
-8223.904
 30
-860.000
 70
    32
  0
VERTEX
  8
W62LXLIFT
 62
1
 10
1492.222
 20
-8238.404
 30
-860.000
 70
    32
  0
VERTEX
  8
W62LXLIFT
 62
1
 10
1491.918
 20
-8247.841
 30
-860.000
 70
    32
  0
VERTEX
  8
W62LXLIFT
 62
1
 10
1495.713
 20
-8253.218
 30
-860.000
 70
    32
  0
VERTEX
  8
W62LXLIFT
 62
1
 10
1486.508
 20
-8260.553
 30
-860.000
 70
    32
  0
VERTEX
  8
W62LXLIFT
 62
1
 10
1479.052
 20
-8258.050
 30
-860.000
 70
    32
  0
VERTEX
  8
W62LXLIFT
 62
1
 10
1472.825
 20
-8236.331
 30
-860.000
 70
    32
  0
VERTEX
  8
W62LXLIFT
 62
1
 10
1467.600
 20
-8226.895
 30
-860.000
 70
    32
  0
VERTEX
  8
W62LXLIFT
 62
1
 10
1456.432
 20
-8219.280
 30
-860.000
 70
    32
  0
SEQEND
  8
W62LXLIFT
  0
LINE
  8
W62LXLIFT
 62
8
 10
1192.414
 20
-6080.180
 30
-941.536
 11
1250.357
 21
-6038.207
 31
-1039.000
  0
POINT
  8
W62LXLIFT
 62
8
 10
1192.414
 20
-6080.180
 30
-941.536
  0
POINT
  8
W62LXLIFT
 62
8
 10
1250.357
 20
-6038.207
 30
-1039.000
  0
POLYLINE
  8
W62LXLIFT
 62
6
 66
     1
 70
     9
  0
VERTEX
  8
W62LXLIFT
 62
6
 10
1383.201
 20
-6484.930
 30
-943.000
 70
    32
  0
VERTEX
  8
W62LXLIFT
 62
6
 10
1386.007
 20
-6496.242
 30
-943.000
 70
    32
  0
VERTEX
  8
W62LXLIFT
 62
6
 10
1390.060
 20
-6507.604
 30
-943.000
 70
    32
  0
VERTEX
  8
W62LXLIFT
 62
6
 10
1393.489
 20
-6515.364
 30
-943.000
 70
    32
  0
VERTEX
  8
W62LXLIFT
 62
6
 10
1393.437
 20
-6529.601
 30
-943.000
 70
    32
  0
VERTEX
  8
W62LXLIFT
 62
6
 10
1395.999
 20
-6542.197
 30
-943.000
 70
    32
  0
VERTEX
  8
W62LXLIFT
 62
6
 10
1400.094
 20
-6555.949
 30
-943.000
 70
    32
  0
VERTEX
  8
W62LXLIFT
 62
6
 10
1401.268
 20
-6568.602
 30
-943.000
 70
    32
  0
VERTEX
  8
W62LXLIFT
 62
6
 10
1404.361
 20
-6582.339
 30
-943.000
 70
    32
  0
VERTEX
  8
W62LXLIFT
 62
6
 10
1407.760
 20
-6599.256
 30
-943.000
 70
    32
  0
VERTEX
  8
W62LXLIFT
 62
6
 10
1409.151
 20
-6614.386
 30
-943.000
 70
    32
  0
VERTEX
  8
W62LXLIFT
 62
6
 10
1413.297
 20
-6627.769
 30
-943.000
 70
    32
  0
VERTEX
  8
W62LXLIFT
 62
6
 10
1420.245
 20
-6636.839
 30
-943.000
 70
    32
  0
VERTEX
  8
W62LXLIFT
 62
6
 10
1429.599
 20
-6652.019
 30
-943.000
 70
    32
  0
VERTEX
  8
W62LXLIFT
 62
6
 10
1436.779
 20
-6662.565
 30
-943.000
 70
    32
  0
VERTEX
  8
W62LXLIFT
 62
6
 10
1426.344
 20
-6664.929
 30
-943.000
 70
    32
  0
VERTEX
  8
W62LXLIFT
 62
6
 10
1417.045
 20
-6671.719
 30
-943.000
 70
    32
  0
VERTEX
  8
W62LXLIFT
 62
6
 10
1408.813
 20
-6676.274
 30
-943.000
 70
    32
  0
VERTEX
  8
W62LXLIFT
 62
6
 10
1406.057
 20
-6670.428
 30
-943.000
 70
    32
  0
VERTEX
  8
W62LXLIFT
 62
6
 10
1400.876
 20
-6664.869
 30
-943.000
 70
    32
  0
VERTEX
  8
W62LXLIFT
 62
6
 10
1405.197
 20
-6649.725
 30
-943.000
 70
    32
  0
VERTEX
  8
W62LXLIFT
 62
6
 10
1401.471
 20
-6642.739
 30
-943.000
 70
    32
  0
VERTEX
  8
W62LXLIFT
 62
6
 10
1394.763
 20
-6631.507
 30
-943.000
 70
    32
  0
VERTEX
  8
W62LXLIFT
 62
6
 10
1391.600
 20
-6617.383
 30
-943.000
 70
    32
  0
VERTEX
  8
W62LXLIFT
 62
6
 10
1388.838
 20
-6602.626
 30
-943.000
 70
    32
  0
VERTEX
  8
W62LXLIFT
 62
6
 10
1389.048
 20
-6588.160
 30
-943.000
 70
    32
  0
VERTEX
  8
W62LXLIFT
 62
6
 10
1385.025
 20
-6574.794
 30
-943.000
 70
    32
  0
VERTEX
  8
W62LXLIFT
 62
6
 10
1380.376
 20
-6556.948
 30
-943.000
 70
    32
  0
VERTEX
  8
W62LXLIFT
 62
6
 10
1377.751
 20
-6533.613
 30
-943.000
 70
    32
  0
VERTEX
  8
W62LXLIFT
 62
6
 10
1371.786
 20
-6509.934
 30
-943.000
 70
    32
  0
VERTEX
  8
W62LXLIFT
 62
6
 10
1367.485
 20
-6490.945
 30
-943.000
 70
    32
  0
VERTEX
  8
W62LXLIFT
 62
6
 10
1366.914
 20
-6487.413
 30
-943.000
 70
    32
  0
SEQEND
  8
W62LXLIFT
  0
POLYLINE
  8
W62LXLIFT
 62
1
 66
     1
 70
     9
  0
VERTEX
  8
W62LXLIFT
 62
1
 10
1384.201
 20
-6483.930
 30
-933.000
 70
    32
  0
VERTEX
  8
W62LXLIFT
 62
1
 10
1387.007
 20
-6495.242
 30
-933.000
 70
    32
  0
VERTEX
  8
W62LXLIFT
 62
1
 10
1391.060
 20
-6506.604
 30
-933.000
 70
    32
  0
VERTEX
  8
W62LXLIFT
 62
1
 10
1394.489
 20
-6514.364
 30
-933.000
 70
    32
  0
VERTEX
  8
W62LXLIFT
 62
1
 10
1394.437
 20
-6528.601
 30
-933.000
 70
    32
  0
VERTEX
  8
W62LXLIFT
 62
1
 10
1396.999
 20
-6541.197
 30
-933.000
 70
    32
  0
VERTEX
  8
W62LXLIFT
 62
1
 10
1401.094
 20
-6554.949
 30
-933.000
 70
    32
  0
VERTEX
  8
W62LXLIFT
 62
1
 10
1402.268
 20
-6567.602
 30
-933.000
 70
    32
  0
VERTEX
  8
W62LXLIFT
 62
1
 10
1405.361
 20
-6581.339
 30
-933.000
 70
    32
  0
VERTEX
  8
W62LXLIFT
 62
1
 10
1408.760
 20
-6598.256
 30
-933.000
 70
    32
  0
VERTEX
  8
W62LXLIFT
 62
1
 10
1410.151
 20
-6613.386
 30
-933.000
 70
    32
  0
VERTEX
  8
W62LXLIFT
 62
1
 10
1414.297
 20
-6626.769
 30
-933.000
 70
    32
  0
VERTEX
  8
W62LXLIFT
 62
1
 10
1421.245
 20
-6635.839
 30
-933.000
 70
    32
  0
VERTEX
  8
W62LXLIFT
 62
1
 10
1430.599
 20
-6651.019
 30
-933.000
 70
    32
  0
VERTEX
  8
W62LXLIFT
 62
1
 10
1437.779
 20
-6661.565
 30
-933.000
 70
    32
  0
VERTEX
  8
W62LXLIFT
 62
1
 10
1427.344
 20
-6663.929
 30
-933.000
 70
    32
  0
VERTEX
  8
W62LXLIFT
 62
1
 10
1418.045
 20
-6670.719
 30
-933.000
 70
    32
  0
VERTEX
  8
W62LXLIFT
 62
1
 10
1409.813
 20
-6675.274
 30
-933.000
 70
    32
  0
VERTEX
  8
W62LXLIFT
 62
1
 10
1407.057
 20
-6669.428
 30
-933.000
 70
    32
  0
VERTEX
  8
W62LXLIFT
 62
1
 10
1401.876
 20
-6663.869
 30
-933.000
 70
    32
  0
VERTEX
  8
W62LXLIFT
 62
1
 10
1406.197
 20
-6648.725
 30
-933.000
 70
    32
  0
VERTEX
  8
W62LXLIFT
 62
1
 10
1402.471
 20
-6641.739
 30
-933.000
 70
    32
  0
VERTEX
  8
W62LXLIFT
 62
1
 10
1395.763
 20
-6630.507
 30
-933.000
 70
    32
  0
VERTEX
  8
W62LXLIFT
 62
1
 10
1392.600
 20
-6616.383
 30
-933.000
 70
    32
  0
VERTEX
  8
W62LXLIFT
 62
1
 10
1389.838
 20
-6601.626
 30
-933.000
 70
    32
  0
VERTEX
  8
W62LXLIFT
 62
1
 10
1390.048
 20
-6587.160
 30
-933.000
 70
    32
  0
VERTEX
  8
W62LXLIFT
 62
1
 10
1386.025
 20
-6573.794
 30
-933.000
 70
    32
  0
VERTEX
  8
W62LXLIFT
 62
1
 10
1381.376
 20
-6555.948
 30
-933.000
 70
    32
  0
VERTEX
  8
W62LXLIFT
 62
1
 10
1378.751
 20
-6532.613
 30
-933.000
 70
    32
  0
VERTEX
  8
W62LXLIFT
 62
1
 10
1372.786
 20
-6508.934
 30
-933.000
 70
    32
  0
VERTEX
  8
W62LXLIFT
 62
1
 10
1368.485
 20
-6489.945
 30
-933.000
 70
    32
  0
VERTEX
  8
W62LXLIFT
 62
1
 10
1367.914
 20
-6486.413
 30
-933.000
 70
    32
  0
SEQEND
  8
W62LXLIFT
  0
POINT
  8
W62LXLIFT
 62
6
 10
1392.751
 20
-6563.049
 30
-943.000
  0
POINT
  8
W62LXLIFT
 62
1
 10
1547.949
 20
-7996.817
 30
-964.000
  0
LINE
  8
W62LXLIFT
 62
11
 10
1539.920
 20
-7976.545
 30
-944.523
 11
1547.949
 21
-7996.817
 31
-964.000
  0
POINT
  8
W62LXLIFT
 62
1
 10
1539.920
 20
-7976.545
 30
-944.523
  0
LINE
  8
W62LXLIFT
 62
6
 10
1392.751
 20
-6563.049
 30
-943.000
 11
1449.191
 21
-6481.033
 31
-1095.844
  0
POINT
  8
W62LXLIFT
 62
1
 10
1449.191
 20
-6481.033
 30
-1095.844
  0
POINT
  8
W62LXLIFT
 62
1
 10
1392.076
 20
-7544.699
 30
-804.000
  0
POINT
  8
W62LXLIFT
 62
1
 10
1304.608
 20
-7575.363
 30
-666.076
  0
LINE
  8
W62LXLIFT
 62
8
 10
1304.608
 20
-7575.363
 30
-666.076
 11
1392.076
 21
-7544.699
 31
-804.000
  0
POLYLINE
  8
W62LXLIFT
 62
2
 66
     1
 70
     9
  0
VERTEX
  8
W62LXLIFT
 62
2
 10
1523.739
 20
-8197.831
 30
-847.000
 70
    32
  0
VERTEX
  8
W62LXLIFT
 62
2
 10
1524.586
 20
-8191.441
 30
-847.000
 70
    32
  0
VERTEX
  8
W62LXLIFT
 62
2
 10
1522.350
 20
-8186.421
 30
-847.000
 70
    32
  0
VERTEX
  8
W62LXLIFT
 62
2
 10
1517.173
 20
-8177.590
 30
-847.000
 70
    32
  0
VERTEX
  8
W62LXLIFT
 62
2
 10
1526.031
 20
-8172.693
 30
-847.000
 70
    32
  0
VERTEX
  8
W62LXLIFT
 62
2
 10
1533.073
 20
-8182.434
 30
-847.000
 70
    32
  0
VERTEX
  8
W62LXLIFT
 62
2
 10
1548.645
 20
-8192.526
 30
-847.000
 70
    32
  0
VERTEX
  8
W62LXLIFT
 62
2
 10
1559.073
 20
-8203.227
 30
-847.000
 70
    32
  0
VERTEX
  8
W62LXLIFT
 62
2
 10
1565.147
 20
-8212.438
 30
-847.000
 70
    32
  0
VERTEX
  8
W62LXLIFT
 62
2
 10
1584.319
 20
-8230.684
 30
-847.000
 70
    32
  0
VERTEX
  8
W62LXLIFT
 62
2
 10
1589.852
 20
-8226.397
 30
-847.000
 70
    32
  0
VERTEX
  8
W62LXLIFT
 62
2
 10
1581.064
 20
-8215.891
 30
-847.000
 70
    32
  0
VERTEX
  8
W62LXLIFT
 62
2
 10
1594.692
 20
-8212.683
 30
-847.000
 70
    32
  0
VERTEX
  8
W62LXLIFT
 62
2
 10
1604.188
 20
-8223.793
 30
-847.000
 70
    32
  0
VERTEX
  8
W62LXLIFT
 62
2
 10
1610.139
 20
-8236.997
 30
-847.000
 70
    32
  0
VERTEX
  8
W62LXLIFT
 62
2
 10
1615.081
 20
-8247.128
 30
-847.000
 70
    32
  0
VERTEX
  8
W62LXLIFT
 62
2
 10
1616.330
 20
-8257.538
 30
-847.000
 70
    32
  0
VERTEX
  8
W62LXLIFT
 62
2
 10
1617.629
 20
-8263.417
 30
-847.000
 70
    32
  0
VERTEX
  8
W62LXLIFT
 62
2
 10
1618.369
 20
-8266.906
 30
-847.000
 70
    32
  0
VERTEX
  8
W62LXLIFT
 62
2
 10
1618.499
 20
-8282.790
 30
-847.000
 70
    32
  0
VERTEX
  8
W62LXLIFT
 62
2
 10
1616.621
 20
-8289.508
 30
-847.000
 70
    32
  0
VERTEX
  8
W62LXLIFT
 62
2
 10
1620.525
 20
-8302.700
 30
-847.000
 70
    32
  0
VERTEX
  8
W62LXLIFT
 62
2
 10
1623.744
 20
-8325.177
 30
-847.000
 70
    32
  0
VERTEX
  8
W62LXLIFT
 62
2
 10
1626.624
 20
-8345.827
 30
-847.000
 70
    32
  0
VERTEX
  8
W62LXLIFT
 62
2
 10
1624.706
 20
-8348.594
 30
-847.000
 70
    32
  0
VERTEX
  8
W62LXLIFT
 62
2
 10
1626.817
 20
-8357.137
 30
-847.000
 70
    32
  0
VERTEX
  8
W62LXLIFT
 62
2
 10
1624.773
 20
-8364.684
 30
-847.000
 70
    32
  0
VERTEX
  8
W62LXLIFT
 62
2
 10
1628.411
 20
-8380.640
 30
-847.000
 70
    32
  0
VERTEX
  8
W62LXLIFT
 62
2
 10
1644.114
 20
-8413.773
 30
-847.000
 70
    32
  0
VERTEX
  8
W62LXLIFT
 62
2
 10
1634.809
 20
-8416.375
 30
-847.000
 70
    32
  0
VERTEX
  8
W62LXLIFT
 62
2
 10
1628.332
 20
-8402.858
 30
-847.000
 70
    32
  0
VERTEX
  8
W62LXLIFT
 62
2
 10
1624.820
 20
-8393.514
 30
-847.000
 70
    32
  0
VERTEX
  8
W62LXLIFT
 62
2
 10
1620.713
 20
-8385.615
 30
-847.000
 70
    32
  0
VERTEX
  8
W62LXLIFT
 62
2
 10
1615.506
 20
-8373.793
 30
-847.000
 70
    32
  0
VERTEX
  8
W62LXLIFT
 62
2
 10
1614.429
 20
-8359.878
 30
-847.000
 70
    32
  0
VERTEX
  8
W62LXLIFT
 62
2
 10
1616.318
 20
-8343.743
 30
-847.000
 70
    32
  0
VERTEX
  8
W62LXLIFT
 62
2
 10
1615.729
 20
-8332.654
 30
-847.000
 70
    32
  0
VERTEX
  8
W62LXLIFT
 62
2
 10
1614.008
 20
-8319.723
 30
-847.000
 70
    32
  0
VERTEX
  8
W62LXLIFT
 62
2
 10
1611.853
 20
-8318.369
 30
-847.000
 70
    32
  0
VERTEX
  8
W62LXLIFT
 62
2
 10
1609.093
 20
-8301.004
 30
-847.000
 70
    32
  0
VERTEX
  8
W62LXLIFT
 62
2
 10
1610.022
 20
-8292.871
 30
-847.000
 70
    32
  0
VERTEX
  8
W62LXLIFT
 62
2
 10
1598.154
 20
-8277.854
 30
-847.000
 70
    32
  0
VERTEX
  8
W62LXLIFT
 62
2
 10
1593.039
 20
-8278.017
 30
-847.000
 70
    32
  0
VERTEX
  8
W62LXLIFT
 62
2
 10
1588.181
 20
-8281.634
 30
-847.000
 70
    32
  0
VERTEX
  8
W62LXLIFT
 62
2
 10
1580.984
 20
-8271.595
 30
-847.000
 70
    32
  0
VERTEX
  8
W62LXLIFT
 62
2
 10
1580.251
 20
-8270.428
 30
-847.000
 70
    32
  0
VERTEX
  8
W62LXLIFT
 62
2
 10
1579.892
 20
-8270.481
 30
-847.000
 70
    32
  0
VERTEX
  8
W62LXLIFT
 62
2
 10
1571.692
 20
-8256.341
 30
-847.000
 70
    32
  0
VERTEX
  8
W62LXLIFT
 62
2
 10
1565.004
 20
-8244.503
 30
-847.000
 70
    32
  0
VERTEX
  8
W62LXLIFT
 62
2
 10
1558.024
 20
-8239.227
 30
-847.000
 70
    32
  0
VERTEX
  8
W62LXLIFT
 62
2
 10
1555.324
 20
-8236.291
 30
-847.000
 70
    32
  0
VERTEX
  8
W62LXLIFT
 62
2
 10
1551.480
 20
-8228.569
 30
-847.000
 70
    32
  0
VERTEX
  8
W62LXLIFT
 62
2
 10
1548.508
 20
-8228.981
 30
-847.000
 70
    32
  0
VERTEX
  8
W62LXLIFT
 62
2
 10
1545.433
 20
-8219.277
 30
-847.000
 70
    32
  0
VERTEX
  8
W62LXLIFT
 62
2
 10
1528.711
 20
-8207.888
 30
-847.000
 70
    32
  0
SEQEND
  8
W62LXLIFT
  0
POLYLINE
  8
W62LXLIFT
 62
2
 66
     1
 70
     9
  0
VERTEX
  8
W62LXLIFT
 62
2
 10
1588.544
 20
-8243.357
 30
-847.000
 70
    32
  0
VERTEX
  8
W62LXLIFT
 62
2
 10
1587.734
 20
-8252.449
 30
-847.000
 70
    32
  0
VERTEX
  8
W62LXLIFT
 62
2
 10
1597.384
 20
-8265.264
 30
-847.000
 70
    32
  0
VERTEX
  8
W62LXLIFT
 62
2
 10
1605.053
 20
-8265.221
 30
-847.000
 70
    32
  0
VERTEX
  8
W62LXLIFT
 62
2
 10
1602.730
 20
-8252.280
 30
-847.000
 70
    32
  0
VERTEX
  8
W62LXLIFT
 62
2
 10
1600.924
 20
-8248.807
 30
-847.000
 70
    32
  0
VERTEX
  8
W62LXLIFT
 62
2
 10
1599.425
 20
-8242.523
 30
-847.000
 70
    32
  0
SEQEND
  8
W62LXLIFT
  0
POLYLINE
  8
W62LXLIFT
 62
3
 66
     1
 70
     9
  0
VERTEX
  8
W62LXLIFT
 62
3
 10
1514.342
 20
-8118.633
 30
-875.000
 70
    32
  0
VERTEX
  8
W62LXLIFT
 62
3
 10
1514.563
 20
-8118.471
 30
-875.000
 70
    32
  0
VERTEX
  8
W62LXLIFT
 62
3
 10
1514.864
 20
-8118.890
 30
-875.000
 70
    32
  0
VERTEX
  8
W62LXLIFT
 62
3
 10
1529.139
 20
-8138.781
 30
-875.000
 70
    32
  0
VERTEX
  8
W62LXLIFT
 62
3
 10
1529.141
 20
-8138.904
 30
-875.000
 70
    32
  0
VERTEX
  8
W62LXLIFT
 62
3
 10
1525.814
 20
-8160.544
 30
-875.000
 70
    32
  0
VERTEX
  8
W62LXLIFT
 62
3
 10
1528.777
 20
-8166.618
 30
-875.000
 70
    32
  0
VERTEX
  8
W62LXLIFT
 62
3
 10
1539.599
 20
-8174.212
 30
-875.000
 70
    32
  0
VERTEX
  8
W62LXLIFT
 62
3
 10
1535.394
 20
-8179.545
 30
-875.000
 70
    32
  0
VERTEX
  8
W62LXLIFT
 62
3
 10
1533.928
 20
-8182.508
 30
-875.000
 70
    32
  0
VERTEX
  8
W62LXLIFT
 62
3
 10
1523.397
 20
-8170.792
 30
-875.000
 70
    32
  0
VERTEX
  8
W62LXLIFT
 62
3
 10
1518.889
 20
-8163.086
 30
-875.000
 70
    32
  0
VERTEX
  8
W62LXLIFT
 62
3
 10
1514.442
 20
-8149.596
 30
-875.000
 70
    32
  0
VERTEX
  8
W62LXLIFT
 62
3
 10
1512.648
 20
-8147.096
 30
-875.000
 70
    32
  0
VERTEX
  8
W62LXLIFT
 62
3
 10
1499.865
 20
-8129.285
 30
-875.000
 70
    32
  0
VERTEX
  8
W62LXLIFT
 62
3
 10
1500.552
 20
-8128.780
 30
-875.000
 70
    32
  0
SEQEND
  8
W62LXLIFT
  0
POLYLINE
  8
W62LXLIFT
 62
3
 66
     1
 70
     9
  0
VERTEX
  8
W62LXLIFT
 62
3
 10
1503.009
 20
-8126.972
 30
-865.000
 70
    32
  0
VERTEX
  8
W62LXLIFT
 62
3
 10
1506.730
 20
-8132.157
 30
-865.000
 70
    32
  0
VERTEX
  8
W62LXLIFT
 62
3
 10
1517.586
 20
-8147.283
 30
-865.000
 70
    32
  0
VERTEX
  8
W62LXLIFT
 62
3
 10
1516.732
 20
-8152.832
 30
-865.000
 70
    32
  0
VERTEX
  8
W62LXLIFT
 62
3
 10
1524.826
 20
-8169.422
 30
-865.000
 70
    32
  0
VERTEX
  8
W62LXLIFT
 62
3
 10
1535.086
 20
-8176.621
 30
-865.000
 70
    32
  0
VERTEX
  8
W62LXLIFT
 62
3
 10
1546.431
 20
-8184.684
 30
-865.000
 70
    32
  0
VERTEX
  8
W62LXLIFT
 62
3
 10
1538.291
 20
-8190.439
 30
-865.000
 70
    32
  0
VERTEX
  8
W62LXLIFT
 62
3
 10
1536.577
 20
-8191.667
 30
-865.000
 70
    32
  0
VERTEX
  8
W62LXLIFT
 62
3
 10
1531.710
 20
-8186.118
 30
-865.000
 70
    32
  0
VERTEX
  8
W62LXLIFT
 62
3
 10
1520.321
 20
-8173.448
 30
-865.000
 70
    32
  0
VERTEX
  8
W62LXLIFT
 62
3
 10
1509.818
 20
-8155.489
 30
-865.000
 70
    32
  0
VERTEX
  8
W62LXLIFT
 62
3
 10
1509.157
 20
-8153.484
 30
-865.000
 70
    32
  0
VERTEX
  8
W62LXLIFT
 62
3
 10
1496.479
 20
-8135.820
 30
-865.000
 70
    32
  0
VERTEX
  8
W62LXLIFT
 62
3
 10
1494.580
 20
-8133.174
 30
-865.000
 70
    32
  0
VERTEX
  8
W62LXLIFT
 62
3
 10
1499.433
 20
-8129.603
 30
-865.000
 70
    32
  0
SEQEND
  8
W62LXLIFT
  0
POLYLINE
  8
W62LXLIFT
 62
3
 66
     1
 70
     9
  0
VERTEX
  8
W62LXLIFT
 62
3
 10
1508.571
 20
-8161.125
 30
-855.000
 70
    32
  0
VERTEX
  8
W62LXLIFT
 62
3
 10
1509.562
 20
-8159.921
 30
-855.000
 70
    32
  0
VERTEX
  8
W62LXLIFT
 62
3
 10
1513.619
 20
-8155.854
 30
-855.000
 70
    32
  0
VERTEX
  8
W62LXLIFT
 62
3
 10
1516.954
 20
-8164.262
 30
-855.000
 70
    32
  0
VERTEX
  8
W62LXLIFT
 62
3
 10
1521.131
 20
-8172.821
 30
-855.000
 70
    32
  0
VERTEX
  8
W62LXLIFT
 62
3
 10
1528.056
 20
-8177.486
 30
-855.000
 70
    32
  0
VERTEX
  8
W62LXLIFT
 62
3
 10
1542.195
 20
-8187.535
 30
-855.000
 70
    32
  0
VERTEX
  8
W62LXLIFT
 62
3
 10
1537.752
 20
-8190.677
 30
-855.000
 70
    32
  0
VERTEX
  8
W62LXLIFT
 62
3
 10
1533.044
 20
-8194.047
 30
-855.000
 70
    32
  0
VERTEX
  8
W62LXLIFT
 62
3
 10
1519.680
 20
-8178.811
 30
-855.000
 70
    32
  0
VERTEX
  8
W62LXLIFT
 62
3
 10
1517.246
 20
-8176.103
 30
-855.000
 70
    32
  0
VERTEX
  8
W62LXLIFT
 62
3
 10
1514.386
 20
-8171.213
 30
-855.000
 70
    32
  0
SEQEND
  8
W62LXLIFT
  0
POLYLINE
  8
W62LXLIFT
 62
3
 66
     1
 70
     9
  0
VERTEX
  8
W62LXLIFT
 62
3
 10
1508.978
 20
-8169.559
 30
-845.000
 70
    32
  0
VERTEX
  8
W62LXLIFT
 62
3
 10
1511.169
 20
-8166.896
 30
-845.000
 70
    32
  0
VERTEX
  8
W62LXLIFT
 62
3
 10
1513.607
 20
-8164.452
 30
-845.000
 70
    32
  0
VERTEX
  8
W62LXLIFT
 62
3
 10
1517.928
 20
-8175.346
 30
-845.000
 70
    32
  0
VERTEX
  8
W62LXLIFT
 62
3
 10
1532.107
 20
-8186.356
 30
-845.000
 70
    32
  0
VERTEX
  8
W62LXLIFT
 62
3
 10
1535.580
 20
-8188.695
 30
-845.000
 70
    32
  0
VERTEX
  8
W62LXLIFT
 62
3
 10
1537.959
 20
-8190.386
 30
-845.000
 70
    32
  0
VERTEX
  8
W62LXLIFT
 62
3
 10
1537.212
 20
-8190.915
 30
-845.000
 70
    32
  0
VERTEX
  8
W62LXLIFT
 62
3
 10
1534.268
 20
-8193.023
 30
-845.000
 70
    32
  0
VERTEX
  8
W62LXLIFT
 62
3
 10
1529.698
 20
-8196.345
 30
-845.000
 70
    32
  0
VERTEX
  8
W62LXLIFT
 62
3
 10
1526.787
 20
-8193.064
 30
-845.000
 70
    32
  0
VERTEX
  8
W62LXLIFT
 62
3
 10
1513.895
 20
-8178.089
 30
-845.000
 70
    32
  0
SEQEND
  8
W62LXLIFT
  0
POLYLINE
  8
W62LXLIFT
 62
3
 66
     1
 70
     9
  0
VERTEX
  8
W62LXLIFT
 62
3
 10
1509.385
 20
-8177.993
 30
-835.000
 70
    32
  0
VERTEX
  8
W62LXLIFT
 62
3
 10
1510.440
 20
-8179.824
 30
-835.000
 70
    32
  0
VERTEX
  8
W62LXLIFT
 62
3
 10
1513.206
 20
-8183.037
 30
-835.000
 70
    32
  0
VERTEX
  8
W62LXLIFT
 62
3
 10
1526.855
 20
-8198.421
 30
-835.000
 70
    32
  0
VERTEX
  8
W62LXLIFT
 62
3
 10
1533.411
 20
-8193.654
 30
-835.000
 70
    32
  0
VERTEX
  8
W62LXLIFT
 62
3
 10
1534.810
 20
-8192.659
 30
-835.000
 70
    32
  0
VERTEX
  8
W62LXLIFT
 62
3
 10
1522.705
 20
-8182.655
 30
-835.000
 70
    32
  0
VERTEX
  8
W62LXLIFT
 62
3
 10
1515.044
 20
-8176.707
 30
-835.000
 70
    32
  0
VERTEX
  8
W62LXLIFT
 62
3
 10
1513.594
 20
-8173.051
 30
-835.000
 70
    32
  0
VERTEX
  8
W62LXLIFT
 62
3
 10
1512.776
 20
-8173.871
 30
-835.000
 70
    32
  0
SEQEND
  8
W62LXLIFT
  0
POLYLINE
  8
W62LXLIFT
 62
3
 66
     1
 70
     9
  0
VERTEX
  8
W62LXLIFT
 62
3
 10
1510.973
 20
-8185.800
 30
-825.000
 70
    32
  0
VERTEX
  8
W62LXLIFT
 62
3
 10
1524.012
 20
-8200.497
 30
-825.000
 70
    32
  0
VERTEX
  8
W62LXLIFT
 62
3
 10
1528.784
 20
-8197.027
 30
-825.000
 70
    32
  0
VERTEX
  8
W62LXLIFT
 62
3
 10
1531.936
 20
-8194.785
 30
-825.000
 70
    32
  0
VERTEX
  8
W62LXLIFT
 62
3
 10
1515.109
 20
-8180.879
 30
-825.000
 70
    32
  0
VERTEX
  8
W62LXLIFT
 62
3
 10
1514.028
 20
-8181.869
 30
-825.000
 70
    32
  0
SEQEND
  8
W62LXLIFT
  0
POLYLINE
  8
W62LXLIFT
 62
3
 66
     1
 70
     9
  0
VERTEX
  8
W62LXLIFT
 62
3
 10
1513.005
 20
-8193.371
 30
-815.000
 70
    32
  0
VERTEX
  8
W62LXLIFT
 62
3
 10
1521.168
 20
-8202.573
 30
-815.000
 70
    32
  0
VERTEX
  8
W62LXLIFT
 62
3
 10
1524.156
 20
-8200.400
 30
-815.000
 70
    32
  0
VERTEX
  8
W62LXLIFT
 62
3
 10
1529.062
 20
-8196.911
 30
-815.000
 70
    32
  0
VERTEX
  8
W62LXLIFT
 62
3
 10
1518.183
 20
-8187.920
 30
-815.000
 70
    32
  0
VERTEX
  8
W62LXLIFT
 62
3
 10
1514.918
 20
-8190.909
 30
-815.000
 70
    32
  0
SEQEND
  8
W62LXLIFT
  0
POLYLINE
  8
W62LXLIFT
 62
3
 66
     1
 70
     9
  0
VERTEX
  8
W62LXLIFT
 62
3
 10
1515.036
 20
-8200.941
 30
-805.000
 70
    32
  0
VERTEX
  8
W62LXLIFT
 62
3
 10
1518.325
 20
-8204.648
 30
-805.000
 70
    32
  0
VERTEX
  8
W62LXLIFT
 62
3
 10
1519.529
 20
-8203.773
 30
-805.000
 70
    32
  0
VERTEX
  8
W62LXLIFT
 62
3
 10
1526.188
 20
-8199.037
 30
-805.000
 70
    32
  0
VERTEX
  8
W62LXLIFT
 62
3
 10
1521.256
 20
-8194.962
 30
-805.000
 70
    32
  0
VERTEX
  8
W62LXLIFT
 62
3
 10
1515.807
 20
-8199.950
 30
-805.000
 70
    32
  0
SEQEND
  8
W62LXLIFT
  0
POLYLINE
  8
W62LXLIFT
 62
13
 66
     1
 70
     9
  0
VERTEX
  8
W62LXLIFT
 62
13
 10
734.132
 20
-5706.732
 30
-896.000
 70
    32
  0
VERTEX
  8
W62LXLIFT
 62
13
 10
748.011
 20
-5731.746
 30
-896.000
 70
    32
  0
VERTEX
  8
W62LXLIFT
 62
13
 10
744.697
 20
-5735.407
 30
-896.000
 70
    32
  0
VERTEX
  8
W62LXLIFT
 62
13
 10
737.497
 20
-5734.082
 30
-896.000
 70
    32
  0
VERTEX
  8
W62LXLIFT
 62
13
 10
734.612
 20
-5739.701
 30
-896.000
 70
    32
  0
VERTEX
  8
W62LXLIFT
 62
13
 10
741.872
 20
-5745.942
 30
-896.000
 70
    32
  0
VERTEX
  8
W62LXLIFT
 62
13
 10
753.600
 20
-5748.776
 30
-896.000
 70
    32
  0
VERTEX
  8
W62LXLIFT
 62
13
 10
758.546
 20
-5745.890
 30
-896.000
 70
    32
  0
VERTEX
  8
W62LXLIFT
 62
13
 10
764.746
 20
-5747.175
 30
-896.000
 70
    32
  0
VERTEX
  8
W62LXLIFT
 62
13
 10
778.074
 20
-5765.683
 30
-896.000
 70
    32
  0
VERTEX
  8
W62LXLIFT
 62
13
 10
795.146
 20
-5795.317
 30
-896.000
 70
    32
  0
VERTEX
  8
W62LXLIFT
 62
13
 10
804.559
 20
-5817.701
 30
-896.000
 70
    32
  0
VERTEX
  8
W62LXLIFT
 62
13
 10
818.806
 20
-5870.698
 30
-896.000
 70
    32
  0
VERTEX
  8
W62LXLIFT
 62
13
 10
818.939
 20
-5877.826
 30
-896.000
 70
    32
  0
VERTEX
  8
W62LXLIFT
 62
13
 10
832.135
 20
-5911.090
 30
-896.000
 70
    32
  0
VERTEX
  8
W62LXLIFT
 62
13
 10
840.436
 20
-5929.956
 30
-896.000
 70
    32
  0
VERTEX
  8
W62LXLIFT
 62
13
 10
843.985
 20
-5932.056
 30
-896.000
 70
    32
  0
VERTEX
  8
W62LXLIFT
 62
13
 10
851.358
 20
-5925.927
 30
-896.000
 70
    32
  0
VERTEX
  8
W62LXLIFT
 62
13
 10
854.213
 20
-5919.360
 30
-896.000
 70
    32
  0
VERTEX
  8
W62LXLIFT
 62
13
 10
852.653
 20
-5914.006
 30
-896.000
 70
    32
  0
VERTEX
  8
W62LXLIFT
 62
13
 10
835.785
 20
-5889.940
 30
-896.000
 70
    32
  0
VERTEX
  8
W62LXLIFT
 62
13
 10
833.358
 20
-5869.790
 30
-896.000
 70
    32
  0
VERTEX
  8
W62LXLIFT
 62
13
 10
833.939
 20
-5857.624
 30
-896.000
 70
    32
  0
VERTEX
  8
W62LXLIFT
 62
13
 10
832.307
 20
-5853.076
 30
-896.000
 70
    32
  0
VERTEX
  8
W62LXLIFT
 62
13
 10
829.819
 20
-5845.367
 30
-896.000
 70
    32
  0
VERTEX
  8
W62LXLIFT
 62
13
 10
827.738
 20
-5831.437
 30
-896.000
 70
    32
  0
VERTEX
  8
W62LXLIFT
 62
13
 10
809.494
 20
-5784.314
 30
-896.000
 70
    32
  0
VERTEX
  8
W62LXLIFT
 62
13
 10
784.131
 20
-5749.714
 30
-896.000
 70
    32
  0
VERTEX
  8
W62LXLIFT
 62
13
 10
741.107
 20
-5703.366
 30
-896.000
 70
    32
  0
SEQEND
  8
W62LXLIFT
  0
POLYLINE
  8
W62LXLIFT
 62
2
 66
     1
 70
     9
  0
VERTEX
  8
W62LXLIFT
 62
2
 10
681.813
 20
-5630.393
 30
-886.000
 70
    32
  0
VERTEX
  8
W62LXLIFT
 62
2
 10
684.176
 20
-5625.902
 30
-886.000
 70
    32
  0
VERTEX
  8
W62LXLIFT
 62
2
 10
685.335
 20
-5624.791
 30
-886.000
 70
    32
  0
VERTEX
  8
W62LXLIFT
 62
2
 10
690.374
 20
-5624.808
 30
-886.000
 70
    32
  0
VERTEX
  8
W62LXLIFT
 62
2
 10
692.261
 20
-5630.162
 30
-886.000
 70
    32
  0
VERTEX
  8
W62LXLIFT
 62
2
 10
694.588
 20
-5642.746
 30
-886.000
 70
    32
  0
VERTEX
  8
W62LXLIFT
 62
2
 10
694.017
 20
-5646.231
 30
-886.000
 70
    32
  0
VERTEX
  8
W62LXLIFT
 62
2
 10
686.111
 20
-5639.886
 30
-886.000
 70
    32
  0
VERTEX
  8
W62LXLIFT
 62
2
 10
682.825
 20
-5634.138
 30
-886.000
 70
    32
  0
SEQEND
  8
W62LXLIFT
  0
POLYLINE
  8
W62LXLIFT
 62
3
 66
     1
 70
     9
  0
VERTEX
  8
W62LXLIFT
 62
3
 10
682.772
 20
-5623.555
 30
-890.000
 70
    32
  0
VERTEX
  8
W62LXLIFT
 62
3
 10
687.121
 20
-5621.832
 30
-890.000
 70
    32
  0
VERTEX
  8
W62LXLIFT
 62
3
 10
688.124
 20
-5621.672
 30
-890.000
 70
    32
  0
VERTEX
  8
W62LXLIFT
 62
3
 10
693.197
 20
-5624.460
 30
-890.000
 70
    32
  0
VERTEX
  8
W62LXLIFT
 62
3
 10
697.996
 20
-5633.872
 30
-890.000
 70
    32
  0
VERTEX
  8
W62LXLIFT
 62
3
 10
698.673
 20
-5640.654
 30
-890.000
 70
    32
  0
VERTEX
  8
W62LXLIFT
 62
3
 10
701.042
 20
-5649.016
 30
-890.000
 70
    32
  0
VERTEX
  8
W62LXLIFT
 62
3
 10
698.144
 20
-5650.816
 30
-890.000
 70
    32
  0
VERTEX
  8
W62LXLIFT
 62
3
 10
692.339
 20
-5650.510
 30
-890.000
 70
    32
  0
VERTEX
  8
W62LXLIFT
 62
3
 10
686.972
 20
-5646.535
 30
-890.000
 70
    32
  0
VERTEX
  8
W62LXLIFT
 62
3
 10
682.944
 20
-5639.364
 30
-890.000
 70
    32
  0
VERTEX
  8
W62LXLIFT
 62
3
 10
680.995
 20
-5630.421
 30
-890.000
 70
    32
  0
SEQEND
  8
W62LXLIFT
  0
POLYLINE
  8
W62LXLIFT
 62
5
 66
     1
 70
     9
  0
VERTEX
  8
W62LXLIFT
 62
5
 10
678.783
 20
-5632.008
 30
-897.000
 70
    32
  0
VERTEX
  8
W62LXLIFT
 62
5
 10
679.250
 20
-5629.157
 30
-897.000
 70
    32
  0
VERTEX
  8
W62LXLIFT
 62
5
 10
683.221
 20
-5623.792
 30
-897.000
 70
    32
  0
VERTEX
  8
W62LXLIFT
 62
5
 10
687.802
 20
-5619.666
 30
-897.000
 70
    32
  0
VERTEX
  8
W62LXLIFT
 62
5
 10
689.570
 20
-5619.795
 30
-897.000
 70
    32
  0
VERTEX
  8
W62LXLIFT
 62
5
 10
694.033
 20
-5621.344
 30
-897.000
 70
    32
  0
VERTEX
  8
W62LXLIFT
 62
5
 10
700.492
 20
-5629.566
 30
-897.000
 70
    32
  0
VERTEX
  8
W62LXLIFT
 62
5
 10
706.218
 20
-5640.270
 30
-897.000
 70
    32
  0
VERTEX
  8
W62LXLIFT
 62
5
 10
710.441
 20
-5651.215
 30
-897.000
 70
    32
  0
VERTEX
  8
W62LXLIFT
 62
5
 10
719.410
 20
-5660.989
 30
-897.000
 70
    32
  0
VERTEX
  8
W62LXLIFT
 62
5
 10
728.508
 20
-5679.895
 30
-897.000
 70
    32
  0
VERTEX
  8
W62LXLIFT
 62
5
 10
725.667
 20
-5683.331
 30
-897.000
 70
    32
  0
VERTEX
  8
W62LXLIFT
 62
5
 10
716.869
 20
-5678.465
 30
-897.000
 70
    32
  0
VERTEX
  8
W62LXLIFT
 62
5
 10
710.098
 20
-5672.144
 30
-897.000
 70
    32
  0
VERTEX
  8
W62LXLIFT
 62
5
 10
701.710
 20
-5662.791
 30
-897.000
 70
    32
  0
VERTEX
  8
W62LXLIFT
 62
5
 10
696.084
 20
-5660.400
 30
-897.000
 70
    32
  0
VERTEX
  8
W62LXLIFT
 62
5
 10
684.524
 20
-5648.571
 30
-897.000
 70
    32
  0
VERTEX
  8
W62LXLIFT
 62
5
 10
683.412
 20
-5647.412
 30
-897.000
 70
    32
  0
VERTEX
  8
W62LXLIFT
 62
5
 10
679.402
 20
-5637.153
 30
-897.000
 70
    32
  0
SEQEND
  8
W62LXLIFT
  0
POLYLINE
  8
W62LXLIFT
 62
6
 66
     1
 70
     9
  0
VERTEX
  8
W62LXLIFT
 62
6
 10
677.804
 20
-5631.034
 30
-900.000
 70
    32
  0
VERTEX
  8
W62LXLIFT
 62
6
 10
683.878
 20
-5622.762
 30
-900.000
 70
    32
  0
VERTEX
  8
W62LXLIFT
 62
6
 10
691.017
 20
-5617.919
 30
-900.000
 70
    32
  0
VERTEX
  8
W62LXLIFT
 62
6
 10
697.575
 20
-5623.554
 30
-900.000
 70
    32
  0
VERTEX
  8
W62LXLIFT
 62
6
 10
704.620
 20
-5634.150
 30
-900.000
 70
    32
  0
VERTEX
  8
W62LXLIFT
 62
6
 10
709.604
 20
-5643.431
 30
-900.000
 70
    32
  0
VERTEX
  8
W62LXLIFT
 62
6
 10
724.029
 20
-5661.588
 30
-900.000
 70
    32
  0
VERTEX
  8
W62LXLIFT
 62
6
 10
728.593
 20
-5671.450
 30
-900.000
 70
    32
  0
VERTEX
  8
W62LXLIFT
 62
6
 10
733.018
 20
-5679.174
 30
-900.000
 70
    32
  0
VERTEX
  8
W62LXLIFT
 62
6
 10
734.428
 20
-5683.473
 30
-900.000
 70
    32
  0
VERTEX
  8
W62LXLIFT
 62
6
 10
733.747
 20
-5685.639
 30
-900.000
 70
    32
  0
VERTEX
  8
W62LXLIFT
 62
6
 10
730.821
 20
-5686.621
 30
-900.000
 70
    32
  0
VERTEX
  8
W62LXLIFT
 62
6
 10
718.382
 20
-5682.131
 30
-900.000
 70
    32
  0
VERTEX
  8
W62LXLIFT
 62
6
 10
705.256
 20
-5666.954
 30
-900.000
 70
    32
  0
VERTEX
  8
W62LXLIFT
 62
6
 10
699.630
 20
-5664.563
 30
-900.000
 70
    32
  0
VERTEX
  8
W62LXLIFT
 62
6
 10
686.774
 20
-5651.708
 30
-900.000
 70
    32
  0
VERTEX
  8
W62LXLIFT
 62
6
 10
684.069
 20
-5646.382
 30
-900.000
 70
    32
  0
VERTEX
  8
W62LXLIFT
 62
6
 10
681.336
 20
-5640.238
 30
-900.000
 70
    32
  0
SEQEND
  8
W62LXLIFT
  0
POLYLINE
  8
W62LXLIFT
 62
4
 66
     1
 70
     9
  0
VERTEX
  8
W62LXLIFT
 62
4
 10
682.356
 20
-5626.090
 30
-910.000
 70
    32
  0
VERTEX
  8
W62LXLIFT
 62
4
 10
691.437
 20
-5617.337
 30
-910.000
 70
    32
  0
VERTEX
  8
W62LXLIFT
 62
4
 10
695.735
 20
-5615.930
 30
-910.000
 70
    32
  0
VERTEX
  8
W62LXLIFT
 62
4
 10
698.586
 20
-5616.400
 30
-910.000
 70
    32
  0
VERTEX
  8
W62LXLIFT
 62
4
 10
707.707
 20
-5634.171
 30
-910.000
 70
    32
  0
VERTEX
  8
W62LXLIFT
 62
4
 10
721.764
 20
-5652.592
 30
-910.000
 70
    32
  0
VERTEX
  8
W62LXLIFT
 62
4
 10
728.374
 20
-5657.911
 30
-910.000
 70
    32
  0
VERTEX
  8
W62LXLIFT
 62
4
 10
737.533
 20
-5669.506
 30
-910.000
 70
    32
  0
VERTEX
  8
W62LXLIFT
 62
4
 10
745.358
 20
-5686.250
 30
-910.000
 70
    32
  0
VERTEX
  8
W62LXLIFT
 62
4
 10
745.373
 20
-5692.109
 30
-910.000
 70
    32
  0
VERTEX
  8
W62LXLIFT
 62
4
 10
738.778
 20
-5692.649
 30
-910.000
 70
    32
  0
VERTEX
  8
W62LXLIFT
 62
4
 10
733.762
 20
-5691.498
 30
-910.000
 70
    32
  0
VERTEX
  8
W62LXLIFT
 62
4
 10
724.438
 20
-5687.847
 30
-910.000
 70
    32
  0
VERTEX
  8
W62LXLIFT
 62
4
 10
711.691
 20
-5676.311
 30
-910.000
 70
    32
  0
VERTEX
  8
W62LXLIFT
 62
4
 10
697.223
 20
-5662.377
 30
-910.000
 70
    32
  0
VERTEX
  8
W62LXLIFT
 62
4
 10
691.876
 20
-5655.314
 30
-910.000
 70
    32
  0
VERTEX
  8
W62LXLIFT
 62
4
 10
684.678
 20
-5636.721
 30
-910.000
 70
    32
  0
SEQEND
  8
W62LXLIFT
  0
POLYLINE
  8
W62LXLIFT
 62
5
 66
     1
 70
     9
  0
VERTEX
  8
W62LXLIFT
 62
5
 10
684.020
 20
-5626.852
 30
-913.000
 70
    32
  0
VERTEX
  8
W62LXLIFT
 62
5
 10
684.356
 20
-5623.816
 30
-913.000
 70
    32
  0
VERTEX
  8
W62LXLIFT
 62
5
 10
690.596
 20
-5618.500
 30
-913.000
 70
    32
  0
VERTEX
  8
W62LXLIFT
 62
5
 10
695.891
 20
-5614.980
 30
-913.000
 70
    32
  0
VERTEX
  8
W62LXLIFT
 62
5
 10
701.706
 20
-5619.192
 30
-913.000
 70
    32
  0
VERTEX
  8
W62LXLIFT
 62
5
 10
710.851
 20
-5635.828
 30
-913.000
 70
    32
  0
VERTEX
  8
W62LXLIFT
 62
5
 10
724.937
 20
-5655.067
 30
-913.000
 70
    32
  0
VERTEX
  8
W62LXLIFT
 62
5
 10
726.993
 20
-5654.430
 30
-913.000
 70
    32
  0
VERTEX
  8
W62LXLIFT
 62
5
 10
729.556
 20
-5655.666
 30
-913.000
 70
    32
  0
VERTEX
  8
W62LXLIFT
 62
5
 10
732.175
 20
-5658.537
 30
-913.000
 70
    32
  0
VERTEX
  8
W62LXLIFT
 62
5
 10
737.315
 20
-5666.868
 30
-913.000
 70
    32
  0
VERTEX
  8
W62LXLIFT
 62
5
 10
742.696
 20
-5676.702
 30
-913.000
 70
    32
  0
VERTEX
  8
W62LXLIFT
 62
5
 10
746.994
 20
-5686.195
 30
-913.000
 70
    32
  0
VERTEX
  8
W62LXLIFT
 62
5
 10
746.853
 20
-5693.004
 30
-913.000
 70
    32
  0
VERTEX
  8
W62LXLIFT
 62
5
 10
745.562
 20
-5693.930
 30
-913.000
 70
    32
  0
VERTEX
  8
W62LXLIFT
 62
5
 10
738.282
 20
-5694.683
 30
-913.000
 70
    32
  0
VERTEX
  8
W62LXLIFT
 62
5
 10
736.381
 20
-5694.369
 30
-913.000
 70
    32
  0
VERTEX
  8
W62LXLIFT
 62
5
 10
726.339
 20
-5688.160
 30
-913.000
 70
    32
  0
VERTEX
  8
W62LXLIFT
 62
5
 10
713.833
 20
-5678.128
 30
-913.000
 70
    32
  0
VERTEX
  8
W62LXLIFT
 62
5
 10
702.751
 20
-5667.355
 30
-913.000
 70
    32
  0
VERTEX
  8
W62LXLIFT
 62
5
 10
694.386
 20
-5656.866
 30
-913.000
 70
    32
  0
VERTEX
  8
W62LXLIFT
 62
5
 10
688.092
 20
-5640.700
 30
-913.000
 70
    32
  0
SEQEND
  8
W62LXLIFT
  0
POLYLINE
  8
W62LXLIFT
 62
6
 66
     1
 70
     9
  0
VERTEX
  8
W62LXLIFT
 62
6
 10
685.931
 20
-5631.071
 30
-916.000
 70
    32
  0
VERTEX
  8
W62LXLIFT
 62
6
 10
684.971
 20
-5627.009
 30
-916.000
 70
    32
  0
VERTEX
  8
W62LXLIFT
 62
6
 10
685.883
 20
-5622.441
 30
-916.000
 70
    32
  0
VERTEX
  8
W62LXLIFT
 62
6
 10
691.622
 20
-5617.205
 30
-916.000
 70
    32
  0
VERTEX
  8
W62LXLIFT
 62
6
 10
695.021
 20
-5615.325
 30
-916.000
 70
    32
  0
VERTEX
  8
W62LXLIFT
 62
6
 10
699.564
 20
-5617.375
 30
-916.000
 70
    32
  0
VERTEX
  8
W62LXLIFT
 62
6
 10
706.945
 20
-5624.935
 30
-916.000
 70
    32
  0
VERTEX
  8
W62LXLIFT
 62
6
 10
709.966
 20
-5630.314
 30
-916.000
 70
    32
  0
VERTEX
  8
W62LXLIFT
 62
6
 10
715.905
 20
-5641.704
 30
-916.000
 70
    32
  0
VERTEX
  8
W62LXLIFT
 62
6
 10
725.778
 20
-5653.904
 30
-916.000
 70
    32
  0
VERTEX
  8
W62LXLIFT
 62
6
 10
728.468
 20
-5653.372
 30
-916.000
 70
    32
  0
VERTEX
  8
W62LXLIFT
 62
6
 10
733.834
 20
-5657.347
 30
-916.000
 70
    32
  0
VERTEX
  8
W62LXLIFT
 62
6
 10
744.464
 20
-5676.830
 30
-916.000
 70
    32
  0
VERTEX
  8
W62LXLIFT
 62
6
 10
743.968
 20
-5678.863
 30
-916.000
 70
    32
  0
VERTEX
  8
W62LXLIFT
 62
6
 10
749.372
 20
-5687.562
 30
-916.000
 70
    32
  0
VERTEX
  8
W62LXLIFT
 62
6
 10
747.463
 20
-5694.243
 30
-916.000
 70
    32
  0
VERTEX
  8
W62LXLIFT
 62
6
 10
735.937
 20
-5696.086
 30
-916.000
 70
    32
  0
VERTEX
  8
W62LXLIFT
 62
6
 10
732.225
 20
-5688.967
 30
-916.000
 70
    32
  0
VERTEX
  8
W62LXLIFT
 62
6
 10
727.630
 20
-5687.234
 30
-916.000
 70
    32
  0
VERTEX
  8
W62LXLIFT
 62
6
 10
711.422
 20
-5673.989
 30
-916.000
 70
    32
  0
VERTEX
  8
W62LXLIFT
 62
6
 10
695.866
 20
-5657.761
 30
-916.000
 70
    32
  0
SEQEND
  8
W62LXLIFT
  0
POLYLINE
  8
W62LXLIFT
 62
7
 66
     1
 70
     9
  0
VERTEX
  8
W62LXLIFT
 62
7
 10
686.427
 20
-5629.038
 30
-920.000
 70
    32
  0
VERTEX
  8
W62LXLIFT
 62
7
 10
687.363
 20
-5623.336
 30
-920.000
 70
    32
  0
VERTEX
  8
W62LXLIFT
 62
7
 10
689.858
 20
-5619.029
 30
-920.000
 70
    32
  0
VERTEX
  8
W62LXLIFT
 62
7
 10
698.841
 20
-5612.863
 30
-920.000
 70
    32
  0
VERTEX
  8
W62LXLIFT
 62
7
 10
702.353
 20
-5614.255
 30
-920.000
 70
    32
  0
VERTEX
  8
W62LXLIFT
 62
7
 10
708.633
 20
-5624.563
 30
-920.000
 70
    32
  0
VERTEX
  8
W62LXLIFT
 62
7
 10
716.874
 20
-5638.772
 30
-920.000
 70
    32
  0
VERTEX
  8
W62LXLIFT
 62
7
 10
719.938
 20
-5639.928
 30
-920.000
 70
    32
  0
VERTEX
  8
W62LXLIFT
 62
7
 10
725.693
 20
-5651.450
 30
-920.000
 70
    32
  0
VERTEX
  8
W62LXLIFT
 62
7
 10
730.260
 20
-5652.365
 30
-920.000
 70
    32
  0
VERTEX
  8
W62LXLIFT
 62
7
 10
736.690
 20
-5659.769
 30
-920.000
 70
    32
  0
VERTEX
  8
W62LXLIFT
 62
7
 10
739.631
 20
-5664.646
 30
-920.000
 70
    32
  0
VERTEX
  8
W62LXLIFT
 62
7
 10
746.365
 20
-5677.143
 30
-920.000
 70
    32
  0
VERTEX
  8
W62LXLIFT
 62
7
 10
750.824
 20
-5687.639
 30
-920.000
 70
    32
  0
VERTEX
  8
W62LXLIFT
 62
7
 10
747.936
 20
-5693.345
 30
-920.000
 70
    32
  0
VERTEX
  8
W62LXLIFT
 62
7
 10
737.729
 20
-5695.079
 30
-920.000
 70
    32
  0
VERTEX
  8
W62LXLIFT
 62
7
 10
734.769
 20
-5693.290
 30
-920.000
 70
    32
  0
VERTEX
  8
W62LXLIFT
 62
7
 10
721.856
 20
-5678.799
 30
-920.000
 70
    32
  0
VERTEX
  8
W62LXLIFT
 62
7
 10
712.263
 20
-5672.826
 30
-920.000
 70
    32
  0
VERTEX
  8
W62LXLIFT
 62
7
 10
698.159
 20
-5656.675
 30
-920.000
 70
    32
  0
VERTEX
  8
W62LXLIFT
 62
7
 10
690.385
 20
-5639.614
 30
-920.000
 70
    32
  0
SEQEND
  8
W62LXLIFT
  0
POLYLINE
  8
W62LXLIFT
 62
8
 66
     1
 70
     9
  0
VERTEX
  8
W62LXLIFT
 62
8
 10
687.647
 20
-5631.517
 30
-923.000
 70
    32
  0
VERTEX
  8
W62LXLIFT
 62
8
 10
688.284
 20
-5622.674
 30
-923.000
 70
    32
  0
VERTEX
  8
W62LXLIFT
 62
8
 10
689.991
 20
-5619.214
 30
-923.000
 70
    32
  0
VERTEX
  8
W62LXLIFT
 62
8
 10
694.756
 20
-5614.956
 30
-923.000
 70
    32
  0
VERTEX
  8
W62LXLIFT
 62
8
 10
696.193
 20
-5609.173
 30
-923.000
 70
    32
  0
VERTEX
  8
W62LXLIFT
 62
8
 10
698.187
 20
-5604.947
 30
-923.000
 70
    32
  0
VERTEX
  8
W62LXLIFT
 62
8
 10
706.419
 20
-5615.251
 30
-923.000
 70
    32
  0
VERTEX
  8
W62LXLIFT
 62
8
 10
722.306
 20
-5637.390
 30
-923.000
 70
    32
  0
VERTEX
  8
W62LXLIFT
 62
8
 10
725.990
 20
-5643.691
 30
-923.000
 70
    32
  0
VERTEX
  8
W62LXLIFT
 62
8
 10
727.532
 20
-5648.174
 30
-923.000
 70
    32
  0
VERTEX
  8
W62LXLIFT
 62
8
 10
733.744
 20
-5652.939
 30
-923.000
 70
    32
  0
VERTEX
  8
W62LXLIFT
 62
8
 10
741.555
 20
-5663.825
 30
-923.000
 70
    32
  0
VERTEX
  8
W62LXLIFT
 62
8
 10
746.965
 20
-5674.477
 30
-923.000
 70
    32
  0
VERTEX
  8
W62LXLIFT
 62
8
 10
752.247
 20
-5686.897
 30
-923.000
 70
    32
  0
VERTEX
  8
W62LXLIFT
 62
8
 10
751.486
 20
-5688.561
 30
-923.000
 70
    32
  0
VERTEX
  8
W62LXLIFT
 62
8
 10
742.395
 20
-5693.408
 30
-923.000
 70
    32
  0
VERTEX
  8
W62LXLIFT
 62
8
 10
739.175
 20
-5693.203
 30
-923.000
 70
    32
  0
VERTEX
  8
W62LXLIFT
 62
8
 10
736.613
 20
-5691.967
 30
-923.000
 70
    32
  0
VERTEX
  8
W62LXLIFT
 62
8
 10
725.761
 20
-5678.792
 30
-923.000
 70
    32
  0
VERTEX
  8
W62LXLIFT
 62
8
 10
714.849
 20
-5672.927
 30
-923.000
 70
    32
  0
VERTEX
  8
W62LXLIFT
 62
8
 10
705.241
 20
-5661.095
 30
-923.000
 70
    32
  0
VERTEX
  8
W62LXLIFT
 62
8
 10
698.892
 20
-5654.192
 30
-923.000
 70
    32
  0
VERTEX
  8
W62LXLIFT
 62
8
 10
691.709
 20
-5641.459
 30
-923.000
 70
    32
  0
SEQEND
  8
W62LXLIFT
  0
POLYLINE
  8
W62LXLIFT
 62
1
 66
     1
 70
     9
  0
VERTEX
  8
W62LXLIFT
 62
1
 10
692.347
 20
-5643.516
 30
-926.000
 70
    32
  0
VERTEX
  8
W62LXLIFT
 62
1
 10
688.205
 20
-5633.073
 30
-926.000
 70
    32
  0
VERTEX
  8
W62LXLIFT
 62
1
 10
687.391
 20
-5624.154
 30
-926.000
 70
    32
  0
VERTEX
  8
W62LXLIFT
 62
1
 10
690.303
 20
-5617.313
 30
-926.000
 70
    32
  0
VERTEX
  8
W62LXLIFT
 62
1
 10
694.784
 20
-5615.774
 30
-926.000
 70
    32
  0
VERTEX
  8
W62LXLIFT
 62
1
 10
695.640
 20
-5609.570
 30
-926.000
 70
    32
  0
VERTEX
  8
W62LXLIFT
 62
1
 10
694.177
 20
-5594.688
 30
-926.000
 70
    32
  0
VERTEX
  8
W62LXLIFT
 62
1
 10
713.011
 20
-5623.657
 30
-926.000
 70
    32
  0
VERTEX
  8
W62LXLIFT
 62
1
 10
718.353
 20
-5628.767
 30
-926.000
 70
    32
  0
VERTEX
  8
W62LXLIFT
 62
1
 10
721.048
 20
-5630.187
 30
-926.000
 70
    32
  0
VERTEX
  8
W62LXLIFT
 62
1
 10
725.999
 20
-5636.697
 30
-926.000
 70
    32
  0
VERTEX
  8
W62LXLIFT
 62
1
 10
730.240
 20
-5644.554
 30
-926.000
 70
    32
  0
VERTEX
  8
W62LXLIFT
 62
1
 10
737.101
 20
-5655.282
 30
-926.000
 70
    32
  0
VERTEX
  8
W62LXLIFT
 62
1
 10
745.234
 20
-5668.172
 30
-926.000
 70
    32
  0
VERTEX
  8
W62LXLIFT
 62
1
 10
754.436
 20
-5686.444
 30
-926.000
 70
    32
  0
VERTEX
  8
W62LXLIFT
 62
1
 10
752.252
 20
-5688.850
 30
-926.000
 70
    32
  0
VERTEX
  8
W62LXLIFT
 62
1
 10
749.406
 20
-5690.333
 30
-926.000
 70
    32
  0
VERTEX
  8
W62LXLIFT
 62
1
 10
745.425
 20
-5691.792
 30
-926.000
 70
    32
  0
VERTEX
  8
W62LXLIFT
 62
1
 10
742.073
 20
-5691.403
 30
-926.000
 70
    32
  0
VERTEX
  8
W62LXLIFT
 62
1
 10
733.672
 20
-5687.090
 30
-926.000
 70
    32
  0
VERTEX
  8
W62LXLIFT
 62
1
 10
729.378
 20
-5679.550
 30
-926.000
 70
    32
  0
VERTEX
  8
W62LXLIFT
 62
1
 10
721.397
 20
-5674.657
 30
-926.000
 70
    32
  0
VERTEX
  8
W62LXLIFT
 62
1
 10
712.858
 20
-5668.207
 30
-926.000
 70
    32
  0
VERTEX
  8
W62LXLIFT
 62
1
 10
709.969
 20
-5663.013
 30
-926.000
 70
    32
  0
VERTEX
  8
W62LXLIFT
 62
1
 10
702.858
 20
-5657.774
 30
-926.000
 70
    32
  0
SEQEND
  8
W62LXLIFT
  0
POLYLINE
  8
W62LXLIFT
 62
4
 66
     1
 70
     9
  0
VERTEX
  8
W62LXLIFT
 62
4
 10
681.118
 20
-5626.699
 30
-893.000
 70
    32
  0
VERTEX
  8
W62LXLIFT
 62
4
 10
685.036
 20
-5621.651
 30
-893.000
 70
    32
  0
VERTEX
  8
W62LXLIFT
 62
4
 10
690.814
 20
-5621.139
 30
-893.000
 70
    32
  0
VERTEX
  8
W62LXLIFT
 62
4
 10
696.658
 20
-5626.169
 30
-893.000
 70
    32
  0
VERTEX
  8
W62LXLIFT
 62
4
 10
701.377
 20
-5635.080
 30
-893.000
 70
    32
  0
VERTEX
  8
W62LXLIFT
 62
4
 10
702.043
 20
-5637.956
 30
-893.000
 70
    32
  0
VERTEX
  8
W62LXLIFT
 62
4
 10
705.609
 20
-5649.931
 30
-893.000
 70
    32
  0
VERTEX
  8
W62LXLIFT
 62
4
 10
712.257
 20
-5659.973
 30
-893.000
 70
    32
  0
VERTEX
  8
W62LXLIFT
 62
4
 10
718.527
 20
-5666.375
 30
-893.000
 70
    32
  0
VERTEX
  8
W62LXLIFT
 62
4
 10
721.917
 20
-5671.489
 30
-893.000
 70
    32
  0
VERTEX
  8
W62LXLIFT
 62
4
 10
722.641
 20
-5676.000
 30
-893.000
 70
    32
  0
VERTEX
  8
W62LXLIFT
 62
4
 10
718.816
 20
-5676.509
 30
-893.000
 70
    32
  0
VERTEX
  8
W62LXLIFT
 62
4
 10
712.764
 20
-5672.746
 30
-893.000
 70
    32
  0
VERTEX
  8
W62LXLIFT
 62
4
 10
707.076
 20
-5666.766
 30
-893.000
 70
    32
  0
VERTEX
  8
W62LXLIFT
 62
4
 10
701.095
 20
-5659.599
 30
-893.000
 70
    32
  0
VERTEX
  8
W62LXLIFT
 62
4
 10
695.204
 20
-5656.838
 30
-893.000
 70
    32
  0
VERTEX
  8
W62LXLIFT
 62
4
 10
691.790
 20
-5652.860
 30
-893.000
 70
    32
  0
VERTEX
  8
W62LXLIFT
 62
4
 10
688.911
 20
-5651.572
 30
-893.000
 70
    32
  0
VERTEX
  8
W62LXLIFT
 62
4
 10
684.065
 20
-5644.429
 30
-893.000
 70
    32
  0
VERTEX
  8
W62LXLIFT
 62
4
 10
680.428
 20
-5635.858
 30
-893.000
 70
    32
  0
SEQEND
  8
W62LXLIFT
  0
POLYLINE
  8
W62LXLIFT
 62
3
 66
     1
 70
     9
  0
VERTEX
  8
W62LXLIFT
 62
3
 10
704.207
 20
-5669.384
 30
-906.000
 70
    32
  0
VERTEX
  8
W62LXLIFT
 62
3
 10
697.966
 20
-5663.801
 30
-906.000
 70
    32
  0
VERTEX
  8
W62LXLIFT
 62
3
 10
689.975
 20
-5655.001
 30
-906.000
 70
    32
  0
VERTEX
  8
W62LXLIFT
 62
3
 10
684.740
 20
-5640.310
 30
-906.000
 70
    32
  0
VERTEX
  8
W62LXLIFT
 62
3
 10
683.416
 20
-5638.466
 30
-906.000
 70
    32
  0
VERTEX
  8
W62LXLIFT
 62
3
 10
681.496
 20
-5630.341
 30
-906.000
 70
    32
  0
VERTEX
  8
W62LXLIFT
 62
3
 10
681.780
 20
-5627.622
 30
-906.000
 70
    32
  0
VERTEX
  8
W62LXLIFT
 62
3
 10
687.778
 20
-5620.801
 30
-906.000
 70
    32
  0
VERTEX
  8
W62LXLIFT
 62
3
 10
692.123
 20
-5617.125
 30
-906.000
 70
    32
  0
VERTEX
  8
W62LXLIFT
 62
3
 10
697.007
 20
-5618.092
 30
-906.000
 70
    32
  0
VERTEX
  8
W62LXLIFT
 62
3
 10
708.397
 20
-5635.912
 30
-906.000
 70
    32
  0
VERTEX
  8
W62LXLIFT
 62
3
 10
713.773
 20
-5643.793
 30
-906.000
 70
    32
  0
VERTEX
  8
W62LXLIFT
 62
3
 10
727.031
 20
-5659.154
 30
-906.000
 70
    32
  0
VERTEX
  8
W62LXLIFT
 62
3
 10
735.528
 20
-5669.827
 30
-906.000
 70
    32
  0
VERTEX
  8
W62LXLIFT
 62
3
 10
739.268
 20
-5677.764
 30
-906.000
 70
    32
  0
VERTEX
  8
W62LXLIFT
 62
3
 10
743.273
 20
-5686.070
 30
-906.000
 70
    32
  0
VERTEX
  8
W62LXLIFT
 62
3
 10
743.359
 20
-5688.524
 30
-906.000
 70
    32
  0
VERTEX
  8
W62LXLIFT
 62
3
 10
741.411
 20
-5690.480
 30
-906.000
 70
    32
  0
VERTEX
  8
W62LXLIFT
 62
3
 10
734.102
 20
-5690.415
 30
-906.000
 70
    32
  0
VERTEX
  8
W62LXLIFT
 62
3
 10
721.743
 20
-5686.427
 30
-906.000
 70
    32
  0
VERTEX
  8
W62LXLIFT
 62
3
 10
714.126
 20
-5679.315
 30
-906.000
 70
    32
  0
VERTEX
  8
W62LXLIFT
 62
3
 10
707.989
 20
-5673.098
 30
-906.000
 70
    32
  0
SEQEND
  8
W62LXLIFT
  0
POLYLINE
  8
W62LXLIFT
 62
2
 66
     1
 70
     9
  0
VERTEX
  8
W62LXLIFT
 62
2
 10
679.539
 20
-5628.391
 30
-903.000
 70
    32
  0
VERTEX
  8
W62LXLIFT
 62
2
 10
686.828
 20
-5620.645
 30
-903.000
 70
    32
  0
VERTEX
  8
W62LXLIFT
 62
2
 10
691.281
 20
-5618.288
 30
-903.000
 70
    32
  0
VERTEX
  8
W62LXLIFT
 62
2
 10
695.404
 20
-5620.919
 30
-903.000
 70
    32
  0
VERTEX
  8
W62LXLIFT
 62
2
 10
702.813
 20
-5629.298
 30
-903.000
 70
    32
  0
VERTEX
  8
W62LXLIFT
 62
2
 10
708.984
 20
-5638.286
 30
-903.000
 70
    32
  0
VERTEX
  8
W62LXLIFT
 62
2
 10
713.968
 20
-5647.566
 30
-903.000
 70
    32
  0
VERTEX
  8
W62LXLIFT
 62
2
 10
718.814
 20
-5654.709
 30
-903.000
 70
    32
  0
VERTEX
  8
W62LXLIFT
 62
2
 10
723.254
 20
-5657.393
 30
-903.000
 70
    32
  0
VERTEX
  8
W62LXLIFT
 62
2
 10
732.602
 20
-5670.809
 30
-903.000
 70
    32
  0
VERTEX
  8
W62LXLIFT
 62
2
 10
738.139
 20
-5679.692
 30
-903.000
 70
    32
  0
VERTEX
  8
W62LXLIFT
 62
2
 10
739.132
 20
-5686.526
 30
-903.000
 70
    32
  0
VERTEX
  8
W62LXLIFT
 62
2
 10
738.555
 20
-5688.058
 30
-903.000
 70
    32
  0
VERTEX
  8
W62LXLIFT
 62
2
 10
732.145
 20
-5688.466
 30
-903.000
 70
    32
  0
VERTEX
  8
W62LXLIFT
 62
2
 10
721.715
 20
-5685.608
 30
-903.000
 70
    32
  0
VERTEX
  8
W62LXLIFT
 62
2
 10
715.422
 20
-5680.342
 30
-903.000
 70
    32
  0
VERTEX
  8
W62LXLIFT
 62
2
 10
705.947
 20
-5668.695
 30
-903.000
 70
    32
  0
VERTEX
  8
W62LXLIFT
 62
2
 10
697.701
 20
-5663.432
 30
-903.000
 70
    32
  0
VERTEX
  8
W62LXLIFT
 62
2
 10
686.959
 20
-5651.576
 30
-903.000
 70
    32
  0
VERTEX
  8
W62LXLIFT
 62
2
 10
683.823
 20
-5642.925
 30
-903.000
 70
    32
  0
VERTEX
  8
W62LXLIFT
 62
2
 10
679.790
 20
-5633.801
 30
-903.000
 70
    32
  0
SEQEND
  8
W62LXLIFT
  0
POLYLINE
  8
W62LXLIFT
 62
2
 66
     1
 70
     9
  0
VERTEX
  8
W62LXLIFT
 62
2
 10
824.714
 20
-5631.739
 30
-914.400
 70
    32
  0
VERTEX
  8
W62LXLIFT
 62
2
 10
823.822
 20
-5630.496
 30
-914.400
 70
    32
  0
VERTEX
  8
W62LXLIFT
 62
2
 10
822.122
 20
-5625.833
 30
-914.400
 70
    32
  0
VERTEX
  8
W62LXLIFT
 62
2
 10
818.428
 20
-5623.307
 30
-914.400
 70
    32
  0
VERTEX
  8
W62LXLIFT
 62
2
 10
811.700
 20
-5615.899
 30
-914.400
 70
    32
  0
VERTEX
  8
W62LXLIFT
 62
2
 10
811.421
 20
-5610.923
 30
-914.400
 70
    32
  0
VERTEX
  8
W62LXLIFT
 62
2
 10
812.641
 20
-5601.810
 30
-914.400
 70
    32
  0
VERTEX
  8
W62LXLIFT
 62
2
 10
816.955
 20
-5594.714
 30
-914.400
 70
    32
  0
VERTEX
  8
W62LXLIFT
 62
2
 10
824.322
 20
-5591.545
 30
-914.400
 70
    32
  0
VERTEX
  8
W62LXLIFT
 62
2
 10
828.517
 20
-5590.181
 30
-914.400
 70
    32
  0
VERTEX
  8
W62LXLIFT
 62
2
 10
830.507
 20
-5586.400
 30
-914.400
 70
    32
  0
VERTEX
  8
W62LXLIFT
 62
2
 10
834.864
 20
-5579.037
 30
-914.400
 70
    32
  0
VERTEX
  8
W62LXLIFT
 62
2
 10
839.943
 20
-5575.628
 30
-914.400
 70
    32
  0
VERTEX
  8
W62LXLIFT
 62
2
 10
844.169
 20
-5569.065
 30
-914.400
 70
    32
  0
VERTEX
  8
W62LXLIFT
 62
2
 10
852.989
 20
-5569.559
 30
-914.400
 70
    32
  0
VERTEX
  8
W62LXLIFT
 62
2
 10
857.241
 20
-5572.861
 30
-914.400
 70
    32
  0
VERTEX
  8
W62LXLIFT
 62
2
 10
857.914
 20
-5575.438
 30
-914.400
 70
    32
  0
VERTEX
  8
W62LXLIFT
 62
2
 10
854.524
 20
-5587.754
 30
-914.400
 70
    32
  0
VERTEX
  8
W62LXLIFT
 62
2
 10
853.490
 20
-5591.555
 30
-914.400
 70
    32
  0
VERTEX
  8
W62LXLIFT
 62
2
 10
858.052
 20
-5594.635
 30
-914.400
 70
    32
  0
VERTEX
  8
W62LXLIFT
 62
2
 10
859.092
 20
-5601.654
 30
-914.400
 70
    32
  0
VERTEX
  8
W62LXLIFT
 62
2
 10
855.307
 20
-5607.194
 30
-914.400
 70
    32
  0
VERTEX
  8
W62LXLIFT
 62
2
 10
855.232
 20
-5612.660
 30
-914.400
 70
    32
  0
VERTEX
  8
W62LXLIFT
 62
2
 10
852.753
 20
-5616.087
 30
-914.400
 70
    32
  0
VERTEX
  8
W62LXLIFT
 62
2
 10
849.386
 20
-5619.915
 30
-914.400
 70
    32
  0
VERTEX
  8
W62LXLIFT
 62
2
 10
845.390
 20
-5620.900
 30
-914.400
 70
    32
  0
VERTEX
  8
W62LXLIFT
 62
2
 10
842.994
 20
-5622.149
 30
-914.400
 70
    32
  0
VERTEX
  8
W62LXLIFT
 62
2
 10
841.872
 20
-5626.484
 30
-914.400
 70
    32
  0
VERTEX
  8
W62LXLIFT
 62
2
 10
838.609
 20
-5627.179
 30
-914.400
 70
    32
  0
SEQEND
  8
W62LXLIFT
  0
POLYLINE
  8
W62LXLIFT
 62
4
 66
     1
 70
     9
  0
VERTEX
  8
W62LXLIFT
 62
4
 10
814.491
 20
-5621.426
 30
-909.300
 70
    32
  0
VERTEX
  8
W62LXLIFT
 62
4
 10
808.594
 20
-5608.950
 30
-909.300
 70
    32
  0
VERTEX
  8
W62LXLIFT
 62
4
 10
810.349
 20
-5599.926
 30
-909.300
 70
    32
  0
VERTEX
  8
W62LXLIFT
 62
4
 10
813.226
 20
-5595.743
 30
-909.300
 70
    32
  0
VERTEX
  8
W62LXLIFT
 62
4
 10
817.930
 20
-5593.779
 30
-909.300
 70
    32
  0
VERTEX
  8
W62LXLIFT
 62
4
 10
822.149
 20
-5593.104
 30
-909.300
 70
    32
  0
VERTEX
  8
W62LXLIFT
 62
4
 10
824.541
 20
-5590.211
 30
-909.300
 70
    32
  0
VERTEX
  8
W62LXLIFT
 62
4
 10
826.841
 20
-5586.207
 30
-909.300
 70
    32
  0
VERTEX
  8
W62LXLIFT
 62
4
 10
838.917
 20
-5582.718
 30
-909.300
 70
    32
  0
VERTEX
  8
W62LXLIFT
 62
4
 10
851.941
 20
-5585.137
 30
-909.300
 70
    32
  0
VERTEX
  8
W62LXLIFT
 62
4
 10
850.915
 20
-5592.227
 30
-909.300
 70
    32
  0
VERTEX
  8
W62LXLIFT
 62
4
 10
851.632
 20
-5594.536
 30
-909.300
 70
    32
  0
VERTEX
  8
W62LXLIFT
 62
4
 10
851.174
 20
-5598.159
 30
-909.300
 70
    32
  0
VERTEX
  8
W62LXLIFT
 62
4
 10
846.797
 20
-5606.477
 30
-909.300
 70
    32
  0
VERTEX
  8
W62LXLIFT
 62
4
 10
841.524
 20
-5611.909
 30
-909.300
 70
    32
  0
VERTEX
  8
W62LXLIFT
 62
4
 10
832.916
 20
-5625.146
 30
-909.300
 70
    32
  0
VERTEX
  8
W62LXLIFT
 62
4
 10
820.852
 20
-5624.392
 30
-909.300
 70
    32
  0
SEQEND
  8
W62LXLIFT
  0
POLYLINE
  8
W62LXLIFT
 62
5
 66
     1
 70
     9
  0
VERTEX
  8
W62LXLIFT
 62
5
 10
808.295
 20
-5604.929
 30
-906.700
 70
    32
  0
VERTEX
  8
W62LXLIFT
 62
5
 10
810.683
 20
-5600.392
 30
-906.700
 70
    32
  0
VERTEX
  8
W62LXLIFT
 62
5
 10
815.976
 20
-5594.005
 30
-906.700
 70
    32
  0
VERTEX
  8
W62LXLIFT
 62
5
 10
818.018
 20
-5593.245
 30
-906.700
 70
    32
  0
VERTEX
  8
W62LXLIFT
 62
5
 10
820.704
 20
-5592.729
 30
-906.700
 70
    32
  0
VERTEX
  8
W62LXLIFT
 62
5
 10
824.003
 20
-5588.479
 30
-906.700
 70
    32
  0
VERTEX
  8
W62LXLIFT
 62
5
 10
827.665
 20
-5587.028
 30
-906.700
 70
    32
  0
VERTEX
  8
W62LXLIFT
 62
5
 10
837.480
 20
-5585.631
 30
-906.700
 70
    32
  0
VERTEX
  8
W62LXLIFT
 62
5
 10
847.013
 20
-5586.790
 30
-906.700
 70
    32
  0
VERTEX
  8
W62LXLIFT
 62
5
 10
848.371
 20
-5587.699
 30
-906.700
 70
    32
  0
VERTEX
  8
W62LXLIFT
 62
5
 10
847.206
 20
-5601.477
 30
-906.700
 70
    32
  0
VERTEX
  8
W62LXLIFT
 62
5
 10
845.531
 20
-5606.680
 30
-906.700
 70
    32
  0
VERTEX
  8
W62LXLIFT
 62
5
 10
842.921
 20
-5610.906
 30
-906.700
 70
    32
  0
VERTEX
  8
W62LXLIFT
 62
5
 10
833.446
 20
-5623.590
 30
-906.700
 70
    32
  0
VERTEX
  8
W62LXLIFT
 62
5
 10
827.849
 20
-5624.311
 30
-906.700
 70
    32
  0
VERTEX
  8
W62LXLIFT
 62
5
 10
820.920
 20
-5624.814
 30
-906.700
 70
    32
  0
VERTEX
  8
W62LXLIFT
 62
5
 10
812.465
 20
-5619.586
 30
-906.700
 70
    32
  0
VERTEX
  8
W62LXLIFT
 62
5
 10
810.537
 20
-5612.968
 30
-906.700
 70
    32
  0
SEQEND
  8
W62LXLIFT
  0
POLYLINE
  8
W62LXLIFT
 62
6
 66
     1
 70
     9
  0
VERTEX
  8
W62LXLIFT
 62
6
 10
844.665
 20
-5589.417
 30
-904.200
 70
    32
  0
VERTEX
  8
W62LXLIFT
 62
6
 10
846.075
 20
-5593.347
 30
-904.200
 70
    32
  0
VERTEX
  8
W62LXLIFT
 62
6
 10
846.553
 20
-5597.946
 30
-904.200
 70
    32
  0
VERTEX
  8
W62LXLIFT
 62
6
 10
844.950
 20
-5605.214
 30
-904.200
 70
    32
  0
VERTEX
  8
W62LXLIFT
 62
6
 10
841.078
 20
-5611.288
 30
-904.200
 70
    32
  0
VERTEX
  8
W62LXLIFT
 62
6
 10
837.493
 20
-5616.449
 30
-904.200
 70
    32
  0
VERTEX
  8
W62LXLIFT
 62
6
 10
834.970
 20
-5620.143
 30
-904.200
 70
    32
  0
VERTEX
  8
W62LXLIFT
 62
6
 10
831.822
 20
-5622.637
 30
-904.200
 70
    32
  0
VERTEX
  8
W62LXLIFT
 62
6
 10
829.290
 20
-5623.042
 30
-904.200
 70
    32
  0
VERTEX
  8
W62LXLIFT
 62
6
 10
820.474
 20
-5624.192
 30
-904.200
 70
    32
  0
VERTEX
  8
W62LXLIFT
 62
6
 10
817.540
 20
-5623.709
 30
-904.200
 70
    32
  0
VERTEX
  8
W62LXLIFT
 62
6
 10
813.066
 20
-5620.096
 30
-904.200
 70
    32
  0
VERTEX
  8
W62LXLIFT
 62
6
 10
809.184
 20
-5613.704
 30
-904.200
 70
    32
  0
VERTEX
  8
W62LXLIFT
 62
6
 10
810.473
 20
-5605.014
 30
-904.200
 70
    32
  0
VERTEX
  8
W62LXLIFT
 62
6
 10
817.198
 20
-5594.069
 30
-904.200
 70
    32
  0
VERTEX
  8
W62LXLIFT
 62
6
 10
819.216
 20
-5592.621
 30
-904.200
 70
    32
  0
VERTEX
  8
W62LXLIFT
 62
6
 10
823.052
 20
-5590.103
 30
-904.200
 70
    32
  0
VERTEX
  8
W62LXLIFT
 62
6
 10
826.113
 20
-5588.142
 30
-904.200
 70
    32
  0
VERTEX
  8
W62LXLIFT
 62
6
 10
830.017
 20
-5586.045
 30
-904.200
 70
    32
  0
VERTEX
  8
W62LXLIFT
 62
6
 10
833.683
 20
-5586.238
 30
-904.200
 70
    32
  0
SEQEND
  8
W62LXLIFT
  0
POLYLINE
  8
W62LXLIFT
 62
8
 66
     1
 70
     9
  0
VERTEX
  8
W62LXLIFT
 62
8
 10
828.568
 20
-5584.026
 30
-899.000
 70
    32
  0
VERTEX
  8
W62LXLIFT
 62
8
 10
836.282
 20
-5586.256
 30
-899.000
 70
    32
  0
VERTEX
  8
W62LXLIFT
 62
8
 10
839.821
 20
-5588.893
 30
-899.000
 70
    32
  0
VERTEX
  8
W62LXLIFT
 62
8
 10
841.119
 20
-5592.668
 30
-899.000
 70
    32
  0
VERTEX
  8
W62LXLIFT
 62
8
 10
842.784
 20
-5600.886
 30
-899.000
 70
    32
  0
VERTEX
  8
W62LXLIFT
 62
8
 10
836.501
 20
-5610.808
 30
-899.000
 70
    32
  0
VERTEX
  8
W62LXLIFT
 62
8
 10
834.961
 20
-5616.854
 30
-899.000
 70
    32
  0
VERTEX
  8
W62LXLIFT
 62
8
 10
834.432
 20
-5618.411
 30
-899.000
 70
    32
  0
VERTEX
  8
W62LXLIFT
 62
8
 10
829.776
 20
-5621.753
 30
-899.000
 70
    32
  0
VERTEX
  8
W62LXLIFT
 62
8
 10
826.046
 20
-5622.782
 30
-899.000
 70
    32
  0
VERTEX
  8
W62LXLIFT
 62
8
 10
817.763
 20
-5624.020
 30
-899.000
 70
    32
  0
VERTEX
  8
W62LXLIFT
 62
8
 10
811.868
 20
-5620.720
 30
-899.000
 70
    32
  0
VERTEX
  8
W62LXLIFT
 62
8
 10
806.967
 20
-5615.530
 30
-899.000
 70
    32
  0
VERTEX
  8
W62LXLIFT
 62
8
 10
807.134
 20
-5611.175
 30
-899.000
 70
    32
  0
VERTEX
  8
W62LXLIFT
 62
8
 10
810.890
 20
-5603.302
 30
-899.000
 70
    32
  0
VERTEX
  8
W62LXLIFT
 62
8
 10
815.984
 20
-5597.293
 30
-899.000
 70
    32
  0
VERTEX
  8
W62LXLIFT
 62
8
 10
818.488
 20
-5594.555
 30
-899.000
 70
    32
  0
VERTEX
  8
W62LXLIFT
 62
8
 10
822.165
 20
-5590.504
 30
-899.000
 70
    32
  0
VERTEX
  8
W62LXLIFT
 62
8
 10
825.177
 20
-5587.166
 30
-899.000
 70
    32
  0
VERTEX
  8
W62LXLIFT
 62
8
 10
826.614
 20
-5584.252
 30
-899.000
 70
    32
  0
SEQEND
  8
W62LXLIFT
  0
POLYLINE
  8
W62LXLIFT
 62
2
 66
     1
 70
     9
  0
VERTEX
  8
W62LXLIFT
 62
2
 10
825.189
 20
-5582.922
 30
-894.000
 70
    32
  0
VERTEX
  8
W62LXLIFT
 62
2
 10
835.992
 20
-5585.523
 30
-894.000
 70
    32
  0
VERTEX
  8
W62LXLIFT
 62
2
 10
838.158
 20
-5589.852
 30
-894.000
 70
    32
  0
VERTEX
  8
W62LXLIFT
 62
2
 10
839.608
 20
-5601.047
 30
-894.000
 70
    32
  0
VERTEX
  8
W62LXLIFT
 62
2
 10
832.876
 20
-5617.880
 30
-894.000
 70
    32
  0
VERTEX
  8
W62LXLIFT
 62
2
 10
827.332
 20
-5621.624
 30
-894.000
 70
    32
  0
VERTEX
  8
W62LXLIFT
 62
2
 10
816.406
 20
-5623.111
 30
-894.000
 70
    32
  0
VERTEX
  8
W62LXLIFT
 62
2
 10
809.289
 20
-5619.748
 30
-894.000
 70
    32
  0
VERTEX
  8
W62LXLIFT
 62
2
 10
803.946
 20
-5615.581
 30
-894.000
 70
    32
  0
VERTEX
  8
W62LXLIFT
 62
2
 10
803.496
 20
-5613.315
 30
-894.000
 70
    32
  0
VERTEX
  8
W62LXLIFT
 62
2
 10
804.754
 20
-5609.824
 30
-894.000
 70
    32
  0
VERTEX
  8
W62LXLIFT
 62
2
 10
810.333
 20
-5602.526
 30
-894.000
 70
    32
  0
VERTEX
  8
W62LXLIFT
 62
2
 10
818.962
 20
-5597.510
 30
-894.000
 70
    32
  0
VERTEX
  8
W62LXLIFT
 62
2
 10
819.502
 20
-5591.709
 30
-894.000
 70
    32
  0
VERTEX
  8
W62LXLIFT
 62
2
 10
820.823
 20
-5586.996
 30
-894.000
 70
    32
  0
VERTEX
  8
W62LXLIFT
 62
2
 10
823.370
 20
-5583.992
 30
-894.000
 70
    32
  0
SEQEND
  8
W62LXLIFT
  0
POLYLINE
  8
W62LXLIFT
 62
11
 66
     1
 70
     9
  0
VERTEX
  8
W62LXLIFT
 62
11
 10
826.590
 20
-5583.563
 30
-896.500
 70
    32
  0
VERTEX
  8
W62LXLIFT
 62
11
 10
837.349
 20
-5586.431
 30
-896.500
 70
    32
  0
VERTEX
  8
W62LXLIFT
 62
11
 10
839.224
 20
-5590.027
 30
-896.500
 70
    32
  0
VERTEX
  8
W62LXLIFT
 62
11
 10
840.376
 20
-5597.202
 30
-896.500
 70
    32
  0
VERTEX
  8
W62LXLIFT
 62
11
 10
840.810
 20
-5602.067
 30
-896.500
 70
    32
  0
VERTEX
  8
W62LXLIFT
 62
11
 10
833.477
 20
-5618.390
 30
-896.500
 70
    32
  0
VERTEX
  8
W62LXLIFT
 62
11
 10
828.820
 20
-5621.732
 30
-896.500
 70
    32
  0
VERTEX
  8
W62LXLIFT
 62
11
 10
816.517
 20
-5623.267
 30
-896.500
 70
    32
  0
VERTEX
  8
W62LXLIFT
 62
11
 10
809.710
 20
-5619.680
 30
-896.500
 70
    32
  0
VERTEX
  8
W62LXLIFT
 62
11
 10
805.391
 20
-5615.956
 30
-896.500
 70
    32
  0
VERTEX
  8
W62LXLIFT
 62
11
 10
805.271
 20
-5612.512
 30
-896.500
 70
    32
  0
VERTEX
  8
W62LXLIFT
 62
11
 10
807.436
 20
-5607.664
 30
-896.500
 70
    32
  0
VERTEX
  8
W62LXLIFT
 62
11
 10
810.066
 20
-5602.482
 30
-896.500
 70
    32
  0
VERTEX
  8
W62LXLIFT
 62
11
 10
815.503
 20
-5600.227
 30
-896.500
 70
    32
  0
VERTEX
  8
W62LXLIFT
 62
11
 10
821.671
 20
-5588.506
 30
-896.500
 70
    32
  0
VERTEX
  8
W62LXLIFT
 62
11
 10
825.125
 20
-5584.144
 30
-896.500
 70
    32
  0
SEQEND
  8
W62LXLIFT
  0
POLYLINE
  8
W62LXLIFT
 62
4
 66
     1
 70
     9
  0
VERTEX
  8
W62LXLIFT
 62
4
 10
823.907
 20
-5585.724
 30
-888.800
 70
    32
  0
VERTEX
  8
W62LXLIFT
 62
4
 10
830.992
 20
-5585.110
 30
-888.800
 70
    32
  0
VERTEX
  8
W62LXLIFT
 62
4
 10
834.658
 20
-5585.303
 30
-888.800
 70
    32
  0
VERTEX
  8
W62LXLIFT
 62
4
 10
835.976
 20
-5588.123
 30
-888.800
 70
    32
  0
VERTEX
  8
W62LXLIFT
 62
4
 10
836.447
 20
-5598.609
 30
-888.800
 70
    32
  0
VERTEX
  8
W62LXLIFT
 62
4
 10
833.471
 20
-5607.569
 30
-888.800
 70
    32
  0
VERTEX
  8
W62LXLIFT
 62
4
 10
831.606
 20
-5616.439
 30
-888.800
 70
    32
  0
VERTEX
  8
W62LXLIFT
 62
4
 10
825.819
 20
-5620.827
 30
-888.800
 70
    32
  0
VERTEX
  8
W62LXLIFT
 62
4
 10
814.471
 20
-5622.382
 30
-888.800
 70
    32
  0
VERTEX
  8
W62LXLIFT
 62
4
 10
810.642
 20
-5619.012
 30
-888.800
 70
    32
  0
VERTEX
  8
W62LXLIFT
 62
4
 10
809.543
 20
-5614.859
 30
-888.800
 70
    32
  0
VERTEX
  8
W62LXLIFT
 62
4
 10
809.554
 20
-5610.615
 30
-888.800
 70
    32
  0
VERTEX
  8
W62LXLIFT
 62
4
 10
815.866
 20
-5603.026
 30
-888.800
 70
    32
  0
VERTEX
  8
W62LXLIFT
 62
4
 10
817.708
 20
-5602.645
 30
-888.800
 70
    32
  0
VERTEX
  8
W62LXLIFT
 62
4
 10
822.688
 20
-5604.013
 30
-888.800
 70
    32
  0
VERTEX
  8
W62LXLIFT
 62
4
 10
822.739
 20
-5597.858
 30
-888.800
 70
    32
  0
VERTEX
  8
W62LXLIFT
 62
4
 10
821.509
 20
-5594.505
 30
-888.800
 70
    32
  0
VERTEX
  8
W62LXLIFT
 62
4
 10
821.253
 20
-5590.217
 30
-888.800
 70
    32
  0
SEQEND
  8
W62LXLIFT
  0
POLYLINE
  8
W62LXLIFT
 62
3
 66
     1
 70
     9
  0
VERTEX
  8
W62LXLIFT
 62
3
 10
823.012
 20
-5582.837
 30
-891.000
 70
    32
  0
VERTEX
  8
W62LXLIFT
 62
3
 10
835.992
 20
-5585.523
 30
-891.000
 70
    32
  0
VERTEX
  8
W62LXLIFT
 62
3
 10
837.067
 20
-5588.987
 30
-891.000
 70
    32
  0
VERTEX
  8
W62LXLIFT
 62
3
 10
838.119
 20
-5600.939
 30
-891.000
 70
    32
  0
VERTEX
  8
W62LXLIFT
 62
3
 10
833.344
 20
-5610.014
 30
-891.000
 70
    32
  0
VERTEX
  8
W62LXLIFT
 62
3
 10
833.667
 20
-5614.724
 30
-891.000
 70
    32
  0
VERTEX
  8
W62LXLIFT
 62
3
 10
831.654
 20
-5617.816
 30
-891.000
 70
    32
  0
VERTEX
  8
W62LXLIFT
 62
3
 10
826.575
 20
-5621.225
 30
-891.000
 70
    32
  0
VERTEX
  8
W62LXLIFT
 62
3
 10
815.494
 20
-5622.824
 30
-891.000
 70
    32
  0
VERTEX
  8
W62LXLIFT
 62
3
 10
809.153
 20
-5618.904
 30
-891.000
 70
    32
  0
VERTEX
  8
W62LXLIFT
 62
3
 10
805.634
 20
-5615.311
 30
-891.000
 70
    32
  0
VERTEX
  8
W62LXLIFT
 62
3
 10
806.688
 20
-5610.554
 30
-891.000
 70
    32
  0
VERTEX
  8
W62LXLIFT
 62
3
 10
811.233
 20
-5607.057
 30
-891.000
 70
    32
  0
VERTEX
  8
W62LXLIFT
 62
3
 10
813.461
 20
-5600.987
 30
-891.000
 70
    32
  0
VERTEX
  8
W62LXLIFT
 62
3
 10
819.053
 20
-5598.621
 30
-891.000
 70
    32
  0
VERTEX
  8
W62LXLIFT
 62
3
 10
819.347
 20
-5591.821
 30
-891.000
 70
    32
  0
VERTEX
  8
W62LXLIFT
 62
3
 10
820.838
 20
-5584.397
 30
-891.000
 70
    32
  0
SEQEND
  8
W62LXLIFT
  0
POLYLINE
  8
W62LXLIFT
 62
5
 66
     1
 70
     9
  0
VERTEX
  8
W62LXLIFT
 62
5
 10
822.105
 20
-5593.371
 30
-887.000
 70
    32
  0
VERTEX
  8
W62LXLIFT
 62
5
 10
822.296
 20
-5589.704
 30
-887.000
 70
    32
  0
VERTEX
  8
W62LXLIFT
 62
5
 10
824.775
 20
-5586.278
 30
-887.000
 70
    32
  0
VERTEX
  8
W62LXLIFT
 62
5
 10
831.307
 20
-5586.532
 30
-887.000
 70
    32
  0
VERTEX
  8
W62LXLIFT
 62
5
 10
833.954
 20
-5587.927
 30
-887.000
 70
    32
  0
VERTEX
  8
W62LXLIFT
 62
5
 10
834.620
 20
-5596.391
 30
-887.000
 70
    32
  0
VERTEX
  8
W62LXLIFT
 62
5
 10
833.188
 20
-5600.949
 30
-887.000
 70
    32
  0
VERTEX
  8
W62LXLIFT
 62
5
 10
828.280
 20
-5601.647
 30
-887.000
 70
    32
  0
VERTEX
  8
W62LXLIFT
 62
5
 10
824.276
 20
-5599.344
 30
-887.000
 70
    32
  0
SEQEND
  8
W62LXLIFT
  0
POLYLINE
  8
W62LXLIFT
 62
7
 66
     1
 70
     9
  0
VERTEX
  8
W62LXLIFT
 62
7
 10
830.287
 20
-5585.493
 30
-901.700
 70
    32
  0
VERTEX
  8
W62LXLIFT
 62
7
 10
835.022
 20
-5586.273
 30
-901.700
 70
    32
  0
VERTEX
  8
W62LXLIFT
 62
7
 10
843.981
 20
-5589.651
 30
-901.700
 70
    32
  0
VERTEX
  8
W62LXLIFT
 62
7
 10
844.664
 20
-5595.156
 30
-901.700
 70
    32
  0
VERTEX
  8
W62LXLIFT
 62
7
 10
844.419
 20
-5599.873
 30
-901.700
 70
    32
  0
VERTEX
  8
W62LXLIFT
 62
7
 10
841.437
 20
-5607.099
 30
-901.700
 70
    32
  0
VERTEX
  8
W62LXLIFT
 62
7
 10
838.003
 20
-5611.925
 30
-901.700
 70
    32
  0
VERTEX
  8
W62LXLIFT
 62
7
 10
835.429
 20
-5617.950
 30
-901.700
 70
    32
  0
VERTEX
  8
W62LXLIFT
 62
7
 10
831.153
 20
-5622.109
 30
-901.700
 70
    32
  0
VERTEX
  8
W62LXLIFT
 62
7
 10
822.532
 20
-5623.755
 30
-901.700
 70
    32
  0
VERTEX
  8
W62LXLIFT
 62
7
 10
819.720
 20
-5624.137
 30
-901.700
 70
    32
  0
VERTEX
  8
W62LXLIFT
 62
7
 10
817.318
 20
-5623.319
 30
-901.700
 70
    32
  0
VERTEX
  8
W62LXLIFT
 62
7
 10
812.629
 20
-5620.326
 30
-901.700
 70
    32
  0
VERTEX
  8
W62LXLIFT
 62
7
 10
808.192
 20
-5615.155
 30
-901.700
 70
    32
  0
VERTEX
  8
W62LXLIFT
 62
7
 10
808.351
 20
-5610.318
 30
-901.700
 70
    32
  0
VERTEX
  8
W62LXLIFT
 62
7
 10
810.292
 20
-5604.929
 30
-901.700
 70
    32
  0
VERTEX
  8
W62LXLIFT
 62
7
 10
813.947
 20
-5599.399
 30
-901.700
 70
    32
  0
VERTEX
  8
W62LXLIFT
 62
7
 10
818.014
 20
-5593.938
 30
-901.700
 70
    32
  0
VERTEX
  8
W62LXLIFT
 62
7
 10
826.604
 20
-5586.683
 30
-901.700
 70
    32
  0
SEQEND
  8
W62LXLIFT
  0
POLYLINE
  8
W62LXLIFT
 62
3
 66
     1
 70
     9
  0
VERTEX
  8
W62LXLIFT
 62
3
 10
837.260
 20
-5577.788
 30
-911.800
 70
    32
  0
VERTEX
  8
W62LXLIFT
 62
3
 10
845.512
 20
-5581.750
 30
-911.800
 70
    32
  0
VERTEX
  8
W62LXLIFT
 62
3
 10
853.135
 20
-5582.868
 30
-911.800
 70
    32
  0
VERTEX
  8
W62LXLIFT
 62
3
 10
853.278
 20
-5587.001
 30
-911.800
 70
    32
  0
VERTEX
  8
W62LXLIFT
 62
3
 10
852.042
 20
-5598.713
 30
-911.800
 70
    32
  0
VERTEX
  8
W62LXLIFT
 62
3
 10
850.188
 20
-5603.338
 30
-911.800
 70
    32
  0
VERTEX
  8
W62LXLIFT
 62
3
 10
844.724
 20
-5612.436
 30
-911.800
 70
    32
  0
VERTEX
  8
W62LXLIFT
 62
3
 10
843.483
 20
-5613.327
 30
-911.800
 70
    32
  0
VERTEX
  8
W62LXLIFT
 62
3
 10
840.485
 20
-5614.066
 30
-911.800
 70
    32
  0
VERTEX
  8
W62LXLIFT
 62
3
 10
837.027
 20
-5616.784
 30
-911.800
 70
    32
  0
VERTEX
  8
W62LXLIFT
 62
3
 10
835.380
 20
-5624.319
 30
-911.800
 70
    32
  0
VERTEX
  8
W62LXLIFT
 62
3
 10
829.550
 20
-5628.974
 30
-911.800
 70
    32
  0
VERTEX
  8
W62LXLIFT
 62
3
 10
823.455
 20
-5626.053
 30
-911.800
 70
    32
  0
VERTEX
  8
W62LXLIFT
 62
3
 10
814.423
 20
-5621.004
 30
-911.800
 70
    32
  0
VERTEX
  8
W62LXLIFT
 62
3
 10
808.109
 20
-5610.240
 30
-911.800
 70
    32
  0
VERTEX
  8
W62LXLIFT
 62
3
 10
810.556
 20
-5602.836
 30
-911.800
 70
    32
  0
VERTEX
  8
W62LXLIFT
 62
3
 10
815.864
 20
-5593.849
 30
-911.800
 70
    32
  0
VERTEX
  8
W62LXLIFT
 62
3
 10
823.104
 20
-5593.125
 30
-911.800
 70
    32
  0
VERTEX
  8
W62LXLIFT
 62
3
 10
826.054
 20
-5591.008
 30
-911.800
 70
    32
  0
VERTEX
  8
W62LXLIFT
 62
3
 10
828.684
 20
-5585.826
 30
-911.800
 70
    32
  0
VERTEX
  8
W62LXLIFT
 62
3
 10
834.976
 20
-5579.192
 30
-911.800
 70
    32
  0
SEQEND
  8
W62LXLIFT
  0
ENDSEC
  0
EOF
