999
********************************
999
*   DXF File - Entities Only   *
999
*        3D Data Format        *
999
*     Output from ENVISAGE     *
999
*     02-Jan-2008 11:06:44     *
999
********************************
  0
SECTION 
  2
HEADER
  9
$ACADVER
  1
AC1009
  9
$EXTMIN
 10
-290000.000
 20
-250000.000
 30
-4000.000
  9
$EXTMAX
 10
320000.000
 20
160000.000
 30
6000.000
  0
ENDSEC
  0
SECTION
  2
ENTITIES
  0
POLYLINE
  8
W63LALIFT
 62
6
 66
     1
 70
     8
  0
VERTEX
  8
W63LALIFT
 62
6
 10
1708.427
 20
-8216.963
 30
-1057.000
 70
    32
  0
VERTEX
  8
W63LALIFT
 62
6
 10
1706.607
 20
-8218.621
 30
-1057.000
 70
    32
  0
VERTEX
  8
W63LALIFT
 62
6
 10
1708.874
 20
-8231.226
 30
-1057.000
 70
    32
  0
VERTEX
  8
W63LALIFT
 62
6
 10
1715.048
 20
-8240.061
 30
-1055.500
 70
    32
  0
VERTEX
  8
W63LALIFT
 62
6
 10
1719.424
 20
-8250.399
 30
-1054.000
 70
    32
  0
VERTEX
  8
W63LALIFT
 62
6
 10
1724.767
 20
-8249.910
 30
-1054.000
 70
    32
  0
VERTEX
  8
W63LALIFT
 62
6
 10
1730.904
 20
-8244.583
 30
-1054.000
 70
    32
  0
VERTEX
  8
W63LALIFT
 62
6
 10
1723.074
 20
-8220.785
 30
-1057.000
 70
    32
  0
VERTEX
  8
W63LALIFT
 62
6
 10
1719.616
 20
-8210.984
 30
-1057.000
 70
    32
  0
SEQEND
  8
W63LALIFT
  0
LINE
  8
W63LALIFT
 62
4
 10
840.372
 20
-5884.522
 30
-977.000
 11
838.112
 21
-5873.177
 31
-977.000
  0
POLYLINE
  8
W63LALIFT
 62
4
 66
     1
 70
     8
  0
VERTEX
  8
W63LALIFT
 62
4
 10
838.112
 20
-5873.177
 30
-977.000
 70
    32
  0
VERTEX
  8
W63LALIFT
 62
4
 10
847.846
 20
-5869.749
 30
-976.500
 70
    32
  0
VERTEX
  8
W63LALIFT
 62
4
 10
859.864
 20
-5872.235
 30
-976.000
 70
    32
  0
VERTEX
  8
W63LALIFT
 62
4
 10
862.216
 20
-5875.256
 30
-976.000
 70
    32
  0
VERTEX
  8
W63LALIFT
 62
4
 10
876.796
 20
-5879.470
 30
-972.000
 70
    32
  0
VERTEX
  8
W63LALIFT
 62
4
 10
888.420
 20
-5887.799
 30
-972.000
 70
    32
  0
VERTEX
  8
W63LALIFT
 62
4
 10
892.107
 20
-5904.671
 30
-972.000
 70
    32
  0
VERTEX
  8
W63LALIFT
 62
4
 10
898.445
 20
-5918.005
 30
-972.000
 70
    32
  0
VERTEX
  8
W63LALIFT
 62
4
 10
899.489
 20
-5921.244
 30
-973.000
 70
    32
  0
VERTEX
  8
W63LALIFT
 62
4
 10
904.778
 20
-5928.953
 30
-973.000
 70
    32
  0
VERTEX
  8
W63LALIFT
 62
4
 10
919.341
 20
-5952.130
 30
-973.000
 70
    32
  0
VERTEX
  8
W63LALIFT
 62
4
 10
928.754
 20
-5969.937
 30
-973.000
 70
    32
  0
VERTEX
  8
W63LALIFT
 62
4
 10
933.563
 20
-6012.081
 30
-973.000
 70
    32
  0
VERTEX
  8
W63LALIFT
 62
4
 10
936.315
 20
-6022.380
 30
-973.000
 70
    32
  0
VERTEX
  8
W63LALIFT
 62
4
 10
924.238
 20
-6023.477
 30
-973.000
 70
    32
  0
VERTEX
  8
W63LALIFT
 62
4
 10
921.691
 20
-6007.320
 30
-973.000
 70
    32
  0
VERTEX
  8
W63LALIFT
 62
4
 10
914.718
 20
-5988.033
 30
-973.000
 70
    32
  0
VERTEX
  8
W63LALIFT
 62
4
 10
896.526
 20
-5960.256
 30
-973.000
 70
    32
  0
VERTEX
  8
W63LALIFT
 62
4
 10
889.760
 20
-5953.775
 30
-973.000
 70
    32
  0
VERTEX
  8
W63LALIFT
 62
4
 10
886.447
 20
-5941.993
 30
-973.000
 70
    32
  0
VERTEX
  8
W63LALIFT
 62
4
 10
880.249
 20
-5930.715
 30
-973.000
 70
    32
  0
VERTEX
  8
W63LALIFT
 62
4
 10
878.837
 20
-5928.317
 30
-972.000
 70
    32
  0
VERTEX
  8
W63LALIFT
 62
4
 10
873.026
 20
-5913.179
 30
-972.000
 70
    32
  0
VERTEX
  8
W63LALIFT
 62
4
 10
868.561
 20
-5906.420
 30
-972.000
 70
    32
  0
VERTEX
  8
W63LALIFT
 62
4
 10
849.801
 20
-5888.966
 30
-976.000
 70
    32
  0
VERTEX
  8
W63LALIFT
 62
4
 10
840.372
 20
-5884.522
 30
-977.000
 70
    32
  0
SEQEND
  8
W63LALIFT
  0
POLYLINE
  8
W63LALIFT
 62
2
 66
     1
 70
     9
  0
VERTEX
  8
W63LALIFT
 62
2
 10
1731.258
 20
-8178.855
 30
-1092.000
 70
    32
  0
VERTEX
  8
W63LALIFT
 62
2
 10
1720.856
 20
-8183.883
 30
-1092.000
 70
    32
  0
VERTEX
  8
W63LALIFT
 62
2
 10
1722.544
 20
-8189.648
 30
-1092.000
 70
    32
  0
VERTEX
  8
W63LALIFT
 62
2
 10
1723.285
 20
-8199.036
 30
-1092.000
 70
    32
  0
VERTEX
  8
W63LALIFT
 62
2
 10
1730.236
 20
-8207.942
 30
-1092.000
 70
    32
  0
VERTEX
  8
W63LALIFT
 62
2
 10
1738.666
 20
-8219.142
 30
-1092.000
 70
    32
  0
VERTEX
  8
W63LALIFT
 62
2
 10
1746.415
 20
-8257.840
 30
-1089.000
 70
    32
  0
VERTEX
  8
W63LALIFT
 62
2
 10
1751.898
 20
-8268.619
 30
-1089.000
 70
    32
  0
VERTEX
  8
W63LALIFT
 62
2
 10
1756.492
 20
-8285.591
 30
-1089.000
 70
    32
  0
VERTEX
  8
W63LALIFT
 62
2
 10
1763.379
 20
-8313.420
 30
-1089.000
 70
    32
  0
VERTEX
  8
W63LALIFT
 62
2
 10
1774.800
 20
-8309.058
 30
-1089.000
 70
    32
  0
VERTEX
  8
W63LALIFT
 62
2
 10
1770.594
 20
-8291.523
 30
-1089.000
 70
    32
  0
VERTEX
  8
W63LALIFT
 62
2
 10
1759.754
 20
-8257.923
 30
-1089.000
 70
    32
  0
VERTEX
  8
W63LALIFT
 62
2
 10
1756.954
 20
-8247.663
 30
-1089.000
 70
    32
  0
VERTEX
  8
W63LALIFT
 62
2
 10
1758.512
 20
-8237.184
 30
-1092.000
 70
    32
  0
VERTEX
  8
W63LALIFT
 62
2
 10
1762.016
 20
-8233.618
 30
-1092.000
 70
    32
  0
VERTEX
  8
W63LALIFT
 62
2
 10
1752.223
 20
-8215.665
 30
-1092.000
 70
    32
  0
VERTEX
  8
W63LALIFT
 62
2
 10
1752.640
 20
-8212.700
 30
-1092.000
 70
    32
  0
VERTEX
  8
W63LALIFT
 62
2
 10
1741.452
 20
-8194.136
 30
-1092.000
 70
    32
  0
VERTEX
  8
W63LALIFT
 62
2
 10
1736.805
 20
-8186.281
 30
-1092.000
 70
    32
  0
SEQEND
  8
W63LALIFT
  0
POLYLINE
  8
W63LALIFT
 62
2
 66
     1
 70
     8
  0
VERTEX
  8
W63LALIFT
 62
2
 10
775.670
 20
-5910.669
 30
-963.500
 70
    32
  0
VERTEX
  8
W63LALIFT
 62
2
 10
775.661
 20
-5910.451
 30
-963.500
 70
    32
  0
VERTEX
  8
W63LALIFT
 62
2
 10
775.632
 20
-5910.235
 30
-963.500
 70
    32
  0
VERTEX
  8
W63LALIFT
 62
2
 10
775.585
 20
-5910.022
 30
-963.500
 70
    32
  0
VERTEX
  8
W63LALIFT
 62
2
 10
775.520
 20
-5909.814
 30
-963.500
 70
    32
  0
VERTEX
  8
W63LALIFT
 62
2
 10
775.436
 20
-5909.612
 30
-963.500
 70
    32
  0
VERTEX
  8
W63LALIFT
 62
2
 10
775.335
 20
-5909.419
 30
-963.500
 70
    32
  0
VERTEX
  8
W63LALIFT
 62
2
 10
775.218
 20
-5909.235
 30
-963.500
 70
    32
  0
VERTEX
  8
W63LALIFT
 62
2
 10
775.085
 20
-5909.062
 30
-963.500
 70
    32
  0
VERTEX
  8
W63LALIFT
 62
2
 10
774.938
 20
-5908.901
 30
-963.500
 70
    32
  0
VERTEX
  8
W63LALIFT
 62
2
 10
774.777
 20
-5908.754
 30
-963.500
 70
    32
  0
VERTEX
  8
W63LALIFT
 62
2
 10
774.604
 20
-5908.621
 30
-963.500
 70
    32
  0
VERTEX
  8
W63LALIFT
 62
2
 10
774.420
 20
-5908.504
 30
-963.500
 70
    32
  0
VERTEX
  8
W63LALIFT
 62
2
 10
774.227
 20
-5908.403
 30
-963.500
 70
    32
  0
VERTEX
  8
W63LALIFT
 62
2
 10
774.025
 20
-5908.320
 30
-963.500
 70
    32
  0
VERTEX
  8
W63LALIFT
 62
2
 10
773.817
 20
-5908.254
 30
-963.500
 70
    32
  0
VERTEX
  8
W63LALIFT
 62
2
 10
773.604
 20
-5908.207
 30
-963.500
 70
    32
  0
VERTEX
  8
W63LALIFT
 62
2
 10
773.388
 20
-5908.178
 30
-963.500
 70
    32
  0
VERTEX
  8
W63LALIFT
 62
2
 10
773.170
 20
-5908.169
 30
-963.500
 70
    32
  0
VERTEX
  8
W63LALIFT
 62
2
 10
772.952
 20
-5908.178
 30
-963.500
 70
    32
  0
VERTEX
  8
W63LALIFT
 62
2
 10
772.736
 20
-5908.207
 30
-963.500
 70
    32
  0
VERTEX
  8
W63LALIFT
 62
2
 10
772.523
 20
-5908.254
 30
-963.500
 70
    32
  0
VERTEX
  8
W63LALIFT
 62
2
 10
772.315
 20
-5908.320
 30
-963.500
 70
    32
  0
VERTEX
  8
W63LALIFT
 62
2
 10
772.114
 20
-5908.403
 30
-963.500
 70
    32
  0
VERTEX
  8
W63LALIFT
 62
2
 10
771.920
 20
-5908.504
 30
-963.500
 70
    32
  0
VERTEX
  8
W63LALIFT
 62
2
 10
771.736
 20
-5908.621
 30
-963.500
 70
    32
  0
VERTEX
  8
W63LALIFT
 62
2
 10
771.563
 20
-5908.754
 30
-963.500
 70
    32
  0
VERTEX
  8
W63LALIFT
 62
2
 10
771.403
 20
-5908.901
 30
-963.500
 70
    32
  0
VERTEX
  8
W63LALIFT
 62
2
 10
771.255
 20
-5909.062
 30
-963.500
 70
    32
  0
VERTEX
  8
W63LALIFT
 62
2
 10
771.122
 20
-5909.235
 30
-963.500
 70
    32
  0
VERTEX
  8
W63LALIFT
 62
2
 10
771.005
 20
-5909.419
 30
-963.500
 70
    32
  0
VERTEX
  8
W63LALIFT
 62
2
 10
770.905
 20
-5909.612
 30
-963.500
 70
    32
  0
VERTEX
  8
W63LALIFT
 62
2
 10
770.821
 20
-5909.814
 30
-963.500
 70
    32
  0
VERTEX
  8
W63LALIFT
 62
2
 10
770.756
 20
-5910.022
 30
-963.500
 70
    32
  0
VERTEX
  8
W63LALIFT
 62
2
 10
770.708
 20
-5910.235
 30
-963.500
 70
    32
  0
VERTEX
  8
W63LALIFT
 62
2
 10
770.680
 20
-5910.451
 30
-963.500
 70
    32
  0
VERTEX
  8
W63LALIFT
 62
2
 10
770.670
 20
-5910.669
 30
-963.500
 70
    32
  0
VERTEX
  8
W63LALIFT
 62
2
 10
770.680
 20
-5910.887
 30
-963.500
 70
    32
  0
VERTEX
  8
W63LALIFT
 62
2
 10
770.708
 20
-5911.103
 30
-963.500
 70
    32
  0
VERTEX
  8
W63LALIFT
 62
2
 10
770.756
 20
-5911.316
 30
-963.500
 70
    32
  0
VERTEX
  8
W63LALIFT
 62
2
 10
770.821
 20
-5911.524
 30
-963.500
 70
    32
  0
VERTEX
  8
W63LALIFT
 62
2
 10
770.905
 20
-5911.725
 30
-963.500
 70
    32
  0
VERTEX
  8
W63LALIFT
 62
2
 10
771.005
 20
-5911.919
 30
-963.500
 70
    32
  0
VERTEX
  8
W63LALIFT
 62
2
 10
771.122
 20
-5912.103
 30
-963.500
 70
    32
  0
VERTEX
  8
W63LALIFT
 62
2
 10
771.255
 20
-5912.276
 30
-963.500
 70
    32
  0
VERTEX
  8
W63LALIFT
 62
2
 10
771.403
 20
-5912.437
 30
-963.500
 70
    32
  0
VERTEX
  8
W63LALIFT
 62
2
 10
771.563
 20
-5912.584
 30
-963.500
 70
    32
  0
VERTEX
  8
W63LALIFT
 62
2
 10
771.736
 20
-5912.717
 30
-963.500
 70
    32
  0
VERTEX
  8
W63LALIFT
 62
2
 10
771.920
 20
-5912.834
 30
-963.500
 70
    32
  0
VERTEX
  8
W63LALIFT
 62
2
 10
772.114
 20
-5912.935
 30
-963.500
 70
    32
  0
VERTEX
  8
W63LALIFT
 62
2
 10
772.315
 20
-5913.018
 30
-963.500
 70
    32
  0
VERTEX
  8
W63LALIFT
 62
2
 10
772.523
 20
-5913.084
 30
-963.500
 70
    32
  0
VERTEX
  8
W63LALIFT
 62
2
 10
772.736
 20
-5913.131
 30
-963.500
 70
    32
  0
VERTEX
  8
W63LALIFT
 62
2
 10
772.952
 20
-5913.159
 30
-963.500
 70
    32
  0
VERTEX
  8
W63LALIFT
 62
2
 10
773.170
 20
-5913.169
 30
-963.500
 70
    32
  0
VERTEX
  8
W63LALIFT
 62
2
 10
773.388
 20
-5913.159
 30
-963.500
 70
    32
  0
VERTEX
  8
W63LALIFT
 62
2
 10
773.604
 20
-5913.131
 30
-963.500
 70
    32
  0
VERTEX
  8
W63LALIFT
 62
2
 10
773.817
 20
-5913.084
 30
-963.500
 70
    32
  0
VERTEX
  8
W63LALIFT
 62
2
 10
774.025
 20
-5913.018
 30
-963.500
 70
    32
  0
VERTEX
  8
W63LALIFT
 62
2
 10
774.227
 20
-5912.935
 30
-963.500
 70
    32
  0
VERTEX
  8
W63LALIFT
 62
2
 10
774.420
 20
-5912.834
 30
-963.500
 70
    32
  0
VERTEX
  8
W63LALIFT
 62
2
 10
774.604
 20
-5912.717
 30
-963.500
 70
    32
  0
VERTEX
  8
W63LALIFT
 62
2
 10
774.777
 20
-5912.584
 30
-963.500
 70
    32
  0
VERTEX
  8
W63LALIFT
 62
2
 10
774.938
 20
-5912.437
 30
-963.500
 70
    32
  0
VERTEX
  8
W63LALIFT
 62
2
 10
775.085
 20
-5912.276
 30
-963.500
 70
    32
  0
VERTEX
  8
W63LALIFT
 62
2
 10
775.218
 20
-5912.103
 30
-963.500
 70
    32
  0
VERTEX
  8
W63LALIFT
 62
2
 10
775.335
 20
-5911.919
 30
-963.500
 70
    32
  0
VERTEX
  8
W63LALIFT
 62
2
 10
775.436
 20
-5911.725
 30
-963.500
 70
    32
  0
VERTEX
  8
W63LALIFT
 62
2
 10
775.520
 20
-5911.524
 30
-963.500
 70
    32
  0
VERTEX
  8
W63LALIFT
 62
2
 10
775.585
 20
-5911.316
 30
-963.500
 70
    32
  0
VERTEX
  8
W63LALIFT
 62
2
 10
775.632
 20
-5911.103
 30
-963.500
 70
    32
  0
VERTEX
  8
W63LALIFT
 62
2
 10
775.661
 20
-5910.887
 30
-963.500
 70
    32
  0
VERTEX
  8
W63LALIFT
 62
2
 10
775.670
 20
-5910.669
 30
-963.500
 70
    32
  0
SEQEND
  8
W63LALIFT
  0
POLYLINE
  8
W63LALIFT
 62
2
 66
     1
 70
     9
  0
VERTEX
  8
W63LALIFT
 62
2
 10
764.113
 20
-5952.064
 30
-964.000
 70
    32
  0
VERTEX
  8
W63LALIFT
 62
2
 10
760.916
 20
-5930.967
 30
-964.000
 70
    32
  0
VERTEX
  8
W63LALIFT
 62
2
 10
751.268
 20
-5928.895
 30
-964.000
 70
    32
  0
VERTEX
  8
W63LALIFT
 62
2
 10
754.291
 20
-5926.276
 30
-964.000
 70
    32
  0
VERTEX
  8
W63LALIFT
 62
2
 10
752.840
 20
-5913.038
 30
-961.000
 70
    32
  0
VERTEX
  8
W63LALIFT
 62
2
 10
751.799
 20
-5912.511
 30
-961.000
 70
    32
  0
VERTEX
  8
W63LALIFT
 62
2
 10
744.409
 20
-5908.436
 30
-961.000
 70
    32
  0
VERTEX
  8
W63LALIFT
 62
2
 10
741.352
 20
-5900.850
 30
-961.000
 70
    32
  0
VERTEX
  8
W63LALIFT
 62
2
 10
737.974
 20
-5890.689
 30
-960.000
 70
    32
  0
VERTEX
  8
W63LALIFT
 62
2
 10
729.589
 20
-5877.435
 30
-960.000
 70
    32
  0
VERTEX
  8
W63LALIFT
 62
2
 10
724.368
 20
-5862.883
 30
-960.000
 70
    32
  0
VERTEX
  8
W63LALIFT
 62
2
 10
717.908
 20
-5856.664
 30
-960.000
 70
    32
  0
VERTEX
  8
W63LALIFT
 62
2
 10
717.074
 20
-5852.888
 30
-960.000
 70
    32
  0
VERTEX
  8
W63LALIFT
 62
2
 10
716.889
 20
-5852.037
 30
-960.000
 70
    32
  0
VERTEX
  8
W63LALIFT
 62
2
 10
726.997
 20
-5847.698
 30
-960.000
 70
    32
  0
VERTEX
  8
W63LALIFT
 62
2
 10
733.723
 20
-5855.814
 30
-960.000
 70
    32
  0
VERTEX
  8
W63LALIFT
 62
2
 10
734.995
 20
-5856.308
 30
-960.000
 70
    32
  0
VERTEX
  8
W63LALIFT
 62
2
 10
739.649
 20
-5863.786
 30
-960.000
 70
    32
  0
VERTEX
  8
W63LALIFT
 62
2
 10
741.888
 20
-5864.113
 30
-960.000
 70
    32
  0
VERTEX
  8
W63LALIFT
 62
2
 10
746.436
 20
-5872.058
 30
-960.000
 70
    32
  0
VERTEX
  8
W63LALIFT
 62
2
 10
748.732
 20
-5874.659
 30
-961.000
 70
    32
  0
VERTEX
  8
W63LALIFT
 62
2
 10
752.285
 20
-5884.969
 30
-961.000
 70
    32
  0
VERTEX
  8
W63LALIFT
 62
2
 10
755.680
 20
-5891.127
 30
-961.000
 70
    32
  0
VERTEX
  8
W63LALIFT
 62
2
 10
759.928
 20
-5896.121
 30
-961.000
 70
    32
  0
VERTEX
  8
W63LALIFT
 62
2
 10
761.603
 20
-5901.281
 30
-961.000
 70
    32
  0
VERTEX
  8
W63LALIFT
 62
2
 10
764.864
 20
-5902.042
 30
-961.000
 70
    32
  0
VERTEX
  8
W63LALIFT
 62
2
 10
766.467
 20
-5906.565
 30
-961.000
 70
    32
  0
VERTEX
  8
W63LALIFT
 62
2
 10
769.171
 20
-5907.628
 30
-961.000
 70
    32
  0
VERTEX
  8
W63LALIFT
 62
2
 10
771.166
 20
-5909.640
 30
-961.000
 70
    32
  0
VERTEX
  8
W63LALIFT
 62
2
 10
775.321
 20
-5918.153
 30
-964.000
 70
    32
  0
VERTEX
  8
W63LALIFT
 62
2
 10
778.499
 20
-5935.360
 30
-964.000
 70
    32
  0
VERTEX
  8
W63LALIFT
 62
2
 10
778.861
 20
-5935.868
 30
-964.000
 70
    32
  0
VERTEX
  8
W63LALIFT
 62
2
 10
779.129
 20
-5951.945
 30
-964.000
 70
    32
  0
VERTEX
  8
W63LALIFT
 62
2
 10
783.617
 20
-5961.694
 30
-964.000
 70
    32
  0
VERTEX
  8
W63LALIFT
 62
2
 10
786.325
 20
-5966.579
 30
-964.000
 70
    32
  0
VERTEX
  8
W63LALIFT
 62
2
 10
786.320
 20
-5972.956
 30
-964.000
 70
    32
  0
VERTEX
  8
W63LALIFT
 62
2
 10
789.246
 20
-5981.440
 30
-964.000
 70
    32
  0
VERTEX
  8
W63LALIFT
 62
2
 10
779.901
 20
-5983.846
 30
-964.000
 70
    32
  0
VERTEX
  8
W63LALIFT
 62
2
 10
775.509
 20
-5969.056
 30
-964.000
 70
    32
  0
VERTEX
  8
W63LALIFT
 62
2
 10
775.410
 20
-5968.623
 30
-964.000
 70
    32
  0
VERTEX
  8
W63LALIFT
 62
2
 10
770.825
 20
-5958.997
 30
-964.000
 70
    32
  0
SEQEND
  8
W63LALIFT
  0
POLYLINE
  8
W63LALIFT
 62
6
 66
     1
 70
     9
  0
VERTEX
  8
W63LALIFT
 62
6
 10
1710.926
 20
-8122.062
 30
-1051.702
 70
    32
  0
VERTEX
  8
W63LALIFT
 62
6
 10
1701.926
 20
-8128.867
 30
-1052.125
 70
    32
  0
VERTEX
  8
W63LALIFT
 62
6
 10
1693.782
 20
-8115.441
 30
-1048.038
 70
    32
  0
VERTEX
  8
W63LALIFT
 62
6
 10
1682.112
 20
-8095.153
 30
-1042.092
 70
    32
  0
VERTEX
  8
W63LALIFT
 62
6
 10
1674.409
 20
-8081.031
 30
-1040.342
 70
    32
  0
VERTEX
  8
W63LALIFT
 62
6
 10
1671.719
 20
-8072.041
 30
-1039.392
 70
    32
  0
VERTEX
  8
W63LALIFT
 62
6
 10
1654.683
 20
-8054.665
 30
-1037.041
 70
    32
  0
VERTEX
  8
W63LALIFT
 62
6
 10
1654.957
 20
-8043.290
 30
-1036.095
 70
    32
  0
VERTEX
  8
W63LALIFT
 62
6
 10
1651.303
 20
-8035.303
 30
-1035.650
 70
    32
  0
VERTEX
  8
W63LALIFT
 62
6
 10
1648.808
 20
-8025.356
 30
-1036.258
 70
    32
  0
VERTEX
  8
W63LALIFT
 62
6
 10
1643.547
 20
-8007.147
 30
-1036.856
 70
    32
  0
VERTEX
  8
W63LALIFT
 62
6
 10
1640.326
 20
-7993.989
 30
-1037.045
 70
    32
  0
VERTEX
  8
W63LALIFT
 62
6
 10
1625.374
 20
-7951.266
 30
-1037.680
 70
    32
  0
VERTEX
  8
W63LALIFT
 62
6
 10
1635.550
 20
-7948.167
 30
-1037.670
 70
    32
  0
VERTEX
  8
W63LALIFT
 62
6
 10
1637.841
 20
-7955.406
 30
-1036.319
 70
    32
  0
VERTEX
  8
W63LALIFT
 62
6
 10
1644.348
 20
-7974.718
 30
-1036.938
 70
    32
  0
VERTEX
  8
W63LALIFT
 62
6
 10
1648.661
 20
-7980.227
 30
-1037.143
 70
    32
  0
VERTEX
  8
W63LALIFT
 62
6
 10
1654.121
 20
-7983.100
 30
-1037.119
 70
    32
  0
VERTEX
  8
W63LALIFT
 62
6
 10
1658.251
 20
-7993.551
 30
-1036.961
 70
    32
  0
VERTEX
  8
W63LALIFT
 62
6
 10
1663.908
 20
-8007.027
 30
-1036.756
 70
    32
  0
VERTEX
  8
W63LALIFT
 62
6
 10
1668.917
 20
-8029.409
 30
-1035.806
 70
    32
  0
VERTEX
  8
W63LALIFT
 62
6
 10
1671.948
 20
-8033.229
 30
-1036.017
 70
    32
  0
VERTEX
  8
W63LALIFT
 62
6
 10
1676.095
 20
-8051.039
 30
-1037.705
 70
    32
  0
VERTEX
  8
W63LALIFT
 62
6
 10
1680.972
 20
-8057.180
 30
-1038.367
 70
    32
  0
VERTEX
  8
W63LALIFT
 62
6
 10
1688.579
 20
-8075.975
 30
-1040.434
 70
    32
  0
VERTEX
  8
W63LALIFT
 62
6
 10
1688.987
 20
-8084.124
 30
-1041.214
 70
    32
  0
VERTEX
  8
W63LALIFT
 62
6
 10
1694.854
 20
-8096.647
 30
-1043.976
 70
    32
  0
VERTEX
  8
W63LALIFT
 62
6
 10
1702.950
 20
-8112.450
 30
-1048.507
 70
    32
  0
SEQEND
  8
W63LALIFT
  0
POLYLINE
  8
W63LALIFT
 62
3
 66
     1
 70
     9
  0
VERTEX
  8
W63LALIFT
 62
3
 10
818.570
 20
-5589.600
 30
-1098.560
 70
    32
  0
VERTEX
  8
W63LALIFT
 62
3
 10
826.810
 20
-5584.250
 30
-1097.030
 70
    32
  0
VERTEX
  8
W63LALIFT
 62
3
 10
838.760
 20
-5581.750
 30
-1094.550
 70
    32
  0
VERTEX
  8
W63LALIFT
 62
3
 10
857.500
 20
-5577.070
 30
-1089.780
 70
    32
  0
VERTEX
  8
W63LALIFT
 62
3
 10
879.460
 20
-5568.480
 30
-1086.020
 70
    32
  0
VERTEX
  8
W63LALIFT
 62
3
 10
888.270
 20
-5560.970
 30
-1086.660
 70
    32
  0
VERTEX
  8
W63LALIFT
 62
3
 10
887.920
 20
-5556.110
 30
-1090.100
 70
    32
  0
VERTEX
  8
W63LALIFT
 62
3
 10
874.600
 20
-5537.200
 30
-1089.460
 70
    32
  0
VERTEX
  8
W63LALIFT
 62
3
 10
878.830
 20
-5529.980
 30
-1089.670
 70
    32
  0
VERTEX
  8
W63LALIFT
 62
3
 10
876.100
 20
-5520.140
 30
-1090.220
 70
    32
  0
VERTEX
  8
W63LALIFT
 62
3
 10
890.570
 20
-5512.350
 30
-1090.030
 70
    32
  0
VERTEX
  8
W63LALIFT
 62
3
 10
893.980
 20
-5523.700
 30
-1091.090
 70
    32
  0
VERTEX
  8
W63LALIFT
 62
3
 10
900.320
 20
-5534.080
 30
-1091.490
 70
    32
  0
VERTEX
  8
W63LALIFT
 62
3
 10
899.190
 20
-5543.510
 30
-1088.800
 70
    32
  0
VERTEX
  8
W63LALIFT
 62
3
 10
909.470
 20
-5555.280
 30
-1087.290
 70
    32
  0
VERTEX
  8
W63LALIFT
 62
3
 10
914.730
 20
-5566.000
 30
-1087.800
 70
    32
  0
VERTEX
  8
W63LALIFT
 62
3
 10
919.010
 20
-5566.500
 30
-1089.670
 70
    32
  0
VERTEX
  8
W63LALIFT
 62
3
 10
931.000
 20
-5580.980
 30
-1090.470
 70
    32
  0
VERTEX
  8
W63LALIFT
 62
3
 10
942.490
 20
-5596.490
 30
-1092.760
 70
    32
  0
VERTEX
  8
W63LALIFT
 62
3
 10
928.750
 20
-5606.510
 30
-1092.760
 70
    32
  0
VERTEX
  8
W63LALIFT
 62
3
 10
917.850
 20
-5592.460
 30
-1091.540
 70
    32
  0
VERTEX
  8
W63LALIFT
 62
3
 10
903.550
 20
-5576.540
 30
-1086.890
 70
    32
  0
VERTEX
  8
W63LALIFT
 62
3
 10
894.400
 20
-5576.510
 30
-1086.120
 70
    32
  0
VERTEX
  8
W63LALIFT
 62
3
 10
882.980
 20
-5583.160
 30
-1086.250
 70
    32
  0
VERTEX
  8
W63LALIFT
 62
3
 10
858.540
 20
-5587.230
 30
-1089.050
 70
    32
  0
VERTEX
  8
W63LALIFT
 62
3
 10
841.050
 20
-5591.720
 30
-1094.750
 70
    32
  0
VERTEX
  8
W63LALIFT
 62
3
 10
833.650
 20
-5597.970
 30
-1097.100
 70
    32
  0
VERTEX
  8
W63LALIFT
 62
3
 10
826.060
 20
-5597.500
 30
-1098.320
 70
    32
  0
SEQEND
  8
W63LALIFT
  0
POLYLINE
  8
W63LALIFT
 62
7
 66
     1
 70
     8
  0
VERTEX
  8
W63LALIFT
 62
7
 10
2138.991
 20
-9514.199
 30
-1041.333
 70
    32
  0
VERTEX
  8
W63LALIFT
 62
7
 10
2134.806
 20
-9528.156
 30
-1038.280
 70
    32
  0
VERTEX
  8
W63LALIFT
 62
7
 10
2135.821
 20
-9544.835
 30
-1035.542
 70
    32
  0
VERTEX
  8
W63LALIFT
 62
7
 10
2136.016
 20
-9549.690
 30
-1035.023
 70
    32
  0
VERTEX
  8
W63LALIFT
 62
7
 10
2141.729
 20
-9575.791
 30
-1032.575
 70
    32
  0
VERTEX
  8
W63LALIFT
 62
7
 10
2155.208
 20
-9601.008
 30
-1031.995
 70
    32
  0
VERTEX
  8
W63LALIFT
 62
7
 10
2180.407
 20
-9636.056
 30
-1031.160
 70
    32
  0
VERTEX
  8
W63LALIFT
 62
7
 10
2195.178
 20
-9668.615
 30
-1031.867
 70
    32
  0
VERTEX
  8
W63LALIFT
 62
7
 10
2205.291
 20
-9687.775
 30
-1028.760
 70
    32
  0
VERTEX
  8
W63LALIFT
 62
7
 10
2190.082
 20
-9692.795
 30
-1029.684
 70
    32
  0
VERTEX
  8
W63LALIFT
 62
7
 10
2172.711
 20
-9651.096
 30
-1031.719
 70
    32
  0
VERTEX
  8
W63LALIFT
 62
7
 10
2163.480
 20
-9633.160
 30
-1032.395
 70
    32
  0
VERTEX
  8
W63LALIFT
 62
7
 10
2159.833
 20
-9629.108
 30
-1031.838
 70
    32
  0
VERTEX
  8
W63LALIFT
 62
7
 10
2152.136
 20
-9612.529
 30
-1032.328
 70
    32
  0
VERTEX
  8
W63LALIFT
 62
7
 10
2147.055
 20
-9607.840
 30
-1032.290
 70
    32
  0
VERTEX
  8
W63LALIFT
 62
7
 10
2137.926
 20
-9591.150
 30
-1033.272
 70
    32
  0
VERTEX
  8
W63LALIFT
 62
7
 10
2127.861
 20
-9576.808
 30
-1032.618
 70
    32
  0
VERTEX
  8
W63LALIFT
 62
7
 10
2124.068
 20
-9563.220
 30
-1033.045
 70
    32
  0
VERTEX
  8
W63LALIFT
 62
7
 10
2124.278
 20
-9550.363
 30
-1034.265
 70
    32
  0
VERTEX
  8
W63LALIFT
 62
7
 10
2121.585
 20
-9529.678
 30
-1038.586
 70
    32
  0
VERTEX
  8
W63LALIFT
 62
7
 10
2123.615
 20
-9514.463
 30
-1041.976
 70
    32
  0
SEQEND
  8
W63LALIFT
  0
POLYLINE
  8
W63LALIFT
 62
7
 66
     1
 70
     8
  0
VERTEX
  8
W63LALIFT
 62
7
 10
2108.649
 20
-9264.770
 30
-985.045
 70
    32
  0
VERTEX
  8
W63LALIFT
 62
7
 10
2120.503
 20
-9262.213
 30
-982.039
 70
    32
  0
VERTEX
  8
W63LALIFT
 62
7
 10
2134.823
 20
-9260.427
 30
-979.765
 70
    32
  0
VERTEX
  8
W63LALIFT
 62
7
 10
2147.319
 20
-9256.162
 30
-978.634
 70
    32
  0
VERTEX
  8
W63LALIFT
 62
7
 10
2153.239
 20
-9266.787
 30
-978.842
 70
    32
  0
VERTEX
  8
W63LALIFT
 62
7
 10
2133.297
 20
-9272.144
 30
-981.149
 70
    32
  0
VERTEX
  8
W63LALIFT
 62
7
 10
2135.230
 20
-9279.913
 30
-981.035
 70
    32
  0
VERTEX
  8
W63LALIFT
 62
7
 10
2143.171
 20
-9284.424
 30
-980.716
 70
    32
  0
VERTEX
  8
W63LALIFT
 62
7
 10
2140.624
 20
-9289.556
 30
-980.615
 70
    32
  0
VERTEX
  8
W63LALIFT
 62
7
 10
2134.327
 20
-9295.747
 30
-981.117
 70
    32
  0
VERTEX
  8
W63LALIFT
 62
7
 10
2135.896
 20
-9301.229
 30
-979.216
 70
    32
  0
VERTEX
  8
W63LALIFT
 62
7
 10
2142.873
 20
-9312.852
 30
-977.375
 70
    32
  0
VERTEX
  8
W63LALIFT
 62
7
 10
2147.686
 20
-9324.278
 30
-974.442
 70
    32
  0
VERTEX
  8
W63LALIFT
 62
7
 10
2150.439
 20
-9329.172
 30
-972.074
 70
    32
  0
VERTEX
  8
W63LALIFT
 62
7
 10
2156.756
 20
-9326.424
 30
-970.514
 70
    32
  0
VERTEX
  8
W63LALIFT
 62
7
 10
2159.946
 20
-9310.537
 30
-970.223
 70
    32
  0
VERTEX
  8
W63LALIFT
 62
7
 10
2164.946
 20
-9282.594
 30
-963.714
 70
    32
  0
VERTEX
  8
W63LALIFT
 62
7
 10
2177.094
 20
-9284.467
 30
-963.838
 70
    32
  0
VERTEX
  8
W63LALIFT
 62
7
 10
2175.091
 20
-9292.549
 30
-966.105
 70
    32
  0
VERTEX
  8
W63LALIFT
 62
7
 10
2169.561
 20
-9312.986
 30
-970.307
 70
    32
  0
VERTEX
  8
W63LALIFT
 62
7
 10
2166.366
 20
-9335.549
 30
-969.816
 70
    32
  0
VERTEX
  8
W63LALIFT
 62
7
 10
2166.706
 20
-9342.745
 30
-969.871
 70
    32
  0
VERTEX
  8
W63LALIFT
 62
7
 10
2168.531
 20
-9348.616
 30
-968.029
 70
    32
  0
VERTEX
  8
W63LALIFT
 62
7
 10
2167.887
 20
-9351.734
 30
-969.106
 70
    32
  0
VERTEX
  8
W63LALIFT
 62
7
 10
2181.809
 20
-9367.446
 30
-970.328
 70
    32
  0
VERTEX
  8
W63LALIFT
 62
7
 10
2187.619
 20
-9377.548
 30
-968.410
 70
    32
  0
VERTEX
  8
W63LALIFT
 62
7
 10
2181.625
 20
-9381.166
 30
-968.410
 70
    32
  0
VERTEX
  8
W63LALIFT
 62
7
 10
2175.127
 20
-9383.706
 30
-968.362
 70
    32
  0
VERTEX
  8
W63LALIFT
 62
7
 10
2161.868
 20
-9365.703
 30
-969.694
 70
    32
  0
VERTEX
  8
W63LALIFT
 62
7
 10
2149.719
 20
-9354.163
 30
-971.052
 70
    32
  0
VERTEX
  8
W63LALIFT
 62
7
 10
2145.746
 20
-9343.646
 30
-972.936
 70
    32
  0
VERTEX
  8
W63LALIFT
 62
7
 10
2138.219
 20
-9336.517
 30
-974.034
 70
    32
  0
VERTEX
  8
W63LALIFT
 62
7
 10
2129.561
 20
-9317.964
 30
-977.026
 70
    32
  0
VERTEX
  8
W63LALIFT
 62
7
 10
2118.068
 20
-9292.485
 30
-980.399
 70
    32
  0
VERTEX
  8
W63LALIFT
 62
7
 10
2106.444
 20
-9276.105
 30
-983.070
 70
    32
  0
SEQEND
  8
W63LALIFT
  0
POLYLINE
  8
W63LALIFT
 62
8
 66
     1
 70
     8
  0
VERTEX
  8
W63LALIFT
 62
8
 10
1454.580
 20
-7799.228
 30
-1080.209
 70
    32
  0
VERTEX
  8
W63LALIFT
 62
8
 10
1456.787
 20
-7802.817
 30
-1081.195
 70
    32
  0
VERTEX
  8
W63LALIFT
 62
8
 10
1461.924
 20
-7804.973
 30
-1081.871
 70
    32
  0
VERTEX
  8
W63LALIFT
 62
8
 10
1461.340
 20
-7812.074
 30
-1082.423
 70
    32
  0
VERTEX
  8
W63LALIFT
 62
8
 10
1457.151
 20
-7814.672
 30
-1081.960
 70
    32
  0
VERTEX
  8
W63LALIFT
 62
8
 10
1456.434
 20
-7830.781
 30
-1080.538
 70
    32
  0
VERTEX
  8
W63LALIFT
 62
8
 10
1459.425
 20
-7839.388
 30
-1080.345
 70
    32
  0
VERTEX
  8
W63LALIFT
 62
8
 10
1467.381
 20
-7842.696
 30
-1079.365
 70
    32
  0
VERTEX
  8
W63LALIFT
 62
8
 10
1472.467
 20
-7852.412
 30
-1078.337
 70
    32
  0
VERTEX
  8
W63LALIFT
 62
8
 10
1478.660
 20
-7865.911
 30
-1077.606
 70
    32
  0
VERTEX
  8
W63LALIFT
 62
8
 10
1484.247
 20
-7870.634
 30
-1075.160
 70
    32
  0
VERTEX
  8
W63LALIFT
 62
8
 10
1481.760
 20
-7877.055
 30
-1077.484
 70
    32
  0
VERTEX
  8
W63LALIFT
 62
8
 10
1482.893
 20
-7884.859
 30
-1076.258
 70
    32
  0
VERTEX
  8
W63LALIFT
 62
8
 10
1491.800
 20
-7899.624
 30
-1075.071
 70
    32
  0
VERTEX
  8
W63LALIFT
 62
8
 10
1497.849
 20
-7898.233
 30
-1078.205
 70
    32
  0
VERTEX
  8
W63LALIFT
 62
8
 10
1499.948
 20
-7907.739
 30
-1073.648
 70
    32
  0
VERTEX
  8
W63LALIFT
 62
8
 10
1510.595
 20
-7923.875
 30
-1074.259
 70
    32
  0
VERTEX
  8
W63LALIFT
 62
8
 10
1506.051
 20
-7927.188
 30
-1075.379
 70
    32
  0
VERTEX
  8
W63LALIFT
 62
8
 10
1507.486
 20
-7938.736
 30
-1074.675
 70
    32
  0
VERTEX
  8
W63LALIFT
 62
8
 10
1505.053
 20
-7941.060
 30
-1075.146
 70
    32
  0
VERTEX
  8
W63LALIFT
 62
8
 10
1509.673
 20
-7950.810
 30
-1074.613
 70
    32
  0
VERTEX
  8
W63LALIFT
 62
8
 10
1514.838
 20
-7959.232
 30
-1077.205
 70
    32
  0
VERTEX
  8
W63LALIFT
 62
8
 10
1501.080
 20
-7965.433
 30
-1077.667
 70
    32
  0
VERTEX
  8
W63LALIFT
 62
8
 10
1498.388
 20
-7957.364
 30
-1076.612
 70
    32
  0
VERTEX
  8
W63LALIFT
 62
8
 10
1491.809
 20
-7946.902
 30
-1076.360
 70
    32
  0
VERTEX
  8
W63LALIFT
 62
8
 10
1487.076
 20
-7947.483
 30
-1076.443
 70
    32
  0
VERTEX
  8
W63LALIFT
 62
8
 10
1484.705
 20
-7939.768
 30
-1079.747
 70
    32
  0
VERTEX
  8
W63LALIFT
 62
8
 10
1482.453
 20
-7936.798
 30
-1076.501
 70
    32
  0
VERTEX
  8
W63LALIFT
 62
8
 10
1478.303
 20
-7927.821
 30
-1077.852
 70
    32
  0
VERTEX
  8
W63LALIFT
 62
8
 10
1473.176
 20
-7919.717
 30
-1077.193
 70
    32
  0
VERTEX
  8
W63LALIFT
 62
8
 10
1469.724
 20
-7911.515
 30
-1076.211
 70
    32
  0
VERTEX
  8
W63LALIFT
 62
8
 10
1465.330
 20
-7908.451
 30
-1074.924
 70
    32
  0
VERTEX
  8
W63LALIFT
 62
8
 10
1462.063
 20
-7899.274
 30
-1076.940
 70
    32
  0
VERTEX
  8
W63LALIFT
 62
8
 10
1458.229
 20
-7880.823
 30
-1079.331
 70
    32
  0
VERTEX
  8
W63LALIFT
 62
8
 10
1456.548
 20
-7876.227
 30
-1079.505
 70
    32
  0
VERTEX
  8
W63LALIFT
 62
8
 10
1453.539
 20
-7872.644
 30
-1079.035
 70
    32
  0
VERTEX
  8
W63LALIFT
 62
8
 10
1451.019
 20
-7867.304
 30
-1079.071
 70
    32
  0
VERTEX
  8
W63LALIFT
 62
8
 10
1450.586
 20
-7854.596
 30
-1080.798
 70
    32
  0
VERTEX
  8
W63LALIFT
 62
8
 10
1448.249
 20
-7844.850
 30
-1081.024
 70
    32
  0
VERTEX
  8
W63LALIFT
 62
8
 10
1443.828
 20
-7829.539
 30
-1081.035
 70
    32
  0
VERTEX
  8
W63LALIFT
 62
8
 10
1443.739
 20
-7807.483
 30
-1081.980
 70
    32
  0
SEQEND
  8
W63LALIFT
  0
POLYLINE
  8
W63LALIFT
 62
7
 66
     1
 70
     8
  0
VERTEX
  8
W63LALIFT
 62
7
 10
2135.673
 20
-9280.316
 30
-981.371
 70
    32
  0
VERTEX
  8
W63LALIFT
 62
7
 10
2145.355
 20
-9282.839
 30
-980.322
 70
    32
  0
VERTEX
  8
W63LALIFT
 62
7
 10
2154.629
 20
-9281.098
 30
-979.611
 70
    32
  0
VERTEX
  8
W63LALIFT
 62
7
 10
2159.800
 20
-9285.410
 30
-978.748
 70
    32
  0
VERTEX
  8
W63LALIFT
 62
7
 10
2174.029
 20
-9287.525
 30
-980.080
 70
    32
  0
VERTEX
  8
W63LALIFT
 62
7
 10
2173.612
 20
-9297.995
 30
-981.217
 70
    32
  0
VERTEX
  8
W63LALIFT
 62
7
 10
2167.495
 20
-9305.632
 30
-983.135
 70
    32
  0
SEQEND
  8
W63LALIFT
  0
POLYLINE
  8
W63LALIFT
 62
1
 66
     1
 70
     8
  0
VERTEX
  8
W63LALIFT
 62
1
 10
2153.113
 20
-9314.944
 30
-977.563
 70
    32
  0
VERTEX
  8
W63LALIFT
 62
1
 10
2148.811
 20
-9313.427
 30
-977.951
 70
    32
  0
VERTEX
  8
W63LALIFT
 62
1
 10
2151.452
 20
-9321.730
 30
-975.638
 70
    32
  0
SEQEND
  8
W63LALIFT
  0
POLYLINE
  8
W63LALIFT
 62
7
 66
     1
 70
     8
  0
VERTEX
  8
W63LALIFT
 62
7
 10
2153.113
 20
-9314.944
 30
-977.563
 70
    32
  0
VERTEX
  8
W63LALIFT
 62
7
 10
2148.811
 20
-9313.427
 30
-977.951
 70
    32
  0
VERTEX
  8
W63LALIFT
 62
7
 10
2151.452
 20
-9321.730
 30
-975.638
 70
    32
  0
SEQEND
  8
W63LALIFT
  0
POLYLINE
  8
W63LALIFT
 62
2
 66
     1
 70
     8
  0
VERTEX
  8
W63LALIFT
 62
2
 10
1466.005
 20
-7914.173
 30
-1091.724
 70
    32
  0
VERTEX
  8
W63LALIFT
 62
2
 10
1476.743
 20
-7926.050
 30
-1095.402
 70
    32
  0
VERTEX
  8
W63LALIFT
 62
2
 10
1487.999
 20
-7940.377
 30
-1097.858
 70
    32
  0
VERTEX
  8
W63LALIFT
 62
2
 10
1495.084
 20
-7943.002
 30
-1097.766
 70
    32
  0
VERTEX
  8
W63LALIFT
 62
2
 10
1498.954
 20
-7946.830
 30
-1098.548
 70
    32
  0
VERTEX
  8
W63LALIFT
 62
2
 10
1511.388
 20
-7938.376
 30
-1098.768
 70
    32
  0
VERTEX
  8
W63LALIFT
 62
2
 10
1512.687
 20
-7933.683
 30
-1096.693
 70
    32
  0
VERTEX
  8
W63LALIFT
 62
2
 10
1512.249
 20
-7925.213
 30
-1096.940
 70
    32
  0
VERTEX
  8
W63LALIFT
 62
2
 10
1509.073
 20
-7918.704
 30
-1096.244
 70
    32
  0
VERTEX
  8
W63LALIFT
 62
2
 10
1501.857
 20
-7907.583
 30
-1094.222
 70
    32
  0
VERTEX
  8
W63LALIFT
 62
2
 10
1499.752
 20
-7901.642
 30
-1093.381
 70
    32
  0
VERTEX
  8
W63LALIFT
 62
2
 10
1491.817
 20
-7892.061
 30
-1090.817
 70
    32
  0
SEQEND
  8
W63LALIFT
  0
POLYLINE
  8
W63LALIFT
 62
6
 66
     1
 70
     9
  0
VERTEX
  8
W63LALIFT
 62
6
 10
1304.975
 20
-6425.961
 30
-1003.780
 70
    32
  0
VERTEX
  8
W63LALIFT
 62
6
 10
1310.607
 20
-6436.171
 30
-1003.770
 70
    32
  0
VERTEX
  8
W63LALIFT
 62
6
 10
1301.724
 20
-6436.217
 30
-1006.492
 70
    32
  0
VERTEX
  8
W63LALIFT
 62
6
 10
1289.225
 20
-6444.429
 30
-999.476
 70
    32
  0
VERTEX
  8
W63LALIFT
 62
6
 10
1281.404
 20
-6451.757
 30
-999.038
 70
    32
  0
VERTEX
  8
W63LALIFT
 62
6
 10
1275.146
 20
-6459.602
 30
-999.420
 70
    32
  0
VERTEX
  8
W63LALIFT
 62
6
 10
1272.196
 20
-6457.695
 30
-998.360
 70
    32
  0
VERTEX
  8
W63LALIFT
 62
6
 10
1268.154
 20
-6453.479
 30
-996.904
 70
    32
  0
VERTEX
  8
W63LALIFT
 62
6
 10
1264.216
 20
-6444.039
 30
-997.325
 70
    32
  0
VERTEX
  8
W63LALIFT
 62
6
 10
1256.571
 20
-6444.485
 30
-997.833
 70
    32
  0
VERTEX
  8
W63LALIFT
 62
6
 10
1250.577
 20
-6443.376
 30
-999.837
 70
    32
  0
VERTEX
  8
W63LALIFT
 62
6
 10
1246.065
 20
-6448.507
 30
-1000.504
 70
    32
  0
VERTEX
  8
W63LALIFT
 62
6
 10
1247.719
 20
-6453.678
 30
-1002.019
 70
    32
  0
VERTEX
  8
W63LALIFT
 62
6
 10
1249.580
 20
-6457.807
 30
-1001.950
 70
    32
  0
VERTEX
  8
W63LALIFT
 62
6
 10
1250.637
 20
-6463.054
 30
-1001.432
 70
    32
  0
VERTEX
  8
W63LALIFT
 62
6
 10
1247.028
 20
-6469.446
 30
-1000.886
 70
    32
  0
VERTEX
  8
W63LALIFT
 62
6
 10
1245.569
 20
-6483.388
 30
-999.679
 70
    32
  0
VERTEX
  8
W63LALIFT
 62
6
 10
1248.252
 20
-6495.083
 30
-1000.272
 70
    32
  0
VERTEX
  8
W63LALIFT
 62
6
 10
1241.757
 20
-6499.724
 30
-1000.192
 70
    32
  0
VERTEX
  8
W63LALIFT
 62
6
 10
1233.335
 20
-6499.447
 30
-1000.102
 70
    32
  0
VERTEX
  8
W63LALIFT
 62
6
 10
1229.364
 20
-6490.216
 30
-1001.218
 70
    32
  0
VERTEX
  8
W63LALIFT
 62
6
 10
1224.895
 20
-6489.005
 30
-1001.547
 70
    32
  0
VERTEX
  8
W63LALIFT
 62
6
 10
1222.256
 20
-6482.459
 30
-1003.731
 70
    32
  0
VERTEX
  8
W63LALIFT
 62
6
 10
1228.479
 20
-6466.360
 30
-1002.806
 70
    32
  0
VERTEX
  8
W63LALIFT
 62
6
 10
1228.937
 20
-6459.599
 30
-1002.619
 70
    32
  0
VERTEX
  8
W63LALIFT
 62
6
 10
1230.663
 20
-6451.808
 30
-1002.167
 70
    32
  0
VERTEX
  8
W63LALIFT
 62
6
 10
1228.536
 20
-6448.172
 30
-1001.457
 70
    32
  0
VERTEX
  8
W63LALIFT
 62
6
 10
1221.434
 20
-6446.383
 30
-1002.039
 70
    32
  0
VERTEX
  8
W63LALIFT
 62
6
 10
1210.851
 20
-6448.390
 30
-1002.352
 70
    32
  0
VERTEX
  8
W63LALIFT
 62
6
 10
1199.612
 20
-6450.182
 30
-1002.383
 70
    32
  0
VERTEX
  8
W63LALIFT
 62
6
 10
1188.616
 20
-6452.016
 30
-1002.992
 70
    32
  0
VERTEX
  8
W63LALIFT
 62
6
 10
1173.897
 20
-6453.736
 30
-1003.432
 70
    32
  0
VERTEX
  8
W63LALIFT
 62
6
 10
1170.029
 20
-6453.753
 30
-1003.102
 70
    32
  0
VERTEX
  8
W63LALIFT
 62
6
 10
1167.234
 20
-6452.395
 30
-1002.660
 70
    32
  0
VERTEX
  8
W63LALIFT
 62
6
 10
1165.305
 20
-6449.841
 30
-1003.951
 70
    32
  0
VERTEX
  8
W63LALIFT
 62
6
 10
1164.544
 20
-6443.079
 30
-1003.114
 70
    32
  0
VERTEX
  8
W63LALIFT
 62
6
 10
1185.957
 20
-6441.962
 30
-1002.792
 70
    32
  0
VERTEX
  8
W63LALIFT
 62
6
 10
1195.447
 20
-6439.844
 30
-1003.792
 70
    32
  0
VERTEX
  8
W63LALIFT
 62
6
 10
1197.947
 20
-6439.362
 30
-1002.359
 70
    32
  0
VERTEX
  8
W63LALIFT
 62
6
 10
1208.757
 20
-6438.162
 30
-1002.086
 70
    32
  0
VERTEX
  8
W63LALIFT
 62
6
 10
1210.674
 20
-6436.780
 30
-1002.315
 70
    32
  0
VERTEX
  8
W63LALIFT
 62
6
 10
1226.190
 20
-6437.011
 30
-1002.943
 70
    32
  0
VERTEX
  8
W63LALIFT
 62
6
 10
1232.117
 20
-6435.246
 30
-1002.290
 70
    32
  0
VERTEX
  8
W63LALIFT
 62
6
 10
1240.256
 20
-6433.216
 30
-1001.062
 70
    32
  0
VERTEX
  8
W63LALIFT
 62
6
 10
1247.250
 20
-6433.393
 30
-1001.950
 70
    32
  0
VERTEX
  8
W63LALIFT
 62
6
 10
1256.671
 20
-6427.425
 30
-999.742
 70
    32
  0
VERTEX
  8
W63LALIFT
 62
6
 10
1261.552
 20
-6427.941
 30
-998.130
 70
    32
  0
VERTEX
  8
W63LALIFT
 62
6
 10
1263.966
 20
-6419.966
 30
-999.246
 70
    32
  0
VERTEX
  8
W63LALIFT
 62
6
 10
1271.197
 20
-6411.145
 30
-999.998
 70
    32
  0
VERTEX
  8
W63LALIFT
 62
6
 10
1276.875
 20
-6416.361
 30
-999.621
 70
    32
  0
VERTEX
  8
W63LALIFT
 62
6
 10
1283.318
 20
-6420.879
 30
-999.061
 70
    32
  0
VERTEX
  8
W63LALIFT
 62
6
 10
1285.057
 20
-6421.936
 30
-998.894
 70
    32
  0
VERTEX
  8
W63LALIFT
 62
6
 10
1290.894
 20
-6424.620
 30
-1007.024
 70
    32
  0
SEQEND
  8
W63LALIFT
  0
POLYLINE
  8
W63LALIFT
 62
6
 66
     1
 70
     8
  0
VERTEX
  8
W63LALIFT
 62
6
 10
1426.512
 20
-7839.939
 30
-1027.714
 70
    32
  0
VERTEX
  8
W63LALIFT
 62
6
 10
1432.224
 20
-7842.205
 30
-1026.699
 70
    32
  0
VERTEX
  8
W63LALIFT
 62
6
 10
1437.430
 20
-7849.046
 30
-1026.441
 70
    32
  0
VERTEX
  8
W63LALIFT
 62
6
 10
1444.489
 20
-7853.309
 30
-1025.972
 70
    32
  0
VERTEX
  8
W63LALIFT
 62
6
 10
1441.190
 20
-7858.615
 30
-1024.366
 70
    32
  0
VERTEX
  8
W63LALIFT
 62
6
 10
1445.180
 20
-7867.401
 30
-1024.174
 70
    32
  0
VERTEX
  8
W63LALIFT
 62
6
 10
1450.022
 20
-7878.119
 30
-1023.687
 70
    32
  0
VERTEX
  8
W63LALIFT
 62
6
 10
1451.331
 20
-7885.091
 30
-1025.729
 70
    32
  0
VERTEX
  8
W63LALIFT
 62
6
 10
1456.701
 20
-7898.857
 30
-1025.468
 70
    32
  0
VERTEX
  8
W63LALIFT
 62
6
 10
1454.892
 20
-7901.189
 30
-1024.607
 70
    32
  0
VERTEX
  8
W63LALIFT
 62
6
 10
1456.756
 20
-7908.062
 30
-1024.312
 70
    32
  0
VERTEX
  8
W63LALIFT
 62
6
 10
1458.390
 20
-7909.092
 30
-1025.157
 70
    32
  0
VERTEX
  8
W63LALIFT
 62
6
 10
1464.433
 20
-7912.240
 30
-1024.735
 70
    32
  0
VERTEX
  8
W63LALIFT
 62
6
 10
1469.431
 20
-7913.087
 30
-1023.753
 70
    32
  0
VERTEX
  8
W63LALIFT
 62
6
 10
1471.984
 20
-7916.076
 30
-1023.308
 70
    32
  0
VERTEX
  8
W63LALIFT
 62
6
 10
1469.133
 20
-7926.791
 30
-1023.505
 70
    32
  0
VERTEX
  8
W63LALIFT
 62
6
 10
1475.776
 20
-7932.225
 30
-1022.769
 70
    32
  0
VERTEX
  8
W63LALIFT
 62
6
 10
1479.814
 20
-7937.293
 30
-1024.378
 70
    32
  0
VERTEX
  8
W63LALIFT
 62
6
 10
1485.312
 20
-7941.772
 30
-1023.789
 70
    32
  0
VERTEX
  8
W63LALIFT
 62
6
 10
1486.834
 20
-7942.615
 30
-1027.984
 70
    32
  0
VERTEX
  8
W63LALIFT
 62
6
 10
1484.620
 20
-7946.733
 30
-1023.686
 70
    32
  0
VERTEX
  8
W63LALIFT
 62
6
 10
1491.117
 20
-7951.337
 30
-1025.147
 70
    32
  0
VERTEX
  8
W63LALIFT
 62
6
 10
1488.147
 20
-7955.888
 30
-1023.910
 70
    32
  0
VERTEX
  8
W63LALIFT
 62
6
 10
1491.997
 20
-7961.285
 30
-1023.686
 70
    32
  0
VERTEX
  8
W63LALIFT
 62
6
 10
1493.475
 20
-7963.202
 30
-1025.607
 70
    32
  0
VERTEX
  8
W63LALIFT
 62
6
 10
1487.844
 20
-7969.654
 30
-1025.435
 70
    32
  0
VERTEX
  8
W63LALIFT
 62
6
 10
1489.490
 20
-7979.235
 30
-1026.037
 70
    32
  0
VERTEX
  8
W63LALIFT
 62
6
 10
1483.007
 20
-7981.065
 30
-1025.950
 70
    32
  0
VERTEX
  8
W63LALIFT
 62
6
 10
1479.369
 20
-7980.117
 30
-1022.973
 70
    32
  0
VERTEX
  8
W63LALIFT
 62
6
 10
1475.084
 20
-7974.019
 30
-1023.463
 70
    32
  0
VERTEX
  8
W63LALIFT
 62
6
 10
1473.105
 20
-7961.657
 30
-1024.044
 70
    32
  0
VERTEX
  8
W63LALIFT
 62
6
 10
1469.482
 20
-7952.927
 30
-1024.783
 70
    32
  0
VERTEX
  8
W63LALIFT
 62
6
 10
1464.172
 20
-7951.505
 30
-1023.189
 70
    32
  0
VERTEX
  8
W63LALIFT
 62
6
 10
1457.732
 20
-7957.487
 30
-1025.842
 70
    32
  0
VERTEX
  8
W63LALIFT
 62
6
 10
1455.294
 20
-7960.594
 30
-1026.574
 70
    32
  0
VERTEX
  8
W63LALIFT
 62
6
 10
1453.338
 20
-7975.350
 30
-1026.405
 70
    32
  0
VERTEX
  8
W63LALIFT
 62
6
 10
1448.835
 20
-7978.158
 30
-1026.896
 70
    32
  0
VERTEX
  8
W63LALIFT
 62
6
 10
1447.060
 20
-7978.370
 30
-1026.947
 70
    32
  0
VERTEX
  8
W63LALIFT
 62
6
 10
1443.005
 20
-7978.002
 30
-1027.422
 70
    32
  0
VERTEX
  8
W63LALIFT
 62
6
 10
1440.648
 20
-7977.583
 30
-1025.699
 70
    32
  0
VERTEX
  8
W63LALIFT
 62
6
 10
1440.926
 20
-7965.576
 30
-1026.546
 70
    32
  0
VERTEX
  8
W63LALIFT
 62
6
 10
1439.012
 20
-7957.801
 30
-1027.265
 70
    32
  0
VERTEX
  8
W63LALIFT
 62
6
 10
1436.552
 20
-7947.670
 30
-1027.211
 70
    32
  0
VERTEX
  8
W63LALIFT
 62
6
 10
1436.602
 20
-7936.298
 30
-1027.161
 70
    32
  0
VERTEX
  8
W63LALIFT
 62
6
 10
1432.309
 20
-7932.894
 30
-1027.313
 70
    32
  0
VERTEX
  8
W63LALIFT
 62
6
 10
1434.705
 20
-7921.909
 30
-1027.539
 70
    32
  0
VERTEX
  8
W63LALIFT
 62
6
 10
1438.266
 20
-7911.533
 30
-1026.231
 70
    32
  0
VERTEX
  8
W63LALIFT
 62
6
 10
1436.066
 20
-7907.025
 30
-1026.341
 70
    32
  0
VERTEX
  8
W63LALIFT
 62
6
 10
1436.152
 20
-7903.405
 30
-1025.667
 70
    32
  0
VERTEX
  8
W63LALIFT
 62
6
 10
1440.434
 20
-7895.681
 30
-1026.350
 70
    32
  0
VERTEX
  8
W63LALIFT
 62
6
 10
1439.906
 20
-7888.118
 30
-1025.914
 70
    32
  0
VERTEX
  8
W63LALIFT
 62
6
 10
1435.207
 20
-7879.210
 30
-1025.715
 70
    32
  0
VERTEX
  8
W63LALIFT
 62
6
 10
1433.285
 20
-7876.119
 30
-1025.852
 70
    32
  0
VERTEX
  8
W63LALIFT
 62
6
 10
1429.827
 20
-7875.767
 30
-1025.408
 70
    32
  0
VERTEX
  8
W63LALIFT
 62
6
 10
1425.851
 20
-7864.752
 30
-1026.876
 70
    32
  0
VERTEX
  8
W63LALIFT
 62
6
 10
1421.077
 20
-7865.459
 30
-1027.767
 70
    32
  0
VERTEX
  8
W63LALIFT
 62
6
 10
1416.080
 20
-7859.925
 30
-1028.263
 70
    32
  0
VERTEX
  8
W63LALIFT
 62
6
 10
1418.284
 20
-7852.512
 30
-1028.530
 70
    32
  0
SEQEND
  8
W63LALIFT
  0
POLYLINE
  8
W63LALIFT
 62
5
 66
     1
 70
     8
  0
VERTEX
  8
W63LALIFT
 62
5
 10
1425.805
 20
-7838.646
 30
-1040.385
 70
    32
  0
VERTEX
  8
W63LALIFT
 62
5
 10
1435.061
 20
-7842.500
 30
-1042.125
 70
    32
  0
VERTEX
  8
W63LALIFT
 62
5
 10
1442.260
 20
-7850.900
 30
-1044.804
 70
    32
  0
VERTEX
  8
W63LALIFT
 62
5
 10
1443.998
 20
-7856.063
 30
-1045.145
 70
    32
  0
VERTEX
  8
W63LALIFT
 62
5
 10
1450.689
 20
-7861.604
 30
-1045.036
 70
    32
  0
VERTEX
  8
W63LALIFT
 62
5
 10
1453.174
 20
-7867.976
 30
-1045.648
 70
    32
  0
VERTEX
  8
W63LALIFT
 62
5
 10
1460.764
 20
-7883.965
 30
-1044.926
 70
    32
  0
VERTEX
  8
W63LALIFT
 62
5
 10
1459.724
 20
-7889.093
 30
-1045.098
 70
    32
  0
VERTEX
  8
W63LALIFT
 62
5
 10
1464.326
 20
-7911.512
 30
-1045.734
 70
    32
  0
VERTEX
  8
W63LALIFT
 62
5
 10
1475.992
 20
-7928.627
 30
-1045.839
 70
    32
  0
VERTEX
  8
W63LALIFT
 62
5
 10
1482.402
 20
-7935.522
 30
-1045.549
 70
    32
  0
VERTEX
  8
W63LALIFT
 62
5
 10
1487.331
 20
-7940.312
 30
-1045.841
 70
    32
  0
VERTEX
  8
W63LALIFT
 62
5
 10
1493.271
 20
-7948.988
 30
-1046.564
 70
    32
  0
VERTEX
  8
W63LALIFT
 62
5
 10
1497.481
 20
-7956.790
 30
-1046.230
 70
    32
  0
VERTEX
  8
W63LALIFT
 62
5
 10
1496.226
 20
-7959.962
 30
-1046.294
 70
    32
  0
VERTEX
  8
W63LALIFT
 62
5
 10
1495.314
 20
-7975.728
 30
-1046.224
 70
    32
  0
VERTEX
  8
W63LALIFT
 62
5
 10
1482.498
 20
-7984.477
 30
-1046.729
 70
    32
  0
VERTEX
  8
W63LALIFT
 62
5
 10
1478.684
 20
-7966.971
 30
-1046.683
 70
    32
  0
VERTEX
  8
W63LALIFT
 62
5
 10
1472.434
 20
-7955.033
 30
-1046.286
 70
    32
  0
VERTEX
  8
W63LALIFT
 62
5
 10
1467.489
 20
-7948.293
 30
-1046.315
 70
    32
  0
VERTEX
  8
W63LALIFT
 62
5
 10
1461.419
 20
-7948.859
 30
-1046.654
 70
    32
  0
VERTEX
  8
W63LALIFT
 62
5
 10
1457.441
 20
-7950.418
 30
-1047.309
 70
    32
  0
VERTEX
  8
W63LALIFT
 62
5
 10
1450.732
 20
-7954.190
 30
-1047.962
 70
    32
  0
VERTEX
  8
W63LALIFT
 62
5
 10
1443.648
 20
-7955.382
 30
-1046.155
 70
    32
  0
VERTEX
  8
W63LALIFT
 62
5
 10
1439.502
 20
-7953.939
 30
-1046.808
 70
    32
  0
VERTEX
  8
W63LALIFT
 62
5
 10
1440.578
 20
-7947.683
 30
-1046.767
 70
    32
  0
VERTEX
  8
W63LALIFT
 62
5
 10
1440.783
 20
-7943.353
 30
-1045.669
 70
    32
  0
VERTEX
  8
W63LALIFT
 62
5
 10
1435.732
 20
-7933.111
 30
-1045.655
 70
    32
  0
VERTEX
  8
W63LALIFT
 62
5
 10
1439.550
 20
-7921.640
 30
-1045.964
 70
    32
  0
VERTEX
  8
W63LALIFT
 62
5
 10
1441.064
 20
-7912.747
 30
-1045.592
 70
    32
  0
VERTEX
  8
W63LALIFT
 62
5
 10
1440.831
 20
-7911.491
 30
-1046.324
 70
    32
  0
VERTEX
  8
W63LALIFT
 62
5
 10
1441.645
 20
-7900.459
 30
-1046.259
 70
    32
  0
VERTEX
  8
W63LALIFT
 62
5
 10
1442.052
 20
-7890.040
 30
-1046.003
 70
    32
  0
VERTEX
  8
W63LALIFT
 62
5
 10
1438.739
 20
-7880.678
 30
-1046.593
 70
    32
  0
VERTEX
  8
W63LALIFT
 62
5
 10
1430.029
 20
-7868.992
 30
-1044.999
 70
    32
  0
VERTEX
  8
W63LALIFT
 62
5
 10
1423.902
 20
-7867.958
 30
-1044.101
 70
    32
  0
VERTEX
  8
W63LALIFT
 62
5
 10
1420.956
 20
-7863.048
 30
-1043.578
 70
    32
  0
VERTEX
  8
W63LALIFT
 62
5
 10
1418.556
 20
-7852.018
 30
-1041.081
 70
    32
  0
VERTEX
  8
W63LALIFT
 62
5
 10
1415.906
 20
-7845.063
 30
-1040.899
 70
    32
  0
SEQEND
  8
W63LALIFT
  0
ENDSEC
  0
EOF
