999
********************************
999
*   DXF File - Entities Only   *
999
*        3D Data Format        *
999
*     Output from ENVISAGE     *
999
*     02-Jan-2008 11:02:23     *
999
********************************
  0
SECTION 
  2
HEADER
  9
$ACADVER
  1
AC1009
  9
$EXTMIN
 10
-290000.000
 20
-250000.000
 30
-4000.000
  9
$EXTMAX
 10
320000.000
 20
160000.000
 30
6000.000
  0
ENDSEC
  0
SECTION
  2
ENTITIES
  0
POLYLINE
  8
W63LPLIFT
 62
3
 66
     1
 70
     8
  0
VERTEX
  8
W63LPLIFT
 62
3
 10
862.784
 20
-5875.985
 30
-976.400
 70
    32
  0
VERTEX
  8
W63LPLIFT
 62
3
 10
873.985
 20
-5876.443
 30
-977.500
 70
    32
  0
VERTEX
  8
W63LPLIFT
 62
3
 10
889.112
 20
-5884.565
 30
-980.000
 70
    32
  0
VERTEX
  8
W63LPLIFT
 62
3
 10
893.999
 20
-5906.675
 30
-985.000
 70
    32
  0
VERTEX
  8
W63LPLIFT
 62
3
 10
924.723
 20
-5939.222
 30
-985.000
 70
    32
  0
VERTEX
  8
W63LPLIFT
 62
3
 10
929.289
 20
-5951.919
 30
-988.000
 70
    32
  0
VERTEX
  8
W63LPLIFT
 62
3
 10
939.895
 20
-5979.564
 30
-988.000
 70
    32
  0
VERTEX
  8
W63LPLIFT
 62
3
 10
944.239
 20
-5996.689
 30
-988.000
 70
    32
  0
VERTEX
  8
W63LPLIFT
 62
3
 10
931.078
 20
-6005.842
 30
-988.000
 70
    32
  0
VERTEX
  8
W63LPLIFT
 62
3
 10
905.234
 20
-5968.866
 30
-988.000
 70
    32
  0
VERTEX
  8
W63LPLIFT
 62
3
 10
892.254
 20
-5950.813
 30
-985.000
 70
    32
  0
VERTEX
  8
W63LPLIFT
 62
3
 10
879.002
 20
-5923.335
 30
-985.000
 70
    32
  0
VERTEX
  8
W63LPLIFT
 62
3
 10
869.470
 20
-5907.858
 30
-980.500
 70
    32
  0
VERTEX
  8
W63LPLIFT
 62
3
 10
854.327
 20
-5891.168
 30
-976.400
 70
    32
  0
SEQEND
  8
W63LPLIFT
  0
POLYLINE
  8
W63LPLIFT
 62
7
 66
     1
 70
     9
  0
VERTEX
  8
W63LPLIFT
 62
7
 10
860.804
 20
-5575.719
 30
-1105.907
 70
    32
  0
VERTEX
  8
W63LPLIFT
 62
7
 10
878.709
 20
-5568.401
 30
-1105.897
 70
    32
  0
VERTEX
  8
W63LPLIFT
 62
7
 10
890.490
 20
-5563.430
 30
-1105.892
 70
    32
  0
VERTEX
  8
W63LPLIFT
 62
7
 10
895.459
 20
-5555.435
 30
-1105.957
 70
    32
  0
VERTEX
  8
W63LPLIFT
 62
7
 10
892.761
 20
-5552.230
 30
-1106.008
 70
    32
  0
VERTEX
  8
W63LPLIFT
 62
7
 10
888.990
 20
-5541.988
 30
-1106.144
 70
    32
  0
VERTEX
  8
W63LPLIFT
 62
7
 10
893.159
 20
-5537.014
 30
-1106.179
 70
    32
  0
VERTEX
  8
W63LPLIFT
 62
7
 10
901.382
 20
-5530.451
 30
-1106.211
 70
    32
  0
VERTEX
  8
W63LPLIFT
 62
7
 10
918.127
 20
-5560.102
 30
-1105.975
 70
    32
  0
VERTEX
  8
W63LPLIFT
 62
7
 10
925.334
 20
-5574.299
 30
-1106.342
 70
    32
  0
VERTEX
  8
W63LPLIFT
 62
7
 10
928.937
 20
-5575.203
 30
-1106.413
 70
    32
  0
VERTEX
  8
W63LPLIFT
 62
7
 10
934.828
 20
-5579.212
 30
-1106.576
 70
    32
  0
VERTEX
  8
W63LPLIFT
 62
7
 10
938.476
 20
-5577.579
 30
-1106.603
 70
    32
  0
VERTEX
  8
W63LPLIFT
 62
7
 10
958.638
 20
-5608.410
 30
-1107.469
 70
    32
  0
VERTEX
  8
W63LPLIFT
 62
7
 10
962.126
 20
-5619.191
 30
-1107.717
 70
    32
  0
VERTEX
  8
W63LPLIFT
 62
7
 10
957.887
 20
-5619.875
 30
-1107.664
 70
    32
  0
VERTEX
  8
W63LPLIFT
 62
7
 10
952.154
 20
-5616.520
 30
-1107.515
 70
    32
  0
VERTEX
  8
W63LPLIFT
 62
7
 10
943.840
 20
-5611.541
 30
-1106.647
 70
    32
  0
VERTEX
  8
W63LPLIFT
 62
7
 10
942.142
 20
-5605.383
 30
-1106.657
 70
    32
  0
VERTEX
  8
W63LPLIFT
 62
7
 10
933.969
 20
-5602.892
 30
-1106.670
 70
    32
  0
VERTEX
  8
W63LPLIFT
 62
7
 10
930.033
 20
-5605.040
 30
-1106.673
 70
    32
  0
VERTEX
  8
W63LPLIFT
 62
7
 10
918.692
 20
-5598.294
 30
-1106.672
 70
    32
  0
VERTEX
  8
W63LPLIFT
 62
7
 10
911.121
 20
-5583.805
 30
-1106.295
 70
    32
  0
VERTEX
  8
W63LPLIFT
 62
7
 10
907.518
 20
-5582.906
 30
-1106.223
 70
    32
  0
VERTEX
  8
W63LPLIFT
 62
7
 10
907.636
 20
-5579.092
 30
-1106.156
 70
    32
  0
VERTEX
  8
W63LPLIFT
 62
7
 10
899.908
 20
-5570.784
 30
-1105.887
 70
    32
  0
VERTEX
  8
W63LPLIFT
 62
7
 10
895.928
 20
-5570.719
 30
-1105.825
 70
    32
  0
VERTEX
  8
W63LPLIFT
 62
7
 10
878.880
 20
-5581.077
 30
-1105.750
 70
    32
  0
SEQEND
  8
W63LPLIFT
  0
POINT
  8
W63LPLIFT
 62
7
 10
905.348
 20
-5558.584
 30
-1107.198
  0
POLYLINE
  8
W63LPLIFT
 62
7
 66
     1
 70
     9
  0
VERTEX
  8
W63LPLIFT
 62
7
 10
905.348
 20
-5556.374
 30
-1107.198
 70
    32
  0
VERTEX
  8
W63LPLIFT
 62
7
 10
907.097
 20
-5559.554
 30
-1107.198
 70
    32
  0
VERTEX
  8
W63LPLIFT
 62
7
 10
903.598
 20
-5559.552
 30
-1107.198
 70
    32
  0
SEQEND
  8
W63LPLIFT
  0
TEXT
  8
W63LPLIFT
 62
7
 10
907.633
 20
-5557.889
 30
-1107.198
 40
2.000
  1
ST-717R
 50
-10.086
 41
 1.0 
  0
TEXT
  8
W63LPLIFT
 62
7
 10
905.591
 20
-5554.519
 30
-1107.198
 40
2.000
  1
-1107.198
 50
-10.086
 41
 1.0 
  0
TEXT
  8
W63LPLIFT
 62
7
 10
909.823
 20
-5563.522
 30
-1105.828
 40
2.000
  1
ST-717Q
 50
-10.086
 41
 1.0 
  0
TEXT
  8
W63LPLIFT
 62
7
 10
907.771
 20
-5566.278
 30
-1105.828
 40
2.000
  1
-1105.828
 50
-10.086
 41
 1.0 
  0
POINT
  8
W63LPLIFT
 62
7
 10
906.785
 20
-5561.621
 30
-1105.828
  0
POLYLINE
  8
W63LPLIFT
 62
7
 66
     1
 70
     9
  0
VERTEX
  8
W63LPLIFT
 62
7
 10
906.785
 20
-5559.411
 30
-1105.828
 70
    32
  0
VERTEX
  8
W63LPLIFT
 62
7
 10
908.534
 20
-5562.591
 30
-1105.828
 70
    32
  0
VERTEX
  8
W63LPLIFT
 62
7
 10
905.035
 20
-5562.589
 30
-1105.828
 70
    32
  0
SEQEND
  8
W63LPLIFT
  0
TEXT
  8
W63LPLIFT
 62
6
 10
1718.629
 20
-8197.469
 30
-1058.644
 40
3.000
  1
ST-170Q
 41
 1.0 
  0
TEXT
  8
W63LPLIFT
 62
6
 10
1716.629
 20
-8201.469
 30
-1058.644
 40
3.000
  1
-1058.644
 41
 1.0 
  0
TEXT
  8
W63LPLIFT
 62
6
 10
1723.571
 20
-8205.888
 30
-1057.000
 40
3.000
  1
2-5-97
 50
0.375
 41
 1.0 
  0
TEXT
  8
W63LPLIFT
 62
6
 10
1724.264
 20
-8209.661
 30
-1056.956
 40
3.000
  1
ST-170R
 41
 1.0 
  0
TEXT
  8
W63LPLIFT
 62
6
 10
1722.264
 20
-8213.661
 30
-1056.956
 40
3.000
  1
-1056.956
 41
 1.0 
  0
TEXT
  8
W63LPLIFT
 62
6
 10
1684.164
 20
-8209.862
 30
-1056.887
 40
3.000
  1
ST-191Q
 41
 1.0 
  0
TEXT
  8
W63LPLIFT
 62
6
 10
1681.914
 20
-8213.862
 30
-1056.887
 40
3.000
  1
-1056.887
 41
 1.0 
  0
TEXT
  8
W63LPLIFT
 62
6
 10
1683.371
 20
-8218.021
 30
-1057.000
 40
3.000
  1
2-17-97
 50
356.564
 41
 1.0 
  0
TEXT
  8
W63LPLIFT
 62
4
 10
883.931
 20
-5862.610
 30
-976.357
 40
3.000
  1
ST-985O
 50
35.663
 41
 1.0 
  0
TEXT
  8
W63LPLIFT
 62
4
 10
885.856
 20
-5866.152
 30
-976.357
 40
3.000
  1
-976.357
 50
35.663
 41
 1.0 
  0
TEXT
  8
W63LPLIFT
 62
4
 10
899.225
 20
-5878.892
 30
-976.026
 40
3.000
  1
ST-198Q
 50
41.378
 41
 1.0 
  0
TEXT
  8
W63LPLIFT
 62
4
 10
901.307
 20
-5882.390
 30
-976.026
 40
3.000
  1
-976.026
 50
41.378
 41
 1.0 
  0
TEXT
  8
W63LPLIFT
 62
4
 10
888.406
 20
-5869.886
 30
-976.000
 40
3.000
  1
12-16-96
 50
35.891
 41
 1.0 
  0
TEXT
  8
W63LPLIFT
 62
4
 10
903.082
 20
-5885.980
 30
-976.000
 40
3.000
  1
2-26-97
 50
37.740
 41
 1.0 
  0
TEXT
  8
W63LPLIFT
 62
2
 10
788.475
 20
-5952.154
 30
-964.103
 40
3.000
  1
-964.103
 50
27.080
 41
 1.0 
  0
TEXT
  8
W63LPLIFT
 62
2
 10
789.029
 20
-5947.328
 30
-964.103
 40
3.000
  1
ST-538Q
 50
27.080
 41
 1.0 
  0
TEXT
  8
W63LPLIFT
 62
2
 10
786.382
 20
-5941.883
 30
-964.000
 40
3.000
  1
1-5-98
 50
25.746
 41
 1.0 
  0
TEXT
  8
W63LPLIFT
 62
2
 10
782.702
 20
-5937.921
 30
-963.106
 40
3.000
  1
-963.106
 50
27.949
 41
 1.0 
  0
TEXT
  8
W63LPLIFT
 62
2
 10
783.509
 20
-5932.821
 30
-963.106
 40
3.000
  1
ST-538R
 50
27.949
 41
 1.0 
  0
POINT
  8
W63LPLIFT
 62
6
 10
1713.141
 20
-8197.403
 30
-1058.644
  0
POLYLINE
  8
W63LPLIFT
 62
6
 66
     1
 70
     9
  0
VERTEX
  8
W63LPLIFT
 62
6
 10
1713.141
 20
-8195.193
 30
-1058.644
 70
    32
  0
VERTEX
  8
W63LPLIFT
 62
6
 10
1714.890
 20
-8198.373
 30
-1058.644
 70
    32
  0
VERTEX
  8
W63LPLIFT
 62
6
 10
1711.391
 20
-8198.371
 30
-1058.644
 70
    32
  0
SEQEND
  8
W63LPLIFT
  0
POINT
  8
W63LPLIFT
 62
6
 10
1712.197
 20
-8206.284
 30
-1056.887
  0
POLYLINE
  8
W63LPLIFT
 62
6
 66
     1
 70
     9
  0
VERTEX
  8
W63LPLIFT
 62
6
 10
1712.197
 20
-8204.074
 30
-1056.887
 70
    32
  0
VERTEX
  8
W63LPLIFT
 62
6
 10
1713.946
 20
-8207.254
 30
-1056.887
 70
    32
  0
VERTEX
  8
W63LPLIFT
 62
6
 10
1710.447
 20
-8207.252
 30
-1056.887
 70
    32
  0
SEQEND
  8
W63LPLIFT
  0
POINT
  8
W63LPLIFT
 62
6
 10
1713.560
 20
-8209.642
 30
-1056.956
  0
POLYLINE
  8
W63LPLIFT
 62
6
 66
     1
 70
     9
  0
VERTEX
  8
W63LPLIFT
 62
6
 10
1713.560
 20
-8207.432
 30
-1056.956
 70
    32
  0
VERTEX
  8
W63LPLIFT
 62
6
 10
1715.309
 20
-8210.612
 30
-1056.956
 70
    32
  0
VERTEX
  8
W63LPLIFT
 62
6
 10
1711.810
 20
-8210.610
 30
-1056.956
 70
    32
  0
SEQEND
  8
W63LPLIFT
  0
POINT
  8
W63LPLIFT
 62
4
 10
855.913
 20
-5883.564
 30
-976.357
  0
POLYLINE
  8
W63LPLIFT
 62
4
 66
     1
 70
     9
  0
VERTEX
  8
W63LPLIFT
 62
4
 10
855.913
 20
-5881.354
 30
-976.357
 70
    32
  0
VERTEX
  8
W63LPLIFT
 62
4
 10
857.662
 20
-5884.534
 30
-976.357
 70
    32
  0
VERTEX
  8
W63LPLIFT
 62
4
 10
854.163
 20
-5884.532
 30
-976.357
 70
    32
  0
SEQEND
  8
W63LPLIFT
  0
POINT
  8
W63LPLIFT
 62
4
 10
869.992
 20
-5902.824
 30
-976.026
  0
POLYLINE
  8
W63LPLIFT
 62
4
 66
     1
 70
     9
  0
VERTEX
  8
W63LPLIFT
 62
4
 10
869.992
 20
-5900.614
 30
-976.026
 70
    32
  0
VERTEX
  8
W63LPLIFT
 62
4
 10
871.741
 20
-5903.794
 30
-976.026
 70
    32
  0
VERTEX
  8
W63LPLIFT
 62
4
 10
868.242
 20
-5903.792
 30
-976.026
 70
    32
  0
SEQEND
  8
W63LPLIFT
  0
POLYLINE
  8
W63LPLIFT
 62
2
 66
     1
 70
     9
  0
VERTEX
  8
W63LPLIFT
 62
2
 10
774.389
 20
-5953.370
 30
-964.103
 70
    32
  0
VERTEX
  8
W63LPLIFT
 62
2
 10
776.138
 20
-5956.550
 30
-964.103
 70
    32
  0
VERTEX
  8
W63LPLIFT
 62
2
 10
772.639
 20
-5956.548
 30
-964.103
 70
    32
  0
SEQEND
  8
W63LPLIFT
  0
POINT
  8
W63LPLIFT
 62
2
 10
774.389
 20
-5955.580
 30
-964.103
  0
POINT
  8
W63LPLIFT
 62
2
 10
766.958
 20
-5940.217
 30
-963.106
  0
POLYLINE
  8
W63LPLIFT
 62
2
 66
     1
 70
     9
  0
VERTEX
  8
W63LPLIFT
 62
2
 10
766.958
 20
-5938.007
 30
-963.106
 70
    32
  0
VERTEX
  8
W63LPLIFT
 62
2
 10
768.707
 20
-5941.187
 30
-963.106
 70
    32
  0
VERTEX
  8
W63LPLIFT
 62
2
 10
765.208
 20
-5941.185
 30
-963.106
 70
    32
  0
SEQEND
  8
W63LPLIFT
  0
POLYLINE
  8
W63LPLIFT
 62
6
 66
     1
 70
     8
  0
VERTEX
  8
W63LPLIFT
 62
6
 10
1708.427
 20
-8216.963
 30
-1057.000
 70
    32
  0
VERTEX
  8
W63LPLIFT
 62
6
 10
1706.607
 20
-8218.621
 30
-1057.000
 70
    32
  0
VERTEX
  8
W63LPLIFT
 62
6
 10
1708.874
 20
-8231.226
 30
-1057.000
 70
    32
  0
VERTEX
  8
W63LPLIFT
 62
6
 10
1715.048
 20
-8240.061
 30
-1055.500
 70
    32
  0
VERTEX
  8
W63LPLIFT
 62
6
 10
1719.424
 20
-8250.399
 30
-1054.000
 70
    32
  0
VERTEX
  8
W63LPLIFT
 62
6
 10
1724.767
 20
-8249.910
 30
-1054.000
 70
    32
  0
VERTEX
  8
W63LPLIFT
 62
6
 10
1730.904
 20
-8244.583
 30
-1054.000
 70
    32
  0
VERTEX
  8
W63LPLIFT
 62
6
 10
1723.074
 20
-8220.785
 30
-1057.000
 70
    32
  0
VERTEX
  8
W63LPLIFT
 62
6
 10
1719.616
 20
-8210.984
 30
-1057.000
 70
    32
  0
SEQEND
  8
W63LPLIFT
  0
LINE
  8
W63LPLIFT
 62
4
 10
840.372
 20
-5884.522
 30
-977.000
 11
838.112
 21
-5873.177
 31
-977.000
  0
POLYLINE
  8
W63LPLIFT
 62
4
 66
     1
 70
     8
  0
VERTEX
  8
W63LPLIFT
 62
4
 10
838.112
 20
-5873.177
 30
-977.000
 70
    32
  0
VERTEX
  8
W63LPLIFT
 62
4
 10
847.846
 20
-5869.749
 30
-976.500
 70
    32
  0
VERTEX
  8
W63LPLIFT
 62
4
 10
859.864
 20
-5872.235
 30
-976.000
 70
    32
  0
VERTEX
  8
W63LPLIFT
 62
4
 10
862.216
 20
-5875.256
 30
-976.000
 70
    32
  0
VERTEX
  8
W63LPLIFT
 62
4
 10
876.796
 20
-5879.470
 30
-972.000
 70
    32
  0
VERTEX
  8
W63LPLIFT
 62
4
 10
888.420
 20
-5887.799
 30
-972.000
 70
    32
  0
VERTEX
  8
W63LPLIFT
 62
4
 10
892.107
 20
-5904.671
 30
-972.000
 70
    32
  0
VERTEX
  8
W63LPLIFT
 62
4
 10
898.445
 20
-5918.005
 30
-972.000
 70
    32
  0
VERTEX
  8
W63LPLIFT
 62
4
 10
899.489
 20
-5921.244
 30
-973.000
 70
    32
  0
VERTEX
  8
W63LPLIFT
 62
4
 10
904.778
 20
-5928.953
 30
-973.000
 70
    32
  0
VERTEX
  8
W63LPLIFT
 62
4
 10
919.341
 20
-5952.130
 30
-973.000
 70
    32
  0
VERTEX
  8
W63LPLIFT
 62
4
 10
928.754
 20
-5969.937
 30
-973.000
 70
    32
  0
VERTEX
  8
W63LPLIFT
 62
4
 10
933.563
 20
-6012.081
 30
-973.000
 70
    32
  0
VERTEX
  8
W63LPLIFT
 62
4
 10
936.315
 20
-6022.380
 30
-973.000
 70
    32
  0
VERTEX
  8
W63LPLIFT
 62
4
 10
924.238
 20
-6023.477
 30
-973.000
 70
    32
  0
VERTEX
  8
W63LPLIFT
 62
4
 10
921.691
 20
-6007.320
 30
-973.000
 70
    32
  0
VERTEX
  8
W63LPLIFT
 62
4
 10
914.718
 20
-5988.033
 30
-973.000
 70
    32
  0
VERTEX
  8
W63LPLIFT
 62
4
 10
896.526
 20
-5960.256
 30
-973.000
 70
    32
  0
VERTEX
  8
W63LPLIFT
 62
4
 10
889.760
 20
-5953.775
 30
-973.000
 70
    32
  0
VERTEX
  8
W63LPLIFT
 62
4
 10
886.447
 20
-5941.993
 30
-973.000
 70
    32
  0
VERTEX
  8
W63LPLIFT
 62
4
 10
880.249
 20
-5930.715
 30
-973.000
 70
    32
  0
VERTEX
  8
W63LPLIFT
 62
4
 10
878.837
 20
-5928.317
 30
-972.000
 70
    32
  0
VERTEX
  8
W63LPLIFT
 62
4
 10
873.026
 20
-5913.179
 30
-972.000
 70
    32
  0
VERTEX
  8
W63LPLIFT
 62
4
 10
868.561
 20
-5906.420
 30
-972.000
 70
    32
  0
VERTEX
  8
W63LPLIFT
 62
4
 10
849.801
 20
-5888.966
 30
-976.000
 70
    32
  0
VERTEX
  8
W63LPLIFT
 62
4
 10
840.372
 20
-5884.522
 30
-977.000
 70
    32
  0
SEQEND
  8
W63LPLIFT
  0
POLYLINE
  8
W63LPLIFT
 62
2
 66
     1
 70
     9
  0
VERTEX
  8
W63LPLIFT
 62
2
 10
1731.258
 20
-8178.855
 30
-1092.000
 70
    32
  0
VERTEX
  8
W63LPLIFT
 62
2
 10
1720.856
 20
-8183.883
 30
-1092.000
 70
    32
  0
VERTEX
  8
W63LPLIFT
 62
2
 10
1722.544
 20
-8189.648
 30
-1092.000
 70
    32
  0
VERTEX
  8
W63LPLIFT
 62
2
 10
1723.285
 20
-8199.036
 30
-1092.000
 70
    32
  0
VERTEX
  8
W63LPLIFT
 62
2
 10
1730.236
 20
-8207.942
 30
-1092.000
 70
    32
  0
VERTEX
  8
W63LPLIFT
 62
2
 10
1738.666
 20
-8219.142
 30
-1092.000
 70
    32
  0
VERTEX
  8
W63LPLIFT
 62
2
 10
1746.415
 20
-8257.840
 30
-1089.000
 70
    32
  0
VERTEX
  8
W63LPLIFT
 62
2
 10
1751.898
 20
-8268.619
 30
-1089.000
 70
    32
  0
VERTEX
  8
W63LPLIFT
 62
2
 10
1756.492
 20
-8285.591
 30
-1089.000
 70
    32
  0
VERTEX
  8
W63LPLIFT
 62
2
 10
1763.379
 20
-8313.420
 30
-1089.000
 70
    32
  0
VERTEX
  8
W63LPLIFT
 62
2
 10
1774.800
 20
-8309.058
 30
-1089.000
 70
    32
  0
VERTEX
  8
W63LPLIFT
 62
2
 10
1770.594
 20
-8291.523
 30
-1089.000
 70
    32
  0
VERTEX
  8
W63LPLIFT
 62
2
 10
1759.754
 20
-8257.923
 30
-1089.000
 70
    32
  0
VERTEX
  8
W63LPLIFT
 62
2
 10
1756.954
 20
-8247.663
 30
-1089.000
 70
    32
  0
VERTEX
  8
W63LPLIFT
 62
2
 10
1758.512
 20
-8237.184
 30
-1092.000
 70
    32
  0
VERTEX
  8
W63LPLIFT
 62
2
 10
1762.016
 20
-8233.618
 30
-1092.000
 70
    32
  0
VERTEX
  8
W63LPLIFT
 62
2
 10
1752.223
 20
-8215.665
 30
-1092.000
 70
    32
  0
VERTEX
  8
W63LPLIFT
 62
2
 10
1752.640
 20
-8212.700
 30
-1092.000
 70
    32
  0
VERTEX
  8
W63LPLIFT
 62
2
 10
1741.452
 20
-8194.136
 30
-1092.000
 70
    32
  0
VERTEX
  8
W63LPLIFT
 62
2
 10
1736.805
 20
-8186.281
 30
-1092.000
 70
    32
  0
SEQEND
  8
W63LPLIFT
  0
POLYLINE
  8
W63LPLIFT
 62
2
 66
     1
 70
     8
  0
VERTEX
  8
W63LPLIFT
 62
2
 10
775.670
 20
-5910.669
 30
-963.500
 70
    32
  0
VERTEX
  8
W63LPLIFT
 62
2
 10
775.661
 20
-5910.451
 30
-963.500
 70
    32
  0
VERTEX
  8
W63LPLIFT
 62
2
 10
775.632
 20
-5910.235
 30
-963.500
 70
    32
  0
VERTEX
  8
W63LPLIFT
 62
2
 10
775.585
 20
-5910.022
 30
-963.500
 70
    32
  0
VERTEX
  8
W63LPLIFT
 62
2
 10
775.520
 20
-5909.814
 30
-963.500
 70
    32
  0
VERTEX
  8
W63LPLIFT
 62
2
 10
775.436
 20
-5909.612
 30
-963.500
 70
    32
  0
VERTEX
  8
W63LPLIFT
 62
2
 10
775.335
 20
-5909.419
 30
-963.500
 70
    32
  0
VERTEX
  8
W63LPLIFT
 62
2
 10
775.218
 20
-5909.235
 30
-963.500
 70
    32
  0
VERTEX
  8
W63LPLIFT
 62
2
 10
775.085
 20
-5909.062
 30
-963.500
 70
    32
  0
VERTEX
  8
W63LPLIFT
 62
2
 10
774.938
 20
-5908.901
 30
-963.500
 70
    32
  0
VERTEX
  8
W63LPLIFT
 62
2
 10
774.777
 20
-5908.754
 30
-963.500
 70
    32
  0
VERTEX
  8
W63LPLIFT
 62
2
 10
774.604
 20
-5908.621
 30
-963.500
 70
    32
  0
VERTEX
  8
W63LPLIFT
 62
2
 10
774.420
 20
-5908.504
 30
-963.500
 70
    32
  0
VERTEX
  8
W63LPLIFT
 62
2
 10
774.227
 20
-5908.403
 30
-963.500
 70
    32
  0
VERTEX
  8
W63LPLIFT
 62
2
 10
774.025
 20
-5908.320
 30
-963.500
 70
    32
  0
VERTEX
  8
W63LPLIFT
 62
2
 10
773.817
 20
-5908.254
 30
-963.500
 70
    32
  0
VERTEX
  8
W63LPLIFT
 62
2
 10
773.604
 20
-5908.207
 30
-963.500
 70
    32
  0
VERTEX
  8
W63LPLIFT
 62
2
 10
773.388
 20
-5908.178
 30
-963.500
 70
    32
  0
VERTEX
  8
W63LPLIFT
 62
2
 10
773.170
 20
-5908.169
 30
-963.500
 70
    32
  0
VERTEX
  8
W63LPLIFT
 62
2
 10
772.952
 20
-5908.178
 30
-963.500
 70
    32
  0
VERTEX
  8
W63LPLIFT
 62
2
 10
772.736
 20
-5908.207
 30
-963.500
 70
    32
  0
VERTEX
  8
W63LPLIFT
 62
2
 10
772.523
 20
-5908.254
 30
-963.500
 70
    32
  0
VERTEX
  8
W63LPLIFT
 62
2
 10
772.315
 20
-5908.320
 30
-963.500
 70
    32
  0
VERTEX
  8
W63LPLIFT
 62
2
 10
772.114
 20
-5908.403
 30
-963.500
 70
    32
  0
VERTEX
  8
W63LPLIFT
 62
2
 10
771.920
 20
-5908.504
 30
-963.500
 70
    32
  0
VERTEX
  8
W63LPLIFT
 62
2
 10
771.736
 20
-5908.621
 30
-963.500
 70
    32
  0
VERTEX
  8
W63LPLIFT
 62
2
 10
771.563
 20
-5908.754
 30
-963.500
 70
    32
  0
VERTEX
  8
W63LPLIFT
 62
2
 10
771.403
 20
-5908.901
 30
-963.500
 70
    32
  0
VERTEX
  8
W63LPLIFT
 62
2
 10
771.255
 20
-5909.062
 30
-963.500
 70
    32
  0
VERTEX
  8
W63LPLIFT
 62
2
 10
771.122
 20
-5909.235
 30
-963.500
 70
    32
  0
VERTEX
  8
W63LPLIFT
 62
2
 10
771.005
 20
-5909.419
 30
-963.500
 70
    32
  0
VERTEX
  8
W63LPLIFT
 62
2
 10
770.905
 20
-5909.612
 30
-963.500
 70
    32
  0
VERTEX
  8
W63LPLIFT
 62
2
 10
770.821
 20
-5909.814
 30
-963.500
 70
    32
  0
VERTEX
  8
W63LPLIFT
 62
2
 10
770.756
 20
-5910.022
 30
-963.500
 70
    32
  0
VERTEX
  8
W63LPLIFT
 62
2
 10
770.708
 20
-5910.235
 30
-963.500
 70
    32
  0
VERTEX
  8
W63LPLIFT
 62
2
 10
770.680
 20
-5910.451
 30
-963.500
 70
    32
  0
VERTEX
  8
W63LPLIFT
 62
2
 10
770.670
 20
-5910.669
 30
-963.500
 70
    32
  0
VERTEX
  8
W63LPLIFT
 62
2
 10
770.680
 20
-5910.887
 30
-963.500
 70
    32
  0
VERTEX
  8
W63LPLIFT
 62
2
 10
770.708
 20
-5911.103
 30
-963.500
 70
    32
  0
VERTEX
  8
W63LPLIFT
 62
2
 10
770.756
 20
-5911.316
 30
-963.500
 70
    32
  0
VERTEX
  8
W63LPLIFT
 62
2
 10
770.821
 20
-5911.524
 30
-963.500
 70
    32
  0
VERTEX
  8
W63LPLIFT
 62
2
 10
770.905
 20
-5911.725
 30
-963.500
 70
    32
  0
VERTEX
  8
W63LPLIFT
 62
2
 10
771.005
 20
-5911.919
 30
-963.500
 70
    32
  0
VERTEX
  8
W63LPLIFT
 62
2
 10
771.122
 20
-5912.103
 30
-963.500
 70
    32
  0
VERTEX
  8
W63LPLIFT
 62
2
 10
771.255
 20
-5912.276
 30
-963.500
 70
    32
  0
VERTEX
  8
W63LPLIFT
 62
2
 10
771.403
 20
-5912.437
 30
-963.500
 70
    32
  0
VERTEX
  8
W63LPLIFT
 62
2
 10
771.563
 20
-5912.584
 30
-963.500
 70
    32
  0
VERTEX
  8
W63LPLIFT
 62
2
 10
771.736
 20
-5912.717
 30
-963.500
 70
    32
  0
VERTEX
  8
W63LPLIFT
 62
2
 10
771.920
 20
-5912.834
 30
-963.500
 70
    32
  0
VERTEX
  8
W63LPLIFT
 62
2
 10
772.114
 20
-5912.935
 30
-963.500
 70
    32
  0
VERTEX
  8
W63LPLIFT
 62
2
 10
772.315
 20
-5913.018
 30
-963.500
 70
    32
  0
VERTEX
  8
W63LPLIFT
 62
2
 10
772.523
 20
-5913.084
 30
-963.500
 70
    32
  0
VERTEX
  8
W63LPLIFT
 62
2
 10
772.736
 20
-5913.131
 30
-963.500
 70
    32
  0
VERTEX
  8
W63LPLIFT
 62
2
 10
772.952
 20
-5913.159
 30
-963.500
 70
    32
  0
VERTEX
  8
W63LPLIFT
 62
2
 10
773.170
 20
-5913.169
 30
-963.500
 70
    32
  0
VERTEX
  8
W63LPLIFT
 62
2
 10
773.388
 20
-5913.159
 30
-963.500
 70
    32
  0
VERTEX
  8
W63LPLIFT
 62
2
 10
773.604
 20
-5913.131
 30
-963.500
 70
    32
  0
VERTEX
  8
W63LPLIFT
 62
2
 10
773.817
 20
-5913.084
 30
-963.500
 70
    32
  0
VERTEX
  8
W63LPLIFT
 62
2
 10
774.025
 20
-5913.018
 30
-963.500
 70
    32
  0
VERTEX
  8
W63LPLIFT
 62
2
 10
774.227
 20
-5912.935
 30
-963.500
 70
    32
  0
VERTEX
  8
W63LPLIFT
 62
2
 10
774.420
 20
-5912.834
 30
-963.500
 70
    32
  0
VERTEX
  8
W63LPLIFT
 62
2
 10
774.604
 20
-5912.717
 30
-963.500
 70
    32
  0
VERTEX
  8
W63LPLIFT
 62
2
 10
774.777
 20
-5912.584
 30
-963.500
 70
    32
  0
VERTEX
  8
W63LPLIFT
 62
2
 10
774.938
 20
-5912.437
 30
-963.500
 70
    32
  0
VERTEX
  8
W63LPLIFT
 62
2
 10
775.085
 20
-5912.276
 30
-963.500
 70
    32
  0
VERTEX
  8
W63LPLIFT
 62
2
 10
775.218
 20
-5912.103
 30
-963.500
 70
    32
  0
VERTEX
  8
W63LPLIFT
 62
2
 10
775.335
 20
-5911.919
 30
-963.500
 70
    32
  0
VERTEX
  8
W63LPLIFT
 62
2
 10
775.436
 20
-5911.725
 30
-963.500
 70
    32
  0
VERTEX
  8
W63LPLIFT
 62
2
 10
775.520
 20
-5911.524
 30
-963.500
 70
    32
  0
VERTEX
  8
W63LPLIFT
 62
2
 10
775.585
 20
-5911.316
 30
-963.500
 70
    32
  0
VERTEX
  8
W63LPLIFT
 62
2
 10
775.632
 20
-5911.103
 30
-963.500
 70
    32
  0
VERTEX
  8
W63LPLIFT
 62
2
 10
775.661
 20
-5910.887
 30
-963.500
 70
    32
  0
VERTEX
  8
W63LPLIFT
 62
2
 10
775.670
 20
-5910.669
 30
-963.500
 70
    32
  0
SEQEND
  8
W63LPLIFT
  0
POLYLINE
  8
W63LPLIFT
 62
2
 66
     1
 70
     9
  0
VERTEX
  8
W63LPLIFT
 62
2
 10
764.113
 20
-5952.064
 30
-964.000
 70
    32
  0
VERTEX
  8
W63LPLIFT
 62
2
 10
760.916
 20
-5930.967
 30
-964.000
 70
    32
  0
VERTEX
  8
W63LPLIFT
 62
2
 10
751.268
 20
-5928.895
 30
-964.000
 70
    32
  0
VERTEX
  8
W63LPLIFT
 62
2
 10
754.291
 20
-5926.276
 30
-964.000
 70
    32
  0
VERTEX
  8
W63LPLIFT
 62
2
 10
752.840
 20
-5913.038
 30
-961.000
 70
    32
  0
VERTEX
  8
W63LPLIFT
 62
2
 10
751.799
 20
-5912.511
 30
-961.000
 70
    32
  0
VERTEX
  8
W63LPLIFT
 62
2
 10
744.409
 20
-5908.436
 30
-961.000
 70
    32
  0
VERTEX
  8
W63LPLIFT
 62
2
 10
741.352
 20
-5900.850
 30
-961.000
 70
    32
  0
VERTEX
  8
W63LPLIFT
 62
2
 10
737.974
 20
-5890.689
 30
-960.000
 70
    32
  0
VERTEX
  8
W63LPLIFT
 62
2
 10
729.589
 20
-5877.435
 30
-960.000
 70
    32
  0
VERTEX
  8
W63LPLIFT
 62
2
 10
724.368
 20
-5862.883
 30
-960.000
 70
    32
  0
VERTEX
  8
W63LPLIFT
 62
2
 10
717.908
 20
-5856.664
 30
-960.000
 70
    32
  0
VERTEX
  8
W63LPLIFT
 62
2
 10
717.074
 20
-5852.888
 30
-960.000
 70
    32
  0
VERTEX
  8
W63LPLIFT
 62
2
 10
716.889
 20
-5852.037
 30
-960.000
 70
    32
  0
VERTEX
  8
W63LPLIFT
 62
2
 10
726.997
 20
-5847.698
 30
-960.000
 70
    32
  0
VERTEX
  8
W63LPLIFT
 62
2
 10
733.723
 20
-5855.814
 30
-960.000
 70
    32
  0
VERTEX
  8
W63LPLIFT
 62
2
 10
734.995
 20
-5856.308
 30
-960.000
 70
    32
  0
VERTEX
  8
W63LPLIFT
 62
2
 10
739.649
 20
-5863.786
 30
-960.000
 70
    32
  0
VERTEX
  8
W63LPLIFT
 62
2
 10
741.888
 20
-5864.113
 30
-960.000
 70
    32
  0
VERTEX
  8
W63LPLIFT
 62
2
 10
746.436
 20
-5872.058
 30
-960.000
 70
    32
  0
VERTEX
  8
W63LPLIFT
 62
2
 10
748.732
 20
-5874.659
 30
-961.000
 70
    32
  0
VERTEX
  8
W63LPLIFT
 62
2
 10
752.285
 20
-5884.969
 30
-961.000
 70
    32
  0
VERTEX
  8
W63LPLIFT
 62
2
 10
755.680
 20
-5891.127
 30
-961.000
 70
    32
  0
VERTEX
  8
W63LPLIFT
 62
2
 10
759.928
 20
-5896.121
 30
-961.000
 70
    32
  0
VERTEX
  8
W63LPLIFT
 62
2
 10
761.603
 20
-5901.281
 30
-961.000
 70
    32
  0
VERTEX
  8
W63LPLIFT
 62
2
 10
764.864
 20
-5902.042
 30
-961.000
 70
    32
  0
VERTEX
  8
W63LPLIFT
 62
2
 10
766.467
 20
-5906.565
 30
-961.000
 70
    32
  0
VERTEX
  8
W63LPLIFT
 62
2
 10
769.171
 20
-5907.628
 30
-961.000
 70
    32
  0
VERTEX
  8
W63LPLIFT
 62
2
 10
771.166
 20
-5909.640
 30
-961.000
 70
    32
  0
VERTEX
  8
W63LPLIFT
 62
2
 10
775.321
 20
-5918.153
 30
-964.000
 70
    32
  0
VERTEX
  8
W63LPLIFT
 62
2
 10
778.499
 20
-5935.360
 30
-964.000
 70
    32
  0
VERTEX
  8
W63LPLIFT
 62
2
 10
778.861
 20
-5935.868
 30
-964.000
 70
    32
  0
VERTEX
  8
W63LPLIFT
 62
2
 10
779.129
 20
-5951.945
 30
-964.000
 70
    32
  0
VERTEX
  8
W63LPLIFT
 62
2
 10
783.617
 20
-5961.694
 30
-964.000
 70
    32
  0
VERTEX
  8
W63LPLIFT
 62
2
 10
786.325
 20
-5966.579
 30
-964.000
 70
    32
  0
VERTEX
  8
W63LPLIFT
 62
2
 10
786.320
 20
-5972.956
 30
-964.000
 70
    32
  0
VERTEX
  8
W63LPLIFT
 62
2
 10
789.246
 20
-5981.440
 30
-964.000
 70
    32
  0
VERTEX
  8
W63LPLIFT
 62
2
 10
779.901
 20
-5983.846
 30
-964.000
 70
    32
  0
VERTEX
  8
W63LPLIFT
 62
2
 10
775.509
 20
-5969.056
 30
-964.000
 70
    32
  0
VERTEX
  8
W63LPLIFT
 62
2
 10
775.410
 20
-5968.623
 30
-964.000
 70
    32
  0
VERTEX
  8
W63LPLIFT
 62
2
 10
770.825
 20
-5958.997
 30
-964.000
 70
    32
  0
SEQEND
  8
W63LPLIFT
  0
POLYLINE
  8
W63LPLIFT
 62
6
 66
     1
 70
     9
  0
VERTEX
  8
W63LPLIFT
 62
6
 10
1710.926
 20
-8122.062
 30
-1051.702
 70
    32
  0
VERTEX
  8
W63LPLIFT
 62
6
 10
1701.926
 20
-8128.867
 30
-1052.125
 70
    32
  0
VERTEX
  8
W63LPLIFT
 62
6
 10
1693.782
 20
-8115.441
 30
-1048.038
 70
    32
  0
VERTEX
  8
W63LPLIFT
 62
6
 10
1682.112
 20
-8095.153
 30
-1042.092
 70
    32
  0
VERTEX
  8
W63LPLIFT
 62
6
 10
1674.409
 20
-8081.031
 30
-1040.342
 70
    32
  0
VERTEX
  8
W63LPLIFT
 62
6
 10
1671.719
 20
-8072.041
 30
-1039.392
 70
    32
  0
VERTEX
  8
W63LPLIFT
 62
6
 10
1654.683
 20
-8054.665
 30
-1037.041
 70
    32
  0
VERTEX
  8
W63LPLIFT
 62
6
 10
1654.957
 20
-8043.290
 30
-1036.095
 70
    32
  0
VERTEX
  8
W63LPLIFT
 62
6
 10
1651.303
 20
-8035.303
 30
-1035.650
 70
    32
  0
VERTEX
  8
W63LPLIFT
 62
6
 10
1648.808
 20
-8025.356
 30
-1036.258
 70
    32
  0
VERTEX
  8
W63LPLIFT
 62
6
 10
1643.547
 20
-8007.147
 30
-1036.856
 70
    32
  0
VERTEX
  8
W63LPLIFT
 62
6
 10
1640.326
 20
-7993.989
 30
-1037.045
 70
    32
  0
VERTEX
  8
W63LPLIFT
 62
6
 10
1625.374
 20
-7951.266
 30
-1037.680
 70
    32
  0
VERTEX
  8
W63LPLIFT
 62
6
 10
1635.550
 20
-7948.167
 30
-1037.670
 70
    32
  0
VERTEX
  8
W63LPLIFT
 62
6
 10
1637.841
 20
-7955.406
 30
-1036.319
 70
    32
  0
VERTEX
  8
W63LPLIFT
 62
6
 10
1644.348
 20
-7974.718
 30
-1036.938
 70
    32
  0
VERTEX
  8
W63LPLIFT
 62
6
 10
1648.661
 20
-7980.227
 30
-1037.143
 70
    32
  0
VERTEX
  8
W63LPLIFT
 62
6
 10
1654.121
 20
-7983.100
 30
-1037.119
 70
    32
  0
VERTEX
  8
W63LPLIFT
 62
6
 10
1658.251
 20
-7993.551
 30
-1036.961
 70
    32
  0
VERTEX
  8
W63LPLIFT
 62
6
 10
1663.908
 20
-8007.027
 30
-1036.756
 70
    32
  0
VERTEX
  8
W63LPLIFT
 62
6
 10
1668.917
 20
-8029.409
 30
-1035.806
 70
    32
  0
VERTEX
  8
W63LPLIFT
 62
6
 10
1671.948
 20
-8033.229
 30
-1036.017
 70
    32
  0
VERTEX
  8
W63LPLIFT
 62
6
 10
1676.095
 20
-8051.039
 30
-1037.705
 70
    32
  0
VERTEX
  8
W63LPLIFT
 62
6
 10
1680.972
 20
-8057.180
 30
-1038.367
 70
    32
  0
VERTEX
  8
W63LPLIFT
 62
6
 10
1688.579
 20
-8075.975
 30
-1040.434
 70
    32
  0
VERTEX
  8
W63LPLIFT
 62
6
 10
1688.987
 20
-8084.124
 30
-1041.214
 70
    32
  0
VERTEX
  8
W63LPLIFT
 62
6
 10
1694.854
 20
-8096.647
 30
-1043.976
 70
    32
  0
VERTEX
  8
W63LPLIFT
 62
6
 10
1702.950
 20
-8112.450
 30
-1048.507
 70
    32
  0
SEQEND
  8
W63LPLIFT
  0
POLYLINE
  8
W63LPLIFT
 62
3
 66
     1
 70
     9
  0
VERTEX
  8
W63LPLIFT
 62
3
 10
818.570
 20
-5589.600
 30
-1098.560
 70
    32
  0
VERTEX
  8
W63LPLIFT
 62
3
 10
826.810
 20
-5584.250
 30
-1097.030
 70
    32
  0
VERTEX
  8
W63LPLIFT
 62
3
 10
838.760
 20
-5581.750
 30
-1094.550
 70
    32
  0
VERTEX
  8
W63LPLIFT
 62
3
 10
857.500
 20
-5577.070
 30
-1089.780
 70
    32
  0
VERTEX
  8
W63LPLIFT
 62
3
 10
879.460
 20
-5568.480
 30
-1086.020
 70
    32
  0
VERTEX
  8
W63LPLIFT
 62
3
 10
888.270
 20
-5560.970
 30
-1086.660
 70
    32
  0
VERTEX
  8
W63LPLIFT
 62
3
 10
887.920
 20
-5556.110
 30
-1090.100
 70
    32
  0
VERTEX
  8
W63LPLIFT
 62
3
 10
874.600
 20
-5537.200
 30
-1089.460
 70
    32
  0
VERTEX
  8
W63LPLIFT
 62
3
 10
878.830
 20
-5529.980
 30
-1089.670
 70
    32
  0
VERTEX
  8
W63LPLIFT
 62
3
 10
876.100
 20
-5520.140
 30
-1090.220
 70
    32
  0
VERTEX
  8
W63LPLIFT
 62
3
 10
890.570
 20
-5512.350
 30
-1090.030
 70
    32
  0
VERTEX
  8
W63LPLIFT
 62
3
 10
893.980
 20
-5523.700
 30
-1091.090
 70
    32
  0
VERTEX
  8
W63LPLIFT
 62
3
 10
900.320
 20
-5534.080
 30
-1091.490
 70
    32
  0
VERTEX
  8
W63LPLIFT
 62
3
 10
899.190
 20
-5543.510
 30
-1088.800
 70
    32
  0
VERTEX
  8
W63LPLIFT
 62
3
 10
909.470
 20
-5555.280
 30
-1087.290
 70
    32
  0
VERTEX
  8
W63LPLIFT
 62
3
 10
914.730
 20
-5566.000
 30
-1087.800
 70
    32
  0
VERTEX
  8
W63LPLIFT
 62
3
 10
919.010
 20
-5566.500
 30
-1089.670
 70
    32
  0
VERTEX
  8
W63LPLIFT
 62
3
 10
931.000
 20
-5580.980
 30
-1090.470
 70
    32
  0
VERTEX
  8
W63LPLIFT
 62
3
 10
942.490
 20
-5596.490
 30
-1092.760
 70
    32
  0
VERTEX
  8
W63LPLIFT
 62
3
 10
928.750
 20
-5606.510
 30
-1092.760
 70
    32
  0
VERTEX
  8
W63LPLIFT
 62
3
 10
917.850
 20
-5592.460
 30
-1091.540
 70
    32
  0
VERTEX
  8
W63LPLIFT
 62
3
 10
903.550
 20
-5576.540
 30
-1086.890
 70
    32
  0
VERTEX
  8
W63LPLIFT
 62
3
 10
894.400
 20
-5576.510
 30
-1086.120
 70
    32
  0
VERTEX
  8
W63LPLIFT
 62
3
 10
882.980
 20
-5583.160
 30
-1086.250
 70
    32
  0
VERTEX
  8
W63LPLIFT
 62
3
 10
858.540
 20
-5587.230
 30
-1089.050
 70
    32
  0
VERTEX
  8
W63LPLIFT
 62
3
 10
841.050
 20
-5591.720
 30
-1094.750
 70
    32
  0
VERTEX
  8
W63LPLIFT
 62
3
 10
833.650
 20
-5597.970
 30
-1097.100
 70
    32
  0
VERTEX
  8
W63LPLIFT
 62
3
 10
826.060
 20
-5597.500
 30
-1098.320
 70
    32
  0
SEQEND
  8
W63LPLIFT
  0
TEXT
  8
W63LPLIFT
 62
1
 10
2207.064
 20
-9687.111
 30
-1041.317
 40
3.000
  1
BK -1041.317
 50
-1.864
 41
 1.0 
  0
TEXT
  8
W63LPLIFT
 62
1
 10
2192.070
 20
-9671.423
 30
-1057.093
 40
3.000
  1
Fl -1057.093
 50
-1.864
 41
 1.0 
  0
TEXT
  8
W63LPLIFT
 62
1
 10
2192.070
 20
-9667.123
 30
-1043.593
 40
3.000
  1
BK -1043.593
 50
-1.864
 41
 1.0 
  0
TEXT
  8
W63LPLIFT
 62
1
 10
2175.930
 20
-9625.814
 30
-1042.789
 40
3.000
  1
BK -1042.789
 50
-1.864
 41
 1.0 
  0
TEXT
  8
W63LPLIFT
 62
1
 10
2175.930
 20
-9630.114
 30
-1057.289
 40
3.000
  1
Fl -1057.289
 50
-1.864
 41
 1.0 
  0
TEXT
  8
W63LPLIFT
 62
1
 10
2167.103
 20
-9609.047
 30
-1043.351
 40
3.000
  1
BK -1043.351
 50
-1.864
 41
 1.0 
  0
TEXT
  8
W63LPLIFT
 62
1
 10
2167.103
 20
-9613.347
 30
-1057.851
 40
3.000
  1
Fl -1057.851
 50
-1.864
 41
 1.0 
  0
TEXT
  8
W63LPLIFT
 62
1
 10
2148.313
 20
-9586.101
 30
-1044.352
 40
3.000
  1
BK -1044.352
 50
-1.864
 41
 1.0 
  0
TEXT
  8
W63LPLIFT
 62
1
 10
2148.313
 20
-9590.401
 30
-1057.852
 40
3.000
  1
Fl -1057.852
 50
-1.864
 41
 1.0 
  0
TEXT
  8
W63LPLIFT
 62
1
 10
2132.729
 20
-9535.193
 30
-1045.116
 40
3.000
  1
BK -1045.116
 50
-1.864
 41
 1.0 
  0
TEXT
  8
W63LPLIFT
 62
1
 10
2132.729
 20
-9539.493
 30
-1058.116
 40
3.000
  1
Fl -1058.116
 50
-1.864
 41
 1.0 
  0
TEXT
  8
W63LPLIFT
 62
1
 10
2129.874
 20
-9508.152
 30
-1045.166
 40
3.000
  1
BK -1045.166
 50
-1.864
 41
 1.0 
  0
TEXT
  8
W63LPLIFT
 62
1
 10
2130.918
 20
-9502.357
 30
-1046.571
 40
3.000
  1
BK -1046.571
 50
-1.864
 41
 1.0 
  0
TEXT
  8
W63LPLIFT
 62
1
 10
2129.874
 20
-9512.452
 30
-1058.666
 40
3.000
  1
Fl -1058.666
 50
-1.864
 41
 1.0 
  0
TEXT
  8
W63LPLIFT
 62
1
 10
2110.780
 20
-9415.822
 30
-1047.557
 40
3.000
  1
BK -1047.557
 50
-1.864
 41
 1.0 
  0
TEXT
  8
W63LPLIFT
 62
1
 10
2124.304
 20
-9464.162
 30
-1047.802
 40
3.000
  1
BK -1047.802
 50
-1.864
 41
 1.0 
  0
TEXT
  8
W63LPLIFT
 62
1
 10
2127.039
 20
-9476.098
 30
-1045.215
 40
3.000
  1
BK -1045.215
 50
-1.864
 41
 1.0 
  0
TEXT
  8
W63LPLIFT
 62
1
 10
2126.526
 20
-9479.493
 30
-1046.239
 40
3.000
  1
BK -1046.239
 50
-1.864
 41
 1.0 
  0
TEXT
  8
W63LPLIFT
 62
1
 10
2126.479
 20
-9482.850
 30
-1058.355
 40
3.000
  1
Fl -1058.355
 50
-1.864
 41
 1.0 
  0
POLYLINE
  8
W63LPLIFT
 62
1
 66
     1
 70
     8
  0
VERTEX
  8
W63LPLIFT
 62
1
 10
2120.298
 20
-9380.559
 30
-1044.281
 70
    32
  0
VERTEX
  8
W63LPLIFT
 62
1
 10
2121.173
 20
-9390.280
 30
-1045.819
 70
    32
  0
VERTEX
  8
W63LPLIFT
 62
1
 10
2118.803
 20
-9394.189
 30
-1047.638
 70
    32
  0
VERTEX
  8
W63LPLIFT
 62
1
 10
2122.685
 20
-9409.907
 30
-1047.813
 70
    32
  0
VERTEX
  8
W63LPLIFT
 62
1
 10
2120.657
 20
-9416.536
 30
-1047.035
 70
    32
  0
VERTEX
  8
W63LPLIFT
 62
1
 10
2129.015
 20
-9442.725
 30
-1047.274
 70
    32
  0
VERTEX
  8
W63LPLIFT
 62
1
 10
2136.663
 20
-9477.394
 30
-1045.443
 70
    32
  0
VERTEX
  8
W63LPLIFT
 62
1
 10
2141.923
 20
-9501.830
 30
-1046.431
 70
    32
  0
VERTEX
  8
W63LPLIFT
 62
1
 10
2142.007
 20
-9522.404
 30
-1045.129
 70
    32
  0
VERTEX
  8
W63LPLIFT
 62
1
 10
2142.971
 20
-9536.396
 30
-1045.180
 70
    32
  0
VERTEX
  8
W63LPLIFT
 62
1
 10
2145.309
 20
-9544.938
 30
-1044.834
 70
    32
  0
VERTEX
  8
W63LPLIFT
 62
1
 10
2150.512
 20
-9568.222
 30
-1044.584
 70
    32
  0
VERTEX
  8
W63LPLIFT
 62
1
 10
2163.478
 20
-9589.376
 30
-1044.333
 70
    32
  0
VERTEX
  8
W63LPLIFT
 62
1
 10
2174.331
 20
-9608.972
 30
-1043.423
 70
    32
  0
VERTEX
  8
W63LPLIFT
 62
1
 10
2186.039
 20
-9629.491
 30
-1042.750
 70
    32
  0
VERTEX
  8
W63LPLIFT
 62
1
 10
2192.657
 20
-9647.738
 30
-1043.005
 70
    32
  0
VERTEX
  8
W63LPLIFT
 62
1
 10
2199.751
 20
-9668.927
 30
-1043.514
 70
    32
  0
VERTEX
  8
W63LPLIFT
 62
1
 10
2205.678
 20
-9677.159
 30
-1042.053
 70
    32
  0
VERTEX
  8
W63LPLIFT
 62
1
 10
2212.495
 20
-9686.012
 30
-1041.323
 70
    32
  0
VERTEX
  8
W63LPLIFT
 62
1
 10
2218.971
 20
-9696.138
 30
-1041.371
 70
    32
  0
VERTEX
  8
W63LPLIFT
 62
1
 10
2206.442
 20
-9702.302
 30
-1041.360
 70
    32
  0
VERTEX
  8
W63LPLIFT
 62
1
 10
2201.488
 20
-9695.003
 30
-1041.378
 70
    32
  0
VERTEX
  8
W63LPLIFT
 62
1
 10
2191.814
 20
-9694.453
 30
-1041.482
 70
    32
  0
VERTEX
  8
W63LPLIFT
 62
1
 10
2185.877
 20
-9672.662
 30
-1043.536
 70
    32
  0
VERTEX
  8
W63LPLIFT
 62
1
 10
2182.392
 20
-9658.013
 30
-1043.075
 70
    32
  0
VERTEX
  8
W63LPLIFT
 62
1
 10
2176.784
 20
-9642.644
 30
-1042.978
 70
    32
  0
VERTEX
  8
W63LPLIFT
 62
1
 10
2165.819
 20
-9625.733
 30
-1042.783
 70
    32
  0
VERTEX
  8
W63LPLIFT
 62
1
 10
2148.112
 20
-9593.776
 30
-1044.392
 70
    32
  0
VERTEX
  8
W63LPLIFT
 62
1
 10
2145.724
 20
-9592.171
 30
-1044.337
 70
    32
  0
VERTEX
  8
W63LPLIFT
 62
1
 10
2140.712
 20
-9590.582
 30
-1044.361
 70
    32
  0
VERTEX
  8
W63LPLIFT
 62
1
 10
2134.658
 20
-9580.443
 30
-1044.303
 70
    32
  0
VERTEX
  8
W63LPLIFT
 62
1
 10
2131.012
 20
-9569.724
 30
-1044.619
 70
    32
  0
VERTEX
  8
W63LPLIFT
 62
1
 10
2126.872
 20
-9566.775
 30
-1044.681
 70
    32
  0
VERTEX
  8
W63LPLIFT
 62
1
 10
2123.493
 20
-9549.671
 30
-1044.858
 70
    32
  0
VERTEX
  8
W63LPLIFT
 62
1
 10
2118.607
 20
-9540.407
 30
-1045.119
 70
    32
  0
VERTEX
  8
W63LPLIFT
 62
1
 10
2119.950
 20
-9536.236
 30
-1045.233
 70
    32
  0
VERTEX
  8
W63LPLIFT
 62
1
 10
2122.449
 20
-9517.600
 30
-1045.183
 70
    32
  0
VERTEX
  8
W63LPLIFT
 62
1
 10
2122.642
 20
-9505.060
 30
-1045.143
 70
    32
  0
VERTEX
  8
W63LPLIFT
 62
1
 10
2124.352
 20
-9487.859
 30
-1046.030
 70
    32
  0
VERTEX
  8
W63LPLIFT
 62
1
 10
2117.401
 20
-9453.355
 30
-1047.694
 70
    32
  0
VERTEX
  8
W63LPLIFT
 62
1
 10
2103.473
 20
-9422.745
 30
-1047.370
 70
    32
  0
VERTEX
  8
W63LPLIFT
 62
1
 10
2104.099
 20
-9410.361
 30
-1047.523
 70
    32
  0
VERTEX
  8
W63LPLIFT
 62
1
 10
2100.073
 20
-9407.037
 30
-1047.496
 70
    32
  0
SEQEND
  8
W63LPLIFT
  0
ENDSEC
  0
EOF
