999
********************************
999
*   DXF File - Entities Only   *
999
*        3D Data Format        *
999
*     Output from ENVISAGE     *
999
*     02-Jan-2008 11:08:22     *
999
********************************
  0
SECTION 
  2
HEADER
  9
$ACADVER
  1
AC1009
  9
$EXTMIN
 10
-290000.000
 20
-250000.000
 30
-4000.000
  9
$EXTMAX
 10
320000.000
 20
160000.000
 30
6000.000
  0
ENDSEC
  0
SECTION
  2
ENTITIES
  0
POLYLINE
  8
W65LALIFT
 62
8
 66
     1
 70
     9
  0
VERTEX
  8
W65LALIFT
 62
8
 10
1455.774
 20
-7836.023
 30
-1090.000
 70
    32
  0
VERTEX
  8
W65LALIFT
 62
8
 10
1463.547
 20
-7841.335
 30
-1090.000
 70
    32
  0
VERTEX
  8
W65LALIFT
 62
8
 10
1472.547
 20
-7840.518
 30
-1090.000
 70
    32
  0
VERTEX
  8
W65LALIFT
 62
8
 10
1482.775
 20
-7844.195
 30
-1090.000
 70
    32
  0
VERTEX
  8
W65LALIFT
 62
8
 10
1495.048
 20
-7854.818
 30
-1090.000
 70
    32
  0
VERTEX
  8
W65LALIFT
 62
8
 10
1495.457
 20
-7862.990
 30
-1090.000
 70
    32
  0
VERTEX
  8
W65LALIFT
 62
8
 10
1488.912
 20
-7867.893
 30
-1090.000
 70
    32
  0
VERTEX
  8
W65LALIFT
 62
8
 10
1494.230
 20
-7885.871
 30
-1090.000
 70
    32
  0
VERTEX
  8
W65LALIFT
 62
8
 10
1500.776
 20
-7911.612
 30
-1090.000
 70
    32
  0
VERTEX
  8
W65LALIFT
 62
8
 10
1494.230
 20
-7914.880
 30
-1090.000
 70
    32
  0
VERTEX
  8
W65LALIFT
 62
8
 10
1471.729
 20
-7912.429
 30
-1090.000
 70
    32
  0
VERTEX
  8
W65LALIFT
 62
8
 10
1461.501
 20
-7888.322
 30
-1090.000
 70
    32
  0
VERTEX
  8
W65LALIFT
 62
8
 10
1455.774
 20
-7868.302
 30
-1090.000
 70
    32
  0
VERTEX
  8
W65LALIFT
 62
8
 10
1457.410
 20
-7856.453
 30
-1090.000
 70
    32
  0
VERTEX
  8
W65LALIFT
 62
8
 10
1455.365
 20
-7850.324
 30
-1090.000
 70
    32
  0
VERTEX
  8
W65LALIFT
 62
8
 10
1454.547
 20
-7838.475
 30
-1090.000
 70
    32
  0
SEQEND
  8
W65LALIFT
  0
POLYLINE
  8
W65LALIFT
 62
5
 66
     1
 70
     9
  0
VERTEX
  8
W65LALIFT
 62
5
 10
1459.456
 20
-7840.109
 30
-1094.000
 70
    32
  0
VERTEX
  8
W65LALIFT
 62
5
 10
1471.320
 20
-7841.744
 30
-1094.000
 70
    32
  0
VERTEX
  8
W65LALIFT
 62
5
 10
1471.729
 20
-7840.518
 30
-1094.000
 70
    32
  0
VERTEX
  8
W65LALIFT
 62
5
 10
1487.275
 20
-7842.561
 30
-1094.000
 70
    32
  0
VERTEX
  8
W65LALIFT
 62
5
 10
1498.730
 20
-7852.775
 30
-1094.000
 70
    32
  0
VERTEX
  8
W65LALIFT
 62
5
 10
1496.276
 20
-7867.076
 30
-1094.000
 70
    32
  0
VERTEX
  8
W65LALIFT
 62
5
 10
1493.412
 20
-7868.710
 30
-1094.000
 70
    32
  0
VERTEX
  8
W65LALIFT
 62
5
 10
1495.457
 20
-7880.151
 30
-1094.000
 70
    32
  0
VERTEX
  8
W65LALIFT
 62
5
 10
1494.639
 20
-7888.322
 30
-1094.000
 70
    32
  0
VERTEX
  8
W65LALIFT
 62
5
 10
1497.503
 20
-7898.537
 30
-1094.000
 70
    32
  0
VERTEX
  8
W65LALIFT
 62
5
 10
1499.958
 20
-7900.989
 30
-1094.000
 70
    32
  0
VERTEX
  8
W65LALIFT
 62
5
 10
1500.776
 20
-7910.795
 30
-1094.000
 70
    32
  0
VERTEX
  8
W65LALIFT
 62
5
 10
1495.457
 20
-7913.246
 30
-1094.000
 70
    32
  0
VERTEX
  8
W65LALIFT
 62
5
 10
1483.593
 20
-7912.429
 30
-1094.000
 70
    32
  0
VERTEX
  8
W65LALIFT
 62
5
 10
1482.366
 20
-7910.795
 30
-1094.000
 70
    32
  0
VERTEX
  8
W65LALIFT
 62
5
 10
1475.002
 20
-7910.795
 30
-1094.000
 70
    32
  0
VERTEX
  8
W65LALIFT
 62
5
 10
1465.183
 20
-7892.817
 30
-1094.000
 70
    32
  0
VERTEX
  8
W65LALIFT
 62
5
 10
1464.774
 20
-7884.237
 30
-1094.000
 70
    32
  0
VERTEX
  8
W65LALIFT
 62
5
 10
1462.320
 20
-7878.108
 30
-1094.000
 70
    32
  0
VERTEX
  8
W65LALIFT
 62
5
 10
1460.274
 20
-7874.022
 30
-1094.000
 70
    32
  0
VERTEX
  8
W65LALIFT
 62
5
 10
1459.456
 20
-7862.990
 30
-1094.000
 70
    32
  0
VERTEX
  8
W65LALIFT
 62
5
 10
1461.910
 20
-7859.721
 30
-1094.000
 70
    32
  0
VERTEX
  8
W65LALIFT
 62
5
 10
1459.456
 20
-7852.775
 30
-1094.000
 70
    32
  0
SEQEND
  8
W65LALIFT
  0
POLYLINE
  8
W65LALIFT
 62
8
 66
     1
 70
     9
  0
VERTEX
  8
W65LALIFT
 62
8
 10
1463.948
 20
-7843.078
 30
-1098.000
 70
    32
  0
VERTEX
  8
W65LALIFT
 62
8
 10
1478.094
 20
-7840.985
 30
-1098.000
 70
    32
  0
VERTEX
  8
W65LALIFT
 62
8
 10
1484.905
 20
-7838.892
 30
-1098.000
 70
    32
  0
VERTEX
  8
W65LALIFT
 62
8
 10
1490.144
 20
-7838.369
 30
-1098.000
 70
    32
  0
VERTEX
  8
W65LALIFT
 62
8
 10
1499.837
 20
-7850.927
 30
-1098.000
 70
    32
  0
VERTEX
  8
W65LALIFT
 62
8
 10
1498.527
 20
-7861.915
 30
-1098.000
 70
    32
  0
VERTEX
  8
W65LALIFT
 62
8
 10
1497.741
 20
-7865.840
 30
-1098.000
 70
    32
  0
VERTEX
  8
W65LALIFT
 62
8
 10
1498.789
 20
-7867.409
 30
-1098.000
 70
    32
  0
VERTEX
  8
W65LALIFT
 62
8
 10
1498.527
 20
-7871.072
 30
-1098.000
 70
    32
  0
VERTEX
  8
W65LALIFT
 62
8
 10
1497.217
 20
-7876.043
 30
-1098.000
 70
    32
  0
VERTEX
  8
W65LALIFT
 62
8
 10
1498.789
 20
-7880.491
 30
-1098.000
 70
    32
  0
VERTEX
  8
W65LALIFT
 62
8
 10
1496.955
 20
-7886.247
 30
-1098.000
 70
    32
  0
VERTEX
  8
W65LALIFT
 62
8
 10
1499.051
 20
-7898.805
 30
-1098.000
 70
    32
  0
VERTEX
  8
W65LALIFT
 62
8
 10
1500.361
 20
-7900.375
 30
-1098.000
 70
    32
  0
VERTEX
  8
W65LALIFT
 62
8
 10
1501.670
 20
-7908.747
 30
-1098.000
 70
    32
  0
VERTEX
  8
W65LALIFT
 62
8
 10
1496.693
 20
-7911.363
 30
-1098.000
 70
    32
  0
VERTEX
  8
W65LALIFT
 62
8
 10
1492.240
 20
-7911.101
 30
-1098.000
 70
    32
  0
VERTEX
  8
W65LALIFT
 62
8
 10
1489.620
 20
-7911.886
 30
-1098.000
 70
    32
  0
VERTEX
  8
W65LALIFT
 62
8
 10
1482.547
 20
-7909.270
 30
-1098.000
 70
    32
  0
VERTEX
  8
W65LALIFT
 62
8
 10
1478.356
 20
-7909.793
 30
-1098.000
 70
    32
  0
VERTEX
  8
W65LALIFT
 62
8
 10
1471.021
 20
-7897.758
 30
-1098.000
 70
    32
  0
VERTEX
  8
W65LALIFT
 62
8
 10
1468.139
 20
-7887.293
 30
-1098.000
 70
    32
  0
VERTEX
  8
W65LALIFT
 62
8
 10
1465.257
 20
-7877.351
 30
-1098.000
 70
    32
  0
VERTEX
  8
W65LALIFT
 62
8
 10
1463.948
 20
-7873.688
 30
-1098.000
 70
    32
  0
VERTEX
  8
W65LALIFT
 62
8
 10
1463.948
 20
-7865.578
 30
-1098.000
 70
    32
  0
VERTEX
  8
W65LALIFT
 62
8
 10
1465.257
 20
-7863.747
 30
-1098.000
 70
    32
  0
VERTEX
  8
W65LALIFT
 62
8
 10
1463.686
 20
-7855.636
 30
-1098.000
 70
    32
  0
SEQEND
  8
W65LALIFT
  0
POLYLINE
  8
W65LALIFT
 62
13
 66
     1
 70
     9
  0
VERTEX
  8
W65LALIFT
 62
13
 10
1467.353
 20
-7843.340
 30
-1102.000
 70
    32
  0
VERTEX
  8
W65LALIFT
 62
13
 10
1479.403
 20
-7835.752
 30
-1102.000
 70
    32
  0
VERTEX
  8
W65LALIFT
 62
13
 10
1485.429
 20
-7834.444
 30
-1102.000
 70
    32
  0
VERTEX
  8
W65LALIFT
 62
13
 10
1489.358
 20
-7833.659
 30
-1102.000
 70
    32
  0
VERTEX
  8
W65LALIFT
 62
13
 10
1494.335
 20
-7840.462
 30
-1102.000
 70
    32
  0
VERTEX
  8
W65LALIFT
 62
13
 10
1499.837
 20
-7847.787
 30
-1102.000
 70
    32
  0
VERTEX
  8
W65LALIFT
 62
13
 10
1502.194
 20
-7855.636
 30
-1102.000
 70
    32
  0
VERTEX
  8
W65LALIFT
 62
13
 10
1500.099
 20
-7859.822
 30
-1102.000
 70
    32
  0
VERTEX
  8
W65LALIFT
 62
13
 10
1499.575
 20
-7866.363
 30
-1102.000
 70
    32
  0
VERTEX
  8
W65LALIFT
 62
13
 10
1501.146
 20
-7868.718
 30
-1102.000
 70
    32
  0
VERTEX
  8
W65LALIFT
 62
13
 10
1499.837
 20
-7873.950
 30
-1102.000
 70
    32
  0
VERTEX
  8
W65LALIFT
 62
13
 10
1500.884
 20
-7880.229
 30
-1102.000
 70
    32
  0
VERTEX
  8
W65LALIFT
 62
13
 10
1498.527
 20
-7886.508
 30
-1102.000
 70
    32
  0
VERTEX
  8
W65LALIFT
 62
13
 10
1501.146
 20
-7899.066
 30
-1102.000
 70
    32
  0
VERTEX
  8
W65LALIFT
 62
13
 10
1502.194
 20
-7900.375
 30
-1102.000
 70
    32
  0
VERTEX
  8
W65LALIFT
 62
13
 10
1502.194
 20
-7905.607
 30
-1102.000
 70
    32
  0
VERTEX
  8
W65LALIFT
 62
13
 10
1502.718
 20
-7907.177
 30
-1102.000
 70
    32
  0
VERTEX
  8
W65LALIFT
 62
13
 10
1497.479
 20
-7910.316
 30
-1102.000
 70
    32
  0
VERTEX
  8
W65LALIFT
 62
13
 10
1490.144
 20
-7910.316
 30
-1102.000
 70
    32
  0
VERTEX
  8
W65LALIFT
 62
13
 10
1484.643
 20
-7908.223
 30
-1102.000
 70
    32
  0
VERTEX
  8
W65LALIFT
 62
13
 10
1481.499
 20
-7908.485
 30
-1102.000
 70
    32
  0
VERTEX
  8
W65LALIFT
 62
13
 10
1476.784
 20
-7903.253
 30
-1102.000
 70
    32
  0
VERTEX
  8
W65LALIFT
 62
13
 10
1474.426
 20
-7897.235
 30
-1102.000
 70
    32
  0
VERTEX
  8
W65LALIFT
 62
13
 10
1472.330
 20
-7891.479
 30
-1102.000
 70
    32
  0
VERTEX
  8
W65LALIFT
 62
13
 10
1471.021
 20
-7883.369
 30
-1102.000
 70
    32
  0
VERTEX
  8
W65LALIFT
 62
13
 10
1468.925
 20
-7879.968
 30
-1102.000
 70
    32
  0
VERTEX
  8
W65LALIFT
 62
13
 10
1468.139
 20
-7867.933
 30
-1102.000
 70
    32
  0
VERTEX
  8
W65LALIFT
 62
13
 10
1469.187
 20
-7866.624
 30
-1102.000
 70
    32
  0
VERTEX
  8
W65LALIFT
 62
13
 10
1468.139
 20
-7862.700
 30
-1102.000
 70
    32
  0
VERTEX
  8
W65LALIFT
 62
13
 10
1467.877
 20
-7852.235
 30
-1102.000
 70
    32
  0
SEQEND
  8
W65LALIFT
  0
POLYLINE
  8
W65LALIFT
 62
7
 66
     1
 70
     9
  0
VERTEX
  8
W65LALIFT
 62
7
 10
1475.736
 20
-7830.258
 30
-1106.000
 70
    32
  0
VERTEX
  8
W65LALIFT
 62
7
 10
1486.738
 20
-7828.950
 30
-1106.000
 70
    32
  0
VERTEX
  8
W65LALIFT
 62
7
 10
1491.454
 20
-7831.043
 30
-1106.000
 70
    32
  0
VERTEX
  8
W65LALIFT
 62
7
 10
1495.383
 20
-7835.752
 30
-1106.000
 70
    32
  0
VERTEX
  8
W65LALIFT
 62
7
 10
1501.670
 20
-7846.217
 30
-1106.000
 70
    32
  0
VERTEX
  8
W65LALIFT
 62
7
 10
1502.718
 20
-7860.084
 30
-1106.000
 70
    32
  0
VERTEX
  8
W65LALIFT
 62
7
 10
1501.932
 20
-7873.688
 30
-1106.000
 70
    32
  0
VERTEX
  8
W65LALIFT
 62
7
 10
1502.718
 20
-7881.276
 30
-1106.000
 70
    32
  0
VERTEX
  8
W65LALIFT
 62
7
 10
1500.884
 20
-7886.247
 30
-1106.000
 70
    32
  0
VERTEX
  8
W65LALIFT
 62
7
 10
1501.670
 20
-7896.973
 30
-1106.000
 70
    32
  0
VERTEX
  8
W65LALIFT
 62
7
 10
1503.504
 20
-7901.159
 30
-1106.000
 70
    32
  0
VERTEX
  8
W65LALIFT
 62
7
 10
1502.718
 20
-7904.561
 30
-1106.000
 70
    32
  0
VERTEX
  8
W65LALIFT
 62
7
 10
1504.028
 20
-7906.654
 30
-1106.000
 70
    32
  0
VERTEX
  8
W65LALIFT
 62
7
 10
1500.361
 20
-7908.747
 30
-1106.000
 70
    32
  0
VERTEX
  8
W65LALIFT
 62
7
 10
1493.288
 20
-7909.793
 30
-1106.000
 70
    32
  0
VERTEX
  8
W65LALIFT
 62
7
 10
1488.048
 20
-7907.439
 30
-1106.000
 70
    32
  0
VERTEX
  8
W65LALIFT
 62
7
 10
1483.857
 20
-7907.177
 30
-1106.000
 70
    32
  0
VERTEX
  8
W65LALIFT
 62
7
 10
1477.832
 20
-7896.712
 30
-1106.000
 70
    32
  0
VERTEX
  8
W65LALIFT
 62
7
 10
1475.736
 20
-7888.601
 30
-1106.000
 70
    32
  0
VERTEX
  8
W65LALIFT
 62
7
 10
1475.736
 20
-7885.200
 30
-1106.000
 70
    32
  0
VERTEX
  8
W65LALIFT
 62
7
 10
1472.854
 20
-7878.398
 30
-1106.000
 70
    32
  0
VERTEX
  8
W65LALIFT
 62
7
 10
1472.330
 20
-7872.380
 30
-1106.000
 70
    32
  0
VERTEX
  8
W65LALIFT
 62
7
 10
1473.640
 20
-7869.241
 30
-1106.000
 70
    32
  0
VERTEX
  8
W65LALIFT
 62
7
 10
1472.854
 20
-7868.194
 30
-1106.000
 70
    32
  0
VERTEX
  8
W65LALIFT
 62
7
 10
1471.807
 20
-7855.898
 30
-1106.000
 70
    32
  0
VERTEX
  8
W65LALIFT
 62
7
 10
1471.021
 20
-7847.787
 30
-1106.000
 70
    32
  0
VERTEX
  8
W65LALIFT
 62
7
 10
1471.021
 20
-7842.293
 30
-1106.000
 70
    32
  0
VERTEX
  8
W65LALIFT
 62
7
 10
1471.807
 20
-7838.630
 30
-1106.000
 70
    32
  0
VERTEX
  8
W65LALIFT
 62
7
 10
1474.688
 20
-7836.537
 30
-1106.000
 70
    32
  0
SEQEND
  8
W65LALIFT
  0
POLYLINE
  8
W65LALIFT
 62
8
 66
     1
 70
     9
  0
VERTEX
  8
W65LALIFT
 62
8
 10
1477.046
 20
-7827.642
 30
-1110.000
 70
    32
  0
VERTEX
  8
W65LALIFT
 62
8
 10
1480.189
 20
-7826.595
 30
-1110.000
 70
    32
  0
VERTEX
  8
W65LALIFT
 62
8
 10
1486.738
 20
-7826.595
 30
-1110.000
 70
    32
  0
VERTEX
  8
W65LALIFT
 62
8
 10
1490.406
 20
-7826.857
 30
-1110.000
 70
    32
  0
VERTEX
  8
W65LALIFT
 62
8
 10
1492.502
 20
-7827.642
 30
-1110.000
 70
    32
  0
VERTEX
  8
W65LALIFT
 62
8
 10
1501.146
 20
-7838.369
 30
-1110.000
 70
    32
  0
VERTEX
  8
W65LALIFT
 62
8
 10
1505.600
 20
-7845.171
 30
-1110.000
 70
    32
  0
VERTEX
  8
W65LALIFT
 62
8
 10
1504.814
 20
-7853.805
 30
-1110.000
 70
    32
  0
VERTEX
  8
W65LALIFT
 62
8
 10
1502.456
 20
-7857.991
 30
-1110.000
 70
    32
  0
VERTEX
  8
W65LALIFT
 62
8
 10
1502.456
 20
-7864.270
 30
-1110.000
 70
    32
  0
VERTEX
  8
W65LALIFT
 62
8
 10
1505.338
 20
-7866.101
 30
-1110.000
 70
    32
  0
VERTEX
  8
W65LALIFT
 62
8
 10
1506.124
 20
-7878.659
 30
-1110.000
 70
    32
  0
VERTEX
  8
W65LALIFT
 62
8
 10
1506.124
 20
-7883.892
 30
-1110.000
 70
    32
  0
VERTEX
  8
W65LALIFT
 62
8
 10
1504.290
 20
-7886.770
 30
-1110.000
 70
    32
  0
VERTEX
  8
W65LALIFT
 62
8
 10
1504.814
 20
-7890.956
 30
-1110.000
 70
    32
  0
VERTEX
  8
W65LALIFT
 62
8
 10
1502.718
 20
-7896.189
 30
-1110.000
 70
    32
  0
VERTEX
  8
W65LALIFT
 62
8
 10
1503.242
 20
-7902.729
 30
-1110.000
 70
    32
  0
VERTEX
  8
W65LALIFT
 62
8
 10
1504.814
 20
-7907.177
 30
-1110.000
 70
    32
  0
VERTEX
  8
W65LALIFT
 62
8
 10
1491.716
 20
-7909.532
 30
-1110.000
 70
    32
  0
VERTEX
  8
W65LALIFT
 62
8
 10
1488.572
 20
-7906.392
 30
-1110.000
 70
    32
  0
VERTEX
  8
W65LALIFT
 62
8
 10
1487.262
 20
-7906.392
 30
-1110.000
 70
    32
  0
VERTEX
  8
W65LALIFT
 62
8
 10
1483.333
 20
-7902.206
 30
-1110.000
 70
    32
  0
VERTEX
  8
W65LALIFT
 62
8
 10
1479.665
 20
-7892.526
 30
-1110.000
 70
    32
  0
VERTEX
  8
W65LALIFT
 62
8
 10
1479.665
 20
-7887.032
 30
-1110.000
 70
    32
  0
VERTEX
  8
W65LALIFT
 62
8
 10
1476.784
 20
-7881.799
 30
-1110.000
 70
    32
  0
VERTEX
  8
W65LALIFT
 62
8
 10
1476.522
 20
-7876.566
 30
-1110.000
 70
    32
  0
VERTEX
  8
W65LALIFT
 62
8
 10
1477.046
 20
-7873.165
 30
-1110.000
 70
    32
  0
VERTEX
  8
W65LALIFT
 62
8
 10
1476.522
 20
-7870.549
 30
-1110.000
 70
    32
  0
VERTEX
  8
W65LALIFT
 62
8
 10
1476.260
 20
-7861.392
 30
-1110.000
 70
    32
  0
VERTEX
  8
W65LALIFT
 62
8
 10
1475.212
 20
-7855.636
 30
-1110.000
 70
    32
  0
VERTEX
  8
W65LALIFT
 62
8
 10
1475.212
 20
-7847.526
 30
-1110.000
 70
    32
  0
VERTEX
  8
W65LALIFT
 62
8
 10
1475.998
 20
-7843.078
 30
-1110.000
 70
    32
  0
VERTEX
  8
W65LALIFT
 62
8
 10
1474.950
 20
-7834.444
 30
-1110.000
 70
    32
  0
VERTEX
  8
W65LALIFT
 62
8
 10
1477.832
 20
-7831.043
 30
-1110.000
 70
    32
  0
SEQEND
  8
W65LALIFT
  0
POLYLINE
  8
W65LALIFT
 62
1
 66
     1
 70
     9
  0
VERTEX
  8
W65LALIFT
 62
1
 10
1479.183
 20
-7827.044
 30
-1114.000
 70
    32
  0
VERTEX
  8
W65LALIFT
 62
1
 10
1481.229
 20
-7825.609
 30
-1114.000
 70
    32
  0
VERTEX
  8
W65LALIFT
 62
1
 10
1481.577
 20
-7825.653
 30
-1114.000
 70
    32
  0
VERTEX
  8
W65LALIFT
 62
1
 10
1482.884
 20
-7825.739
 30
-1114.000
 70
    32
  0
VERTEX
  8
W65LALIFT
 62
1
 10
1484.364
 20
-7825.522
 30
-1114.000
 70
    32
  0
VERTEX
  8
W65LALIFT
 62
1
 10
1485.932
 20
-7825.218
 30
-1114.000
 70
    32
  0
VERTEX
  8
W65LALIFT
 62
1
 10
1488.500
 20
-7824.783
 30
-1114.000
 70
    32
  0
VERTEX
  8
W65LALIFT
 62
1
 10
1490.416
 20
-7826.131
 30
-1114.000
 70
    32
  0
VERTEX
  8
W65LALIFT
 62
1
 10
1492.245
 20
-7828.783
 30
-1114.000
 70
    32
  0
VERTEX
  8
W65LALIFT
 62
1
 10
1494.858
 20
-7831.132
 30
-1114.000
 70
    32
  0
VERTEX
  8
W65LALIFT
 62
1
 10
1499.604
 20
-7835.045
 30
-1114.000
 70
    32
  0
VERTEX
  8
W65LALIFT
 62
1
 10
1500.562
 20
-7836.350
 30
-1114.000
 70
    32
  0
VERTEX
  8
W65LALIFT
 62
1
 10
1507.172
 20
-7844.648
 30
-1114.000
 70
    32
  0
VERTEX
  8
W65LALIFT
 62
1
 10
1507.434
 20
-7853.543
 30
-1114.000
 70
    32
  0
VERTEX
  8
W65LALIFT
 62
1
 10
1505.076
 20
-7860.084
 30
-1114.000
 70
    32
  0
VERTEX
  8
W65LALIFT
 62
1
 10
1506.910
 20
-7872.119
 30
-1114.000
 70
    32
  0
VERTEX
  8
W65LALIFT
 62
1
 10
1508.743
 20
-7875.781
 30
-1114.000
 70
    32
  0
VERTEX
  8
W65LALIFT
 62
1
 10
1509.267
 20
-7883.107
 30
-1114.000
 70
    32
  0
VERTEX
  8
W65LALIFT
 62
1
 10
1508.743
 20
-7888.078
 30
-1114.000
 70
    32
  0
VERTEX
  8
W65LALIFT
 62
1
 10
1505.862
 20
-7900.636
 30
-1114.000
 70
    32
  0
VERTEX
  8
W65LALIFT
 62
1
 10
1506.910
 20
-7906.654
 30
-1114.000
 70
    32
  0
VERTEX
  8
W65LALIFT
 62
1
 10
1494.859
 20
-7909.008
 30
-1114.000
 70
    32
  0
VERTEX
  8
W65LALIFT
 62
1
 10
1490.406
 20
-7905.607
 30
-1114.000
 70
    32
  0
VERTEX
  8
W65LALIFT
 62
1
 10
1484.381
 20
-7896.189
 30
-1114.000
 70
    32
  0
VERTEX
  8
W65LALIFT
 62
1
 10
1483.071
 20
-7892.264
 30
-1114.000
 70
    32
  0
VERTEX
  8
W65LALIFT
 62
1
 10
1482.547
 20
-7887.555
 30
-1114.000
 70
    32
  0
VERTEX
  8
W65LALIFT
 62
1
 10
1480.451
 20
-7879.706
 30
-1114.000
 70
    32
  0
VERTEX
  8
W65LALIFT
 62
1
 10
1480.975
 20
-7876.305
 30
-1114.000
 70
    32
  0
VERTEX
  8
W65LALIFT
 62
1
 10
1480.451
 20
-7865.578
 30
-1114.000
 70
    32
  0
VERTEX
  8
W65LALIFT
 62
1
 10
1478.880
 20
-7854.851
 30
-1114.000
 70
    32
  0
VERTEX
  8
W65LALIFT
 62
1
 10
1479.927
 20
-7851.188
 30
-1114.000
 70
    32
  0
VERTEX
  8
W65LALIFT
 62
1
 10
1477.308
 20
-7836.799
 30
-1114.000
 70
    32
  0
VERTEX
  8
W65LALIFT
 62
1
 10
1478.094
 20
-7836.799
 30
-1114.000
 70
    32
  0
VERTEX
  8
W65LALIFT
 62
1
 10
1480.189
 20
-7832.351
 30
-1114.000
 70
    32
  0
VERTEX
  8
W65LALIFT
 62
1
 10
1480.189
 20
-7829.996
 30
-1114.000
 70
    32
  0
SEQEND
  8
W65LALIFT
  0
POLYLINE
  8
W65LALIFT
 62
3
 66
     1
 70
     9
  0
VERTEX
  8
W65LALIFT
 62
3
 10
1480.975
 20
-7827.380
 30
-1118.000
 70
    32
  0
VERTEX
  8
W65LALIFT
 62
3
 10
1484.119
 20
-7825.026
 30
-1118.000
 70
    32
  0
VERTEX
  8
W65LALIFT
 62
3
 10
1490.144
 20
-7823.717
 30
-1118.000
 70
    32
  0
VERTEX
  8
W65LALIFT
 62
3
 10
1503.242
 20
-7837.584
 30
-1118.000
 70
    32
  0
VERTEX
  8
W65LALIFT
 62
3
 10
1506.386
 20
-7840.462
 30
-1118.000
 70
    32
  0
VERTEX
  8
W65LALIFT
 62
3
 10
1508.743
 20
-7850.142
 30
-1118.000
 70
    32
  0
VERTEX
  8
W65LALIFT
 62
3
 10
1509.005
 20
-7852.758
 30
-1118.000
 70
    32
  0
VERTEX
  8
W65LALIFT
 62
3
 10
1506.648
 20
-7854.328
 30
-1118.000
 70
    32
  0
VERTEX
  8
W65LALIFT
 62
3
 10
1509.529
 20
-7866.624
 30
-1118.000
 70
    32
  0
VERTEX
  8
W65LALIFT
 62
3
 10
1509.529
 20
-7873.165
 30
-1118.000
 70
    32
  0
VERTEX
  8
W65LALIFT
 62
3
 10
1514.245
 20
-7873.165
 30
-1118.000
 70
    32
  0
VERTEX
  8
W65LALIFT
 62
3
 10
1518.174
 20
-7875.781
 30
-1118.000
 70
    32
  0
VERTEX
  8
W65LALIFT
 62
3
 10
1518.960
 20
-7878.659
 30
-1118.000
 70
    32
  0
VERTEX
  8
W65LALIFT
 62
3
 10
1518.960
 20
-7881.799
 30
-1118.000
 70
    32
  0
VERTEX
  8
W65LALIFT
 62
3
 10
1513.983
 20
-7884.938
 30
-1118.000
 70
    32
  0
VERTEX
  8
W65LALIFT
 62
3
 10
1512.149
 20
-7889.648
 30
-1118.000
 70
    32
  0
VERTEX
  8
W65LALIFT
 62
3
 10
1510.839
 20
-7897.235
 30
-1118.000
 70
    32
  0
VERTEX
  8
W65LALIFT
 62
3
 10
1508.219
 20
-7900.898
 30
-1118.000
 70
    32
  0
VERTEX
  8
W65LALIFT
 62
3
 10
1507.958
 20
-7904.037
 30
-1118.000
 70
    32
  0
VERTEX
  8
W65LALIFT
 62
3
 10
1507.172
 20
-7906.392
 30
-1118.000
 70
    32
  0
VERTEX
  8
W65LALIFT
 62
3
 10
1498.003
 20
-7907.962
 30
-1118.000
 70
    32
  0
VERTEX
  8
W65LALIFT
 62
3
 10
1494.073
 20
-7905.084
 30
-1118.000
 70
    32
  0
VERTEX
  8
W65LALIFT
 62
3
 10
1488.834
 20
-7897.497
 30
-1118.000
 70
    32
  0
VERTEX
  8
W65LALIFT
 62
3
 10
1486.215
 20
-7893.572
 30
-1118.000
 70
    32
  0
VERTEX
  8
W65LALIFT
 62
3
 10
1487.524
 20
-7890.956
 30
-1118.000
 70
    32
  0
VERTEX
  8
W65LALIFT
 62
3
 10
1483.333
 20
-7880.491
 30
-1118.000
 70
    32
  0
VERTEX
  8
W65LALIFT
 62
3
 10
1485.167
 20
-7876.043
 30
-1118.000
 70
    32
  0
VERTEX
  8
W65LALIFT
 62
3
 10
1483.595
 20
-7864.008
 30
-1118.000
 70
    32
  0
VERTEX
  8
W65LALIFT
 62
3
 10
1482.547
 20
-7856.683
 30
-1118.000
 70
    32
  0
VERTEX
  8
W65LALIFT
 62
3
 10
1482.023
 20
-7839.677
 30
-1118.000
 70
    32
  0
SEQEND
  8
W65LALIFT
  0
POLYLINE
  8
W65LALIFT
 62
6
 66
     1
 70
     9
  0
VERTEX
  8
W65LALIFT
 62
6
 10
1482.999
 20
-7828.843
 30
-1122.000
 70
    32
  0
VERTEX
  8
W65LALIFT
 62
6
 10
1488.704
 20
-7825.826
 30
-1122.000
 70
    32
  0
VERTEX
  8
W65LALIFT
 62
6
 10
1494.744
 20
-7827.502
 30
-1122.000
 70
    32
  0
VERTEX
  8
W65LALIFT
 62
6
 10
1496.086
 20
-7831.524
 30
-1122.000
 70
    32
  0
VERTEX
  8
W65LALIFT
 62
6
 10
1502.797
 20
-7836.216
 30
-1122.000
 70
    32
  0
VERTEX
  8
W65LALIFT
 62
6
 10
1505.482
 20
-7841.243
 30
-1122.000
 70
    32
  0
VERTEX
  8
W65LALIFT
 62
6
 10
1509.844
 20
-7849.956
 30
-1122.000
 70
    32
  0
VERTEX
  8
W65LALIFT
 62
6
 10
1508.838
 20
-7860.681
 30
-1122.000
 70
    32
  0
VERTEX
  8
W65LALIFT
 62
6
 10
1510.851
 20
-7861.686
 30
-1122.000
 70
    32
  0
VERTEX
  8
W65LALIFT
 62
6
 10
1512.193
 20
-7865.037
 30
-1122.000
 70
    32
  0
VERTEX
  8
W65LALIFT
 62
6
 10
1511.522
 20
-7871.740
 30
-1122.000
 70
    32
  0
VERTEX
  8
W65LALIFT
 62
6
 10
1512.193
 20
-7873.081
 30
-1122.000
 70
    32
  0
VERTEX
  8
W65LALIFT
 62
6
 10
1515.549
 20
-7873.751
 30
-1122.000
 70
    32
  0
VERTEX
  8
W65LALIFT
 62
6
 10
1519.240
 20
-7877.102
 30
-1122.000
 70
    32
  0
VERTEX
  8
W65LALIFT
 62
6
 10
1519.240
 20
-7882.464
 30
-1122.000
 70
    32
  0
VERTEX
  8
W65LALIFT
 62
6
 10
1516.891
 20
-7884.810
 30
-1122.000
 70
    32
  0
VERTEX
  8
W65LALIFT
 62
6
 10
1517.562
 20
-7889.837
 30
-1122.000
 70
    32
  0
VERTEX
  8
W65LALIFT
 62
6
 10
1516.220
 20
-7894.194
 30
-1122.000
 70
    32
  0
VERTEX
  8
W65LALIFT
 62
6
 10
1511.186
 20
-7902.237
 30
-1122.000
 70
    32
  0
VERTEX
  8
W65LALIFT
 62
6
 10
1508.166
 20
-7907.264
 30
-1122.000
 70
    32
  0
VERTEX
  8
W65LALIFT
 62
6
 10
1500.448
 20
-7907.264
 30
-1122.000
 70
    32
  0
VERTEX
  8
W65LALIFT
 62
6
 10
1495.415
 20
-7903.913
 30
-1122.000
 70
    32
  0
VERTEX
  8
W65LALIFT
 62
6
 10
1495.079
 20
-7900.897
 30
-1122.000
 70
    32
  0
VERTEX
  8
W65LALIFT
 62
6
 10
1491.388
 20
-7896.875
 30
-1122.000
 70
    32
  0
VERTEX
  8
W65LALIFT
 62
6
 10
1489.039
 20
-7891.513
 30
-1122.000
 70
    32
  0
VERTEX
  8
W65LALIFT
 62
6
 10
1490.381
 20
-7888.497
 30
-1122.000
 70
    32
  0
VERTEX
  8
W65LALIFT
 62
6
 10
1488.033
 20
-7883.135
 30
-1122.000
 70
    32
  0
VERTEX
  8
W65LALIFT
 62
6
 10
1486.019
 20
-7872.745
 30
-1122.000
 70
    32
  0
VERTEX
  8
W65LALIFT
 62
6
 10
1486.355
 20
-7866.378
 30
-1122.000
 70
    32
  0
VERTEX
  8
W65LALIFT
 62
6
 10
1485.012
 20
-7861.016
 30
-1122.000
 70
    32
  0
VERTEX
  8
W65LALIFT
 62
6
 10
1487.026
 20
-7857.329
 30
-1122.000
 70
    32
  0
VERTEX
  8
W65LALIFT
 62
6
 10
1486.690
 20
-7849.621
 30
-1122.000
 70
    32
  0
SEQEND
  8
W65LALIFT
  0
POLYLINE
  8
W65LALIFT
 62
13
 66
     1
 70
     9
  0
VERTEX
  8
W65LALIFT
 62
13
 10
1486.019
 20
-7832.194
 30
-1126.000
 70
    32
  0
VERTEX
  8
W65LALIFT
 62
13
 10
1494.744
 20
-7830.183
 30
-1126.000
 70
    32
  0
VERTEX
  8
W65LALIFT
 62
13
 10
1502.462
 20
-7833.199
 30
-1126.000
 70
    32
  0
VERTEX
  8
W65LALIFT
 62
13
 10
1506.489
 20
-7844.259
 30
-1126.000
 70
    32
  0
VERTEX
  8
W65LALIFT
 62
13
 10
1505.482
 20
-7847.945
 30
-1126.000
 70
    32
  0
VERTEX
  8
W65LALIFT
 62
13
 10
1508.502
 20
-7849.621
 30
-1126.000
 70
    32
  0
VERTEX
  8
W65LALIFT
 62
13
 10
1509.173
 20
-7854.313
 30
-1126.000
 70
    32
  0
VERTEX
  8
W65LALIFT
 62
13
 10
1509.844
 20
-7862.356
 30
-1126.000
 70
    32
  0
VERTEX
  8
W65LALIFT
 62
13
 10
1511.858
 20
-7871.740
 30
-1126.000
 70
    32
  0
VERTEX
  8
W65LALIFT
 62
13
 10
1513.871
 20
-7871.740
 30
-1126.000
 70
    32
  0
VERTEX
  8
W65LALIFT
 62
13
 10
1514.207
 20
-7877.102
 30
-1126.000
 70
    32
  0
VERTEX
  8
W65LALIFT
 62
13
 10
1520.247
 20
-7879.783
 30
-1126.000
 70
    32
  0
VERTEX
  8
W65LALIFT
 62
13
 10
1520.918
 20
-7889.837
 30
-1126.000
 70
    32
  0
VERTEX
  8
W65LALIFT
 62
13
 10
1519.576
 20
-7892.518
 30
-1126.000
 70
    32
  0
VERTEX
  8
W65LALIFT
 62
13
 10
1515.884
 20
-7902.237
 30
-1126.000
 70
    32
  0
VERTEX
  8
W65LALIFT
 62
13
 10
1511.186
 20
-7905.924
 30
-1126.000
 70
    32
  0
VERTEX
  8
W65LALIFT
 62
13
 10
1503.133
 20
-7907.600
 30
-1126.000
 70
    32
  0
VERTEX
  8
W65LALIFT
 62
13
 10
1499.106
 20
-7904.583
 30
-1126.000
 70
    32
  0
VERTEX
  8
W65LALIFT
 62
13
 10
1494.073
 20
-7896.205
 30
-1126.000
 70
    32
  0
VERTEX
  8
W65LALIFT
 62
13
 10
1494.073
 20
-7893.859
 30
-1126.000
 70
    32
  0
VERTEX
  8
W65LALIFT
 62
13
 10
1492.059
 20
-7890.173
 30
-1126.000
 70
    32
  0
VERTEX
  8
W65LALIFT
 62
13
 10
1490.046
 20
-7878.778
 30
-1126.000
 70
    32
  0
VERTEX
  8
W65LALIFT
 62
13
 10
1486.690
 20
-7866.713
 30
-1126.000
 70
    32
  0
VERTEX
  8
W65LALIFT
 62
13
 10
1487.697
 20
-7866.043
 30
-1126.000
 70
    32
  0
VERTEX
  8
W65LALIFT
 62
13
 10
1487.026
 20
-7860.010
 30
-1126.000
 70
    32
  0
VERTEX
  8
W65LALIFT
 62
13
 10
1489.710
 20
-7854.648
 30
-1126.000
 70
    32
  0
VERTEX
  8
W65LALIFT
 62
13
 10
1490.046
 20
-7849.621
 30
-1126.000
 70
    32
  0
VERTEX
  8
W65LALIFT
 62
13
 10
1486.019
 20
-7837.221
 30
-1126.000
 70
    32
  0
SEQEND
  8
W65LALIFT
  0
POLYLINE
  8
W65LALIFT
 62
7
 66
     1
 70
     9
  0
VERTEX
  8
W65LALIFT
 62
7
 10
1499.493
 20
-7915.470
 30
-1130.310
 70
    32
  0
VERTEX
  8
W65LALIFT
 62
7
 10
1501.812
 20
-7910.454
 30
-1129.397
 70
    32
  0
VERTEX
  8
W65LALIFT
 62
7
 10
1499.775
 20
-7902.454
 30
-1130.396
 70
    32
  0
VERTEX
  8
W65LALIFT
 62
7
 10
1494.008
 20
-7890.619
 30
-1127.691
 70
    32
  0
VERTEX
  8
W65LALIFT
 62
7
 10
1492.340
 20
-7886.343
 30
-1127.622
 70
    32
  0
VERTEX
  8
W65LALIFT
 62
7
 10
1491.950
 20
-7873.794
 30
-1126.610
 70
    32
  0
VERTEX
  8
W65LALIFT
 62
7
 10
1497.698
 20
-7866.078
 30
-1125.545
 70
    32
  0
VERTEX
  8
W65LALIFT
 62
7
 10
1494.727
 20
-7855.076
 30
-1123.693
 70
    32
  0
VERTEX
  8
W65LALIFT
 62
7
 10
1488.502
 20
-7845.680
 30
-1122.453
 70
    32
  0
VERTEX
  8
W65LALIFT
 62
7
 10
1488.179
 20
-7837.319
 30
-1122.118
 70
    32
  0
VERTEX
  8
W65LALIFT
 62
7
 10
1478.791
 20
-7822.192
 30
-1122.522
 70
    32
  0
VERTEX
  8
W65LALIFT
 62
7
 10
1482.805
 20
-7818.740
 30
-1121.494
 70
    32
  0
VERTEX
  8
W65LALIFT
 62
7
 10
1491.837
 20
-7814.484
 30
-1122.332
 70
    32
  0
VERTEX
  8
W65LALIFT
 62
7
 10
1500.926
 20
-7832.117
 30
-1122.416
 70
    32
  0
VERTEX
  8
W65LALIFT
 62
7
 10
1505.469
 20
-7834.722
 30
-1122.253
 70
    32
  0
VERTEX
  8
W65LALIFT
 62
7
 10
1511.502
 20
-7850.276
 30
-1123.720
 70
    32
  0
VERTEX
  8
W65LALIFT
 62
7
 10
1515.579
 20
-7873.512
 30
-1125.854
 70
    32
  0
VERTEX
  8
W65LALIFT
 62
7
 10
1517.164
 20
-7873.730
 30
-1126.695
 70
    32
  0
VERTEX
  8
W65LALIFT
 62
7
 10
1518.669
 20
-7874.014
 30
-1126.473
 70
    32
  0
VERTEX
  8
W65LALIFT
 62
7
 10
1520.146
 20
-7875.120
 30
-1126.250
 70
    32
  0
VERTEX
  8
W65LALIFT
 62
7
 10
1520.998
 20
-7877.333
 30
-1126.027
 70
    32
  0
VERTEX
  8
W65LALIFT
 62
7
 10
1520.767
 20
-7879.306
 30
-1125.805
 70
    32
  0
VERTEX
  8
W65LALIFT
 62
7
 10
1519.973
 20
-7884.308
 30
-1125.709
 70
    32
  0
VERTEX
  8
W65LALIFT
 62
7
 10
1523.282
 20
-7885.434
 30
-1127.271
 70
    32
  0
VERTEX
  8
W65LALIFT
 62
7
 10
1515.251
 20
-7918.508
 30
-1130.720
 70
    32
  0
SEQEND
  8
W65LALIFT
  0
POLYLINE
  8
W65LALIFT
 62
6
 66
     1
 70
     9
  0
VERTEX
  8
W65LALIFT
 62
6
 10
1503.145
 20
-7910.895
 30
-1139.971
 70
    32
  0
VERTEX
  8
W65LALIFT
 62
6
 10
1500.096
 20
-7901.224
 30
-1140.325
 70
    32
  0
VERTEX
  8
W65LALIFT
 62
6
 10
1490.903
 20
-7874.841
 30
-1146.053
 70
    32
  0
VERTEX
  8
W65LALIFT
 62
6
 10
1499.064
 20
-7868.025
 30
-1146.981
 70
    32
  0
VERTEX
  8
W65LALIFT
 62
6
 10
1497.266
 20
-7848.474
 30
-1150.762
 70
    32
  0
VERTEX
  8
W65LALIFT
 62
6
 10
1495.269
 20
-7837.541
 30
-1150.192
 70
    32
  0
VERTEX
  8
W65LALIFT
 62
6
 10
1490.562
 20
-7830.539
 30
-1150.397
 70
    32
  0
VERTEX
  8
W65LALIFT
 62
6
 10
1486.817
 20
-7817.664
 30
-1152.048
 70
    32
  0
VERTEX
  8
W65LALIFT
 62
6
 10
1509.908
 20
-7818.176
 30
-1150.581
 70
    32
  0
VERTEX
  8
W65LALIFT
 62
6
 10
1513.766
 20
-7826.698
 30
-1150.486
 70
    32
  0
VERTEX
  8
W65LALIFT
 62
6
 10
1515.890
 20
-7843.861
 30
-1150.049
 70
    32
  0
VERTEX
  8
W65LALIFT
 62
6
 10
1516.027
 20
-7852.544
 30
-1148.992
 70
    32
  0
VERTEX
  8
W65LALIFT
 62
6
 10
1519.131
 20
-7875.481
 30
-1145.407
 70
    32
  0
VERTEX
  8
W65LALIFT
 62
6
 10
1523.356
 20
-7879.194
 30
-1146.291
 70
    32
  0
VERTEX
  8
W65LALIFT
 62
6
 10
1523.887
 20
-7883.796
 30
-1145.858
 70
    32
  0
VERTEX
  8
W65LALIFT
 62
6
 10
1517.716
 20
-7907.113
 30
-1139.940
 70
    32
  0
VERTEX
  8
W65LALIFT
 62
6
 10
1516.859
 20
-7914.070
 30
-1139.774
 70
    32
  0
SEQEND
  8
W65LALIFT
  0
POLYLINE
  8
W65LALIFT
 62
1
 66
     1
 70
     9
  0
VERTEX
  8
W65LALIFT
 62
1
 10
1951.000
 20
-8457.115
 30
-1243.206
 70
    32
  0
VERTEX
  8
W65LALIFT
 62
1
 10
1947.395
 20
-8454.101
 30
-1242.930
 70
    32
  0
VERTEX
  8
W65LALIFT
 62
1
 10
1942.168
 20
-8445.753
 30
-1239.833
 70
    32
  0
VERTEX
  8
W65LALIFT
 62
1
 10
1932.470
 20
-8418.709
 30
-1240.224
 70
    32
  0
VERTEX
  8
W65LALIFT
 62
1
 10
1927.503
 20
-8408.501
 30
-1241.447
 70
    32
  0
VERTEX
  8
W65LALIFT
 62
1
 10
1918.017
 20
-8396.510
 30
-1239.899
 70
    32
  0
VERTEX
  8
W65LALIFT
 62
1
 10
1915.617
 20
-8388.934
 30
-1237.633
 70
    32
  0
VERTEX
  8
W65LALIFT
 62
1
 10
1917.436
 20
-8373.048
 30
-1237.262
 70
    32
  0
VERTEX
  8
W65LALIFT
 62
1
 10
1920.793
 20
-8358.203
 30
-1237.262
 70
    32
  0
VERTEX
  8
W65LALIFT
 62
1
 10
1921.069
 20
-8357.256
 30
-1232.498
 70
    32
  0
VERTEX
  8
W65LALIFT
 62
1
 10
1920.904
 20
-8333.704
 30
-1229.170
 70
    32
  0
VERTEX
  8
W65LALIFT
 62
1
 10
1918.801
 20
-8319.873
 30
-1229.637
 70
    32
  0
VERTEX
  8
W65LALIFT
 62
1
 10
1922.074
 20
-8293.439
 30
-1230.272
 70
    32
  0
VERTEX
  8
W65LALIFT
 62
1
 10
1919.435
 20
-8271.386
 30
-1227.566
 70
    32
  0
VERTEX
  8
W65LALIFT
 62
1
 10
1892.715
 20
-8277.488
 30
-1227.431
 70
    32
  0
VERTEX
  8
W65LALIFT
 62
1
 10
1891.527
 20
-8290.722
 30
-1230.288
 70
    32
  0
VERTEX
  8
W65LALIFT
 62
1
 10
1900.046
 20
-8300.206
 30
-1231.595
 70
    32
  0
VERTEX
  8
W65LALIFT
 62
1
 10
1900.117
 20
-8307.624
 30
-1232.331
 70
    32
  0
VERTEX
  8
W65LALIFT
 62
1
 10
1896.748
 20
-8311.499
 30
-1229.251
 70
    32
  0
VERTEX
  8
W65LALIFT
 62
1
 10
1900.354
 20
-8320.697
 30
-1229.668
 70
    32
  0
VERTEX
  8
W65LALIFT
 62
1
 10
1900.934
 20
-8331.515
 30
-1230.303
 70
    32
  0
VERTEX
  8
W65LALIFT
 62
1
 10
1905.389
 20
-8335.824
 30
-1230.598
 70
    32
  0
VERTEX
  8
W65LALIFT
 62
1
 10
1906.319
 20
-8347.795
 30
-1232.888
 70
    32
  0
VERTEX
  8
W65LALIFT
 62
1
 10
1903.221
 20
-8358.398
 30
-1232.778
 70
    32
  0
VERTEX
  8
W65LALIFT
 62
1
 10
1903.552
 20
-8366.565
 30
-1233.785
 70
    32
  0
VERTEX
  8
W65LALIFT
 62
1
 10
1903.813
 20
-8371.144
 30
-1237.262
 70
    32
  0
VERTEX
  8
W65LALIFT
 62
1
 10
1900.122
 20
-8375.957
 30
-1237.262
 70
    32
  0
VERTEX
  8
W65LALIFT
 62
1
 10
1899.203
 20
-8381.581
 30
-1237.262
 70
    32
  0
VERTEX
  8
W65LALIFT
 62
1
 10
1897.533
 20
-8391.870
 30
-1238.353
 70
    32
  0
VERTEX
  8
W65LALIFT
 62
1
 10
1902.527
 20
-8403.161
 30
-1239.525
 70
    32
  0
VERTEX
  8
W65LALIFT
 62
1
 10
1914.713
 20
-8418.086
 30
-1240.348
 70
    32
  0
VERTEX
  8
W65LALIFT
 62
1
 10
1916.760
 20
-8434.180
 30
-1238.910
 70
    32
  0
VERTEX
  8
W65LALIFT
 62
1
 10
1928.338
 20
-8442.429
 30
-1239.948
 70
    32
  0
VERTEX
  8
W65LALIFT
 62
1
 10
1939.958
 20
-8465.406
 30
-1243.023
 70
    32
  0
VERTEX
  8
W65LALIFT
 62
1
 10
1942.245
 20
-8479.031
 30
-1244.021
 70
    32
  0
VERTEX
  8
W65LALIFT
 62
1
 10
1952.536
 20
-8499.304
 30
-1244.288
 70
    32
  0
VERTEX
  8
W65LALIFT
 62
1
 10
1950.924
 20
-8505.418
 30
-1244.384
 70
    32
  0
VERTEX
  8
W65LALIFT
 62
1
 10
1952.029
 20
-8510.285
 30
-1243.852
 70
    32
  0
VERTEX
  8
W65LALIFT
 62
1
 10
1954.906
 20
-8500.500
 30
-1243.852
 70
    32
  0
VERTEX
  8
W65LALIFT
 62
1
 10
1954.034
 20
-8480.797
 30
-1243.852
 70
    32
  0
SEQEND
  8
W65LALIFT
  0
POLYLINE
  8
W65LALIFT
 62
27
 66
     1
 70
     9
  0
VERTEX
  8
W65LALIFT
 62
27
 10
2044.018
 20
-9486.691
 30
-1114.080
 70
    32
  0
VERTEX
  8
W65LALIFT
 62
27
 10
2060.438
 20
-9469.686
 30
-1114.080
 70
    32
  0
VERTEX
  8
W65LALIFT
 62
27
 10
2058.644
 20
-9462.382
 30
-1114.080
 70
    32
  0
VERTEX
  8
W65LALIFT
 62
27
 10
2062.889
 20
-9458.414
 30
-1114.080
 70
    32
  0
VERTEX
  8
W65LALIFT
 62
27
 10
2068.071
 20
-9460.373
 30
-1114.080
 70
    32
  0
VERTEX
  8
W65LALIFT
 62
27
 10
2083.154
 20
-9439.825
 30
-1107.580
 70
    32
  0
VERTEX
  8
W65LALIFT
 62
27
 10
2092.558
 20
-9426.370
 30
-1108.780
 70
    32
  0
VERTEX
  8
W65LALIFT
 62
27
 10
2092.379
 20
-9414.143
 30
-1105.737
 70
    32
  0
VERTEX
  8
W65LALIFT
 62
27
 10
2088.585
 20
-9405.564
 30
-1105.773
 70
    32
  0
VERTEX
  8
W65LALIFT
 62
27
 10
2082.436
 20
-9397.862
 30
-1104.639
 70
    32
  0
VERTEX
  8
W65LALIFT
 62
27
 10
2082.661
 20
-9390.291
 30
-1104.414
 70
    32
  0
VERTEX
  8
W65LALIFT
 62
27
 10
2074.622
 20
-9382.543
 30
-1104.442
 70
    32
  0
VERTEX
  8
W65LALIFT
 62
27
 10
2069.756
 20
-9378.103
 30
-1104.799
 70
    32
  0
VERTEX
  8
W65LALIFT
 62
27
 10
2074.175
 20
-9370.597
 30
-1104.253
 70
    32
  0
VERTEX
  8
W65LALIFT
 62
27
 10
2078.765
 20
-9365.103
 30
-1103.383
 70
    32
  0
VERTEX
  8
W65LALIFT
 62
27
 10
2084.121
 20
-9364.739
 30
-1103.810
 70
    32
  0
VERTEX
  8
W65LALIFT
 62
27
 10
2089.079
 20
-9378.460
 30
-1103.217
 70
    32
  0
VERTEX
  8
W65LALIFT
 62
27
 10
2095.860
 20
-9392.779
 30
-1104.829
 70
    32
  0
VERTEX
  8
W65LALIFT
 62
27
 10
2105.881
 20
-9401.018
 30
-1105.872
 70
    32
  0
VERTEX
  8
W65LALIFT
 62
27
 10
2110.400
 20
-9398.465
 30
-1104.353
 70
    32
  0
VERTEX
  8
W65LALIFT
 62
27
 10
2117.034
 20
-9391.800
 30
-1107.321
 70
    32
  0
VERTEX
  8
W65LALIFT
 62
27
 10
2119.402
 20
-9384.353
 30
-1107.491
 70
    32
  0
VERTEX
  8
W65LALIFT
 62
27
 10
2118.606
 20
-9376.895
 30
-1107.845
 70
    32
  0
VERTEX
  8
W65LALIFT
 62
27
 10
2116.110
 20
-9366.729
 30
-1108.460
 70
    32
  0
VERTEX
  8
W65LALIFT
 62
27
 10
2114.137
 20
-9357.629
 30
-1108.119
 70
    32
  0
VERTEX
  8
W65LALIFT
 62
27
 10
2110.556
 20
-9347.353
 30
-1107.653
 70
    32
  0
VERTEX
  8
W65LALIFT
 62
27
 10
2121.625
 20
-9344.159
 30
-1107.309
 70
    32
  0
VERTEX
  8
W65LALIFT
 62
27
 10
2126.545
 20
-9364.007
 30
-1108.617
 70
    32
  0
VERTEX
  8
W65LALIFT
 62
27
 10
2128.193
 20
-9375.653
 30
-1107.384
 70
    32
  0
VERTEX
  8
W65LALIFT
 62
27
 10
2133.216
 20
-9387.046
 30
-1107.573
 70
    32
  0
VERTEX
  8
W65LALIFT
 62
27
 10
2136.301
 20
-9399.174
 30
-1105.671
 70
    32
  0
VERTEX
  8
W65LALIFT
 62
27
 10
2127.779
 20
-9406.430
 30
-1106.256
 70
    32
  0
VERTEX
  8
W65LALIFT
 62
27
 10
2118.322
 20
-9415.459
 30
-1105.677
 70
    32
  0
VERTEX
  8
W65LALIFT
 62
27
 10
2109.677
 20
-9428.167
 30
-1108.780
 70
    32
  0
VERTEX
  8
W65LALIFT
 62
27
 10
2108.717
 20
-9430.676
 30
-1108.463
 70
    32
  0
VERTEX
  8
W65LALIFT
 62
27
 10
2114.003
 20
-9441.601
 30
-1108.292
 70
    32
  0
VERTEX
  8
W65LALIFT
 62
27
 10
2122.318
 20
-9451.449
 30
-1109.563
 70
    32
  0
VERTEX
  8
W65LALIFT
 62
27
 10
2137.124
 20
-9443.713
 30
-1107.071
 70
    32
  0
VERTEX
  8
W65LALIFT
 62
27
 10
2138.666
 20
-9461.289
 30
-1104.415
 70
    32
  0
VERTEX
  8
W65LALIFT
 62
27
 10
2138.409
 20
-9468.816
 30
-1102.257
 70
    32
  0
VERTEX
  8
W65LALIFT
 62
27
 10
2141.956
 20
-9486.348
 30
-1102.398
 70
    32
  0
VERTEX
  8
W65LALIFT
 62
27
 10
2148.246
 20
-9508.023
 30
-1098.482
 70
    32
  0
VERTEX
  8
W65LALIFT
 62
27
 10
2153.156
 20
-9526.806
 30
-1092.749
 70
    32
  0
VERTEX
  8
W65LALIFT
 62
27
 10
2134.489
 20
-9530.555
 30
-1101.463
 70
    32
  0
VERTEX
  8
W65LALIFT
 62
27
 10
2132.651
 20
-9502.042
 30
-1106.150
 70
    32
  0
VERTEX
  8
W65LALIFT
 62
27
 10
2128.685
 20
-9485.038
 30
-1104.747
 70
    32
  0
VERTEX
  8
W65LALIFT
 62
27
 10
2123.609
 20
-9475.240
 30
-1104.291
 70
    32
  0
VERTEX
  8
W65LALIFT
 62
27
 10
2118.833
 20
-9470.773
 30
-1108.198
 70
    32
  0
VERTEX
  8
W65LALIFT
 62
27
 10
2107.484
 20
-9464.255
 30
-1110.883
 70
    32
  0
VERTEX
  8
W65LALIFT
 62
27
 10
2096.535
 20
-9458.803
 30
-1110.307
 70
    32
  0
VERTEX
  8
W65LALIFT
 62
27
 10
2088.117
 20
-9457.901
 30
-1112.331
 70
    32
  0
VERTEX
  8
W65LALIFT
 62
27
 10
2057.788
 20
-9489.571
 30
-1114.080
 70
    32
  0
SEQEND
  8
W65LALIFT
  0
ENDSEC
  0
EOF
