999
********************************
999
*   DXF File - Entities Only   *
999
*        3D Data Format        *
999
*     Output from ENVISAGE     *
999
*     02-Jan-2008 11:10:14     *
999
********************************
  0
SECTION 
  2
HEADER
  9
$ACADVER
  1
AC1009
  9
$EXTMIN
 10
-290000.000
 20
-250000.000
 30
-4000.000
  9
$EXTMAX
 10
320000.000
 20
160000.000
 30
6000.000
  0
ENDSEC
  0
SECTION
  2
ENTITIES
  0
POLYLINE
  8
W66LALIFT
 62
7
 66
     1
 70
     8
  0
VERTEX
  8
W66LALIFT
 62
7
 10
1581.184
 20
-7278.184
 30
-1330.342
 70
    32
  0
VERTEX
  8
W66LALIFT
 62
7
 10
1582.531
 20
-7270.256
 30
-1331.177
 70
    32
  0
VERTEX
  8
W66LALIFT
 62
7
 10
1581.445
 20
-7264.830
 30
-1330.571
 70
    32
  0
VERTEX
  8
W66LALIFT
 62
7
 10
1578.051
 20
-7259.174
 30
-1328.917
 70
    32
  0
VERTEX
  8
W66LALIFT
 62
7
 10
1570.989
 20
-7245.981
 30
-1327.744
 70
    32
  0
VERTEX
  8
W66LALIFT
 62
7
 10
1571.169
 20
-7235.153
 30
-1326.269
 70
    32
  0
VERTEX
  8
W66LALIFT
 62
7
 10
1585.020
 20
-7231.068
 30
-1327.570
 70
    32
  0
VERTEX
  8
W66LALIFT
 62
7
 10
1589.949
 20
-7238.675
 30
-1328.509
 70
    32
  0
VERTEX
  8
W66LALIFT
 62
7
 10
1592.934
 20
-7239.661
 30
-1328.809
 70
    32
  0
VERTEX
  8
W66LALIFT
 62
7
 10
1600.210
 20
-7241.095
 30
-1327.356
 70
    32
  0
VERTEX
  8
W66LALIFT
 62
7
 10
1608.953
 20
-7244.610
 30
-1326.143
 70
    32
  0
VERTEX
  8
W66LALIFT
 62
7
 10
1613.423
 20
-7248.219
 30
-1326.586
 70
    32
  0
VERTEX
  8
W66LALIFT
 62
7
 10
1609.720
 20
-7254.581
 30
-1329.020
 70
    32
  0
VERTEX
  8
W66LALIFT
 62
7
 10
1606.316
 20
-7264.544
 30
-1329.141
 70
    32
  0
VERTEX
  8
W66LALIFT
 62
7
 10
1602.194
 20
-7273.686
 30
-1328.087
 70
    32
  0
VERTEX
  8
W66LALIFT
 62
7
 10
1601.645
 20
-7283.642
 30
-1327.427
 70
    32
  0
SEQEND
  8
W66LALIFT
  0
POLYLINE
  8
W66LALIFT
 62
12
 66
     1
 70
     9
  0
VERTEX
  8
W66LALIFT
 62
12
 10
1563.589
 20
-7247.145
 30
-1310.966
 70
    32
  0
VERTEX
  8
W66LALIFT
 62
12
 10
1563.717
 20
-7246.229
 30
-1310.966
 70
    32
  0
VERTEX
  8
W66LALIFT
 62
12
 10
1563.275
 20
-7244.323
 30
-1310.966
 70
    32
  0
VERTEX
  8
W66LALIFT
 62
12
 10
1563.960
 20
-7243.197
 30
-1310.966
 70
    32
  0
VERTEX
  8
W66LALIFT
 62
12
 10
1565.164
 20
-7242.915
 30
-1310.966
 70
    32
  0
VERTEX
  8
W66LALIFT
 62
12
 10
1565.762
 20
-7242.668
 30
-1310.966
 70
    32
  0
VERTEX
  8
W66LALIFT
 62
12
 10
1566.599
 20
-7242.501
 30
-1310.966
 70
    32
  0
VERTEX
  8
W66LALIFT
 62
12
 10
1569.396
 20
-7242.886
 30
-1310.966
 70
    32
  0
VERTEX
  8
W66LALIFT
 62
12
 10
1570.498
 20
-7242.980
 30
-1310.966
 70
    32
  0
VERTEX
  8
W66LALIFT
 62
12
 10
1571.774
 20
-7242.824
 30
-1310.966
 70
    32
  0
VERTEX
  8
W66LALIFT
 62
12
 10
1572.581
 20
-7242.572
 30
-1310.966
 70
    32
  0
VERTEX
  8
W66LALIFT
 62
12
 10
1573.607
 20
-7242.524
 30
-1310.966
 70
    32
  0
VERTEX
  8
W66LALIFT
 62
12
 10
1575.988
 20
-7242.788
 30
-1310.966
 70
    32
  0
VERTEX
  8
W66LALIFT
 62
12
 10
1577.094
 20
-7242.979
 30
-1310.966
 70
    32
  0
VERTEX
  8
W66LALIFT
 62
12
 10
1577.560
 20
-7243.078
 30
-1310.966
 70
    32
  0
VERTEX
  8
W66LALIFT
 62
12
 10
1578.487
 20
-7242.857
 30
-1310.966
 70
    32
  0
VERTEX
  8
W66LALIFT
 62
12
 10
1579.806
 20
-7243.051
 30
-1310.966
 70
    32
  0
VERTEX
  8
W66LALIFT
 62
12
 10
1580.543
 20
-7243.045
 30
-1310.966
 70
    32
  0
VERTEX
  8
W66LALIFT
 62
12
 10
1583.067
 20
-7243.372
 30
-1310.966
 70
    32
  0
VERTEX
  8
W66LALIFT
 62
12
 10
1583.789
 20
-7243.221
 30
-1310.966
 70
    32
  0
VERTEX
  8
W66LALIFT
 62
12
 10
1585.118
 20
-7243.498
 30
-1310.966
 70
    32
  0
VERTEX
  8
W66LALIFT
 62
12
 10
1586.025
 20
-7244.199
 30
-1310.966
 70
    32
  0
VERTEX
  8
W66LALIFT
 62
12
 10
1588.292
 20
-7245.097
 30
-1310.966
 70
    32
  0
VERTEX
  8
W66LALIFT
 62
12
 10
1588.896
 20
-7245.036
 30
-1310.966
 70
    32
  0
VERTEX
  8
W66LALIFT
 62
12
 10
1589.369
 20
-7245.609
 30
-1310.966
 70
    32
  0
VERTEX
  8
W66LALIFT
 62
12
 10
1589.960
 20
-7246.925
 30
-1310.966
 70
    32
  0
VERTEX
  8
W66LALIFT
 62
12
 10
1589.623
 20
-7248.412
 30
-1310.966
 70
    32
  0
VERTEX
  8
W66LALIFT
 62
12
 10
1589.429
 20
-7249.680
 30
-1310.966
 70
    32
  0
VERTEX
  8
W66LALIFT
 62
12
 10
1589.184
 20
-7250.245
 30
-1310.966
 70
    32
  0
VERTEX
  8
W66LALIFT
 62
12
 10
1587.393
 20
-7251.794
 30
-1310.966
 70
    32
  0
VERTEX
  8
W66LALIFT
 62
12
 10
1586.667
 20
-7253.744
 30
-1310.966
 70
    32
  0
VERTEX
  8
W66LALIFT
 62
12
 10
1585.616
 20
-7254.061
 30
-1310.966
 70
    32
  0
VERTEX
  8
W66LALIFT
 62
12
 10
1585.284
 20
-7254.427
 30
-1310.966
 70
    32
  0
VERTEX
  8
W66LALIFT
 62
12
 10
1584.918
 20
-7254.657
 30
-1310.966
 70
    32
  0
VERTEX
  8
W66LALIFT
 62
12
 10
1584.528
 20
-7254.729
 30
-1310.966
 70
    32
  0
VERTEX
  8
W66LALIFT
 62
12
 10
1582.059
 20
-7254.454
 30
-1310.966
 70
    32
  0
VERTEX
  8
W66LALIFT
 62
12
 10
1580.404
 20
-7254.131
 30
-1310.966
 70
    32
  0
VERTEX
  8
W66LALIFT
 62
12
 10
1580.222
 20
-7253.955
 30
-1310.966
 70
    32
  0
VERTEX
  8
W66LALIFT
 62
12
 10
1574.853
 20
-7252.688
 30
-1310.966
 70
    32
  0
VERTEX
  8
W66LALIFT
 62
12
 10
1574.465
 20
-7252.868
 30
-1310.966
 70
    32
  0
VERTEX
  8
W66LALIFT
 62
12
 10
1574.045
 20
-7252.741
 30
-1310.966
 70
    32
  0
VERTEX
  8
W66LALIFT
 62
12
 10
1573.464
 20
-7253.372
 30
-1310.966
 70
    32
  0
VERTEX
  8
W66LALIFT
 62
12
 10
1573.177
 20
-7253.505
 30
-1310.966
 70
    32
  0
VERTEX
  8
W66LALIFT
 62
12
 10
1568.710
 20
-7252.557
 30
-1310.966
 70
    32
  0
VERTEX
  8
W66LALIFT
 62
12
 10
1567.881
 20
-7252.352
 30
-1310.966
 70
    32
  0
VERTEX
  8
W66LALIFT
 62
12
 10
1567.460
 20
-7252.794
 30
-1310.966
 70
    32
  0
VERTEX
  8
W66LALIFT
 62
12
 10
1566.997
 20
-7252.576
 30
-1310.966
 70
    32
  0
VERTEX
  8
W66LALIFT
 62
12
 10
1566.318
 20
-7253.291
 30
-1310.966
 70
    32
  0
VERTEX
  8
W66LALIFT
 62
12
 10
1565.070
 20
-7253.055
 30
-1310.966
 70
    32
  0
VERTEX
  8
W66LALIFT
 62
12
 10
1564.305
 20
-7252.297
 30
-1310.966
 70
    32
  0
VERTEX
  8
W66LALIFT
 62
12
 10
1564.202
 20
-7251.359
 30
-1310.966
 70
    32
  0
VERTEX
  8
W66LALIFT
 62
12
 10
1564.217
 20
-7250.666
 30
-1310.966
 70
    32
  0
VERTEX
  8
W66LALIFT
 62
12
 10
1563.863
 20
-7249.195
 30
-1310.966
 70
    32
  0
SEQEND
  8
W66LALIFT
  0
POLYLINE
  8
W66LALIFT
 62
3
 66
     1
 70
     9
  0
VERTEX
  8
W66LALIFT
 62
3
 10
1564.347
 20
-7248.620
 30
-1313.767
 70
    32
  0
VERTEX
  8
W66LALIFT
 62
3
 10
1564.768
 20
-7246.980
 30
-1313.767
 70
    32
  0
VERTEX
  8
W66LALIFT
 62
3
 10
1564.876
 20
-7245.371
 30
-1313.767
 70
    32
  0
VERTEX
  8
W66LALIFT
 62
3
 10
1565.411
 20
-7244.672
 30
-1313.767
 70
    32
  0
VERTEX
  8
W66LALIFT
 62
3
 10
1566.050
 20
-7243.537
 30
-1313.767
 70
    32
  0
VERTEX
  8
W66LALIFT
 62
3
 10
1567.366
 20
-7242.610
 30
-1313.767
 70
    32
  0
VERTEX
  8
W66LALIFT
 62
3
 10
1568.795
 20
-7242.571
 30
-1313.767
 70
    32
  0
VERTEX
  8
W66LALIFT
 62
3
 10
1570.414
 20
-7242.683
 30
-1313.767
 70
    32
  0
VERTEX
  8
W66LALIFT
 62
3
 10
1571.951
 20
-7242.903
 30
-1313.767
 70
    32
  0
VERTEX
  8
W66LALIFT
 62
3
 10
1573.341
 20
-7242.819
 30
-1313.767
 70
    32
  0
VERTEX
  8
W66LALIFT
 62
3
 10
1577.961
 20
-7242.957
 30
-1313.767
 70
    32
  0
VERTEX
  8
W66LALIFT
 62
3
 10
1579.598
 20
-7243.144
 30
-1313.767
 70
    32
  0
VERTEX
  8
W66LALIFT
 62
3
 10
1581.126
 20
-7243.242
 30
-1313.767
 70
    32
  0
VERTEX
  8
W66LALIFT
 62
3
 10
1582.469
 20
-7243.110
 30
-1313.767
 70
    32
  0
VERTEX
  8
W66LALIFT
 62
3
 10
1584.196
 20
-7243.048
 30
-1313.767
 70
    32
  0
VERTEX
  8
W66LALIFT
 62
3
 10
1585.234
 20
-7243.327
 30
-1313.767
 70
    32
  0
VERTEX
  8
W66LALIFT
 62
3
 10
1586.599
 20
-7243.532
 30
-1313.767
 70
    32
  0
VERTEX
  8
W66LALIFT
 62
3
 10
1588.529
 20
-7244.232
 30
-1313.767
 70
    32
  0
VERTEX
  8
W66LALIFT
 62
3
 10
1589.190
 20
-7244.282
 30
-1313.767
 70
    32
  0
VERTEX
  8
W66LALIFT
 62
3
 10
1590.507
 20
-7245.565
 30
-1313.767
 70
    32
  0
VERTEX
  8
W66LALIFT
 62
3
 10
1591.199
 20
-7246.729
 30
-1313.767
 70
    32
  0
VERTEX
  8
W66LALIFT
 62
3
 10
1591.438
 20
-7246.818
 30
-1313.767
 70
    32
  0
VERTEX
  8
W66LALIFT
 62
3
 10
1591.204
 20
-7247.488
 30
-1313.767
 70
    32
  0
VERTEX
  8
W66LALIFT
 62
3
 10
1591.531
 20
-7248.586
 30
-1313.767
 70
    32
  0
VERTEX
  8
W66LALIFT
 62
3
 10
1591.425
 20
-7249.133
 30
-1313.767
 70
    32
  0
VERTEX
  8
W66LALIFT
 62
3
 10
1591.548
 20
-7249.687
 30
-1313.767
 70
    32
  0
VERTEX
  8
W66LALIFT
 62
3
 10
1591.305
 20
-7250.199
 30
-1313.767
 70
    32
  0
VERTEX
  8
W66LALIFT
 62
3
 10
1590.148
 20
-7251.862
 30
-1313.767
 70
    32
  0
VERTEX
  8
W66LALIFT
 62
3
 10
1588.765
 20
-7252.804
 30
-1313.767
 70
    32
  0
VERTEX
  8
W66LALIFT
 62
3
 10
1588.012
 20
-7252.842
 30
-1313.767
 70
    32
  0
VERTEX
  8
W66LALIFT
 62
3
 10
1587.628
 20
-7254.565
 30
-1313.767
 70
    32
  0
VERTEX
  8
W66LALIFT
 62
3
 10
1587.967
 20
-7254.761
 30
-1313.767
 70
    32
  0
VERTEX
  8
W66LALIFT
 62
3
 10
1587.630
 20
-7254.989
 30
-1313.767
 70
    32
  0
VERTEX
  8
W66LALIFT
 62
3
 10
1586.710
 20
-7255.045
 30
-1313.767
 70
    32
  0
VERTEX
  8
W66LALIFT
 62
3
 10
1586.219
 20
-7255.585
 30
-1313.767
 70
    32
  0
VERTEX
  8
W66LALIFT
 62
3
 10
1583.103
 20
-7255.185
 30
-1313.767
 70
    32
  0
VERTEX
  8
W66LALIFT
 62
3
 10
1581.949
 20
-7254.999
 30
-1313.767
 70
    32
  0
VERTEX
  8
W66LALIFT
 62
3
 10
1581.700
 20
-7254.758
 30
-1313.767
 70
    32
  0
VERTEX
  8
W66LALIFT
 62
3
 10
1576.977
 20
-7253.657
 30
-1313.767
 70
    32
  0
VERTEX
  8
W66LALIFT
 62
3
 10
1575.492
 20
-7254.363
 30
-1313.767
 70
    32
  0
VERTEX
  8
W66LALIFT
 62
3
 10
1570.739
 20
-7253.392
 30
-1313.767
 70
    32
  0
VERTEX
  8
W66LALIFT
 62
3
 10
1569.986
 20
-7254.172
 30
-1313.767
 70
    32
  0
VERTEX
  8
W66LALIFT
 62
3
 10
1564.951
 20
-7253.182
 30
-1313.767
 70
    32
  0
VERTEX
  8
W66LALIFT
 62
3
 10
1564.582
 20
-7250.420
 30
-1313.767
 70
    32
  0
SEQEND
  8
W66LALIFT
  0
POLYLINE
  8
W66LALIFT
 62
2
 66
     1
 70
     9
  0
VERTEX
  8
W66LALIFT
 62
2
 10
1565.397
 20
-7245.225
 30
-1308.166
 70
    32
  0
VERTEX
  8
W66LALIFT
 62
2
 10
1566.072
 20
-7244.549
 30
-1308.166
 70
    32
  0
VERTEX
  8
W66LALIFT
 62
2
 10
1566.755
 20
-7243.631
 30
-1308.166
 70
    32
  0
VERTEX
  8
W66LALIFT
 62
2
 10
1568.076
 20
-7243.316
 30
-1308.166
 70
    32
  0
VERTEX
  8
W66LALIFT
 62
2
 10
1569.395
 20
-7242.919
 30
-1308.166
 70
    32
  0
VERTEX
  8
W66LALIFT
 62
2
 10
1570.605
 20
-7242.758
 30
-1308.166
 70
    32
  0
VERTEX
  8
W66LALIFT
 62
2
 10
1571.778
 20
-7242.730
 30
-1308.166
 70
    32
  0
VERTEX
  8
W66LALIFT
 62
2
 10
1572.913
 20
-7242.618
 30
-1308.166
 70
    32
  0
VERTEX
  8
W66LALIFT
 62
2
 10
1574.656
 20
-7242.914
 30
-1308.166
 70
    32
  0
VERTEX
  8
W66LALIFT
 62
2
 10
1575.929
 20
-7242.970
 30
-1308.166
 70
    32
  0
VERTEX
  8
W66LALIFT
 62
2
 10
1576.529
 20
-7242.932
 30
-1308.166
 70
    32
  0
VERTEX
  8
W66LALIFT
 62
2
 10
1578.640
 20
-7242.944
 30
-1308.166
 70
    32
  0
VERTEX
  8
W66LALIFT
 62
2
 10
1580.144
 20
-7243.384
 30
-1308.166
 70
    32
  0
VERTEX
  8
W66LALIFT
 62
2
 10
1580.552
 20
-7243.253
 30
-1308.166
 70
    32
  0
VERTEX
  8
W66LALIFT
 62
2
 10
1581.602
 20
-7243.192
 30
-1308.166
 70
    32
  0
VERTEX
  8
W66LALIFT
 62
2
 10
1582.159
 20
-7243.082
 30
-1308.166
 70
    32
  0
VERTEX
  8
W66LALIFT
 62
2
 10
1583.102
 20
-7243.306
 30
-1308.166
 70
    32
  0
VERTEX
  8
W66LALIFT
 62
2
 10
1583.649
 20
-7243.637
 30
-1308.166
 70
    32
  0
VERTEX
  8
W66LALIFT
 62
2
 10
1583.649
 20
-7243.637
 30
-1308.166
 70
    32
  0
VERTEX
  8
W66LALIFT
 62
2
 10
1583.778
 20
-7243.828
 30
-1308.166
 70
    32
  0
VERTEX
  8
W66LALIFT
 62
2
 10
1584.836
 20
-7244.456
 30
-1308.166
 70
    32
  0
VERTEX
  8
W66LALIFT
 62
2
 10
1585.555
 20
-7244.838
 30
-1308.166
 70
    32
  0
VERTEX
  8
W66LALIFT
 62
2
 10
1586.172
 20
-7244.755
 30
-1308.166
 70
    32
  0
VERTEX
  8
W66LALIFT
 62
2
 10
1586.887
 20
-7244.970
 30
-1308.166
 70
    32
  0
VERTEX
  8
W66LALIFT
 62
2
 10
1587.158
 20
-7245.363
 30
-1308.166
 70
    32
  0
VERTEX
  8
W66LALIFT
 62
2
 10
1588.121
 20
-7245.935
 30
-1308.166
 70
    32
  0
VERTEX
  8
W66LALIFT
 62
2
 10
1588.439
 20
-7247.856
 30
-1308.166
 70
    32
  0
VERTEX
  8
W66LALIFT
 62
2
 10
1588.146
 20
-7248.492
 30
-1308.166
 70
    32
  0
VERTEX
  8
W66LALIFT
 62
2
 10
1588.350
 20
-7248.771
 30
-1308.166
 70
    32
  0
VERTEX
  8
W66LALIFT
 62
2
 10
1588.241
 20
-7249.137
 30
-1308.166
 70
    32
  0
VERTEX
  8
W66LALIFT
 62
2
 10
1586.105
 20
-7250.805
 30
-1308.166
 70
    32
  0
VERTEX
  8
W66LALIFT
 62
2
 10
1585.811
 20
-7252.279
 30
-1308.166
 70
    32
  0
VERTEX
  8
W66LALIFT
 62
2
 10
1585.158
 20
-7252.347
 30
-1308.166
 70
    32
  0
VERTEX
  8
W66LALIFT
 62
2
 10
1584.527
 20
-7252.991
 30
-1308.166
 70
    32
  0
VERTEX
  8
W66LALIFT
 62
2
 10
1583.941
 20
-7253.136
 30
-1308.166
 70
    32
  0
VERTEX
  8
W66LALIFT
 62
2
 10
1583.757
 20
-7253.322
 30
-1308.166
 70
    32
  0
VERTEX
  8
W66LALIFT
 62
2
 10
1583.372
 20
-7253.478
 30
-1308.166
 70
    32
  0
VERTEX
  8
W66LALIFT
 62
2
 10
1583.039
 20
-7253.898
 30
-1308.166
 70
    32
  0
VERTEX
  8
W66LALIFT
 62
2
 10
1580.778
 20
-7253.663
 30
-1308.166
 70
    32
  0
VERTEX
  8
W66LALIFT
 62
2
 10
1578.860
 20
-7253.263
 30
-1308.166
 70
    32
  0
VERTEX
  8
W66LALIFT
 62
2
 10
1572.728
 20
-7251.719
 30
-1308.166
 70
    32
  0
VERTEX
  8
W66LALIFT
 62
2
 10
1572.501
 20
-7251.824
 30
-1308.166
 70
    32
  0
VERTEX
  8
W66LALIFT
 62
2
 10
1571.852
 20
-7251.628
 30
-1308.166
 70
    32
  0
VERTEX
  8
W66LALIFT
 62
2
 10
1570.820
 20
-7252.640
 30
-1308.166
 70
    32
  0
VERTEX
  8
W66LALIFT
 62
2
 10
1565.203
 20
-7251.357
 30
-1308.166
 70
    32
  0
VERTEX
  8
W66LALIFT
 62
2
 10
1565.203
 20
-7251.357
 30
-1308.166
 70
    32
  0
VERTEX
  8
W66LALIFT
 62
2
 10
1564.870
 20
-7250.126
 30
-1308.166
 70
    32
  0
VERTEX
  8
W66LALIFT
 62
2
 10
1564.449
 20
-7249.501
 30
-1308.166
 70
    32
  0
VERTEX
  8
W66LALIFT
 62
2
 10
1564.932
 20
-7248.918
 30
-1308.166
 70
    32
  0
VERTEX
  8
W66LALIFT
 62
2
 10
1565.130
 20
-7248.128
 30
-1308.166
 70
    32
  0
SEQEND
  8
W66LALIFT
  0
POLYLINE
  8
W66LALIFT
 62
3
 66
     1
 70
     9
  0
VERTEX
  8
W66LALIFT
 62
3
 10
1582.144
 20
-7250.634
 30
-1305.365
 70
    32
  0
VERTEX
  8
W66LALIFT
 62
3
 10
1581.895
 20
-7252.039
 30
-1305.365
 70
    32
  0
VERTEX
  8
W66LALIFT
 62
3
 10
1581.514
 20
-7252.521
 30
-1305.365
 70
    32
  0
VERTEX
  8
W66LALIFT
 62
3
 10
1580.976
 20
-7252.909
 30
-1305.365
 70
    32
  0
VERTEX
  8
W66LALIFT
 62
3
 10
1580.887
 20
-7252.921
 30
-1305.365
 70
    32
  0
VERTEX
  8
W66LALIFT
 62
3
 10
1580.749
 20
-7253.045
 30
-1305.365
 70
    32
  0
VERTEX
  8
W66LALIFT
 62
3
 10
1580.198
 20
-7252.998
 30
-1305.365
 70
    32
  0
VERTEX
  8
W66LALIFT
 62
3
 10
1580.157
 20
-7252.993
 30
-1305.365
 70
    32
  0
VERTEX
  8
W66LALIFT
 62
3
 10
1579.546
 20
-7252.894
 30
-1305.365
 70
    32
  0
VERTEX
  8
W66LALIFT
 62
3
 10
1579.497
 20
-7252.873
 30
-1305.365
 70
    32
  0
VERTEX
  8
W66LALIFT
 62
3
 10
1578.823
 20
-7252.705
 30
-1305.365
 70
    32
  0
VERTEX
  8
W66LALIFT
 62
3
 10
1578.763
 20
-7252.702
 30
-1305.365
 70
    32
  0
VERTEX
  8
W66LALIFT
 62
3
 10
1578.074
 20
-7252.561
 30
-1305.365
 70
    32
  0
VERTEX
  8
W66LALIFT
 62
3
 10
1578.009
 20
-7252.547
 30
-1305.365
 70
    32
  0
VERTEX
  8
W66LALIFT
 62
3
 10
1577.315
 20
-7252.395
 30
-1305.365
 70
    32
  0
VERTEX
  8
W66LALIFT
 62
3
 10
1577.267
 20
-7252.348
 30
-1305.365
 70
    32
  0
VERTEX
  8
W66LALIFT
 62
3
 10
1576.470
 20
-7252.152
 30
-1305.365
 70
    32
  0
VERTEX
  8
W66LALIFT
 62
3
 10
1576.425
 20
-7252.144
 30
-1305.365
 70
    32
  0
VERTEX
  8
W66LALIFT
 62
3
 10
1575.754
 20
-7251.983
 30
-1305.365
 70
    32
  0
VERTEX
  8
W66LALIFT
 62
3
 10
1575.712
 20
-7251.971
 30
-1305.365
 70
    32
  0
VERTEX
  8
W66LALIFT
 62
3
 10
1574.946
 20
-7251.788
 30
-1305.365
 70
    32
  0
VERTEX
  8
W66LALIFT
 62
3
 10
1574.905
 20
-7251.774
 30
-1305.365
 70
    32
  0
VERTEX
  8
W66LALIFT
 62
3
 10
1574.033
 20
-7251.635
 30
-1305.365
 70
    32
  0
VERTEX
  8
W66LALIFT
 62
3
 10
1573.961
 20
-7251.616
 30
-1305.365
 70
    32
  0
VERTEX
  8
W66LALIFT
 62
3
 10
1573.265
 20
-7251.441
 30
-1305.365
 70
    32
  0
VERTEX
  8
W66LALIFT
 62
3
 10
1573.204
 20
-7251.427
 30
-1305.365
 70
    32
  0
VERTEX
  8
W66LALIFT
 62
3
 10
1572.403
 20
-7251.230
 30
-1305.365
 70
    32
  0
VERTEX
  8
W66LALIFT
 62
3
 10
1572.335
 20
-7251.222
 30
-1305.365
 70
    32
  0
VERTEX
  8
W66LALIFT
 62
3
 10
1571.514
 20
-7251.002
 30
-1305.365
 70
    32
  0
VERTEX
  8
W66LALIFT
 62
3
 10
1571.461
 20
-7250.995
 30
-1305.365
 70
    32
  0
VERTEX
  8
W66LALIFT
 62
3
 10
1570.603
 20
-7250.750
 30
-1305.365
 70
    32
  0
VERTEX
  8
W66LALIFT
 62
3
 10
1570.537
 20
-7250.781
 30
-1305.365
 70
    32
  0
VERTEX
  8
W66LALIFT
 62
3
 10
1569.659
 20
-7250.516
 30
-1305.365
 70
    32
  0
VERTEX
  8
W66LALIFT
 62
3
 10
1569.372
 20
-7250.827
 30
-1305.365
 70
    32
  0
VERTEX
  8
W66LALIFT
 62
3
 10
1568.675
 20
-7250.439
 30
-1305.365
 70
    32
  0
VERTEX
  8
W66LALIFT
 62
3
 10
1568.582
 20
-7250.384
 30
-1305.365
 70
    32
  0
VERTEX
  8
W66LALIFT
 62
3
 10
1568.181
 20
-7250.108
 30
-1305.365
 70
    32
  0
VERTEX
  8
W66LALIFT
 62
3
 10
1567.745
 20
-7249.852
 30
-1305.365
 70
    32
  0
VERTEX
  8
W66LALIFT
 62
3
 10
1567.351
 20
-7248.842
 30
-1305.365
 70
    32
  0
VERTEX
  8
W66LALIFT
 62
3
 10
1567.131
 20
-7248.476
 30
-1305.365
 70
    32
  0
VERTEX
  8
W66LALIFT
 62
3
 10
1566.995
 20
-7248.258
 30
-1305.365
 70
    32
  0
VERTEX
  8
W66LALIFT
 62
3
 10
1566.411
 20
-7247.674
 30
-1305.365
 70
    32
  0
VERTEX
  8
W66LALIFT
 62
3
 10
1566.243
 20
-7246.788
 30
-1305.365
 70
    32
  0
VERTEX
  8
W66LALIFT
 62
3
 10
1565.953
 20
-7246.621
 30
-1305.365
 70
    32
  0
VERTEX
  8
W66LALIFT
 62
3
 10
1566.083
 20
-7246.054
 30
-1305.365
 70
    32
  0
VERTEX
  8
W66LALIFT
 62
3
 10
1566.206
 20
-7245.820
 30
-1305.365
 70
    32
  0
VERTEX
  8
W66LALIFT
 62
3
 10
1566.386
 20
-7245.687
 30
-1305.365
 70
    32
  0
VERTEX
  8
W66LALIFT
 62
3
 10
1566.870
 20
-7245.042
 30
-1305.365
 70
    32
  0
VERTEX
  8
W66LALIFT
 62
3
 10
1567.360
 20
-7244.635
 30
-1305.365
 70
    32
  0
VERTEX
  8
W66LALIFT
 62
3
 10
1567.717
 20
-7244.392
 30
-1305.365
 70
    32
  0
VERTEX
  8
W66LALIFT
 62
3
 10
1568.180
 20
-7244.156
 30
-1305.365
 70
    32
  0
VERTEX
  8
W66LALIFT
 62
3
 10
1568.584
 20
-7244.018
 30
-1305.365
 70
    32
  0
VERTEX
  8
W66LALIFT
 62
3
 10
1569.001
 20
-7243.798
 30
-1305.365
 70
    32
  0
VERTEX
  8
W66LALIFT
 62
3
 10
1569.411
 20
-7243.605
 30
-1305.365
 70
    32
  0
VERTEX
  8
W66LALIFT
 62
3
 10
1569.629
 20
-7243.495
 30
-1305.365
 70
    32
  0
VERTEX
  8
W66LALIFT
 62
3
 10
1570.115
 20
-7243.171
 30
-1305.365
 70
    32
  0
VERTEX
  8
W66LALIFT
 62
3
 10
1570.971
 20
-7242.769
 30
-1305.365
 70
    32
  0
VERTEX
  8
W66LALIFT
 62
3
 10
1570.993
 20
-7242.768
 30
-1305.365
 70
    32
  0
VERTEX
  8
W66LALIFT
 62
3
 10
1570.998
 20
-7242.769
 30
-1305.365
 70
    32
  0
VERTEX
  8
W66LALIFT
 62
3
 10
1572.189
 20
-7242.605
 30
-1305.365
 70
    32
  0
VERTEX
  8
W66LALIFT
 62
3
 10
1572.572
 20
-7242.664
 30
-1305.365
 70
    32
  0
VERTEX
  8
W66LALIFT
 62
3
 10
1573.097
 20
-7242.805
 30
-1305.365
 70
    32
  0
VERTEX
  8
W66LALIFT
 62
3
 10
1573.713
 20
-7242.818
 30
-1305.365
 70
    32
  0
VERTEX
  8
W66LALIFT
 62
3
 10
1574.215
 20
-7242.895
 30
-1305.365
 70
    32
  0
VERTEX
  8
W66LALIFT
 62
3
 10
1575.115
 20
-7242.743
 30
-1305.365
 70
    32
  0
VERTEX
  8
W66LALIFT
 62
3
 10
1575.249
 20
-7242.741
 30
-1305.365
 70
    32
  0
VERTEX
  8
W66LALIFT
 62
3
 10
1575.654
 20
-7242.713
 30
-1305.365
 70
    32
  0
VERTEX
  8
W66LALIFT
 62
3
 10
1576.069
 20
-7242.706
 30
-1305.365
 70
    32
  0
VERTEX
  8
W66LALIFT
 62
3
 10
1576.151
 20
-7242.707
 30
-1305.365
 70
    32
  0
VERTEX
  8
W66LALIFT
 62
3
 10
1576.787
 20
-7242.681
 30
-1305.365
 70
    32
  0
VERTEX
  8
W66LALIFT
 62
3
 10
1577.013
 20
-7242.707
 30
-1305.365
 70
    32
  0
VERTEX
  8
W66LALIFT
 62
3
 10
1577.438
 20
-7242.748
 30
-1305.365
 70
    32
  0
VERTEX
  8
W66LALIFT
 62
3
 10
1577.781
 20
-7242.865
 30
-1305.365
 70
    32
  0
VERTEX
  8
W66LALIFT
 62
3
 10
1578.225
 20
-7242.979
 30
-1305.365
 70
    32
  0
VERTEX
  8
W66LALIFT
 62
3
 10
1578.525
 20
-7243.080
 30
-1305.365
 70
    32
  0
VERTEX
  8
W66LALIFT
 62
3
 10
1578.582
 20
-7243.767
 30
-1305.365
 70
    32
  0
VERTEX
  8
W66LALIFT
 62
3
 10
1578.092
 20
-7245.018
 30
-1305.365
 70
    32
  0
VERTEX
  8
W66LALIFT
 62
3
 10
1578.686
 20
-7245.219
 30
-1305.365
 70
    32
  0
VERTEX
  8
W66LALIFT
 62
3
 10
1578.602
 20
-7245.385
 30
-1305.365
 70
    32
  0
VERTEX
  8
W66LALIFT
 62
3
 10
1579.269
 20
-7245.605
 30
-1305.365
 70
    32
  0
VERTEX
  8
W66LALIFT
 62
3
 10
1579.279
 20
-7245.607
 30
-1305.365
 70
    32
  0
VERTEX
  8
W66LALIFT
 62
3
 10
1580.001
 20
-7245.857
 30
-1305.365
 70
    32
  0
VERTEX
  8
W66LALIFT
 62
3
 10
1580.003
 20
-7245.857
 30
-1305.365
 70
    32
  0
VERTEX
  8
W66LALIFT
 62
3
 10
1580.002
 20
-7245.861
 30
-1305.365
 70
    32
  0
VERTEX
  8
W66LALIFT
 62
3
 10
1580.287
 20
-7247.404
 30
-1305.365
 70
    32
  0
VERTEX
  8
W66LALIFT
 62
3
 10
1581.066
 20
-7247.649
 30
-1305.365
 70
    32
  0
VERTEX
  8
W66LALIFT
 62
3
 10
1581.069
 20
-7247.654
 30
-1305.365
 70
    32
  0
VERTEX
  8
W66LALIFT
 62
3
 10
1581.626
 20
-7247.821
 30
-1305.365
 70
    32
  0
VERTEX
  8
W66LALIFT
 62
3
 10
1581.697
 20
-7248.027
 30
-1305.365
 70
    32
  0
VERTEX
  8
W66LALIFT
 62
3
 10
1581.925
 20
-7249.038
 30
-1305.365
 70
    32
  0
VERTEX
  8
W66LALIFT
 62
3
 10
1581.933
 20
-7249.066
 30
-1305.365
 70
    32
  0
VERTEX
  8
W66LALIFT
 62
3
 10
1582.141
 20
-7250.544
 30
-1305.365
 70
    32
  0
SEQEND
  8
W66LALIFT
  0
POLYLINE
  8
W66LALIFT
 62
16
 66
     1
 70
     9
  0
VERTEX
  8
W66LALIFT
 62
16
 10
1567.126
 20
-7248.980
 30
-1316.568
 70
    32
  0
VERTEX
  8
W66LALIFT
 62
16
 10
1566.717
 20
-7248.076
 30
-1316.568
 70
    32
  0
VERTEX
  8
W66LALIFT
 62
16
 10
1566.863
 20
-7246.547
 30
-1316.568
 70
    32
  0
VERTEX
  8
W66LALIFT
 62
16
 10
1567.525
 20
-7245.618
 30
-1316.568
 70
    32
  0
VERTEX
  8
W66LALIFT
 62
16
 10
1568.250
 20
-7244.225
 30
-1316.568
 70
    32
  0
VERTEX
  8
W66LALIFT
 62
16
 10
1568.774
 20
-7243.069
 30
-1316.568
 70
    32
  0
VERTEX
  8
W66LALIFT
 62
16
 10
1570.244
 20
-7242.748
 30
-1316.568
 70
    32
  0
VERTEX
  8
W66LALIFT
 62
16
 10
1571.429
 20
-7242.851
 30
-1316.568
 70
    32
  0
VERTEX
  8
W66LALIFT
 62
16
 10
1572.965
 20
-7242.781
 30
-1316.568
 70
    32
  0
VERTEX
  8
W66LALIFT
 62
16
 10
1574.663
 20
-7242.784
 30
-1316.568
 70
    32
  0
VERTEX
  8
W66LALIFT
 62
16
 10
1577.563
 20
-7243.185
 30
-1316.568
 70
    32
  0
VERTEX
  8
W66LALIFT
 62
16
 10
1580.161
 20
-7242.777
 30
-1316.568
 70
    32
  0
VERTEX
  8
W66LALIFT
 62
16
 10
1581.614
 20
-7242.939
 30
-1316.568
 70
    32
  0
VERTEX
  8
W66LALIFT
 62
16
 10
1583.599
 20
-7242.831
 30
-1316.568
 70
    32
  0
VERTEX
  8
W66LALIFT
 62
16
 10
1588.001
 20
-7243.275
 30
-1316.568
 70
    32
  0
VERTEX
  8
W66LALIFT
 62
16
 10
1589.624
 20
-7243.422
 30
-1316.568
 70
    32
  0
VERTEX
  8
W66LALIFT
 62
16
 10
1590.528
 20
-7243.817
 30
-1316.568
 70
    32
  0
VERTEX
  8
W66LALIFT
 62
16
 10
1590.974
 20
-7243.641
 30
-1316.568
 70
    32
  0
VERTEX
  8
W66LALIFT
 62
16
 10
1592.252
 20
-7244.227
 30
-1316.568
 70
    32
  0
VERTEX
  8
W66LALIFT
 62
16
 10
1593.489
 20
-7245.076
 30
-1316.568
 70
    32
  0
VERTEX
  8
W66LALIFT
 62
16
 10
1594.183
 20
-7245.919
 30
-1316.568
 70
    32
  0
VERTEX
  8
W66LALIFT
 62
16
 10
1594.401
 20
-7247.074
 30
-1316.568
 70
    32
  0
VERTEX
  8
W66LALIFT
 62
16
 10
1594.490
 20
-7247.608
 30
-1316.568
 70
    32
  0
VERTEX
  8
W66LALIFT
 62
16
 10
1595.328
 20
-7249.064
 30
-1316.568
 70
    32
  0
VERTEX
  8
W66LALIFT
 62
16
 10
1595.614
 20
-7250.122
 30
-1316.568
 70
    32
  0
VERTEX
  8
W66LALIFT
 62
16
 10
1595.866
 20
-7251.827
 30
-1316.568
 70
    32
  0
VERTEX
  8
W66LALIFT
 62
16
 10
1595.247
 20
-7252.542
 30
-1316.568
 70
    32
  0
VERTEX
  8
W66LALIFT
 62
16
 10
1594.553
 20
-7254.309
 30
-1316.568
 70
    32
  0
VERTEX
  8
W66LALIFT
 62
16
 10
1593.269
 20
-7254.806
 30
-1316.568
 70
    32
  0
VERTEX
  8
W66LALIFT
 62
16
 10
1592.713
 20
-7255.245
 30
-1316.568
 70
    32
  0
VERTEX
  8
W66LALIFT
 62
16
 10
1591.893
 20
-7255.095
 30
-1316.568
 70
    32
  0
VERTEX
  8
W66LALIFT
 62
16
 10
1590.602
 20
-7255.822
 30
-1316.568
 70
    32
  0
VERTEX
  8
W66LALIFT
 62
16
 10
1589.464
 20
-7256.393
 30
-1316.568
 70
    32
  0
VERTEX
  8
W66LALIFT
 62
16
 10
1588.243
 20
-7256.027
 30
-1316.568
 70
    32
  0
VERTEX
  8
W66LALIFT
 62
16
 10
1587.614
 20
-7256.238
 30
-1316.568
 70
    32
  0
VERTEX
  8
W66LALIFT
 62
16
 10
1587.262
 20
-7256.627
 30
-1316.568
 70
    32
  0
VERTEX
  8
W66LALIFT
 62
16
 10
1583.494
 20
-7255.868
 30
-1316.568
 70
    32
  0
VERTEX
  8
W66LALIFT
 62
16
 10
1583.178
 20
-7255.562
 30
-1316.568
 70
    32
  0
VERTEX
  8
W66LALIFT
 62
16
 10
1579.102
 20
-7254.627
 30
-1316.568
 70
    32
  0
VERTEX
  8
W66LALIFT
 62
16
 10
1577.808
 20
-7255.222
 30
-1316.568
 70
    32
  0
VERTEX
  8
W66LALIFT
 62
16
 10
1573.597
 20
-7254.431
 30
-1316.568
 70
    32
  0
VERTEX
  8
W66LALIFT
 62
16
 10
1572.954
 20
-7255.038
 30
-1316.568
 70
    32
  0
VERTEX
  8
W66LALIFT
 62
16
 10
1567.467
 20
-7253.816
 30
-1316.568
 70
    32
  0
VERTEX
  8
W66LALIFT
 62
16
 10
1567.048
 20
-7249.716
 30
-1316.568
 70
    32
  0
SEQEND
  8
W66LALIFT
  0
POLYLINE
  8
W66LALIFT
 62
6
 66
     1
 70
     9
  0
VERTEX
  8
W66LALIFT
 62
6
 10
1577.142
 20
-7244.128
 30
-1302.564
 70
    32
  0
VERTEX
  8
W66LALIFT
 62
6
 10
1577.171
 20
-7244.070
 30
-1302.564
 70
    32
  0
VERTEX
  8
W66LALIFT
 62
6
 10
1576.459
 20
-7243.830
 30
-1302.564
 70
    32
  0
VERTEX
  8
W66LALIFT
 62
6
 10
1576.823
 20
-7242.902
 30
-1302.564
 70
    32
  0
VERTEX
  8
W66LALIFT
 62
6
 10
1576.354
 20
-7242.887
 30
-1302.564
 70
    32
  0
VERTEX
  8
W66LALIFT
 62
6
 10
1575.841
 20
-7242.812
 30
-1302.564
 70
    32
  0
VERTEX
  8
W66LALIFT
 62
6
 10
1575.133
 20
-7242.870
 30
-1302.564
 70
    32
  0
VERTEX
  8
W66LALIFT
 62
6
 10
1574.807
 20
-7242.895
 30
-1302.564
 70
    32
  0
VERTEX
  8
W66LALIFT
 62
6
 10
1573.832
 20
-7242.885
 30
-1302.564
 70
    32
  0
VERTEX
  8
W66LALIFT
 62
6
 10
1573.735
 20
-7242.899
 30
-1302.564
 70
    32
  0
VERTEX
  8
W66LALIFT
 62
6
 10
1573.368
 20
-7242.867
 30
-1302.564
 70
    32
  0
VERTEX
  8
W66LALIFT
 62
6
 10
1572.827
 20
-7242.938
 30
-1302.564
 70
    32
  0
VERTEX
  8
W66LALIFT
 62
6
 10
1572.658
 20
-7243.031
 30
-1302.564
 70
    32
  0
VERTEX
  8
W66LALIFT
 62
6
 10
1572.063
 20
-7243.343
 30
-1302.564
 70
    32
  0
VERTEX
  8
W66LALIFT
 62
6
 10
1571.511
 20
-7243.168
 30
-1302.564
 70
    32
  0
VERTEX
  8
W66LALIFT
 62
6
 10
1571.059
 20
-7243.175
 30
-1302.564
 70
    32
  0
VERTEX
  8
W66LALIFT
 62
6
 10
1570.384
 20
-7243.173
 30
-1302.564
 70
    32
  0
VERTEX
  8
W66LALIFT
 62
6
 10
1570.170
 20
-7243.136
 30
-1302.564
 70
    32
  0
VERTEX
  8
W66LALIFT
 62
6
 10
1569.907
 20
-7243.462
 30
-1302.564
 70
    32
  0
VERTEX
  8
W66LALIFT
 62
6
 10
1569.699
 20
-7244.700
 30
-1302.564
 70
    32
  0
VERTEX
  8
W66LALIFT
 62
6
 10
1569.708
 20
-7244.814
 30
-1302.564
 70
    32
  0
VERTEX
  8
W66LALIFT
 62
6
 10
1569.694
 20
-7244.989
 30
-1302.564
 70
    32
  0
VERTEX
  8
W66LALIFT
 62
6
 10
1569.546
 20
-7246.589
 30
-1302.564
 70
    32
  0
VERTEX
  8
W66LALIFT
 62
6
 10
1569.257
 20
-7248.018
 30
-1302.564
 70
    32
  0
VERTEX
  8
W66LALIFT
 62
6
 10
1569.284
 20
-7248.472
 30
-1302.564
 70
    32
  0
VERTEX
  8
W66LALIFT
 62
6
 10
1569.853
 20
-7249.046
 30
-1302.564
 70
    32
  0
VERTEX
  8
W66LALIFT
 62
6
 10
1570.311
 20
-7249.850
 30
-1302.564
 70
    32
  0
VERTEX
  8
W66LALIFT
 62
6
 10
1570.521
 20
-7250.103
 30
-1302.564
 70
    32
  0
VERTEX
  8
W66LALIFT
 62
6
 10
1570.908
 20
-7250.443
 30
-1302.564
 70
    32
  0
VERTEX
  8
W66LALIFT
 62
6
 10
1571.378
 20
-7250.558
 30
-1302.564
 70
    32
  0
VERTEX
  8
W66LALIFT
 62
6
 10
1571.380
 20
-7250.559
 30
-1302.564
 70
    32
  0
VERTEX
  8
W66LALIFT
 62
6
 10
1572.197
 20
-7250.764
 30
-1302.564
 70
    32
  0
VERTEX
  8
W66LALIFT
 62
6
 10
1572.207
 20
-7250.767
 30
-1302.564
 70
    32
  0
VERTEX
  8
W66LALIFT
 62
6
 10
1572.451
 20
-7250.806
 30
-1302.564
 70
    32
  0
VERTEX
  8
W66LALIFT
 62
6
 10
1573.023
 20
-7250.287
 30
-1302.564
 70
    32
  0
VERTEX
  8
W66LALIFT
 62
6
 10
1573.456
 20
-7250.370
 30
-1302.564
 70
    32
  0
VERTEX
  8
W66LALIFT
 62
6
 10
1573.944
 20
-7250.514
 30
-1302.564
 70
    32
  0
VERTEX
  8
W66LALIFT
 62
6
 10
1574.340
 20
-7250.554
 30
-1302.564
 70
    32
  0
VERTEX
  8
W66LALIFT
 62
6
 10
1574.754
 20
-7250.684
 30
-1302.564
 70
    32
  0
VERTEX
  8
W66LALIFT
 62
6
 10
1575.246
 20
-7250.549
 30
-1302.564
 70
    32
  0
VERTEX
  8
W66LALIFT
 62
6
 10
1575.617
 20
-7250.748
 30
-1302.564
 70
    32
  0
VERTEX
  8
W66LALIFT
 62
6
 10
1576.019
 20
-7250.868
 30
-1302.564
 70
    32
  0
VERTEX
  8
W66LALIFT
 62
6
 10
1576.392
 20
-7250.902
 30
-1302.564
 70
    32
  0
VERTEX
  8
W66LALIFT
 62
6
 10
1576.976
 20
-7250.848
 30
-1302.564
 70
    32
  0
VERTEX
  8
W66LALIFT
 62
6
 10
1577.200
 20
-7250.818
 30
-1302.564
 70
    32
  0
VERTEX
  8
W66LALIFT
 62
6
 10
1577.761
 20
-7250.916
 30
-1302.564
 70
    32
  0
VERTEX
  8
W66LALIFT
 62
6
 10
1577.944
 20
-7251.025
 30
-1302.564
 70
    32
  0
VERTEX
  8
W66LALIFT
 62
6
 10
1578.591
 20
-7250.981
 30
-1302.564
 70
    32
  0
VERTEX
  8
W66LALIFT
 62
6
 10
1578.661
 20
-7250.931
 30
-1302.564
 70
    32
  0
VERTEX
  8
W66LALIFT
 62
6
 10
1578.946
 20
-7250.903
 30
-1302.564
 70
    32
  0
VERTEX
  8
W66LALIFT
 62
6
 10
1579.539
 20
-7250.396
 30
-1302.564
 70
    32
  0
VERTEX
  8
W66LALIFT
 62
6
 10
1579.765
 20
-7249.394
 30
-1302.564
 70
    32
  0
VERTEX
  8
W66LALIFT
 62
6
 10
1579.694
 20
-7249.107
 30
-1302.564
 70
    32
  0
VERTEX
  8
W66LALIFT
 62
6
 10
1579.492
 20
-7247.725
 30
-1302.564
 70
    32
  0
VERTEX
  8
W66LALIFT
 62
6
 10
1579.422
 20
-7247.470
 30
-1302.564
 70
    32
  0
VERTEX
  8
W66LALIFT
 62
6
 10
1579.135
 20
-7246.945
 30
-1302.564
 70
    32
  0
VERTEX
  8
W66LALIFT
 62
6
 10
1578.776
 20
-7246.759
 30
-1302.564
 70
    32
  0
VERTEX
  8
W66LALIFT
 62
6
 10
1578.771
 20
-7246.268
 30
-1302.564
 70
    32
  0
VERTEX
  8
W66LALIFT
 62
6
 10
1578.348
 20
-7245.600
 30
-1302.564
 70
    32
  0
VERTEX
  8
W66LALIFT
 62
6
 10
1578.092
 20
-7244.445
 30
-1302.564
 70
    32
  0
VERTEX
  8
W66LALIFT
 62
6
 10
1577.874
 20
-7244.370
 30
-1302.564
 70
    32
  0
VERTEX
  8
W66LALIFT
 62
6
 10
1577.871
 20
-7244.369
 30
-1302.564
 70
    32
  0
SEQEND
  8
W66LALIFT
  0
POLYLINE
  8
W66LALIFT
 62
4
 66
     1
 70
     9
  0
VERTEX
  8
W66LALIFT
 62
4
 10
1569.882
 20
-7254.431
 30
-1319.369
 70
    32
  0
VERTEX
  8
W66LALIFT
 62
4
 10
1569.913
 20
-7253.309
 30
-1319.369
 70
    32
  0
VERTEX
  8
W66LALIFT
 62
4
 10
1569.708
 20
-7251.960
 30
-1319.369
 70
    32
  0
VERTEX
  8
W66LALIFT
 62
4
 10
1569.374
 20
-7250.214
 30
-1319.369
 70
    32
  0
VERTEX
  8
W66LALIFT
 62
4
 10
1569.143
 20
-7248.662
 30
-1319.369
 70
    32
  0
VERTEX
  8
W66LALIFT
 62
4
 10
1569.540
 20
-7246.907
 30
-1319.369
 70
    32
  0
VERTEX
  8
W66LALIFT
 62
4
 10
1569.931
 20
-7244.788
 30
-1319.369
 70
    32
  0
VERTEX
  8
W66LALIFT
 62
4
 10
1569.757
 20
-7244.182
 30
-1319.369
 70
    32
  0
VERTEX
  8
W66LALIFT
 62
4
 10
1570.499
 20
-7243.323
 30
-1319.369
 70
    32
  0
VERTEX
  8
W66LALIFT
 62
4
 10
1573.387
 20
-7242.874
 30
-1319.369
 70
    32
  0
VERTEX
  8
W66LALIFT
 62
4
 10
1575.871
 20
-7243.095
 30
-1319.369
 70
    32
  0
VERTEX
  8
W66LALIFT
 62
4
 10
1577.369
 20
-7243.083
 30
-1319.369
 70
    32
  0
VERTEX
  8
W66LALIFT
 62
4
 10
1578.562
 20
-7242.805
 30
-1319.369
 70
    32
  0
VERTEX
  8
W66LALIFT
 62
4
 10
1579.347
 20
-7242.748
 30
-1319.369
 70
    32
  0
VERTEX
  8
W66LALIFT
 62
4
 10
1580.963
 20
-7242.763
 30
-1319.369
 70
    32
  0
VERTEX
  8
W66LALIFT
 62
4
 10
1582.073
 20
-7242.625
 30
-1319.369
 70
    32
  0
VERTEX
  8
W66LALIFT
 62
4
 10
1583.635
 20
-7242.858
 30
-1319.369
 70
    32
  0
VERTEX
  8
W66LALIFT
 62
4
 10
1584.861
 20
-7242.847
 30
-1319.369
 70
    32
  0
VERTEX
  8
W66LALIFT
 62
4
 10
1586.221
 20
-7242.338
 30
-1319.369
 70
    32
  0
VERTEX
  8
W66LALIFT
 62
4
 10
1588.016
 20
-7242.500
 30
-1319.369
 70
    32
  0
VERTEX
  8
W66LALIFT
 62
4
 10
1589.312
 20
-7242.213
 30
-1319.369
 70
    32
  0
VERTEX
  8
W66LALIFT
 62
4
 10
1590.259
 20
-7241.356
 30
-1319.369
 70
    32
  0
VERTEX
  8
W66LALIFT
 62
4
 10
1591.029
 20
-7240.958
 30
-1319.369
 70
    32
  0
VERTEX
  8
W66LALIFT
 62
4
 10
1591.791
 20
-7241.218
 30
-1319.369
 70
    32
  0
VERTEX
  8
W66LALIFT
 62
4
 10
1593.145
 20
-7240.947
 30
-1319.369
 70
    32
  0
VERTEX
  8
W66LALIFT
 62
4
 10
1594.333
 20
-7241.247
 30
-1319.369
 70
    32
  0
VERTEX
  8
W66LALIFT
 62
4
 10
1595.451
 20
-7240.908
 30
-1319.369
 70
    32
  0
VERTEX
  8
W66LALIFT
 62
4
 10
1597.109
 20
-7241.941
 30
-1319.369
 70
    32
  0
VERTEX
  8
W66LALIFT
 62
4
 10
1597.807
 20
-7242.494
 30
-1319.369
 70
    32
  0
VERTEX
  8
W66LALIFT
 62
4
 10
1599.272
 20
-7243.173
 30
-1319.369
 70
    32
  0
VERTEX
  8
W66LALIFT
 62
4
 10
1599.097
 20
-7245.233
 30
-1319.369
 70
    32
  0
VERTEX
  8
W66LALIFT
 62
4
 10
1600.018
 20
-7248.094
 30
-1319.369
 70
    32
  0
VERTEX
  8
W66LALIFT
 62
4
 10
1598.992
 20
-7251.045
 30
-1319.369
 70
    32
  0
VERTEX
  8
W66LALIFT
 62
4
 10
1598.157
 20
-7251.850
 30
-1319.369
 70
    32
  0
VERTEX
  8
W66LALIFT
 62
4
 10
1598.534
 20
-7253.114
 30
-1319.369
 70
    32
  0
VERTEX
  8
W66LALIFT
 62
4
 10
1598.729
 20
-7254.208
 30
-1319.369
 70
    32
  0
VERTEX
  8
W66LALIFT
 62
4
 10
1597.753
 20
-7254.829
 30
-1319.369
 70
    32
  0
VERTEX
  8
W66LALIFT
 62
4
 10
1597.207
 20
-7255.466
 30
-1319.369
 70
    32
  0
VERTEX
  8
W66LALIFT
 62
4
 10
1595.962
 20
-7257.161
 30
-1319.369
 70
    32
  0
VERTEX
  8
W66LALIFT
 62
4
 10
1595.134
 20
-7257.664
 30
-1319.369
 70
    32
  0
VERTEX
  8
W66LALIFT
 62
4
 10
1594.493
 20
-7258.660
 30
-1319.369
 70
    32
  0
VERTEX
  8
W66LALIFT
 62
4
 10
1593.413
 20
-7259.058
 30
-1319.369
 70
    32
  0
VERTEX
  8
W66LALIFT
 62
4
 10
1591.577
 20
-7259.581
 30
-1319.369
 70
    32
  0
VERTEX
  8
W66LALIFT
 62
4
 10
1591.190
 20
-7259.495
 30
-1319.369
 70
    32
  0
VERTEX
  8
W66LALIFT
 62
4
 10
1589.925
 20
-7260.306
 30
-1319.369
 70
    32
  0
VERTEX
  8
W66LALIFT
 62
4
 10
1589.487
 20
-7261.128
 30
-1319.369
 70
    32
  0
VERTEX
  8
W66LALIFT
 62
4
 10
1588.894
 20
-7260.105
 30
-1319.369
 70
    32
  0
VERTEX
  8
W66LALIFT
 62
4
 10
1588.403
 20
-7260.028
 30
-1319.369
 70
    32
  0
VERTEX
  8
W66LALIFT
 62
4
 10
1587.703
 20
-7259.769
 30
-1319.369
 70
    32
  0
VERTEX
  8
W66LALIFT
 62
4
 10
1586.938
 20
-7259.568
 30
-1319.369
 70
    32
  0
VERTEX
  8
W66LALIFT
 62
4
 10
1585.902
 20
-7258.867
 30
-1319.369
 70
    32
  0
VERTEX
  8
W66LALIFT
 62
4
 10
1585.288
 20
-7258.115
 30
-1319.369
 70
    32
  0
VERTEX
  8
W66LALIFT
 62
4
 10
1585.410
 20
-7257.405
 30
-1319.369
 70
    32
  0
VERTEX
  8
W66LALIFT
 62
4
 10
1584.784
 20
-7257.029
 30
-1319.369
 70
    32
  0
VERTEX
  8
W66LALIFT
 62
4
 10
1584.779
 20
-7256.485
 30
-1319.369
 70
    32
  0
VERTEX
  8
W66LALIFT
 62
4
 10
1581.301
 20
-7255.617
 30
-1319.369
 70
    32
  0
VERTEX
  8
W66LALIFT
 62
4
 10
1580.447
 20
-7255.931
 30
-1319.369
 70
    32
  0
VERTEX
  8
W66LALIFT
 62
4
 10
1580.124
 20
-7256.081
 30
-1319.369
 70
    32
  0
VERTEX
  8
W66LALIFT
 62
4
 10
1576.455
 20
-7255.471
 30
-1319.369
 70
    32
  0
VERTEX
  8
W66LALIFT
 62
4
 10
1575.921
 20
-7255.904
 30
-1319.369
 70
    32
  0
VERTEX
  8
W66LALIFT
 62
4
 10
1573.006
 20
-7255.407
 30
-1319.369
 70
    32
  0
VERTEX
  8
W66LALIFT
 62
4
 10
1571.776
 20
-7255.139
 30
-1319.369
 70
    32
  0
SEQEND
  8
W66LALIFT
  0
POLYLINE
  8
W66LALIFT
 62
6
 66
     1
 70
     9
  0
VERTEX
  8
W66LALIFT
 62
6
 10
1580.982
 20
-7280.524
 30
-1322.169
 70
    32
  0
VERTEX
  8
W66LALIFT
 62
6
 10
1580.212
 20
-7278.203
 30
-1322.169
 70
    32
  0
VERTEX
  8
W66LALIFT
 62
6
 10
1579.959
 20
-7277.042
 30
-1322.169
 70
    32
  0
VERTEX
  8
W66LALIFT
 62
6
 10
1580.912
 20
-7275.520
 30
-1322.169
 70
    32
  0
VERTEX
  8
W66LALIFT
 62
6
 10
1581.620
 20
-7274.931
 30
-1322.169
 70
    32
  0
VERTEX
  8
W66LALIFT
 62
6
 10
1582.873
 20
-7272.679
 30
-1322.169
 70
    32
  0
VERTEX
  8
W66LALIFT
 62
6
 10
1583.740
 20
-7271.134
 30
-1322.169
 70
    32
  0
VERTEX
  8
W66LALIFT
 62
6
 10
1584.813
 20
-7268.173
 30
-1322.169
 70
    32
  0
VERTEX
  8
W66LALIFT
 62
6
 10
1584.918
 20
-7267.005
 30
-1322.169
 70
    32
  0
VERTEX
  8
W66LALIFT
 62
6
 10
1585.897
 20
-7266.492
 30
-1322.169
 70
    32
  0
VERTEX
  8
W66LALIFT
 62
6
 10
1586.245
 20
-7265.790
 30
-1322.169
 70
    32
  0
VERTEX
  8
W66LALIFT
 62
6
 10
1586.029
 20
-7265.490
 30
-1322.169
 70
    32
  0
VERTEX
  8
W66LALIFT
 62
6
 10
1586.019
 20
-7264.366
 30
-1322.169
 70
    32
  0
VERTEX
  8
W66LALIFT
 62
6
 10
1585.885
 20
-7262.940
 30
-1322.169
 70
    32
  0
VERTEX
  8
W66LALIFT
 62
6
 10
1584.935
 20
-7260.944
 30
-1322.169
 70
    32
  0
VERTEX
  8
W66LALIFT
 62
6
 10
1584.970
 20
-7258.567
 30
-1322.169
 70
    32
  0
VERTEX
  8
W66LALIFT
 62
6
 10
1583.752
 20
-7257.821
 30
-1322.169
 70
    32
  0
VERTEX
  8
W66LALIFT
 62
6
 10
1580.098
 20
-7256.538
 30
-1322.169
 70
    32
  0
VERTEX
  8
W66LALIFT
 62
6
 10
1578.265
 20
-7256.674
 30
-1322.169
 70
    32
  0
VERTEX
  8
W66LALIFT
 62
6
 10
1572.500
 20
-7255.085
 30
-1322.169
 70
    32
  0
VERTEX
  8
W66LALIFT
 62
6
 10
1571.743
 20
-7251.706
 30
-1322.169
 70
    32
  0
VERTEX
  8
W66LALIFT
 62
6
 10
1571.627
 20
-7248.854
 30
-1322.169
 70
    32
  0
VERTEX
  8
W66LALIFT
 62
6
 10
1571.915
 20
-7245.810
 30
-1322.169
 70
    32
  0
VERTEX
  8
W66LALIFT
 62
6
 10
1572.607
 20
-7243.332
 30
-1322.169
 70
    32
  0
VERTEX
  8
W66LALIFT
 62
6
 10
1575.730
 20
-7242.658
 30
-1322.169
 70
    32
  0
VERTEX
  8
W66LALIFT
 62
6
 10
1578.543
 20
-7243.012
 30
-1322.169
 70
    32
  0
VERTEX
  8
W66LALIFT
 62
6
 10
1579.985
 20
-7242.636
 30
-1322.169
 70
    32
  0
VERTEX
  8
W66LALIFT
 62
6
 10
1581.909
 20
-7242.502
 30
-1322.169
 70
    32
  0
VERTEX
  8
W66LALIFT
 62
6
 10
1583.916
 20
-7242.041
 30
-1322.169
 70
    32
  0
VERTEX
  8
W66LALIFT
 62
6
 10
1586.516
 20
-7241.497
 30
-1322.169
 70
    32
  0
VERTEX
  8
W66LALIFT
 62
6
 10
1587.480
 20
-7241.719
 30
-1322.169
 70
    32
  0
VERTEX
  8
W66LALIFT
 62
6
 10
1588.332
 20
-7241.129
 30
-1322.169
 70
    32
  0
VERTEX
  8
W66LALIFT
 62
6
 10
1590.503
 20
-7240.452
 30
-1322.169
 70
    32
  0
VERTEX
  8
W66LALIFT
 62
6
 10
1592.878
 20
-7240.702
 30
-1322.169
 70
    32
  0
VERTEX
  8
W66LALIFT
 62
6
 10
1594.653
 20
-7240.813
 30
-1322.169
 70
    32
  0
VERTEX
  8
W66LALIFT
 62
6
 10
1597.386
 20
-7241.941
 30
-1322.169
 70
    32
  0
VERTEX
  8
W66LALIFT
 62
6
 10
1598.652
 20
-7242.422
 30
-1322.169
 70
    32
  0
VERTEX
  8
W66LALIFT
 62
6
 10
1599.956
 20
-7244.145
 30
-1322.169
 70
    32
  0
VERTEX
  8
W66LALIFT
 62
6
 10
1600.621
 20
-7245.235
 30
-1322.169
 70
    32
  0
VERTEX
  8
W66LALIFT
 62
6
 10
1601.211
 20
-7247.455
 30
-1322.169
 70
    32
  0
VERTEX
  8
W66LALIFT
 62
6
 10
1600.907
 20
-7249.871
 30
-1322.169
 70
    32
  0
VERTEX
  8
W66LALIFT
 62
6
 10
1600.868
 20
-7251.207
 30
-1322.169
 70
    32
  0
VERTEX
  8
W66LALIFT
 62
6
 10
1600.002
 20
-7253.433
 30
-1322.169
 70
    32
  0
VERTEX
  8
W66LALIFT
 62
6
 10
1598.946
 20
-7256.577
 30
-1322.169
 70
    32
  0
VERTEX
  8
W66LALIFT
 62
6
 10
1597.717
 20
-7258.430
 30
-1322.169
 70
    32
  0
VERTEX
  8
W66LALIFT
 62
6
 10
1596.699
 20
-7259.735
 30
-1322.169
 70
    32
  0
VERTEX
  8
W66LALIFT
 62
6
 10
1595.488
 20
-7260.983
 30
-1322.169
 70
    32
  0
VERTEX
  8
W66LALIFT
 62
6
 10
1594.905
 20
-7262.067
 30
-1322.169
 70
    32
  0
VERTEX
  8
W66LALIFT
 62
6
 10
1593.950
 20
-7263.124
 30
-1322.169
 70
    32
  0
VERTEX
  8
W66LALIFT
 62
6
 10
1593.336
 20
-7262.611
 30
-1322.169
 70
    32
  0
VERTEX
  8
W66LALIFT
 62
6
 10
1592.512
 20
-7262.979
 30
-1322.169
 70
    32
  0
VERTEX
  8
W66LALIFT
 62
6
 10
1592.005
 20
-7263.991
 30
-1322.169
 70
    32
  0
VERTEX
  8
W66LALIFT
 62
6
 10
1591.239
 20
-7266.017
 30
-1322.169
 70
    32
  0
VERTEX
  8
W66LALIFT
 62
6
 10
1591.675
 20
-7266.833
 30
-1322.169
 70
    32
  0
VERTEX
  8
W66LALIFT
 62
6
 10
1592.464
 20
-7267.895
 30
-1322.169
 70
    32
  0
VERTEX
  8
W66LALIFT
 62
6
 10
1592.426
 20
-7269.461
 30
-1322.169
 70
    32
  0
VERTEX
  8
W66LALIFT
 62
6
 10
1593.362
 20
-7271.532
 30
-1322.169
 70
    32
  0
VERTEX
  8
W66LALIFT
 62
6
 10
1592.435
 20
-7272.352
 30
-1322.169
 70
    32
  0
VERTEX
  8
W66LALIFT
 62
6
 10
1592.687
 20
-7273.226
 30
-1322.169
 70
    32
  0
VERTEX
  8
W66LALIFT
 62
6
 10
1592.338
 20
-7275.281
 30
-1322.169
 70
    32
  0
VERTEX
  8
W66LALIFT
 62
6
 10
1592.838
 20
-7276.435
 30
-1322.169
 70
    32
  0
VERTEX
  8
W66LALIFT
 62
6
 10
1593.298
 20
-7277.058
 30
-1322.169
 70
    32
  0
VERTEX
  8
W66LALIFT
 62
6
 10
1593.428
 20
-7278.989
 30
-1322.169
 70
    32
  0
SEQEND
  8
W66LALIFT
  0
POLYLINE
  8
W66LALIFT
 62
5
 66
     1
 70
     9
  0
VERTEX
  8
W66LALIFT
 62
5
 10
1572.660
 20
-7247.809
 30
-1299.764
 70
    32
  0
VERTEX
  8
W66LALIFT
 62
5
 10
1573.017
 20
-7245.623
 30
-1299.764
 70
    32
  0
VERTEX
  8
W66LALIFT
 62
5
 10
1575.373
 20
-7245.874
 30
-1299.764
 70
    32
  0
VERTEX
  8
W66LALIFT
 62
5
 10
1575.319
 20
-7246.644
 30
-1299.764
 70
    32
  0
VERTEX
  8
W66LALIFT
 62
5
 10
1575.159
 20
-7248.042
 30
-1299.764
 70
    32
  0
VERTEX
  8
W66LALIFT
 62
5
 10
1574.106
 20
-7247.791
 30
-1299.764
 70
    32
  0
SEQEND
  8
W66LALIFT
  0
POLYLINE
  8
W66LALIFT
 62
6
 66
     1
 70
     9
  0
VERTEX
  8
W66LALIFT
 62
6
 10
1579.738
 20
-7274.672
 30
-1333.372
 70
    32
  0
VERTEX
  8
W66LALIFT
 62
6
 10
1579.194
 20
-7272.490
 30
-1333.372
 70
    32
  0
VERTEX
  8
W66LALIFT
 62
6
 10
1579.847
 20
-7271.140
 30
-1333.372
 70
    32
  0
VERTEX
  8
W66LALIFT
 62
6
 10
1579.667
 20
-7267.367
 30
-1333.372
 70
    32
  0
VERTEX
  8
W66LALIFT
 62
6
 10
1579.386
 20
-7263.485
 30
-1333.372
 70
    32
  0
VERTEX
  8
W66LALIFT
 62
6
 10
1578.441
 20
-7261.173
 30
-1333.372
 70
    32
  0
VERTEX
  8
W66LALIFT
 62
6
 10
1578.626
 20
-7260.202
 30
-1333.372
 70
    32
  0
VERTEX
  8
W66LALIFT
 62
6
 10
1577.859
 20
-7257.265
 30
-1333.372
 70
    32
  0
VERTEX
  8
W66LALIFT
 62
6
 10
1576.935
 20
-7254.939
 30
-1333.372
 70
    32
  0
VERTEX
  8
W66LALIFT
 62
6
 10
1577.477
 20
-7254.705
 30
-1333.372
 70
    32
  0
VERTEX
  8
W66LALIFT
 62
6
 10
1577.157
 20
-7254.011
 30
-1333.372
 70
    32
  0
VERTEX
  8
W66LALIFT
 62
6
 10
1575.803
 20
-7252.101
 30
-1333.372
 70
    32
  0
VERTEX
  8
W66LALIFT
 62
6
 10
1573.899
 20
-7250.097
 30
-1333.372
 70
    32
  0
VERTEX
  8
W66LALIFT
 62
6
 10
1573.105
 20
-7248.795
 30
-1333.372
 70
    32
  0
VERTEX
  8
W66LALIFT
 62
6
 10
1572.464
 20
-7246.480
 30
-1333.372
 70
    32
  0
VERTEX
  8
W66LALIFT
 62
6
 10
1572.866
 20
-7244.212
 30
-1333.372
 70
    32
  0
VERTEX
  8
W66LALIFT
 62
6
 10
1573.218
 20
-7242.681
 30
-1333.372
 70
    32
  0
VERTEX
  8
W66LALIFT
 62
6
 10
1574.997
 20
-7242.069
 30
-1333.372
 70
    32
  0
VERTEX
  8
W66LALIFT
 62
6
 10
1575.554
 20
-7240.595
 30
-1333.372
 70
    32
  0
VERTEX
  8
W66LALIFT
 62
6
 10
1574.683
 20
-7238.564
 30
-1333.372
 70
    32
  0
VERTEX
  8
W66LALIFT
 62
6
 10
1575.751
 20
-7238.098
 30
-1333.372
 70
    32
  0
VERTEX
  8
W66LALIFT
 62
6
 10
1574.553
 20
-7234.950
 30
-1333.372
 70
    32
  0
VERTEX
  8
W66LALIFT
 62
6
 10
1575.440
 20
-7233.884
 30
-1333.372
 70
    32
  0
VERTEX
  8
W66LALIFT
 62
6
 10
1577.857
 20
-7232.427
 30
-1333.372
 70
    32
  0
VERTEX
  8
W66LALIFT
 62
6
 10
1579.956
 20
-7231.070
 30
-1333.372
 70
    32
  0
VERTEX
  8
W66LALIFT
 62
6
 10
1582.062
 20
-7230.935
 30
-1333.372
 70
    32
  0
VERTEX
  8
W66LALIFT
 62
6
 10
1584.982
 20
-7236.544
 30
-1333.372
 70
    32
  0
VERTEX
  8
W66LALIFT
 62
6
 10
1586.236
 20
-7236.836
 30
-1333.372
 70
    32
  0
VERTEX
  8
W66LALIFT
 62
6
 10
1584.293
 20
-7230.217
 30
-1333.372
 70
    32
  0
VERTEX
  8
W66LALIFT
 62
6
 10
1585.417
 20
-7230.297
 30
-1333.372
 70
    32
  0
VERTEX
  8
W66LALIFT
 62
6
 10
1586.105
 20
-7231.802
 30
-1333.372
 70
    32
  0
VERTEX
  8
W66LALIFT
 62
6
 10
1586.367
 20
-7233.893
 30
-1333.372
 70
    32
  0
VERTEX
  8
W66LALIFT
 62
6
 10
1586.701
 20
-7234.435
 30
-1333.372
 70
    32
  0
VERTEX
  8
W66LALIFT
 62
6
 10
1587.428
 20
-7232.786
 30
-1333.372
 70
    32
  0
VERTEX
  8
W66LALIFT
 62
6
 10
1588.085
 20
-7232.814
 30
-1333.372
 70
    32
  0
VERTEX
  8
W66LALIFT
 62
6
 10
1589.237
 20
-7234.377
 30
-1333.372
 70
    32
  0
VERTEX
  8
W66LALIFT
 62
6
 10
1590.550
 20
-7236.403
 30
-1333.372
 70
    32
  0
VERTEX
  8
W66LALIFT
 62
6
 10
1591.650
 20
-7237.582
 30
-1333.372
 70
    32
  0
VERTEX
  8
W66LALIFT
 62
6
 10
1593.364
 20
-7237.883
 30
-1333.372
 70
    32
  0
VERTEX
  8
W66LALIFT
 62
6
 10
1594.554
 20
-7238.570
 30
-1333.372
 70
    32
  0
VERTEX
  8
W66LALIFT
 62
6
 10
1597.425
 20
-7237.778
 30
-1333.372
 70
    32
  0
VERTEX
  8
W66LALIFT
 62
6
 10
1600.640
 20
-7237.691
 30
-1333.372
 70
    32
  0
VERTEX
  8
W66LALIFT
 62
6
 10
1605.426
 20
-7238.360
 30
-1333.372
 70
    32
  0
VERTEX
  8
W66LALIFT
 62
6
 10
1607.471
 20
-7238.867
 30
-1333.372
 70
    32
  0
VERTEX
  8
W66LALIFT
 62
6
 10
1608.206
 20
-7239.337
 30
-1333.372
 70
    32
  0
VERTEX
  8
W66LALIFT
 62
6
 10
1610.336
 20
-7239.230
 30
-1333.372
 70
    32
  0
VERTEX
  8
W66LALIFT
 62
6
 10
1612.200
 20
-7239.924
 30
-1333.372
 70
    32
  0
VERTEX
  8
W66LALIFT
 62
6
 10
1614.205
 20
-7241.430
 30
-1333.372
 70
    32
  0
VERTEX
  8
W66LALIFT
 62
6
 10
1615.680
 20
-7242.539
 30
-1333.372
 70
    32
  0
VERTEX
  8
W66LALIFT
 62
6
 10
1616.791
 20
-7244.505
 30
-1333.372
 70
    32
  0
VERTEX
  8
W66LALIFT
 62
6
 10
1617.642
 20
-7246.627
 30
-1333.372
 70
    32
  0
VERTEX
  8
W66LALIFT
 62
6
 10
1617.580
 20
-7249.065
 30
-1333.372
 70
    32
  0
VERTEX
  8
W66LALIFT
 62
6
 10
1617.196
 20
-7251.078
 30
-1333.372
 70
    32
  0
VERTEX
  8
W66LALIFT
 62
6
 10
1615.265
 20
-7254.856
 30
-1333.372
 70
    32
  0
VERTEX
  8
W66LALIFT
 62
6
 10
1612.952
 20
-7256.561
 30
-1333.372
 70
    32
  0
VERTEX
  8
W66LALIFT
 62
6
 10
1611.820
 20
-7258.932
 30
-1333.372
 70
    32
  0
VERTEX
  8
W66LALIFT
 62
6
 10
1610.928
 20
-7262.230
 30
-1333.372
 70
    32
  0
VERTEX
  8
W66LALIFT
 62
6
 10
1608.701
 20
-7267.216
 30
-1333.372
 70
    32
  0
VERTEX
  8
W66LALIFT
 62
6
 10
1607.799
 20
-7269.839
 30
-1333.372
 70
    32
  0
VERTEX
  8
W66LALIFT
 62
6
 10
1606.601
 20
-7273.268
 30
-1333.372
 70
    32
  0
VERTEX
  8
W66LALIFT
 62
6
 10
1605.017
 20
-7275.569
 30
-1333.372
 70
    32
  0
VERTEX
  8
W66LALIFT
 62
6
 10
1604.076
 20
-7276.838
 30
-1333.372
 70
    32
  0
SEQEND
  8
W66LALIFT
  0
POLYLINE
  8
W66LALIFT
 62
8
 66
     1
 70
     9
  0
VERTEX
  8
W66LALIFT
 62
8
 10
1579.218
 20
-7279.351
 30
-1324.970
 70
    32
  0
VERTEX
  8
W66LALIFT
 62
8
 10
1579.058
 20
-7278.188
 30
-1324.970
 70
    32
  0
VERTEX
  8
W66LALIFT
 62
8
 10
1578.741
 20
-7277.061
 30
-1324.970
 70
    32
  0
VERTEX
  8
W66LALIFT
 62
8
 10
1578.850
 20
-7275.830
 30
-1324.970
 70
    32
  0
VERTEX
  8
W66LALIFT
 62
8
 10
1579.222
 20
-7275.390
 30
-1324.970
 70
    32
  0
VERTEX
  8
W66LALIFT
 62
8
 10
1581.947
 20
-7271.832
 30
-1324.970
 70
    32
  0
VERTEX
  8
W66LALIFT
 62
8
 10
1582.116
 20
-7270.677
 30
-1324.970
 70
    32
  0
VERTEX
  8
W66LALIFT
 62
8
 10
1581.994
 20
-7269.939
 30
-1324.970
 70
    32
  0
VERTEX
  8
W66LALIFT
 62
8
 10
1581.418
 20
-7269.085
 30
-1324.970
 70
    32
  0
VERTEX
  8
W66LALIFT
 62
8
 10
1581.643
 20
-7266.618
 30
-1324.970
 70
    32
  0
VERTEX
  8
W66LALIFT
 62
8
 10
1581.841
 20
-7266.206
 30
-1324.970
 70
    32
  0
VERTEX
  8
W66LALIFT
 62
8
 10
1581.901
 20
-7265.090
 30
-1324.970
 70
    32
  0
VERTEX
  8
W66LALIFT
 62
8
 10
1582.702
 20
-7263.087
 30
-1324.970
 70
    32
  0
VERTEX
  8
W66LALIFT
 62
8
 10
1582.831
 20
-7261.060
 30
-1324.970
 70
    32
  0
VERTEX
  8
W66LALIFT
 62
8
 10
1581.767
 20
-7259.132
 30
-1324.970
 70
    32
  0
VERTEX
  8
W66LALIFT
 62
8
 10
1580.660
 20
-7258.074
 30
-1324.970
 70
    32
  0
VERTEX
  8
W66LALIFT
 62
8
 10
1577.872
 20
-7257.035
 30
-1324.970
 70
    32
  0
VERTEX
  8
W66LALIFT
 62
8
 10
1576.093
 20
-7256.268
 30
-1324.970
 70
    32
  0
VERTEX
  8
W66LALIFT
 62
8
 10
1574.936
 20
-7254.797
 30
-1324.970
 70
    32
  0
VERTEX
  8
W66LALIFT
 62
8
 10
1574.458
 20
-7252.801
 30
-1324.970
 70
    32
  0
VERTEX
  8
W66LALIFT
 62
8
 10
1574.025
 20
-7251.220
 30
-1324.970
 70
    32
  0
VERTEX
  8
W66LALIFT
 62
8
 10
1574.050
 20
-7249.645
 30
-1324.970
 70
    32
  0
VERTEX
  8
W66LALIFT
 62
8
 10
1574.302
 20
-7246.871
 30
-1324.970
 70
    32
  0
VERTEX
  8
W66LALIFT
 62
8
 10
1574.473
 20
-7244.765
 30
-1324.970
 70
    32
  0
VERTEX
  8
W66LALIFT
 62
8
 10
1575.243
 20
-7243.214
 30
-1324.970
 70
    32
  0
VERTEX
  8
W66LALIFT
 62
8
 10
1577.724
 20
-7242.605
 30
-1324.970
 70
    32
  0
VERTEX
  8
W66LALIFT
 62
8
 10
1580.766
 20
-7241.461
 30
-1324.970
 70
    32
  0
VERTEX
  8
W66LALIFT
 62
8
 10
1581.428
 20
-7241.470
 30
-1324.970
 70
    32
  0
VERTEX
  8
W66LALIFT
 62
8
 10
1582.906
 20
-7240.652
 30
-1324.970
 70
    32
  0
VERTEX
  8
W66LALIFT
 62
8
 10
1584.603
 20
-7239.708
 30
-1324.970
 70
    32
  0
VERTEX
  8
W66LALIFT
 62
8
 10
1586.098
 20
-7239.605
 30
-1324.970
 70
    32
  0
VERTEX
  8
W66LALIFT
 62
8
 10
1587.305
 20
-7239.864
 30
-1324.970
 70
    32
  0
VERTEX
  8
W66LALIFT
 62
8
 10
1588.553
 20
-7240.670
 30
-1324.970
 70
    32
  0
VERTEX
  8
W66LALIFT
 62
8
 10
1589.709
 20
-7239.853
 30
-1324.970
 70
    32
  0
VERTEX
  8
W66LALIFT
 62
8
 10
1591.249
 20
-7240.385
 30
-1324.970
 70
    32
  0
VERTEX
  8
W66LALIFT
 62
8
 10
1593.248
 20
-7240.325
 30
-1324.970
 70
    32
  0
VERTEX
  8
W66LALIFT
 62
8
 10
1595.422
 20
-7240.900
 30
-1324.970
 70
    32
  0
VERTEX
  8
W66LALIFT
 62
8
 10
1596.716
 20
-7240.939
 30
-1324.970
 70
    32
  0
VERTEX
  8
W66LALIFT
 62
8
 10
1597.382
 20
-7241.136
 30
-1324.970
 70
    32
  0
VERTEX
  8
W66LALIFT
 62
8
 10
1598.228
 20
-7241.962
 30
-1324.970
 70
    32
  0
VERTEX
  8
W66LALIFT
 62
8
 10
1599.303
 20
-7242.951
 30
-1324.970
 70
    32
  0
VERTEX
  8
W66LALIFT
 62
8
 10
1600.785
 20
-7243.938
 30
-1324.970
 70
    32
  0
VERTEX
  8
W66LALIFT
 62
8
 10
1601.488
 20
-7245.200
 30
-1324.970
 70
    32
  0
VERTEX
  8
W66LALIFT
 62
8
 10
1601.895
 20
-7246.363
 30
-1324.970
 70
    32
  0
VERTEX
  8
W66LALIFT
 62
8
 10
1601.591
 20
-7246.742
 30
-1324.970
 70
    32
  0
VERTEX
  8
W66LALIFT
 62
8
 10
1601.143
 20
-7249.127
 30
-1324.970
 70
    32
  0
VERTEX
  8
W66LALIFT
 62
8
 10
1600.571
 20
-7250.715
 30
-1324.970
 70
    32
  0
VERTEX
  8
W66LALIFT
 62
8
 10
1600.654
 20
-7252.054
 30
-1324.970
 70
    32
  0
VERTEX
  8
W66LALIFT
 62
8
 10
1601.742
 20
-7253.597
 30
-1324.970
 70
    32
  0
VERTEX
  8
W66LALIFT
 62
8
 10
1602.149
 20
-7254.130
 30
-1324.970
 70
    32
  0
VERTEX
  8
W66LALIFT
 62
8
 10
1601.698
 20
-7255.389
 30
-1324.970
 70
    32
  0
VERTEX
  8
W66LALIFT
 62
8
 10
1600.775
 20
-7256.421
 30
-1324.970
 70
    32
  0
VERTEX
  8
W66LALIFT
 62
8
 10
1599.887
 20
-7257.062
 30
-1324.970
 70
    32
  0
VERTEX
  8
W66LALIFT
 62
8
 10
1599.268
 20
-7258.971
 30
-1324.970
 70
    32
  0
VERTEX
  8
W66LALIFT
 62
8
 10
1598.245
 20
-7260.580
 30
-1324.970
 70
    32
  0
VERTEX
  8
W66LALIFT
 62
8
 10
1597.639
 20
-7260.458
 30
-1324.970
 70
    32
  0
VERTEX
  8
W66LALIFT
 62
8
 10
1597.019
 20
-7262.392
 30
-1324.970
 70
    32
  0
VERTEX
  8
W66LALIFT
 62
8
 10
1596.464
 20
-7264.511
 30
-1324.970
 70
    32
  0
VERTEX
  8
W66LALIFT
 62
8
 10
1596.606
 20
-7266.019
 30
-1324.970
 70
    32
  0
VERTEX
  8
W66LALIFT
 62
8
 10
1595.428
 20
-7267.978
 30
-1324.970
 70
    32
  0
VERTEX
  8
W66LALIFT
 62
8
 10
1594.895
 20
-7268.680
 30
-1324.970
 70
    32
  0
VERTEX
  8
W66LALIFT
 62
8
 10
1595.350
 20
-7270.831
 30
-1324.970
 70
    32
  0
VERTEX
  8
W66LALIFT
 62
8
 10
1595.382
 20
-7272.952
 30
-1324.970
 70
    32
  0
VERTEX
  8
W66LALIFT
 62
8
 10
1595.167
 20
-7275.985
 30
-1324.970
 70
    32
  0
VERTEX
  8
W66LALIFT
 62
8
 10
1595.621
 20
-7276.374
 30
-1324.970
 70
    32
  0
SEQEND
  8
W66LALIFT
  0
POLYLINE
  8
W66LALIFT
 62
7
 66
     1
 70
     9
  0
VERTEX
  8
W66LALIFT
 62
7
 10
1577.830
 20
-7277.178
 30
-1330.571
 70
    32
  0
VERTEX
  8
W66LALIFT
 62
7
 10
1579.375
 20
-7273.984
 30
-1330.571
 70
    32
  0
VERTEX
  8
W66LALIFT
 62
7
 10
1579.043
 20
-7270.806
 30
-1330.571
 70
    32
  0
VERTEX
  8
W66LALIFT
 62
7
 10
1579.691
 20
-7269.400
 30
-1330.571
 70
    32
  0
VERTEX
  8
W66LALIFT
 62
7
 10
1579.539
 20
-7266.484
 30
-1330.571
 70
    32
  0
VERTEX
  8
W66LALIFT
 62
7
 10
1579.525
 20
-7265.508
 30
-1330.571
 70
    32
  0
VERTEX
  8
W66LALIFT
 62
7
 10
1579.157
 20
-7262.565
 30
-1330.571
 70
    32
  0
VERTEX
  8
W66LALIFT
 62
7
 10
1579.408
 20
-7261.706
 30
-1330.571
 70
    32
  0
VERTEX
  8
W66LALIFT
 62
7
 10
1578.021
 20
-7258.889
 30
-1330.571
 70
    32
  0
VERTEX
  8
W66LALIFT
 62
7
 10
1578.226
 20
-7257.132
 30
-1330.571
 70
    32
  0
VERTEX
  8
W66LALIFT
 62
7
 10
1577.428
 20
-7254.260
 30
-1330.571
 70
    32
  0
VERTEX
  8
W66LALIFT
 62
7
 10
1577.661
 20
-7253.196
 30
-1330.571
 70
    32
  0
VERTEX
  8
W66LALIFT
 62
7
 10
1575.776
 20
-7249.332
 30
-1330.571
 70
    32
  0
VERTEX
  8
W66LALIFT
 62
7
 10
1575.187
 20
-7247.071
 30
-1330.571
 70
    32
  0
VERTEX
  8
W66LALIFT
 62
7
 10
1575.426
 20
-7246.720
 30
-1330.571
 70
    32
  0
VERTEX
  8
W66LALIFT
 62
7
 10
1575.249
 20
-7244.794
 30
-1330.571
 70
    32
  0
VERTEX
  8
W66LALIFT
 62
7
 10
1576.473
 20
-7240.224
 30
-1330.571
 70
    32
  0
VERTEX
  8
W66LALIFT
 62
7
 10
1578.011
 20
-7239.461
 30
-1330.571
 70
    32
  0
VERTEX
  8
W66LALIFT
 62
7
 10
1575.668
 20
-7235.221
 30
-1330.571
 70
    32
  0
VERTEX
  8
W66LALIFT
 62
7
 10
1577.783
 20
-7233.092
 30
-1330.571
 70
    32
  0
VERTEX
  8
W66LALIFT
 62
7
 10
1580.727
 20
-7231.826
 30
-1330.571
 70
    32
  0
VERTEX
  8
W66LALIFT
 62
7
 10
1582.427
 20
-7232.062
 30
-1330.571
 70
    32
  0
VERTEX
  8
W66LALIFT
 62
7
 10
1583.031
 20
-7235.328
 30
-1330.571
 70
    32
  0
VERTEX
  8
W66LALIFT
 62
7
 10
1583.009
 20
-7237.850
 30
-1330.571
 70
    32
  0
VERTEX
  8
W66LALIFT
 62
7
 10
1584.180
 20
-7238.552
 30
-1330.571
 70
    32
  0
VERTEX
  8
W66LALIFT
 62
7
 10
1586.943
 20
-7239.261
 30
-1330.571
 70
    32
  0
VERTEX
  8
W66LALIFT
 62
7
 10
1589.080
 20
-7238.651
 30
-1330.571
 70
    32
  0
VERTEX
  8
W66LALIFT
 62
7
 10
1591.828
 20
-7238.995
 30
-1330.571
 70
    32
  0
VERTEX
  8
W66LALIFT
 62
7
 10
1594.365
 20
-7239.137
 30
-1330.571
 70
    32
  0
VERTEX
  8
W66LALIFT
 62
7
 10
1598.224
 20
-7239.521
 30
-1330.571
 70
    32
  0
VERTEX
  8
W66LALIFT
 62
7
 10
1600.025
 20
-7239.343
 30
-1330.571
 70
    32
  0
VERTEX
  8
W66LALIFT
 62
7
 10
1604.326
 20
-7238.963
 30
-1330.571
 70
    32
  0
VERTEX
  8
W66LALIFT
 62
7
 10
1604.887
 20
-7241.488
 30
-1330.571
 70
    32
  0
VERTEX
  8
W66LALIFT
 62
7
 10
1607.672
 20
-7241.785
 30
-1330.571
 70
    32
  0
VERTEX
  8
W66LALIFT
 62
7
 10
1609.985
 20
-7242.723
 30
-1330.571
 70
    32
  0
VERTEX
  8
W66LALIFT
 62
7
 10
1612.625
 20
-7243.975
 30
-1330.571
 70
    32
  0
VERTEX
  8
W66LALIFT
 62
7
 10
1614.292
 20
-7244.156
 30
-1330.571
 70
    32
  0
VERTEX
  8
W66LALIFT
 62
7
 10
1614.923
 20
-7245.708
 30
-1330.571
 70
    32
  0
VERTEX
  8
W66LALIFT
 62
7
 10
1615.277
 20
-7247.592
 30
-1330.571
 70
    32
  0
VERTEX
  8
W66LALIFT
 62
7
 10
1613.956
 20
-7250.152
 30
-1330.571
 70
    32
  0
VERTEX
  8
W66LALIFT
 62
7
 10
1611.209
 20
-7251.988
 30
-1330.571
 70
    32
  0
VERTEX
  8
W66LALIFT
 62
7
 10
1609.625
 20
-7255.176
 30
-1330.571
 70
    32
  0
VERTEX
  8
W66LALIFT
 62
7
 10
1608.597
 20
-7256.599
 30
-1330.571
 70
    32
  0
VERTEX
  8
W66LALIFT
 62
7
 10
1607.618
 20
-7257.354
 30
-1330.571
 70
    32
  0
VERTEX
  8
W66LALIFT
 62
7
 10
1606.331
 20
-7257.805
 30
-1330.571
 70
    32
  0
VERTEX
  8
W66LALIFT
 62
7
 10
1606.439
 20
-7259.666
 30
-1330.571
 70
    32
  0
VERTEX
  8
W66LALIFT
 62
7
 10
1605.762
 20
-7261.141
 30
-1330.571
 70
    32
  0
VERTEX
  8
W66LALIFT
 62
7
 10
1606.420
 20
-7262.959
 30
-1330.571
 70
    32
  0
VERTEX
  8
W66LALIFT
 62
7
 10
1606.579
 20
-7264.558
 30
-1330.571
 70
    32
  0
VERTEX
  8
W66LALIFT
 62
7
 10
1605.446
 20
-7267.307
 30
-1330.571
 70
    32
  0
VERTEX
  8
W66LALIFT
 62
7
 10
1604.169
 20
-7268.958
 30
-1330.571
 70
    32
  0
VERTEX
  8
W66LALIFT
 62
7
 10
1602.781
 20
-7270.417
 30
-1330.571
 70
    32
  0
VERTEX
  8
W66LALIFT
 62
7
 10
1601.721
 20
-7273.828
 30
-1330.571
 70
    32
  0
VERTEX
  8
W66LALIFT
 62
7
 10
1601.645
 20
-7275.782
 30
-1330.571
 70
    32
  0
SEQEND
  8
W66LALIFT
  0
POLYLINE
  8
W66LALIFT
 62
8
 66
     1
 70
     9
  0
VERTEX
  8
W66LALIFT
 62
8
 10
1580.932
 20
-7272.827
 30
-1336.173
 70
    32
  0
VERTEX
  8
W66LALIFT
 62
8
 10
1580.907
 20
-7272.582
 30
-1336.173
 70
    32
  0
VERTEX
  8
W66LALIFT
 62
8
 10
1580.891
 20
-7272.382
 30
-1336.173
 70
    32
  0
VERTEX
  8
W66LALIFT
 62
8
 10
1580.908
 20
-7272.322
 30
-1336.173
 70
    32
  0
VERTEX
  8
W66LALIFT
 62
8
 10
1581.085
 20
-7271.404
 30
-1336.173
 70
    32
  0
VERTEX
  8
W66LALIFT
 62
8
 10
1580.936
 20
-7271.087
 30
-1336.173
 70
    32
  0
VERTEX
  8
W66LALIFT
 62
8
 10
1580.866
 20
-7270.773
 30
-1336.173
 70
    32
  0
VERTEX
  8
W66LALIFT
 62
8
 10
1580.809
 20
-7270.616
 30
-1336.173
 70
    32
  0
VERTEX
  8
W66LALIFT
 62
8
 10
1580.687
 20
-7270.129
 30
-1336.173
 70
    32
  0
VERTEX
  8
W66LALIFT
 62
8
 10
1580.606
 20
-7269.884
 30
-1336.173
 70
    32
  0
VERTEX
  8
W66LALIFT
 62
8
 10
1580.616
 20
-7269.543
 30
-1336.173
 70
    32
  0
VERTEX
  8
W66LALIFT
 62
8
 10
1580.610
 20
-7269.510
 30
-1336.173
 70
    32
  0
VERTEX
  8
W66LALIFT
 62
8
 10
1580.612
 20
-7269.477
 30
-1336.173
 70
    32
  0
VERTEX
  8
W66LALIFT
 62
8
 10
1580.610
 20
-7269.422
 30
-1336.173
 70
    32
  0
VERTEX
  8
W66LALIFT
 62
8
 10
1580.521
 20
-7268.888
 30
-1336.173
 70
    32
  0
VERTEX
  8
W66LALIFT
 62
8
 10
1580.518
 20
-7268.880
 30
-1336.173
 70
    32
  0
VERTEX
  8
W66LALIFT
 62
8
 10
1580.370
 20
-7268.209
 30
-1336.173
 70
    32
  0
VERTEX
  8
W66LALIFT
 62
8
 10
1580.293
 20
-7267.684
 30
-1336.173
 70
    32
  0
VERTEX
  8
W66LALIFT
 62
8
 10
1580.291
 20
-7267.644
 30
-1336.173
 70
    32
  0
VERTEX
  8
W66LALIFT
 62
8
 10
1580.276
 20
-7267.605
 30
-1336.173
 70
    32
  0
VERTEX
  8
W66LALIFT
 62
8
 10
1580.210
 20
-7266.993
 30
-1336.173
 70
    32
  0
VERTEX
  8
W66LALIFT
 62
8
 10
1580.414
 20
-7266.534
 30
-1336.173
 70
    32
  0
VERTEX
  8
W66LALIFT
 62
8
 10
1580.233
 20
-7266.317
 30
-1336.173
 70
    32
  0
VERTEX
  8
W66LALIFT
 62
8
 10
1580.435
 20
-7265.920
 30
-1336.173
 70
    32
  0
VERTEX
  8
W66LALIFT
 62
8
 10
1580.478
 20
-7265.648
 30
-1336.173
 70
    32
  0
VERTEX
  8
W66LALIFT
 62
8
 10
1580.420
 20
-7265.514
 30
-1336.173
 70
    32
  0
VERTEX
  8
W66LALIFT
 62
8
 10
1580.376
 20
-7265.107
 30
-1336.173
 70
    32
  0
VERTEX
  8
W66LALIFT
 62
8
 10
1580.368
 20
-7265.071
 30
-1336.173
 70
    32
  0
VERTEX
  8
W66LALIFT
 62
8
 10
1580.365
 20
-7265.057
 30
-1336.173
 70
    32
  0
VERTEX
  8
W66LALIFT
 62
8
 10
1580.339
 20
-7265.042
 30
-1336.173
 70
    32
  0
VERTEX
  8
W66LALIFT
 62
8
 10
1580.297
 20
-7264.977
 30
-1336.173
 70
    32
  0
VERTEX
  8
W66LALIFT
 62
8
 10
1579.971
 20
-7264.631
 30
-1336.173
 70
    32
  0
VERTEX
  8
W66LALIFT
 62
8
 10
1579.938
 20
-7264.553
 30
-1336.173
 70
    32
  0
VERTEX
  8
W66LALIFT
 62
8
 10
1579.792
 20
-7264.359
 30
-1336.173
 70
    32
  0
VERTEX
  8
W66LALIFT
 62
8
 10
1579.645
 20
-7264.059
 30
-1336.173
 70
    32
  0
VERTEX
  8
W66LALIFT
 62
8
 10
1579.617
 20
-7263.944
 30
-1336.173
 70
    32
  0
VERTEX
  8
W66LALIFT
 62
8
 10
1579.487
 20
-7263.588
 30
-1336.173
 70
    32
  0
VERTEX
  8
W66LALIFT
 62
8
 10
1579.509
 20
-7263.520
 30
-1336.173
 70
    32
  0
VERTEX
  8
W66LALIFT
 62
8
 10
1579.473
 20
-7263.498
 30
-1336.173
 70
    32
  0
VERTEX
  8
W66LALIFT
 62
8
 10
1579.473
 20
-7263.464
 30
-1336.173
 70
    32
  0
VERTEX
  8
W66LALIFT
 62
8
 10
1579.534
 20
-7262.898
 30
-1336.173
 70
    32
  0
VERTEX
  8
W66LALIFT
 62
8
 10
1579.510
 20
-7262.517
 30
-1336.173
 70
    32
  0
VERTEX
  8
W66LALIFT
 62
8
 10
1579.513
 20
-7262.318
 30
-1336.173
 70
    32
  0
VERTEX
  8
W66LALIFT
 62
8
 10
1579.467
 20
-7261.906
 30
-1336.173
 70
    32
  0
VERTEX
  8
W66LALIFT
 62
8
 10
1579.454
 20
-7261.716
 30
-1336.173
 70
    32
  0
VERTEX
  8
W66LALIFT
 62
8
 10
1579.464
 20
-7261.602
 30
-1336.173
 70
    32
  0
VERTEX
  8
W66LALIFT
 62
8
 10
1579.437
 20
-7261.140
 30
-1336.173
 70
    32
  0
VERTEX
  8
W66LALIFT
 62
8
 10
1579.130
 20
-7260.680
 30
-1336.173
 70
    32
  0
VERTEX
  8
W66LALIFT
 62
8
 10
1579.006
 20
-7260.569
 30
-1336.173
 70
    32
  0
VERTEX
  8
W66LALIFT
 62
8
 10
1579.003
 20
-7260.509
 30
-1336.173
 70
    32
  0
VERTEX
  8
W66LALIFT
 62
8
 10
1578.884
 20
-7260.313
 30
-1336.173
 70
    32
  0
VERTEX
  8
W66LALIFT
 62
8
 10
1578.794
 20
-7260.148
 30
-1336.173
 70
    32
  0
VERTEX
  8
W66LALIFT
 62
8
 10
1578.798
 20
-7260.094
 30
-1336.173
 70
    32
  0
VERTEX
  8
W66LALIFT
 62
8
 10
1578.743
 20
-7259.964
 30
-1336.173
 70
    32
  0
VERTEX
  8
W66LALIFT
 62
8
 10
1578.679
 20
-7259.399
 30
-1336.173
 70
    32
  0
VERTEX
  8
W66LALIFT
 62
8
 10
1578.959
 20
-7258.865
 30
-1336.173
 70
    32
  0
VERTEX
  8
W66LALIFT
 62
8
 10
1578.991
 20
-7258.792
 30
-1336.173
 70
    32
  0
VERTEX
  8
W66LALIFT
 62
8
 10
1578.958
 20
-7258.725
 30
-1336.173
 70
    32
  0
VERTEX
  8
W66LALIFT
 62
8
 10
1578.549
 20
-7258.136
 30
-1336.173
 70
    32
  0
VERTEX
  8
W66LALIFT
 62
8
 10
1578.199
 20
-7257.486
 30
-1336.173
 70
    32
  0
VERTEX
  8
W66LALIFT
 62
8
 10
1578.177
 20
-7257.457
 30
-1336.173
 70
    32
  0
VERTEX
  8
W66LALIFT
 62
8
 10
1578.165
 20
-7257.432
 30
-1336.173
 70
    32
  0
VERTEX
  8
W66LALIFT
 62
8
 10
1577.859
 20
-7256.884
 30
-1336.173
 70
    32
  0
VERTEX
  8
W66LALIFT
 62
8
 10
1577.632
 20
-7256.611
 30
-1336.173
 70
    32
  0
VERTEX
  8
W66LALIFT
 62
8
 10
1577.370
 20
-7256.114
 30
-1336.173
 70
    32
  0
VERTEX
  8
W66LALIFT
 62
8
 10
1576.976
 20
-7255.733
 30
-1336.173
 70
    32
  0
VERTEX
  8
W66LALIFT
 62
8
 10
1576.631
 20
-7255.196
 30
-1336.173
 70
    32
  0
VERTEX
  8
W66LALIFT
 62
8
 10
1576.664
 20
-7254.890
 30
-1336.173
 70
    32
  0
VERTEX
  8
W66LALIFT
 62
8
 10
1576.263
 20
-7254.392
 30
-1336.173
 70
    32
  0
VERTEX
  8
W66LALIFT
 62
8
 10
1576.026
 20
-7254.020
 30
-1336.173
 70
    32
  0
VERTEX
  8
W66LALIFT
 62
8
 10
1574.672
 20
-7252.969
 30
-1336.173
 70
    32
  0
VERTEX
  8
W66LALIFT
 62
8
 10
1574.474
 20
-7252.574
 30
-1336.173
 70
    32
  0
VERTEX
  8
W66LALIFT
 62
8
 10
1574.175
 20
-7251.891
 30
-1336.173
 70
    32
  0
VERTEX
  8
W66LALIFT
 62
8
 10
1574.170
 20
-7251.435
 30
-1336.173
 70
    32
  0
VERTEX
  8
W66LALIFT
 62
8
 10
1574.234
 20
-7251.208
 30
-1336.173
 70
    32
  0
VERTEX
  8
W66LALIFT
 62
8
 10
1574.971
 20
-7250.961
 30
-1336.173
 70
    32
  0
VERTEX
  8
W66LALIFT
 62
8
 10
1574.929
 20
-7250.621
 30
-1336.173
 70
    32
  0
VERTEX
  8
W66LALIFT
 62
8
 10
1575.712
 20
-7250.635
 30
-1336.173
 70
    32
  0
VERTEX
  8
W66LALIFT
 62
8
 10
1575.227
 20
-7250.229
 30
-1336.173
 70
    32
  0
VERTEX
  8
W66LALIFT
 62
8
 10
1575.100
 20
-7249.973
 30
-1336.173
 70
    32
  0
VERTEX
  8
W66LALIFT
 62
8
 10
1575.015
 20
-7249.711
 30
-1336.173
 70
    32
  0
VERTEX
  8
W66LALIFT
 62
8
 10
1575.412
 20
-7249.686
 30
-1336.173
 70
    32
  0
VERTEX
  8
W66LALIFT
 62
8
 10
1575.836
 20
-7249.579
 30
-1336.173
 70
    32
  0
VERTEX
  8
W66LALIFT
 62
8
 10
1576.228
 20
-7249.660
 30
-1336.173
 70
    32
  0
VERTEX
  8
W66LALIFT
 62
8
 10
1576.219
 20
-7249.480
 30
-1336.173
 70
    32
  0
VERTEX
  8
W66LALIFT
 62
8
 10
1575.918
 20
-7249.194
 30
-1336.173
 70
    32
  0
VERTEX
  8
W66LALIFT
 62
8
 10
1575.676
 20
-7248.844
 30
-1336.173
 70
    32
  0
VERTEX
  8
W66LALIFT
 62
8
 10
1575.063
 20
-7248.127
 30
-1336.173
 70
    32
  0
VERTEX
  8
W66LALIFT
 62
8
 10
1575.028
 20
-7247.855
 30
-1336.173
 70
    32
  0
VERTEX
  8
W66LALIFT
 62
8
 10
1574.483
 20
-7247.192
 30
-1336.173
 70
    32
  0
VERTEX
  8
W66LALIFT
 62
8
 10
1573.563
 20
-7246.009
 30
-1336.173
 70
    32
  0
VERTEX
  8
W66LALIFT
 62
8
 10
1573.301
 20
-7245.292
 30
-1336.173
 70
    32
  0
VERTEX
  8
W66LALIFT
 62
8
 10
1572.650
 20
-7244.009
 30
-1336.173
 70
    32
  0
VERTEX
  8
W66LALIFT
 62
8
 10
1572.452
 20
-7243.115
 30
-1336.173
 70
    32
  0
VERTEX
  8
W66LALIFT
 62
8
 10
1572.333
 20
-7242.652
 30
-1336.173
 70
    32
  0
VERTEX
  8
W66LALIFT
 62
8
 10
1572.413
 20
-7242.113
 30
-1336.173
 70
    32
  0
VERTEX
  8
W66LALIFT
 62
8
 10
1572.200
 20
-7241.218
 30
-1336.173
 70
    32
  0
VERTEX
  8
W66LALIFT
 62
8
 10
1571.960
 20
-7240.224
 30
-1336.173
 70
    32
  0
VERTEX
  8
W66LALIFT
 62
8
 10
1572.113
 20
-7239.512
 30
-1336.173
 70
    32
  0
VERTEX
  8
W66LALIFT
 62
8
 10
1572.599
 20
-7238.025
 30
-1336.173
 70
    32
  0
VERTEX
  8
W66LALIFT
 62
8
 10
1572.648
 20
-7238.026
 30
-1336.173
 70
    32
  0
VERTEX
  8
W66LALIFT
 62
8
 10
1572.618
 20
-7237.981
 30
-1336.173
 70
    32
  0
VERTEX
  8
W66LALIFT
 62
8
 10
1572.803
 20
-7237.302
 30
-1336.173
 70
    32
  0
VERTEX
  8
W66LALIFT
 62
8
 10
1573.319
 20
-7236.207
 30
-1336.173
 70
    32
  0
VERTEX
  8
W66LALIFT
 62
8
 10
1573.341
 20
-7236.199
 30
-1336.173
 70
    32
  0
VERTEX
  8
W66LALIFT
 62
8
 10
1574.676
 20
-7236.522
 30
-1336.173
 70
    32
  0
VERTEX
  8
W66LALIFT
 62
8
 10
1574.560
 20
-7235.648
 30
-1336.173
 70
    32
  0
VERTEX
  8
W66LALIFT
 62
8
 10
1574.716
 20
-7235.171
 30
-1336.173
 70
    32
  0
VERTEX
  8
W66LALIFT
 62
8
 10
1574.747
 20
-7234.146
 30
-1336.173
 70
    32
  0
VERTEX
  8
W66LALIFT
 62
8
 10
1575.225
 20
-7233.857
 30
-1336.173
 70
    32
  0
VERTEX
  8
W66LALIFT
 62
8
 10
1575.784
 20
-7233.548
 30
-1336.173
 70
    32
  0
VERTEX
  8
W66LALIFT
 62
8
 10
1576.019
 20
-7233.205
 30
-1336.173
 70
    32
  0
VERTEX
  8
W66LALIFT
 62
8
 10
1576.535
 20
-7232.663
 30
-1336.173
 70
    32
  0
VERTEX
  8
W66LALIFT
 62
8
 10
1576.957
 20
-7232.460
 30
-1336.173
 70
    32
  0
VERTEX
  8
W66LALIFT
 62
8
 10
1577.311
 20
-7232.102
 30
-1336.173
 70
    32
  0
VERTEX
  8
W66LALIFT
 62
8
 10
1577.426
 20
-7231.992
 30
-1336.173
 70
    32
  0
VERTEX
  8
W66LALIFT
 62
8
 10
1577.535
 20
-7231.900
 30
-1336.173
 70
    32
  0
VERTEX
  8
W66LALIFT
 62
8
 10
1577.938
 20
-7231.652
 30
-1336.173
 70
    32
  0
VERTEX
  8
W66LALIFT
 62
8
 10
1578.628
 20
-7231.273
 30
-1336.173
 70
    32
  0
VERTEX
  8
W66LALIFT
 62
8
 10
1579.021
 20
-7231.117
 30
-1336.173
 70
    32
  0
VERTEX
  8
W66LALIFT
 62
8
 10
1579.782
 20
-7230.757
 30
-1336.173
 70
    32
  0
VERTEX
  8
W66LALIFT
 62
8
 10
1580.145
 20
-7230.662
 30
-1336.173
 70
    32
  0
VERTEX
  8
W66LALIFT
 62
8
 10
1581.043
 20
-7230.463
 30
-1336.173
 70
    32
  0
VERTEX
  8
W66LALIFT
 62
8
 10
1581.263
 20
-7230.312
 30
-1336.173
 70
    32
  0
VERTEX
  8
W66LALIFT
 62
8
 10
1581.628
 20
-7230.138
 30
-1336.173
 70
    32
  0
VERTEX
  8
W66LALIFT
 62
8
 10
1581.853
 20
-7230.003
 30
-1336.173
 70
    32
  0
VERTEX
  8
W66LALIFT
 62
8
 10
1581.989
 20
-7229.958
 30
-1336.173
 70
    32
  0
VERTEX
  8
W66LALIFT
 62
8
 10
1583.577
 20
-7231.976
 30
-1336.173
 70
    32
  0
VERTEX
  8
W66LALIFT
 62
8
 10
1584.252
 20
-7232.357
 30
-1336.173
 70
    32
  0
VERTEX
  8
W66LALIFT
 62
8
 10
1584.355
 20
-7230.771
 30
-1336.173
 70
    32
  0
VERTEX
  8
W66LALIFT
 62
8
 10
1584.129
 20
-7229.197
 30
-1336.173
 70
    32
  0
VERTEX
  8
W66LALIFT
 62
8
 10
1584.806
 20
-7229.380
 30
-1336.173
 70
    32
  0
VERTEX
  8
W66LALIFT
 62
8
 10
1585.749
 20
-7229.492
 30
-1336.173
 70
    32
  0
VERTEX
  8
W66LALIFT
 62
8
 10
1586.058
 20
-7229.568
 30
-1336.173
 70
    32
  0
VERTEX
  8
W66LALIFT
 62
8
 10
1586.419
 20
-7229.689
 30
-1336.173
 70
    32
  0
VERTEX
  8
W66LALIFT
 62
8
 10
1586.761
 20
-7229.801
 30
-1336.173
 70
    32
  0
VERTEX
  8
W66LALIFT
 62
8
 10
1587.037
 20
-7229.882
 30
-1336.173
 70
    32
  0
VERTEX
  8
W66LALIFT
 62
8
 10
1587.611
 20
-7231.216
 30
-1336.173
 70
    32
  0
VERTEX
  8
W66LALIFT
 62
8
 10
1587.750
 20
-7231.546
 30
-1336.173
 70
    32
  0
VERTEX
  8
W66LALIFT
 62
8
 10
1588.117
 20
-7233.387
 30
-1336.173
 70
    32
  0
VERTEX
  8
W66LALIFT
 62
8
 10
1588.320
 20
-7234.473
 30
-1336.173
 70
    32
  0
VERTEX
  8
W66LALIFT
 62
8
 10
1588.408
 20
-7234.651
 30
-1336.173
 70
    32
  0
VERTEX
  8
W66LALIFT
 62
8
 10
1589.027
 20
-7236.357
 30
-1336.173
 70
    32
  0
VERTEX
  8
W66LALIFT
 62
8
 10
1589.034
 20
-7236.371
 30
-1336.173
 70
    32
  0
VERTEX
  8
W66LALIFT
 62
8
 10
1589.044
 20
-7236.374
 30
-1336.173
 70
    32
  0
VERTEX
  8
W66LALIFT
 62
8
 10
1589.545
 20
-7236.025
 30
-1336.173
 70
    32
  0
VERTEX
  8
W66LALIFT
 62
8
 10
1590.009
 20
-7236.776
 30
-1336.173
 70
    32
  0
VERTEX
  8
W66LALIFT
 62
8
 10
1590.035
 20
-7236.824
 30
-1336.173
 70
    32
  0
VERTEX
  8
W66LALIFT
 62
8
 10
1590.111
 20
-7236.950
 30
-1336.173
 70
    32
  0
VERTEX
  8
W66LALIFT
 62
8
 10
1590.418
 20
-7237.117
 30
-1336.173
 70
    32
  0
VERTEX
  8
W66LALIFT
 62
8
 10
1590.650
 20
-7237.225
 30
-1336.173
 70
    32
  0
VERTEX
  8
W66LALIFT
 62
8
 10
1590.837
 20
-7237.280
 30
-1336.173
 70
    32
  0
VERTEX
  8
W66LALIFT
 62
8
 10
1591.042
 20
-7237.336
 30
-1336.173
 70
    32
  0
VERTEX
  8
W66LALIFT
 62
8
 10
1591.249
 20
-7237.359
 30
-1336.173
 70
    32
  0
VERTEX
  8
W66LALIFT
 62
8
 10
1591.454
 20
-7237.529
 30
-1336.173
 70
    32
  0
VERTEX
  8
W66LALIFT
 62
8
 10
1591.771
 20
-7237.671
 30
-1336.173
 70
    32
  0
VERTEX
  8
W66LALIFT
 62
8
 10
1592.095
 20
-7238.007
 30
-1336.173
 70
    32
  0
VERTEX
  8
W66LALIFT
 62
8
 10
1592.173
 20
-7238.055
 30
-1336.173
 70
    32
  0
VERTEX
  8
W66LALIFT
 62
8
 10
1592.191
 20
-7238.049
 30
-1336.173
 70
    32
  0
VERTEX
  8
W66LALIFT
 62
8
 10
1592.391
 20
-7238.096
 30
-1336.173
 70
    32
  0
VERTEX
  8
W66LALIFT
 62
8
 10
1592.473
 20
-7238.141
 30
-1336.173
 70
    32
  0
VERTEX
  8
W66LALIFT
 62
8
 10
1592.631
 20
-7238.155
 30
-1336.173
 70
    32
  0
VERTEX
  8
W66LALIFT
 62
8
 10
1592.749
 20
-7238.163
 30
-1336.173
 70
    32
  0
VERTEX
  8
W66LALIFT
 62
8
 10
1592.832
 20
-7238.143
 30
-1336.173
 70
    32
  0
VERTEX
  8
W66LALIFT
 62
8
 10
1592.990
 20
-7238.219
 30
-1336.173
 70
    32
  0
VERTEX
  8
W66LALIFT
 62
8
 10
1593.028
 20
-7238.221
 30
-1336.173
 70
    32
  0
VERTEX
  8
W66LALIFT
 62
8
 10
1593.163
 20
-7238.223
 30
-1336.173
 70
    32
  0
VERTEX
  8
W66LALIFT
 62
8
 10
1593.255
 20
-7238.200
 30
-1336.173
 70
    32
  0
VERTEX
  8
W66LALIFT
 62
8
 10
1593.295
 20
-7238.198
 30
-1336.173
 70
    32
  0
VERTEX
  8
W66LALIFT
 62
8
 10
1593.542
 20
-7238.080
 30
-1336.173
 70
    32
  0
VERTEX
  8
W66LALIFT
 62
8
 10
1593.666
 20
-7238.125
 30
-1336.173
 70
    32
  0
VERTEX
  8
W66LALIFT
 62
8
 10
1593.755
 20
-7238.132
 30
-1336.173
 70
    32
  0
VERTEX
  8
W66LALIFT
 62
8
 10
1593.987
 20
-7238.052
 30
-1336.173
 70
    32
  0
VERTEX
  8
W66LALIFT
 62
8
 10
1593.991
 20
-7238.050
 30
-1336.173
 70
    32
  0
VERTEX
  8
W66LALIFT
 62
8
 10
1593.999
 20
-7238.051
 30
-1336.173
 70
    32
  0
VERTEX
  8
W66LALIFT
 62
8
 10
1594.195
 20
-7238.016
 30
-1336.173
 70
    32
  0
VERTEX
  8
W66LALIFT
 62
8
 10
1594.247
 20
-7238.010
 30
-1336.173
 70
    32
  0
VERTEX
  8
W66LALIFT
 62
8
 10
1594.370
 20
-7237.958
 30
-1336.173
 70
    32
  0
VERTEX
  8
W66LALIFT
 62
8
 10
1594.444
 20
-7237.992
 30
-1336.173
 70
    32
  0
VERTEX
  8
W66LALIFT
 62
8
 10
1594.524
 20
-7238.011
 30
-1336.173
 70
    32
  0
VERTEX
  8
W66LALIFT
 62
8
 10
1594.646
 20
-7237.986
 30
-1336.173
 70
    32
  0
VERTEX
  8
W66LALIFT
 62
8
 10
1594.694
 20
-7237.977
 30
-1336.173
 70
    32
  0
VERTEX
  8
W66LALIFT
 62
8
 10
1594.866
 20
-7237.838
 30
-1336.173
 70
    32
  0
VERTEX
  8
W66LALIFT
 62
8
 10
1594.870
 20
-7237.842
 30
-1336.173
 70
    32
  0
VERTEX
  8
W66LALIFT
 62
8
 10
1595.020
 20
-7237.898
 30
-1336.173
 70
    32
  0
VERTEX
  8
W66LALIFT
 62
8
 10
1595.049
 20
-7237.883
 30
-1336.173
 70
    32
  0
VERTEX
  8
W66LALIFT
 62
8
 10
1595.217
 20
-7237.775
 30
-1336.173
 70
    32
  0
VERTEX
  8
W66LALIFT
 62
8
 10
1595.293
 20
-7237.722
 30
-1336.173
 70
    32
  0
VERTEX
  8
W66LALIFT
 62
8
 10
1595.409
 20
-7237.578
 30
-1336.173
 70
    32
  0
VERTEX
  8
W66LALIFT
 62
8
 10
1595.501
 20
-7237.527
 30
-1336.173
 70
    32
  0
VERTEX
  8
W66LALIFT
 62
8
 10
1595.561
 20
-7237.538
 30
-1336.173
 70
    32
  0
VERTEX
  8
W66LALIFT
 62
8
 10
1595.668
 20
-7237.514
 30
-1336.173
 70
    32
  0
VERTEX
  8
W66LALIFT
 62
8
 10
1595.706
 20
-7237.480
 30
-1336.173
 70
    32
  0
VERTEX
  8
W66LALIFT
 62
8
 10
1595.853
 20
-7237.402
 30
-1336.173
 70
    32
  0
VERTEX
  8
W66LALIFT
 62
8
 10
1595.859
 20
-7237.397
 30
-1336.173
 70
    32
  0
VERTEX
  8
W66LALIFT
 62
8
 10
1595.890
 20
-7237.412
 30
-1336.173
 70
    32
  0
VERTEX
  8
W66LALIFT
 62
8
 10
1595.995
 20
-7237.526
 30
-1336.173
 70
    32
  0
VERTEX
  8
W66LALIFT
 62
8
 10
1596.007
 20
-7237.527
 30
-1336.173
 70
    32
  0
VERTEX
  8
W66LALIFT
 62
8
 10
1596.115
 20
-7237.538
 30
-1336.173
 70
    32
  0
VERTEX
  8
W66LALIFT
 62
8
 10
1596.142
 20
-7237.525
 30
-1336.173
 70
    32
  0
VERTEX
  8
W66LALIFT
 62
8
 10
1596.240
 20
-7237.571
 30
-1336.173
 70
    32
  0
VERTEX
  8
W66LALIFT
 62
8
 10
1596.275
 20
-7237.580
 30
-1336.173
 70
    32
  0
VERTEX
  8
W66LALIFT
 62
8
 10
1596.355
 20
-7237.559
 30
-1336.173
 70
    32
  0
VERTEX
  8
W66LALIFT
 62
8
 10
1596.410
 20
-7237.542
 30
-1336.173
 70
    32
  0
VERTEX
  8
W66LALIFT
 62
8
 10
1596.477
 20
-7237.557
 30
-1336.173
 70
    32
  0
VERTEX
  8
W66LALIFT
 62
8
 10
1596.544
 20
-7237.538
 30
-1336.173
 70
    32
  0
VERTEX
  8
W66LALIFT
 62
8
 10
1596.603
 20
-7237.527
 30
-1336.173
 70
    32
  0
VERTEX
  8
W66LALIFT
 62
8
 10
1596.674
 20
-7237.564
 30
-1336.173
 70
    32
  0
VERTEX
  8
W66LALIFT
 62
8
 10
1596.709
 20
-7237.555
 30
-1336.173
 70
    32
  0
VERTEX
  8
W66LALIFT
 62
8
 10
1596.811
 20
-7237.456
 30
-1336.173
 70
    32
  0
VERTEX
  8
W66LALIFT
 62
8
 10
1596.834
 20
-7237.451
 30
-1336.173
 70
    32
  0
VERTEX
  8
W66LALIFT
 62
8
 10
1596.916
 20
-7237.497
 30
-1336.173
 70
    32
  0
VERTEX
  8
W66LALIFT
 62
8
 10
1596.927
 20
-7237.502
 30
-1336.173
 70
    32
  0
VERTEX
  8
W66LALIFT
 62
8
 10
1597.026
 20
-7237.455
 30
-1336.173
 70
    32
  0
VERTEX
  8
W66LALIFT
 62
8
 10
1597.028
 20
-7237.455
 30
-1336.173
 70
    32
  0
VERTEX
  8
W66LALIFT
 62
8
 10
1597.146
 20
-7237.474
 30
-1336.173
 70
    32
  0
VERTEX
  8
W66LALIFT
 62
8
 10
1597.155
 20
-7237.472
 30
-1336.173
 70
    32
  0
VERTEX
  8
W66LALIFT
 62
8
 10
1597.261
 20
-7237.413
 30
-1336.173
 70
    32
  0
VERTEX
  8
W66LALIFT
 62
8
 10
1597.283
 20
-7237.396
 30
-1336.173
 70
    32
  0
VERTEX
  8
W66LALIFT
 62
8
 10
1597.377
 20
-7237.287
 30
-1336.173
 70
    32
  0
VERTEX
  8
W66LALIFT
 62
8
 10
1597.406
 20
-7237.285
 30
-1336.173
 70
    32
  0
VERTEX
  8
W66LALIFT
 62
8
 10
1597.475
 20
-7237.320
 30
-1336.173
 70
    32
  0
VERTEX
  8
W66LALIFT
 62
8
 10
1597.505
 20
-7237.326
 30
-1336.173
 70
    32
  0
VERTEX
  8
W66LALIFT
 62
8
 10
1597.567
 20
-7237.339
 30
-1336.173
 70
    32
  0
VERTEX
  8
W66LALIFT
 62
8
 10
1597.616
 20
-7237.301
 30
-1336.173
 70
    32
  0
VERTEX
  8
W66LALIFT
 62
8
 10
1597.674
 20
-7237.280
 30
-1336.173
 70
    32
  0
VERTEX
  8
W66LALIFT
 62
8
 10
1597.731
 20
-7237.233
 30
-1336.173
 70
    32
  0
VERTEX
  8
W66LALIFT
 62
8
 10
1597.773
 20
-7237.250
 30
-1336.173
 70
    32
  0
VERTEX
  8
W66LALIFT
 62
8
 10
1597.834
 20
-7237.217
 30
-1336.173
 70
    32
  0
VERTEX
  8
W66LALIFT
 62
8
 10
1597.863
 20
-7237.242
 30
-1336.173
 70
    32
  0
VERTEX
  8
W66LALIFT
 62
8
 10
1597.930
 20
-7237.214
 30
-1336.173
 70
    32
  0
VERTEX
  8
W66LALIFT
 62
8
 10
1597.963
 20
-7237.177
 30
-1336.173
 70
    32
  0
VERTEX
  8
W66LALIFT
 62
8
 10
1598.034
 20
-7237.158
 30
-1336.173
 70
    32
  0
VERTEX
  8
W66LALIFT
 62
8
 10
1598.057
 20
-7237.166
 30
-1336.173
 70
    32
  0
VERTEX
  8
W66LALIFT
 62
8
 10
1598.117
 20
-7237.192
 30
-1336.173
 70
    32
  0
VERTEX
  8
W66LALIFT
 62
8
 10
1598.131
 20
-7237.208
 30
-1336.173
 70
    32
  0
VERTEX
  8
W66LALIFT
 62
8
 10
1598.199
 20
-7237.245
 30
-1336.173
 70
    32
  0
VERTEX
  8
W66LALIFT
 62
8
 10
1598.210
 20
-7237.248
 30
-1336.173
 70
    32
  0
VERTEX
  8
W66LALIFT
 62
8
 10
1598.309
 20
-7237.180
 30
-1336.173
 70
    32
  0
VERTEX
  8
W66LALIFT
 62
8
 10
1598.313
 20
-7237.180
 30
-1336.173
 70
    32
  0
VERTEX
  8
W66LALIFT
 62
8
 10
1598.383
 20
-7237.120
 30
-1336.173
 70
    32
  0
VERTEX
  8
W66LALIFT
 62
8
 10
1598.399
 20
-7237.109
 30
-1336.173
 70
    32
  0
VERTEX
  8
W66LALIFT
 62
8
 10
1598.463
 20
-7237.163
 30
-1336.173
 70
    32
  0
VERTEX
  8
W66LALIFT
 62
8
 10
1598.465
 20
-7237.163
 30
-1336.173
 70
    32
  0
VERTEX
  8
W66LALIFT
 62
8
 10
1598.529
 20
-7237.232
 30
-1336.173
 70
    32
  0
VERTEX
  8
W66LALIFT
 62
8
 10
1598.535
 20
-7237.224
 30
-1336.173
 70
    32
  0
VERTEX
  8
W66LALIFT
 62
8
 10
1598.616
 20
-7237.179
 30
-1336.173
 70
    32
  0
VERTEX
  8
W66LALIFT
 62
8
 10
1598.622
 20
-7237.184
 30
-1336.173
 70
    32
  0
VERTEX
  8
W66LALIFT
 62
8
 10
1598.689
 20
-7237.194
 30
-1336.173
 70
    32
  0
VERTEX
  8
W66LALIFT
 62
8
 10
1598.700
 20
-7237.186
 30
-1336.173
 70
    32
  0
VERTEX
  8
W66LALIFT
 62
8
 10
1598.773
 20
-7237.139
 30
-1336.173
 70
    32
  0
VERTEX
  8
W66LALIFT
 62
8
 10
1598.786
 20
-7237.133
 30
-1336.173
 70
    32
  0
VERTEX
  8
W66LALIFT
 62
8
 10
1598.848
 20
-7237.143
 30
-1336.173
 70
    32
  0
VERTEX
  8
W66LALIFT
 62
8
 10
1598.863
 20
-7237.124
 30
-1336.173
 70
    32
  0
VERTEX
  8
W66LALIFT
 62
8
 10
1598.929
 20
-7237.086
 30
-1336.173
 70
    32
  0
VERTEX
  8
W66LALIFT
 62
8
 10
1598.950
 20
-7237.062
 30
-1336.173
 70
    32
  0
VERTEX
  8
W66LALIFT
 62
8
 10
1598.992
 20
-7237.111
 30
-1336.173
 70
    32
  0
VERTEX
  8
W66LALIFT
 62
8
 10
1599.006
 20
-7237.129
 30
-1336.173
 70
    32
  0
VERTEX
  8
W66LALIFT
 62
8
 10
1599.069
 20
-7237.115
 30
-1336.173
 70
    32
  0
VERTEX
  8
W66LALIFT
 62
8
 10
1599.085
 20
-7237.130
 30
-1336.173
 70
    32
  0
VERTEX
  8
W66LALIFT
 62
8
 10
1599.143
 20
-7237.070
 30
-1336.173
 70
    32
  0
VERTEX
  8
W66LALIFT
 62
8
 10
1599.172
 20
-7237.025
 30
-1336.173
 70
    32
  0
VERTEX
  8
W66LALIFT
 62
8
 10
1599.234
 20
-7236.950
 30
-1336.173
 70
    32
  0
VERTEX
  8
W66LALIFT
 62
8
 10
1599.270
 20
-7236.881
 30
-1336.173
 70
    32
  0
VERTEX
  8
W66LALIFT
 62
8
 10
1599.326
 20
-7236.827
 30
-1336.173
 70
    32
  0
VERTEX
  8
W66LALIFT
 62
8
 10
1599.358
 20
-7236.789
 30
-1336.173
 70
    32
  0
VERTEX
  8
W66LALIFT
 62
8
 10
1599.405
 20
-7236.777
 30
-1336.173
 70
    32
  0
VERTEX
  8
W66LALIFT
 62
8
 10
1599.439
 20
-7236.736
 30
-1336.173
 70
    32
  0
VERTEX
  8
W66LALIFT
 62
8
 10
1599.493
 20
-7236.669
 30
-1336.173
 70
    32
  0
VERTEX
  8
W66LALIFT
 62
8
 10
1599.509
 20
-7236.720
 30
-1336.173
 70
    32
  0
VERTEX
  8
W66LALIFT
 62
8
 10
1599.543
 20
-7236.779
 30
-1336.173
 70
    32
  0
VERTEX
  8
W66LALIFT
 62
8
 10
1599.578
 20
-7236.749
 30
-1336.173
 70
    32
  0
VERTEX
  8
W66LALIFT
 62
8
 10
1599.616
 20
-7236.733
 30
-1336.173
 70
    32
  0
VERTEX
  8
W66LALIFT
 62
8
 10
1599.648
 20
-7236.722
 30
-1336.173
 70
    32
  0
VERTEX
  8
W66LALIFT
 62
8
 10
1599.688
 20
-7236.713
 30
-1336.173
 70
    32
  0
VERTEX
  8
W66LALIFT
 62
8
 10
1599.724
 20
-7236.686
 30
-1336.173
 70
    32
  0
VERTEX
  8
W66LALIFT
 62
8
 10
1599.765
 20
-7236.678
 30
-1336.173
 70
    32
  0
VERTEX
  8
W66LALIFT
 62
8
 10
1599.793
 20
-7236.698
 30
-1336.173
 70
    32
  0
VERTEX
  8
W66LALIFT
 62
8
 10
1599.824
 20
-7236.703
 30
-1336.173
 70
    32
  0
VERTEX
  8
W66LALIFT
 62
8
 10
1599.850
 20
-7236.739
 30
-1336.173
 70
    32
  0
VERTEX
  8
W66LALIFT
 62
8
 10
1599.887
 20
-7236.727
 30
-1336.173
 70
    32
  0
VERTEX
  8
W66LALIFT
 62
8
 10
1599.911
 20
-7236.771
 30
-1336.173
 70
    32
  0
VERTEX
  8
W66LALIFT
 62
8
 10
1599.945
 20
-7236.777
 30
-1336.173
 70
    32
  0
VERTEX
  8
W66LALIFT
 62
8
 10
1599.984
 20
-7236.745
 30
-1336.173
 70
    32
  0
VERTEX
  8
W66LALIFT
 62
8
 10
1600.011
 20
-7236.781
 30
-1336.173
 70
    32
  0
VERTEX
  8
W66LALIFT
 62
8
 10
1600.016
 20
-7236.838
 30
-1336.173
 70
    32
  0
VERTEX
  8
W66LALIFT
 62
8
 10
1600.053
 20
-7236.859
 30
-1336.173
 70
    32
  0
VERTEX
  8
W66LALIFT
 62
8
 10
1600.088
 20
-7236.809
 30
-1336.173
 70
    32
  0
VERTEX
  8
W66LALIFT
 62
8
 10
1600.143
 20
-7236.792
 30
-1336.173
 70
    32
  0
VERTEX
  8
W66LALIFT
 62
8
 10
1600.205
 20
-7236.826
 30
-1336.173
 70
    32
  0
VERTEX
  8
W66LALIFT
 62
8
 10
1600.226
 20
-7236.831
 30
-1336.173
 70
    32
  0
VERTEX
  8
W66LALIFT
 62
8
 10
1600.257
 20
-7236.795
 30
-1336.173
 70
    32
  0
VERTEX
  8
W66LALIFT
 62
8
 10
1600.279
 20
-7236.782
 30
-1336.173
 70
    32
  0
VERTEX
  8
W66LALIFT
 62
8
 10
1600.291
 20
-7236.826
 30
-1336.173
 70
    32
  0
VERTEX
  8
W66LALIFT
 62
8
 10
1600.303
 20
-7236.845
 30
-1336.173
 70
    32
  0
VERTEX
  8
W66LALIFT
 62
8
 10
1600.320
 20
-7236.848
 30
-1336.173
 70
    32
  0
VERTEX
  8
W66LALIFT
 62
8
 10
1600.342
 20
-7236.835
 30
-1336.173
 70
    32
  0
VERTEX
  8
W66LALIFT
 62
8
 10
1600.370
 20
-7236.800
 30
-1336.173
 70
    32
  0
VERTEX
  8
W66LALIFT
 62
8
 10
1600.379
 20
-7236.833
 30
-1336.173
 70
    32
  0
VERTEX
  8
W66LALIFT
 62
8
 10
1600.402
 20
-7236.801
 30
-1336.173
 70
    32
  0
VERTEX
  8
W66LALIFT
 62
8
 10
1600.425
 20
-7236.762
 30
-1336.173
 70
    32
  0
VERTEX
  8
W66LALIFT
 62
8
 10
1600.432
 20
-7236.816
 30
-1336.173
 70
    32
  0
VERTEX
  8
W66LALIFT
 62
8
 10
1600.449
 20
-7236.833
 30
-1336.173
 70
    32
  0
VERTEX
  8
W66LALIFT
 62
8
 10
1600.472
 20
-7236.820
 30
-1336.173
 70
    32
  0
VERTEX
  8
W66LALIFT
 62
8
 10
1600.490
 20
-7236.824
 30
-1336.173
 70
    32
  0
VERTEX
  8
W66LALIFT
 62
8
 10
1600.513
 20
-7236.829
 30
-1336.173
 70
    32
  0
VERTEX
  8
W66LALIFT
 62
8
 10
1600.535
 20
-7236.833
 30
-1336.173
 70
    32
  0
VERTEX
  8
W66LALIFT
 62
8
 10
1600.555
 20
-7236.836
 30
-1336.173
 70
    32
  0
VERTEX
  8
W66LALIFT
 62
8
 10
1600.574
 20
-7236.840
 30
-1336.173
 70
    32
  0
VERTEX
  8
W66LALIFT
 62
8
 10
1600.594
 20
-7236.844
 30
-1336.173
 70
    32
  0
VERTEX
  8
W66LALIFT
 62
8
 10
1600.613
 20
-7236.849
 30
-1336.173
 70
    32
  0
VERTEX
  8
W66LALIFT
 62
8
 10
1600.635
 20
-7236.836
 30
-1336.173
 70
    32
  0
VERTEX
  8
W66LALIFT
 62
8
 10
1600.654
 20
-7236.840
 30
-1336.173
 70
    32
  0
VERTEX
  8
W66LALIFT
 62
8
 10
1600.663
 20
-7236.899
 30
-1336.173
 70
    32
  0
VERTEX
  8
W66LALIFT
 62
8
 10
1600.682
 20
-7236.903
 30
-1336.173
 70
    32
  0
VERTEX
  8
W66LALIFT
 62
8
 10
1600.699
 20
-7236.923
 30
-1336.173
 70
    32
  0
VERTEX
  8
W66LALIFT
 62
8
 10
1600.716
 20
-7236.959
 30
-1336.173
 70
    32
  0
VERTEX
  8
W66LALIFT
 62
8
 10
1600.759
 20
-7236.855
 30
-1336.173
 70
    32
  0
VERTEX
  8
W66LALIFT
 62
8
 10
1600.791
 20
-7236.816
 30
-1336.173
 70
    32
  0
VERTEX
  8
W66LALIFT
 62
8
 10
1600.802
 20
-7236.876
 30
-1336.173
 70
    32
  0
VERTEX
  8
W66LALIFT
 62
8
 10
1600.817
 20
-7236.927
 30
-1336.173
 70
    32
  0
VERTEX
  8
W66LALIFT
 62
8
 10
1600.835
 20
-7236.947
 30
-1336.173
 70
    32
  0
VERTEX
  8
W66LALIFT
 62
8
 10
1600.862
 20
-7236.919
 30
-1336.173
 70
    32
  0
VERTEX
  8
W66LALIFT
 62
8
 10
1600.887
 20
-7236.908
 30
-1336.173
 70
    32
  0
VERTEX
  8
W66LALIFT
 62
8
 10
1600.914
 20
-7236.900
 30
-1336.173
 70
    32
  0
VERTEX
  8
W66LALIFT
 62
8
 10
1600.936
 20
-7236.904
 30
-1336.173
 70
    32
  0
VERTEX
  8
W66LALIFT
 62
8
 10
1600.961
 20
-7236.910
 30
-1336.173
 70
    32
  0
VERTEX
  8
W66LALIFT
 62
8
 10
1600.985
 20
-7236.915
 30
-1336.173
 70
    32
  0
VERTEX
  8
W66LALIFT
 62
8
 10
1601.016
 20
-7236.907
 30
-1336.173
 70
    32
  0
VERTEX
  8
W66LALIFT
 62
8
 10
1601.037
 20
-7236.927
 30
-1336.173
 70
    32
  0
VERTEX
  8
W66LALIFT
 62
8
 10
1601.053
 20
-7236.982
 30
-1336.173
 70
    32
  0
VERTEX
  8
W66LALIFT
 62
8
 10
1601.073
 20
-7236.987
 30
-1336.173
 70
    32
  0
VERTEX
  8
W66LALIFT
 62
8
 10
1601.100
 20
-7236.994
 30
-1336.173
 70
    32
  0
VERTEX
  8
W66LALIFT
 62
8
 10
1601.116
 20
-7237.017
 30
-1336.173
 70
    32
  0
VERTEX
  8
W66LALIFT
 62
8
 10
1601.154
 20
-7236.988
 30
-1336.173
 70
    32
  0
VERTEX
  8
W66LALIFT
 62
8
 10
1601.180
 20
-7236.960
 30
-1336.173
 70
    32
  0
VERTEX
  8
W66LALIFT
 62
8
 10
1601.205
 20
-7237.005
 30
-1336.173
 70
    32
  0
VERTEX
  8
W66LALIFT
 62
8
 10
1601.220
 20
-7237.023
 30
-1336.173
 70
    32
  0
VERTEX
  8
W66LALIFT
 62
8
 10
1601.249
 20
-7237.030
 30
-1336.173
 70
    32
  0
VERTEX
  8
W66LALIFT
 62
8
 10
1601.278
 20
-7236.996
 30
-1336.173
 70
    32
  0
VERTEX
  8
W66LALIFT
 62
8
 10
1601.316
 20
-7236.964
 30
-1336.173
 70
    32
  0
VERTEX
  8
W66LALIFT
 62
8
 10
1601.334
 20
-7236.982
 30
-1336.173
 70
    32
  0
VERTEX
  8
W66LALIFT
 62
8
 10
1601.366
 20
-7237.009
 30
-1336.173
 70
    32
  0
VERTEX
  8
W66LALIFT
 62
8
 10
1601.387
 20
-7237.002
 30
-1336.173
 70
    32
  0
VERTEX
  8
W66LALIFT
 62
8
 10
1601.427
 20
-7236.994
 30
-1336.173
 70
    32
  0
VERTEX
  8
W66LALIFT
 62
8
 10
1601.445
 20
-7236.998
 30
-1336.173
 70
    32
  0
VERTEX
  8
W66LALIFT
 62
8
 10
1601.478
 20
-7237.027
 30
-1336.173
 70
    32
  0
VERTEX
  8
W66LALIFT
 62
8
 10
1601.492
 20
-7237.054
 30
-1336.173
 70
    32
  0
VERTEX
  8
W66LALIFT
 62
8
 10
1601.526
 20
-7237.089
 30
-1336.173
 70
    32
  0
VERTEX
  8
W66LALIFT
 62
8
 10
1601.547
 20
-7237.073
 30
-1336.173
 70
    32
  0
VERTEX
  8
W66LALIFT
 62
8
 10
1601.592
 20
-7237.059
 30
-1336.173
 70
    32
  0
VERTEX
  8
W66LALIFT
 62
8
 10
1601.611
 20
-7237.051
 30
-1336.173
 70
    32
  0
VERTEX
  8
W66LALIFT
 62
8
 10
1601.646
 20
-7237.091
 30
-1336.173
 70
    32
  0
VERTEX
  8
W66LALIFT
 62
8
 10
1601.658
 20
-7237.117
 30
-1336.173
 70
    32
  0
VERTEX
  8
W66LALIFT
 62
8
 10
1601.697
 20
-7237.150
 30
-1336.173
 70
    32
  0
VERTEX
  8
W66LALIFT
 62
8
 10
1601.711
 20
-7237.146
 30
-1336.173
 70
    32
  0
VERTEX
  8
W66LALIFT
 62
8
 10
1601.766
 20
-7237.141
 30
-1336.173
 70
    32
  0
VERTEX
  8
W66LALIFT
 62
8
 10
1601.778
 20
-7237.145
 30
-1336.173
 70
    32
  0
VERTEX
  8
W66LALIFT
 62
8
 10
1601.831
 20
-7237.128
 30
-1336.173
 70
    32
  0
VERTEX
  8
W66LALIFT
 62
8
 10
1601.844
 20
-7237.132
 30
-1336.173
 70
    32
  0
VERTEX
  8
W66LALIFT
 62
8
 10
1601.886
 20
-7237.179
 30
-1336.173
 70
    32
  0
VERTEX
  8
W66LALIFT
 62
8
 10
1601.898
 20
-7237.174
 30
-1336.173
 70
    32
  0
VERTEX
  8
W66LALIFT
 62
8
 10
1601.949
 20
-7237.192
 30
-1336.173
 70
    32
  0
VERTEX
  8
W66LALIFT
 62
8
 10
1601.954
 20
-7237.212
 30
-1336.173
 70
    32
  0
VERTEX
  8
W66LALIFT
 62
8
 10
1602.014
 20
-7237.194
 30
-1336.173
 70
    32
  0
VERTEX
  8
W66LALIFT
 62
8
 10
1602.025
 20
-7237.178
 30
-1336.173
 70
    32
  0
VERTEX
  8
W66LALIFT
 62
8
 10
1602.080
 20
-7237.196
 30
-1336.173
 70
    32
  0
VERTEX
  8
W66LALIFT
 62
8
 10
1602.085
 20
-7237.202
 30
-1336.173
 70
    32
  0
VERTEX
  8
W66LALIFT
 62
8
 10
1602.141
 20
-7237.261
 30
-1336.173
 70
    32
  0
VERTEX
  8
W66LALIFT
 62
8
 10
1602.145
 20
-7237.263
 30
-1336.173
 70
    32
  0
VERTEX
  8
W66LALIFT
 62
8
 10
1602.228
 20
-7237.220
 30
-1336.173
 70
    32
  0
VERTEX
  8
W66LALIFT
 62
8
 10
1602.230
 20
-7237.218
 30
-1336.173
 70
    32
  0
VERTEX
  8
W66LALIFT
 62
8
 10
1602.293
 20
-7237.241
 30
-1336.173
 70
    32
  0
VERTEX
  8
W66LALIFT
 62
8
 10
1602.298
 20
-7237.246
 30
-1336.173
 70
    32
  0
VERTEX
  8
W66LALIFT
 62
8
 10
1602.355
 20
-7237.290
 30
-1336.173
 70
    32
  0
VERTEX
  8
W66LALIFT
 62
8
 10
1602.358
 20
-7237.294
 30
-1336.173
 70
    32
  0
VERTEX
  8
W66LALIFT
 62
8
 10
1602.443
 20
-7237.233
 30
-1336.173
 70
    32
  0
VERTEX
  8
W66LALIFT
 62
8
 10
1602.451
 20
-7237.227
 30
-1336.173
 70
    32
  0
VERTEX
  8
W66LALIFT
 62
8
 10
1602.501
 20
-7237.299
 30
-1336.173
 70
    32
  0
VERTEX
  8
W66LALIFT
 62
8
 10
1602.511
 20
-7237.306
 30
-1336.173
 70
    32
  0
VERTEX
  8
W66LALIFT
 62
8
 10
1602.551
 20
-7237.378
 30
-1336.173
 70
    32
  0
VERTEX
  8
W66LALIFT
 62
8
 10
1602.567
 20
-7237.382
 30
-1336.173
 70
    32
  0
VERTEX
  8
W66LALIFT
 62
8
 10
1602.624
 20
-7237.396
 30
-1336.173
 70
    32
  0
VERTEX
  8
W66LALIFT
 62
8
 10
1602.646
 20
-7237.395
 30
-1336.173
 70
    32
  0
VERTEX
  8
W66LALIFT
 62
8
 10
1602.718
 20
-7237.337
 30
-1336.173
 70
    32
  0
VERTEX
  8
W66LALIFT
 62
8
 10
1602.746
 20
-7237.316
 30
-1336.173
 70
    32
  0
VERTEX
  8
W66LALIFT
 62
8
 10
1602.803
 20
-7237.309
 30
-1336.173
 70
    32
  0
VERTEX
  8
W66LALIFT
 62
8
 10
1602.823
 20
-7237.349
 30
-1336.173
 70
    32
  0
VERTEX
  8
W66LALIFT
 62
8
 10
1602.870
 20
-7237.364
 30
-1336.173
 70
    32
  0
VERTEX
  8
W66LALIFT
 62
8
 10
1602.910
 20
-7237.348
 30
-1336.173
 70
    32
  0
VERTEX
  8
W66LALIFT
 62
8
 10
1602.955
 20
-7237.337
 30
-1336.173
 70
    32
  0
VERTEX
  8
W66LALIFT
 62
8
 10
1602.986
 20
-7237.381
 30
-1336.173
 70
    32
  0
VERTEX
  8
W66LALIFT
 62
8
 10
1603.025
 20
-7237.395
 30
-1336.173
 70
    32
  0
VERTEX
  8
W66LALIFT
 62
8
 10
1603.091
 20
-7237.326
 30
-1336.173
 70
    32
  0
VERTEX
  8
W66LALIFT
 62
8
 10
1603.139
 20
-7237.290
 30
-1336.173
 70
    32
  0
VERTEX
  8
W66LALIFT
 62
8
 10
1603.175
 20
-7237.363
 30
-1336.173
 70
    32
  0
VERTEX
  8
W66LALIFT
 62
8
 10
1603.212
 20
-7237.352
 30
-1336.173
 70
    32
  0
VERTEX
  8
W66LALIFT
 62
8
 10
1603.286
 20
-7237.274
 30
-1336.173
 70
    32
  0
VERTEX
  8
W66LALIFT
 62
8
 10
1603.320
 20
-7237.259
 30
-1336.173
 70
    32
  0
VERTEX
  8
W66LALIFT
 62
8
 10
1603.364
 20
-7237.354
 30
-1336.173
 70
    32
  0
VERTEX
  8
W66LALIFT
 62
8
 10
1603.380
 20
-7237.373
 30
-1336.173
 70
    32
  0
VERTEX
  8
W66LALIFT
 62
8
 10
1603.477
 20
-7237.329
 30
-1336.173
 70
    32
  0
VERTEX
  8
W66LALIFT
 62
8
 10
1603.499
 20
-7237.315
 30
-1336.173
 70
    32
  0
VERTEX
  8
W66LALIFT
 62
8
 10
1603.623
 20
-7237.159
 30
-1336.173
 70
    32
  0
VERTEX
  8
W66LALIFT
 62
8
 10
1603.639
 20
-7237.156
 30
-1336.173
 70
    32
  0
VERTEX
  8
W66LALIFT
 62
8
 10
1603.734
 20
-7237.154
 30
-1336.173
 70
    32
  0
VERTEX
  8
W66LALIFT
 62
8
 10
1603.742
 20
-7237.151
 30
-1336.173
 70
    32
  0
VERTEX
  8
W66LALIFT
 62
8
 10
1603.846
 20
-7237.142
 30
-1336.173
 70
    32
  0
VERTEX
  8
W66LALIFT
 62
8
 10
1603.848
 20
-7237.143
 30
-1336.173
 70
    32
  0
VERTEX
  8
W66LALIFT
 62
8
 10
1603.942
 20
-7237.208
 30
-1336.173
 70
    32
  0
VERTEX
  8
W66LALIFT
 62
8
 10
1603.957
 20
-7237.203
 30
-1336.173
 70
    32
  0
VERTEX
  8
W66LALIFT
 62
8
 10
1604.039
 20
-7237.287
 30
-1336.173
 70
    32
  0
VERTEX
  8
W66LALIFT
 62
8
 10
1604.068
 20
-7237.285
 30
-1336.173
 70
    32
  0
VERTEX
  8
W66LALIFT
 62
8
 10
1604.174
 20
-7237.229
 30
-1336.173
 70
    32
  0
VERTEX
  8
W66LALIFT
 62
8
 10
1604.205
 20
-7237.273
 30
-1336.173
 70
    32
  0
VERTEX
  8
W66LALIFT
 62
8
 10
1604.255
 20
-7237.422
 30
-1336.173
 70
    32
  0
VERTEX
  8
W66LALIFT
 62
8
 10
1604.320
 20
-7237.440
 30
-1336.173
 70
    32
  0
VERTEX
  8
W66LALIFT
 62
8
 10
1604.387
 20
-7237.434
 30
-1336.173
 70
    32
  0
VERTEX
  8
W66LALIFT
 62
8
 10
1604.454
 20
-7237.491
 30
-1336.173
 70
    32
  0
VERTEX
  8
W66LALIFT
 62
8
 10
1604.494
 20
-7237.532
 30
-1336.173
 70
    32
  0
VERTEX
  8
W66LALIFT
 62
8
 10
1604.608
 20
-7237.537
 30
-1336.173
 70
    32
  0
VERTEX
  8
W66LALIFT
 62
8
 10
1604.651
 20
-7237.521
 30
-1336.173
 70
    32
  0
VERTEX
  8
W66LALIFT
 62
8
 10
1604.757
 20
-7237.588
 30
-1336.173
 70
    32
  0
VERTEX
  8
W66LALIFT
 62
8
 10
1604.770
 20
-7237.605
 30
-1336.173
 70
    32
  0
VERTEX
  8
W66LALIFT
 62
8
 10
1604.911
 20
-7237.623
 30
-1336.173
 70
    32
  0
VERTEX
  8
W66LALIFT
 62
8
 10
1604.928
 20
-7237.624
 30
-1336.173
 70
    32
  0
VERTEX
  8
W66LALIFT
 62
8
 10
1604.933
 20
-7237.616
 30
-1336.173
 70
    32
  0
VERTEX
  8
W66LALIFT
 62
8
 10
1605.078
 20
-7237.590
 30
-1336.173
 70
    32
  0
VERTEX
  8
W66LALIFT
 62
8
 10
1605.102
 20
-7237.580
 30
-1336.173
 70
    32
  0
VERTEX
  8
W66LALIFT
 62
8
 10
1605.255
 20
-7237.480
 30
-1336.173
 70
    32
  0
VERTEX
  8
W66LALIFT
 62
8
 10
1605.308
 20
-7237.452
 30
-1336.173
 70
    32
  0
VERTEX
  8
W66LALIFT
 62
8
 10
1605.450
 20
-7237.383
 30
-1336.173
 70
    32
  0
VERTEX
  8
W66LALIFT
 62
8
 10
1605.522
 20
-7237.383
 30
-1336.173
 70
    32
  0
VERTEX
  8
W66LALIFT
 62
8
 10
1605.650
 20
-7237.298
 30
-1336.173
 70
    32
  0
VERTEX
  8
W66LALIFT
 62
8
 10
1605.732
 20
-7237.328
 30
-1336.173
 70
    32
  0
VERTEX
  8
W66LALIFT
 62
8
 10
1605.801
 20
-7237.339
 30
-1336.173
 70
    32
  0
VERTEX
  8
W66LALIFT
 62
8
 10
1605.892
 20
-7237.441
 30
-1336.173
 70
    32
  0
VERTEX
  8
W66LALIFT
 62
8
 10
1605.946
 20
-7237.430
 30
-1336.173
 70
    32
  0
VERTEX
  8
W66LALIFT
 62
8
 10
1606.109
 20
-7237.462
 30
-1336.173
 70
    32
  0
VERTEX
  8
W66LALIFT
 62
8
 10
1606.127
 20
-7237.465
 30
-1336.173
 70
    32
  0
VERTEX
  8
W66LALIFT
 62
8
 10
1606.305
 20
-7237.359
 30
-1336.173
 70
    32
  0
VERTEX
  8
W66LALIFT
 62
8
 10
1606.384
 20
-7237.336
 30
-1336.173
 70
    32
  0
VERTEX
  8
W66LALIFT
 62
8
 10
1606.406
 20
-7237.350
 30
-1336.173
 70
    32
  0
VERTEX
  8
W66LALIFT
 62
8
 10
1606.604
 20
-7237.437
 30
-1336.173
 70
    32
  0
VERTEX
  8
W66LALIFT
 62
8
 10
1606.690
 20
-7237.551
 30
-1336.173
 70
    32
  0
VERTEX
  8
W66LALIFT
 62
8
 10
1606.824
 20
-7237.612
 30
-1336.173
 70
    32
  0
VERTEX
  8
W66LALIFT
 62
8
 10
1607.005
 20
-7237.756
 30
-1336.173
 70
    32
  0
VERTEX
  8
W66LALIFT
 62
8
 10
1607.043
 20
-7237.792
 30
-1336.173
 70
    32
  0
VERTEX
  8
W66LALIFT
 62
8
 10
1607.157
 20
-7237.832
 30
-1336.173
 70
    32
  0
VERTEX
  8
W66LALIFT
 62
8
 10
1607.322
 20
-7237.771
 30
-1336.173
 70
    32
  0
VERTEX
  8
W66LALIFT
 62
8
 10
1607.354
 20
-7237.788
 30
-1336.173
 70
    32
  0
VERTEX
  8
W66LALIFT
 62
8
 10
1607.609
 20
-7237.702
 30
-1336.173
 70
    32
  0
VERTEX
  8
W66LALIFT
 62
8
 10
1607.726
 20
-7237.712
 30
-1336.173
 70
    32
  0
VERTEX
  8
W66LALIFT
 62
8
 10
1607.891
 20
-7237.604
 30
-1336.173
 70
    32
  0
VERTEX
  8
W66LALIFT
 62
8
 10
1608.014
 20
-7237.791
 30
-1336.173
 70
    32
  0
VERTEX
  8
W66LALIFT
 62
8
 10
1608.070
 20
-7237.808
 30
-1336.173
 70
    32
  0
VERTEX
  8
W66LALIFT
 62
8
 10
1608.200
 20
-7237.932
 30
-1336.173
 70
    32
  0
VERTEX
  8
W66LALIFT
 62
8
 10
1608.341
 20
-7237.957
 30
-1336.173
 70
    32
  0
VERTEX
  8
W66LALIFT
 62
8
 10
1608.417
 20
-7237.979
 30
-1336.173
 70
    32
  0
VERTEX
  8
W66LALIFT
 62
8
 10
1608.773
 20
-7237.947
 30
-1336.173
 70
    32
  0
VERTEX
  8
W66LALIFT
 62
8
 10
1609.092
 20
-7237.941
 30
-1336.173
 70
    32
  0
VERTEX
  8
W66LALIFT
 62
8
 10
1609.232
 20
-7237.974
 30
-1336.173
 70
    32
  0
VERTEX
  8
W66LALIFT
 62
8
 10
1609.455
 20
-7238.082
 30
-1336.173
 70
    32
  0
VERTEX
  8
W66LALIFT
 62
8
 10
1609.546
 20
-7238.211
 30
-1336.173
 70
    32
  0
VERTEX
  8
W66LALIFT
 62
8
 10
1609.601
 20
-7238.276
 30
-1336.173
 70
    32
  0
VERTEX
  8
W66LALIFT
 62
8
 10
1609.721
 20
-7238.521
 30
-1336.173
 70
    32
  0
VERTEX
  8
W66LALIFT
 62
8
 10
1609.925
 20
-7238.554
 30
-1336.173
 70
    32
  0
VERTEX
  8
W66LALIFT
 62
8
 10
1610.017
 20
-7238.597
 30
-1336.173
 70
    32
  0
VERTEX
  8
W66LALIFT
 62
8
 10
1610.182
 20
-7238.754
 30
-1336.173
 70
    32
  0
VERTEX
  8
W66LALIFT
 62
8
 10
1610.277
 20
-7238.827
 30
-1336.173
 70
    32
  0
VERTEX
  8
W66LALIFT
 62
8
 10
1610.421
 20
-7238.974
 30
-1336.173
 70
    32
  0
VERTEX
  8
W66LALIFT
 62
8
 10
1610.686
 20
-7239.151
 30
-1336.173
 70
    32
  0
VERTEX
  8
W66LALIFT
 62
8
 10
1610.897
 20
-7239.249
 30
-1336.173
 70
    32
  0
VERTEX
  8
W66LALIFT
 62
8
 10
1611.178
 20
-7239.333
 30
-1336.173
 70
    32
  0
VERTEX
  8
W66LALIFT
 62
8
 10
1611.537
 20
-7239.633
 30
-1336.173
 70
    32
  0
VERTEX
  8
W66LALIFT
 62
8
 10
1611.635
 20
-7239.664
 30
-1336.173
 70
    32
  0
VERTEX
  8
W66LALIFT
 62
8
 10
1611.662
 20
-7239.752
 30
-1336.173
 70
    32
  0
VERTEX
  8
W66LALIFT
 62
8
 10
1612.097
 20
-7239.817
 30
-1336.173
 70
    32
  0
VERTEX
  8
W66LALIFT
 62
8
 10
1612.488
 20
-7240.008
 30
-1336.173
 70
    32
  0
VERTEX
  8
W66LALIFT
 62
8
 10
1612.567
 20
-7239.990
 30
-1336.173
 70
    32
  0
VERTEX
  8
W66LALIFT
 62
8
 10
1612.614
 20
-7240.036
 30
-1336.173
 70
    32
  0
VERTEX
  8
W66LALIFT
 62
8
 10
1613.155
 20
-7239.932
 30
-1336.173
 70
    32
  0
VERTEX
  8
W66LALIFT
 62
8
 10
1613.422
 20
-7239.863
 30
-1336.173
 70
    32
  0
VERTEX
  8
W66LALIFT
 62
8
 10
1613.795
 20
-7239.715
 30
-1336.173
 70
    32
  0
VERTEX
  8
W66LALIFT
 62
8
 10
1614.340
 20
-7239.662
 30
-1336.173
 70
    32
  0
VERTEX
  8
W66LALIFT
 62
8
 10
1614.428
 20
-7239.639
 30
-1336.173
 70
    32
  0
VERTEX
  8
W66LALIFT
 62
8
 10
1614.602
 20
-7239.609
 30
-1336.173
 70
    32
  0
VERTEX
  8
W66LALIFT
 62
8
 10
1615.191
 20
-7239.908
 30
-1336.173
 70
    32
  0
VERTEX
  8
W66LALIFT
 62
8
 10
1615.442
 20
-7240.130
 30
-1336.173
 70
    32
  0
VERTEX
  8
W66LALIFT
 62
8
 10
1615.549
 20
-7240.408
 30
-1336.173
 70
    32
  0
VERTEX
  8
W66LALIFT
 62
8
 10
1615.750
 20
-7240.476
 30
-1336.173
 70
    32
  0
VERTEX
  8
W66LALIFT
 62
8
 10
1615.945
 20
-7240.588
 30
-1336.173
 70
    32
  0
VERTEX
  8
W66LALIFT
 62
8
 10
1616.165
 20
-7240.773
 30
-1336.173
 70
    32
  0
VERTEX
  8
W66LALIFT
 62
8
 10
1616.554
 20
-7241.364
 30
-1336.173
 70
    32
  0
VERTEX
  8
W66LALIFT
 62
8
 10
1616.648
 20
-7241.564
 30
-1336.173
 70
    32
  0
VERTEX
  8
W66LALIFT
 62
8
 10
1616.691
 20
-7241.651
 30
-1336.173
 70
    32
  0
VERTEX
  8
W66LALIFT
 62
8
 10
1616.709
 20
-7241.741
 30
-1336.173
 70
    32
  0
VERTEX
  8
W66LALIFT
 62
8
 10
1616.837
 20
-7242.134
 30
-1336.173
 70
    32
  0
VERTEX
  8
W66LALIFT
 62
8
 10
1616.973
 20
-7242.631
 30
-1336.173
 70
    32
  0
VERTEX
  8
W66LALIFT
 62
8
 10
1616.976
 20
-7242.640
 30
-1336.173
 70
    32
  0
VERTEX
  8
W66LALIFT
 62
8
 10
1616.980
 20
-7242.653
 30
-1336.173
 70
    32
  0
VERTEX
  8
W66LALIFT
 62
8
 10
1616.991
 20
-7242.674
 30
-1336.173
 70
    32
  0
VERTEX
  8
W66LALIFT
 62
8
 10
1617.673
 20
-7243.427
 30
-1336.173
 70
    32
  0
VERTEX
  8
W66LALIFT
 62
8
 10
1617.876
 20
-7243.885
 30
-1336.173
 70
    32
  0
VERTEX
  8
W66LALIFT
 62
8
 10
1618.131
 20
-7244.183
 30
-1336.173
 70
    32
  0
VERTEX
  8
W66LALIFT
 62
8
 10
1618.195
 20
-7244.221
 30
-1336.173
 70
    32
  0
VERTEX
  8
W66LALIFT
 62
8
 10
1618.259
 20
-7244.282
 30
-1336.173
 70
    32
  0
VERTEX
  8
W66LALIFT
 62
8
 10
1618.361
 20
-7244.586
 30
-1336.173
 70
    32
  0
VERTEX
  8
W66LALIFT
 62
8
 10
1618.632
 20
-7245.270
 30
-1336.173
 70
    32
  0
VERTEX
  8
W66LALIFT
 62
8
 10
1618.695
 20
-7245.521
 30
-1336.173
 70
    32
  0
VERTEX
  8
W66LALIFT
 62
8
 10
1618.552
 20
-7246.395
 30
-1336.173
 70
    32
  0
VERTEX
  8
W66LALIFT
 62
8
 10
1618.758
 20
-7247.167
 30
-1336.173
 70
    32
  0
VERTEX
  8
W66LALIFT
 62
8
 10
1618.817
 20
-7247.332
 30
-1336.173
 70
    32
  0
VERTEX
  8
W66LALIFT
 62
8
 10
1618.754
 20
-7247.520
 30
-1336.173
 70
    32
  0
VERTEX
  8
W66LALIFT
 62
8
 10
1617.961
 20
-7248.767
 30
-1336.173
 70
    32
  0
VERTEX
  8
W66LALIFT
 62
8
 10
1617.932
 20
-7249.620
 30
-1336.173
 70
    32
  0
VERTEX
  8
W66LALIFT
 62
8
 10
1617.901
 20
-7249.869
 30
-1336.173
 70
    32
  0
VERTEX
  8
W66LALIFT
 62
8
 10
1617.746
 20
-7250.170
 30
-1336.173
 70
    32
  0
VERTEX
  8
W66LALIFT
 62
8
 10
1617.468
 20
-7250.992
 30
-1336.173
 70
    32
  0
VERTEX
  8
W66LALIFT
 62
8
 10
1617.176
 20
-7251.521
 30
-1336.173
 70
    32
  0
VERTEX
  8
W66LALIFT
 62
8
 10
1617.125
 20
-7251.623
 30
-1336.173
 70
    32
  0
VERTEX
  8
W66LALIFT
 62
8
 10
1617.002
 20
-7251.809
 30
-1336.173
 70
    32
  0
VERTEX
  8
W66LALIFT
 62
8
 10
1616.664
 20
-7252.274
 30
-1336.173
 70
    32
  0
VERTEX
  8
W66LALIFT
 62
8
 10
1616.249
 20
-7252.865
 30
-1336.173
 70
    32
  0
VERTEX
  8
W66LALIFT
 62
8
 10
1616.202
 20
-7253.065
 30
-1336.173
 70
    32
  0
VERTEX
  8
W66LALIFT
 62
8
 10
1616.038
 20
-7253.283
 30
-1336.173
 70
    32
  0
VERTEX
  8
W66LALIFT
 62
8
 10
1615.890
 20
-7253.764
 30
-1336.173
 70
    32
  0
VERTEX
  8
W66LALIFT
 62
8
 10
1615.825
 20
-7254.018
 30
-1336.173
 70
    32
  0
VERTEX
  8
W66LALIFT
 62
8
 10
1615.757
 20
-7254.122
 30
-1336.173
 70
    32
  0
VERTEX
  8
W66LALIFT
 62
8
 10
1615.738
 20
-7254.230
 30
-1336.173
 70
    32
  0
VERTEX
  8
W66LALIFT
 62
8
 10
1615.569
 20
-7254.938
 30
-1336.173
 70
    32
  0
VERTEX
  8
W66LALIFT
 62
8
 10
1615.385
 20
-7255.492
 30
-1336.173
 70
    32
  0
VERTEX
  8
W66LALIFT
 62
8
 10
1615.316
 20
-7255.668
 30
-1336.173
 70
    32
  0
VERTEX
  8
W66LALIFT
 62
8
 10
1613.828
 20
-7256.769
 30
-1336.173
 70
    32
  0
VERTEX
  8
W66LALIFT
 62
8
 10
1613.766
 20
-7256.824
 30
-1336.173
 70
    32
  0
VERTEX
  8
W66LALIFT
 62
8
 10
1613.745
 20
-7256.854
 30
-1336.173
 70
    32
  0
VERTEX
  8
W66LALIFT
 62
8
 10
1613.683
 20
-7256.939
 30
-1336.173
 70
    32
  0
VERTEX
  8
W66LALIFT
 62
8
 10
1613.532
 20
-7257.350
 30
-1336.173
 70
    32
  0
VERTEX
  8
W66LALIFT
 62
8
 10
1613.334
 20
-7257.482
 30
-1336.173
 70
    32
  0
VERTEX
  8
W66LALIFT
 62
8
 10
1613.363
 20
-7257.615
 30
-1336.173
 70
    32
  0
VERTEX
  8
W66LALIFT
 62
8
 10
1613.508
 20
-7258.097
 30
-1336.173
 70
    32
  0
VERTEX
  8
W66LALIFT
 62
8
 10
1612.492
 20
-7258.765
 30
-1336.173
 70
    32
  0
VERTEX
  8
W66LALIFT
 62
8
 10
1612.471
 20
-7258.789
 30
-1336.173
 70
    32
  0
VERTEX
  8
W66LALIFT
 62
8
 10
1612.431
 20
-7258.818
 30
-1336.173
 70
    32
  0
VERTEX
  8
W66LALIFT
 62
8
 10
1612.004
 20
-7259.435
 30
-1336.173
 70
    32
  0
VERTEX
  8
W66LALIFT
 62
8
 10
1611.240
 20
-7259.850
 30
-1336.173
 70
    32
  0
VERTEX
  8
W66LALIFT
 62
8
 10
1610.987
 20
-7260.025
 30
-1336.173
 70
    32
  0
VERTEX
  8
W66LALIFT
 62
8
 10
1610.807
 20
-7260.207
 30
-1336.173
 70
    32
  0
VERTEX
  8
W66LALIFT
 62
8
 10
1610.741
 20
-7260.454
 30
-1336.173
 70
    32
  0
VERTEX
  8
W66LALIFT
 62
8
 10
1609.956
 20
-7260.645
 30
-1336.173
 70
    32
  0
VERTEX
  8
W66LALIFT
 62
8
 10
1609.184
 20
-7260.932
 30
-1336.173
 70
    32
  0
VERTEX
  8
W66LALIFT
 62
8
 10
1609.049
 20
-7261.096
 30
-1336.173
 70
    32
  0
VERTEX
  8
W66LALIFT
 62
8
 10
1608.680
 20
-7261.438
 30
-1336.173
 70
    32
  0
VERTEX
  8
W66LALIFT
 62
8
 10
1608.772
 20
-7261.704
 30
-1336.173
 70
    32
  0
VERTEX
  8
W66LALIFT
 62
8
 10
1608.895
 20
-7261.907
 30
-1336.173
 70
    32
  0
VERTEX
  8
W66LALIFT
 62
8
 10
1608.949
 20
-7262.104
 30
-1336.173
 70
    32
  0
VERTEX
  8
W66LALIFT
 62
8
 10
1609.061
 20
-7262.434
 30
-1336.173
 70
    32
  0
VERTEX
  8
W66LALIFT
 62
8
 10
1609.154
 20
-7262.796
 30
-1336.173
 70
    32
  0
VERTEX
  8
W66LALIFT
 62
8
 10
1609.191
 20
-7262.947
 30
-1336.173
 70
    32
  0
VERTEX
  8
W66LALIFT
 62
8
 10
1609.234
 20
-7263.077
 30
-1336.173
 70
    32
  0
VERTEX
  8
W66LALIFT
 62
8
 10
1609.326
 20
-7263.376
 30
-1336.173
 70
    32
  0
VERTEX
  8
W66LALIFT
 62
8
 10
1609.405
 20
-7263.895
 30
-1336.173
 70
    32
  0
VERTEX
  8
W66LALIFT
 62
8
 10
1609.409
 20
-7263.906
 30
-1336.173
 70
    32
  0
VERTEX
  8
W66LALIFT
 62
8
 10
1609.412
 20
-7263.917
 30
-1336.173
 70
    32
  0
VERTEX
  8
W66LALIFT
 62
8
 10
1609.609
 20
-7264.489
 30
-1336.173
 70
    32
  0
VERTEX
  8
W66LALIFT
 62
8
 10
1609.654
 20
-7264.671
 30
-1336.173
 70
    32
  0
VERTEX
  8
W66LALIFT
 62
8
 10
1609.726
 20
-7265.096
 30
-1336.173
 70
    32
  0
VERTEX
  8
W66LALIFT
 62
8
 10
1609.783
 20
-7265.543
 30
-1336.173
 70
    32
  0
VERTEX
  8
W66LALIFT
 62
8
 10
1609.849
 20
-7265.786
 30
-1336.173
 70
    32
  0
VERTEX
  8
W66LALIFT
 62
8
 10
1609.883
 20
-7266.025
 30
-1336.173
 70
    32
  0
VERTEX
  8
W66LALIFT
 62
8
 10
1609.883
 20
-7266.262
 30
-1336.173
 70
    32
  0
VERTEX
  8
W66LALIFT
 62
8
 10
1609.885
 20
-7266.495
 30
-1336.173
 70
    32
  0
VERTEX
  8
W66LALIFT
 62
8
 10
1609.959
 20
-7266.892
 30
-1336.173
 70
    32
  0
VERTEX
  8
W66LALIFT
 62
8
 10
1609.912
 20
-7267.119
 30
-1336.173
 70
    32
  0
VERTEX
  8
W66LALIFT
 62
8
 10
1609.962
 20
-7267.510
 30
-1336.173
 70
    32
  0
VERTEX
  8
W66LALIFT
 62
8
 10
1609.810
 20
-7268.075
 30
-1336.173
 70
    32
  0
VERTEX
  8
W66LALIFT
 62
8
 10
1609.807
 20
-7268.097
 30
-1336.173
 70
    32
  0
VERTEX
  8
W66LALIFT
 62
8
 10
1609.796
 20
-7268.105
 30
-1336.173
 70
    32
  0
VERTEX
  8
W66LALIFT
 62
8
 10
1609.769
 20
-7268.135
 30
-1336.173
 70
    32
  0
VERTEX
  8
W66LALIFT
 62
8
 10
1609.461
 20
-7268.361
 30
-1336.173
 70
    32
  0
VERTEX
  8
W66LALIFT
 62
8
 10
1609.406
 20
-7268.516
 30
-1336.173
 70
    32
  0
VERTEX
  8
W66LALIFT
 62
8
 10
1609.208
 20
-7268.730
 30
-1336.173
 70
    32
  0
VERTEX
  8
W66LALIFT
 62
8
 10
1609.074
 20
-7268.970
 30
-1336.173
 70
    32
  0
VERTEX
  8
W66LALIFT
 62
8
 10
1608.786
 20
-7269.403
 30
-1336.173
 70
    32
  0
VERTEX
  8
W66LALIFT
 62
8
 10
1608.771
 20
-7269.439
 30
-1336.173
 70
    32
  0
VERTEX
  8
W66LALIFT
 62
8
 10
1608.912
 20
-7270.032
 30
-1336.173
 70
    32
  0
VERTEX
  8
W66LALIFT
 62
8
 10
1608.928
 20
-7270.217
 30
-1336.173
 70
    32
  0
VERTEX
  8
W66LALIFT
 62
8
 10
1608.880
 20
-7270.337
 30
-1336.173
 70
    32
  0
VERTEX
  8
W66LALIFT
 62
8
 10
1608.710
 20
-7270.604
 30
-1336.173
 70
    32
  0
VERTEX
  8
W66LALIFT
 62
8
 10
1608.651
 20
-7270.716
 30
-1336.173
 70
    32
  0
VERTEX
  8
W66LALIFT
 62
8
 10
1608.656
 20
-7270.778
 30
-1336.173
 70
    32
  0
VERTEX
  8
W66LALIFT
 62
8
 10
1608.649
 20
-7270.822
 30
-1336.173
 70
    32
  0
VERTEX
  8
W66LALIFT
 62
8
 10
1608.649
 20
-7270.933
 30
-1336.173
 70
    32
  0
VERTEX
  8
W66LALIFT
 62
8
 10
1608.729
 20
-7271.415
 30
-1336.173
 70
    32
  0
VERTEX
  8
W66LALIFT
 62
8
 10
1608.654
 20
-7271.584
 30
-1336.173
 70
    32
  0
VERTEX
  8
W66LALIFT
 62
8
 10
1608.264
 20
-7271.600
 30
-1336.173
 70
    32
  0
VERTEX
  8
W66LALIFT
 62
8
 10
1607.874
 20
-7271.644
 30
-1336.173
 70
    32
  0
VERTEX
  8
W66LALIFT
 62
8
 10
1607.500
 20
-7272.090
 30
-1336.173
 70
    32
  0
VERTEX
  8
W66LALIFT
 62
8
 10
1607.477
 20
-7272.112
 30
-1336.173
 70
    32
  0
VERTEX
  8
W66LALIFT
 62
8
 10
1607.252
 20
-7272.571
 30
-1336.173
 70
    32
  0
VERTEX
  8
W66LALIFT
 62
8
 10
1607.212
 20
-7272.726
 30
-1336.173
 70
    32
  0
VERTEX
  8
W66LALIFT
 62
8
 10
1607.079
 20
-7272.863
 30
-1336.173
 70
    32
  0
VERTEX
  8
W66LALIFT
 62
8
 10
1606.798
 20
-7273.064
 30
-1336.173
 70
    32
  0
VERTEX
  8
W66LALIFT
 62
8
 10
1606.730
 20
-7273.269
 30
-1336.173
 70
    32
  0
VERTEX
  8
W66LALIFT
 62
8
 10
1606.553
 20
-7273.389
 30
-1336.173
 70
    32
  0
VERTEX
  8
W66LALIFT
 62
8
 10
1606.444
 20
-7273.480
 30
-1336.173
 70
    32
  0
VERTEX
  8
W66LALIFT
 62
8
 10
1606.363
 20
-7273.562
 30
-1336.173
 70
    32
  0
VERTEX
  8
W66LALIFT
 62
8
 10
1606.322
 20
-7273.719
 30
-1336.173
 70
    32
  0
VERTEX
  8
W66LALIFT
 62
8
 10
1606.306
 20
-7274.138
 30
-1336.173
 70
    32
  0
VERTEX
  8
W66LALIFT
 62
8
 10
1606.298
 20
-7274.284
 30
-1336.173
 70
    32
  0
VERTEX
  8
W66LALIFT
 62
8
 10
1606.284
 20
-7274.338
 30
-1336.173
 70
    32
  0
VERTEX
  8
W66LALIFT
 62
8
 10
1606.256
 20
-7274.410
 30
-1336.173
 70
    32
  0
VERTEX
  8
W66LALIFT
 62
8
 10
1605.937
 20
-7274.823
 30
-1336.173
 70
    32
  0
VERTEX
  8
W66LALIFT
 62
8
 10
1605.925
 20
-7274.838
 30
-1336.173
 70
    32
  0
VERTEX
  8
W66LALIFT
 62
8
 10
1605.925
 20
-7274.841
 30
-1336.173
 70
    32
  0
VERTEX
  8
W66LALIFT
 62
8
 10
1605.925
 20
-7274.844
 30
-1336.173
 70
    32
  0
VERTEX
  8
W66LALIFT
 62
8
 10
1605.924
 20
-7274.848
 30
-1336.173
 70
    32
  0
VERTEX
  8
W66LALIFT
 62
8
 10
1605.943
 20
-7275.559
 30
-1336.173
 70
    32
  0
VERTEX
  8
W66LALIFT
 62
8
 10
1605.784
 20
-7275.755
 30
-1336.173
 70
    32
  0
VERTEX
  8
W66LALIFT
 62
8
 10
1606.167
 20
-7277.323
 30
-1336.173
 70
    32
  0
VERTEX
  8
W66LALIFT
 62
8
 10
1606.340
 20
-7277.891
 30
-1336.173
 70
    32
  0
VERTEX
  8
W66LALIFT
 62
8
 10
1606.205
 20
-7278.471
 30
-1336.173
 70
    32
  0
VERTEX
  8
W66LALIFT
 62
8
 10
1606.234
 20
-7279.055
 30
-1336.173
 70
    32
  0
SEQEND
  8
W66LALIFT
  0
POLYLINE
  8
W66LALIFT
 62
5
 66
     1
 70
     9
  0
VERTEX
  8
W66LALIFT
 62
5
 10
1581.143
 20
-7273.143
 30
-1338.973
 70
    32
  0
VERTEX
  8
W66LALIFT
 62
5
 10
1581.116
 20
-7272.861
 30
-1338.973
 70
    32
  0
VERTEX
  8
W66LALIFT
 62
5
 10
1581.038
 20
-7272.353
 30
-1338.973
 70
    32
  0
VERTEX
  8
W66LALIFT
 62
5
 10
1580.941
 20
-7272.044
 30
-1338.973
 70
    32
  0
VERTEX
  8
W66LALIFT
 62
5
 10
1580.844
 20
-7271.667
 30
-1338.973
 70
    32
  0
VERTEX
  8
W66LALIFT
 62
5
 10
1580.864
 20
-7271.221
 30
-1338.973
 70
    32
  0
VERTEX
  8
W66LALIFT
 62
5
 10
1580.801
 20
-7270.898
 30
-1338.973
 70
    32
  0
VERTEX
  8
W66LALIFT
 62
5
 10
1580.768
 20
-7270.467
 30
-1338.973
 70
    32
  0
VERTEX
  8
W66LALIFT
 62
5
 10
1580.769
 20
-7270.157
 30
-1338.973
 70
    32
  0
VERTEX
  8
W66LALIFT
 62
5
 10
1580.794
 20
-7269.979
 30
-1338.973
 70
    32
  0
VERTEX
  8
W66LALIFT
 62
5
 10
1580.875
 20
-7269.722
 30
-1338.973
 70
    32
  0
VERTEX
  8
W66LALIFT
 62
5
 10
1580.906
 20
-7269.525
 30
-1338.973
 70
    32
  0
VERTEX
  8
W66LALIFT
 62
5
 10
1580.915
 20
-7269.376
 30
-1338.973
 70
    32
  0
VERTEX
  8
W66LALIFT
 62
5
 10
1580.941
 20
-7268.966
 30
-1338.973
 70
    32
  0
VERTEX
  8
W66LALIFT
 62
5
 10
1580.992
 20
-7268.706
 30
-1338.973
 70
    32
  0
VERTEX
  8
W66LALIFT
 62
5
 10
1581.118
 20
-7268.180
 30
-1338.973
 70
    32
  0
VERTEX
  8
W66LALIFT
 62
5
 10
1581.211
 20
-7267.863
 30
-1338.973
 70
    32
  0
VERTEX
  8
W66LALIFT
 62
5
 10
1581.268
 20
-7267.504
 30
-1338.973
 70
    32
  0
VERTEX
  8
W66LALIFT
 62
5
 10
1581.315
 20
-7267.245
 30
-1338.973
 70
    32
  0
VERTEX
  8
W66LALIFT
 62
5
 10
1581.309
 20
-7267.132
 30
-1338.973
 70
    32
  0
VERTEX
  8
W66LALIFT
 62
5
 10
1581.330
 20
-7266.601
 30
-1338.973
 70
    32
  0
VERTEX
  8
W66LALIFT
 62
5
 10
1581.327
 20
-7266.451
 30
-1338.973
 70
    32
  0
VERTEX
  8
W66LALIFT
 62
5
 10
1581.288
 20
-7265.999
 30
-1338.973
 70
    32
  0
VERTEX
  8
W66LALIFT
 62
5
 10
1581.277
 20
-7265.746
 30
-1338.973
 70
    32
  0
VERTEX
  8
W66LALIFT
 62
5
 10
1581.253
 20
-7265.466
 30
-1338.973
 70
    32
  0
VERTEX
  8
W66LALIFT
 62
5
 10
1581.295
 20
-7265.237
 30
-1338.973
 70
    32
  0
VERTEX
  8
W66LALIFT
 62
5
 10
1581.726
 20
-7264.778
 30
-1338.973
 70
    32
  0
VERTEX
  8
W66LALIFT
 62
5
 10
1581.760
 20
-7264.737
 30
-1338.973
 70
    32
  0
VERTEX
  8
W66LALIFT
 62
5
 10
1581.771
 20
-7264.718
 30
-1338.973
 70
    32
  0
VERTEX
  8
W66LALIFT
 62
5
 10
1581.764
 20
-7264.707
 30
-1338.973
 70
    32
  0
VERTEX
  8
W66LALIFT
 62
5
 10
1581.757
 20
-7264.691
 30
-1338.973
 70
    32
  0
VERTEX
  8
W66LALIFT
 62
5
 10
1581.501
 20
-7264.489
 30
-1338.973
 70
    32
  0
VERTEX
  8
W66LALIFT
 62
5
 10
1581.563
 20
-7264.217
 30
-1338.973
 70
    32
  0
VERTEX
  8
W66LALIFT
 62
5
 10
1581.522
 20
-7264.023
 30
-1338.973
 70
    32
  0
VERTEX
  8
W66LALIFT
 62
5
 10
1581.526
 20
-7263.725
 30
-1338.973
 70
    32
  0
VERTEX
  8
W66LALIFT
 62
5
 10
1581.501
 20
-7263.536
 30
-1338.973
 70
    32
  0
VERTEX
  8
W66LALIFT
 62
5
 10
1581.694
 20
-7263.172
 30
-1338.973
 70
    32
  0
VERTEX
  8
W66LALIFT
 62
5
 10
1581.659
 20
-7262.809
 30
-1338.973
 70
    32
  0
VERTEX
  8
W66LALIFT
 62
5
 10
1581.642
 20
-7262.672
 30
-1338.973
 70
    32
  0
VERTEX
  8
W66LALIFT
 62
5
 10
1581.742
 20
-7262.370
 30
-1338.973
 70
    32
  0
VERTEX
  8
W66LALIFT
 62
5
 10
1581.448
 20
-7262.193
 30
-1338.973
 70
    32
  0
VERTEX
  8
W66LALIFT
 62
5
 10
1581.122
 20
-7261.706
 30
-1338.973
 70
    32
  0
VERTEX
  8
W66LALIFT
 62
5
 10
1581.111
 20
-7261.690
 30
-1338.973
 70
    32
  0
VERTEX
  8
W66LALIFT
 62
5
 10
1581.111
 20
-7261.686
 30
-1338.973
 70
    32
  0
VERTEX
  8
W66LALIFT
 62
5
 10
1581.099
 20
-7261.177
 30
-1338.973
 70
    32
  0
VERTEX
  8
W66LALIFT
 62
5
 10
1581.426
 20
-7260.984
 30
-1338.973
 70
    32
  0
VERTEX
  8
W66LALIFT
 62
5
 10
1581.653
 20
-7260.656
 30
-1338.973
 70
    32
  0
VERTEX
  8
W66LALIFT
 62
5
 10
1581.862
 20
-7260.543
 30
-1338.973
 70
    32
  0
VERTEX
  8
W66LALIFT
 62
5
 10
1581.465
 20
-7260.359
 30
-1338.973
 70
    32
  0
VERTEX
  8
W66LALIFT
 62
5
 10
1581.307
 20
-7260.295
 30
-1338.973
 70
    32
  0
VERTEX
  8
W66LALIFT
 62
5
 10
1581.302
 20
-7260.256
 30
-1338.973
 70
    32
  0
VERTEX
  8
W66LALIFT
 62
5
 10
1581.283
 20
-7260.167
 30
-1338.973
 70
    32
  0
VERTEX
  8
W66LALIFT
 62
5
 10
1581.206
 20
-7259.669
 30
-1338.973
 70
    32
  0
VERTEX
  8
W66LALIFT
 62
5
 10
1581.471
 20
-7259.440
 30
-1338.973
 70
    32
  0
VERTEX
  8
W66LALIFT
 62
5
 10
1581.759
 20
-7259.183
 30
-1338.973
 70
    32
  0
VERTEX
  8
W66LALIFT
 62
5
 10
1582.008
 20
-7258.815
 30
-1338.973
 70
    32
  0
VERTEX
  8
W66LALIFT
 62
5
 10
1582.074
 20
-7258.728
 30
-1338.973
 70
    32
  0
VERTEX
  8
W66LALIFT
 62
5
 10
1581.844
 20
-7258.337
 30
-1338.973
 70
    32
  0
VERTEX
  8
W66LALIFT
 62
5
 10
1581.711
 20
-7258.181
 30
-1338.973
 70
    32
  0
VERTEX
  8
W66LALIFT
 62
5
 10
1581.527
 20
-7257.920
 30
-1338.973
 70
    32
  0
VERTEX
  8
W66LALIFT
 62
5
 10
1581.400
 20
-7257.718
 30
-1338.973
 70
    32
  0
VERTEX
  8
W66LALIFT
 62
5
 10
1581.325
 20
-7257.551
 30
-1338.973
 70
    32
  0
VERTEX
  8
W66LALIFT
 62
5
 10
1581.170
 20
-7257.142
 30
-1338.973
 70
    32
  0
VERTEX
  8
W66LALIFT
 62
5
 10
1581.221
 20
-7256.908
 30
-1338.973
 70
    32
  0
VERTEX
  8
W66LALIFT
 62
5
 10
1581.219
 20
-7256.587
 30
-1338.973
 70
    32
  0
VERTEX
  8
W66LALIFT
 62
5
 10
1581.235
 20
-7256.399
 30
-1338.973
 70
    32
  0
VERTEX
  8
W66LALIFT
 62
5
 10
1581.304
 20
-7256.092
 30
-1338.973
 70
    32
  0
VERTEX
  8
W66LALIFT
 62
5
 10
1581.236
 20
-7255.585
 30
-1338.973
 70
    32
  0
VERTEX
  8
W66LALIFT
 62
5
 10
1581.235
 20
-7255.427
 30
-1338.973
 70
    32
  0
VERTEX
  8
W66LALIFT
 62
5
 10
1581.643
 20
-7255.222
 30
-1338.973
 70
    32
  0
VERTEX
  8
W66LALIFT
 62
5
 10
1581.930
 20
-7255.092
 30
-1338.973
 70
    32
  0
VERTEX
  8
W66LALIFT
 62
5
 10
1581.627
 20
-7254.917
 30
-1338.973
 70
    32
  0
VERTEX
  8
W66LALIFT
 62
5
 10
1579.072
 20
-7253.442
 30
-1338.973
 70
    32
  0
VERTEX
  8
W66LALIFT
 62
5
 10
1578.826
 20
-7253.018
 30
-1338.973
 70
    32
  0
VERTEX
  8
W66LALIFT
 62
5
 10
1578.723
 20
-7252.584
 30
-1338.973
 70
    32
  0
VERTEX
  8
W66LALIFT
 62
5
 10
1578.668
 20
-7252.259
 30
-1338.973
 70
    32
  0
VERTEX
  8
W66LALIFT
 62
5
 10
1579.084
 20
-7252.033
 30
-1338.973
 70
    32
  0
VERTEX
  8
W66LALIFT
 62
5
 10
1579.102
 20
-7252.020
 30
-1338.973
 70
    32
  0
VERTEX
  8
W66LALIFT
 62
5
 10
1579.091
 20
-7251.999
 30
-1338.973
 70
    32
  0
VERTEX
  8
W66LALIFT
 62
5
 10
1579.104
 20
-7251.991
 30
-1338.973
 70
    32
  0
VERTEX
  8
W66LALIFT
 62
5
 10
1579.111
 20
-7251.948
 30
-1338.973
 70
    32
  0
VERTEX
  8
W66LALIFT
 62
5
 10
1579.049
 20
-7251.446
 30
-1338.973
 70
    32
  0
VERTEX
  8
W66LALIFT
 62
5
 10
1578.970
 20
-7251.227
 30
-1338.973
 70
    32
  0
VERTEX
  8
W66LALIFT
 62
5
 10
1578.906
 20
-7250.939
 30
-1338.973
 70
    32
  0
VERTEX
  8
W66LALIFT
 62
5
 10
1578.708
 20
-7250.292
 30
-1338.973
 70
    32
  0
VERTEX
  8
W66LALIFT
 62
5
 10
1578.462
 20
-7249.794
 30
-1338.973
 70
    32
  0
VERTEX
  8
W66LALIFT
 62
5
 10
1577.981
 20
-7249.087
 30
-1338.973
 70
    32
  0
VERTEX
  8
W66LALIFT
 62
5
 10
1578.125
 20
-7248.595
 30
-1338.973
 70
    32
  0
VERTEX
  8
W66LALIFT
 62
5
 10
1577.577
 20
-7247.724
 30
-1338.973
 70
    32
  0
VERTEX
  8
W66LALIFT
 62
5
 10
1577.764
 20
-7247.508
 30
-1338.973
 70
    32
  0
VERTEX
  8
W66LALIFT
 62
5
 10
1578.097
 20
-7247.242
 30
-1338.973
 70
    32
  0
VERTEX
  8
W66LALIFT
 62
5
 10
1577.621
 20
-7246.633
 30
-1338.973
 70
    32
  0
VERTEX
  8
W66LALIFT
 62
5
 10
1576.047
 20
-7244.605
 30
-1338.973
 70
    32
  0
VERTEX
  8
W66LALIFT
 62
5
 10
1575.839
 20
-7243.718
 30
-1338.973
 70
    32
  0
VERTEX
  8
W66LALIFT
 62
5
 10
1575.473
 20
-7242.756
 30
-1338.973
 70
    32
  0
VERTEX
  8
W66LALIFT
 62
5
 10
1574.588
 20
-7240.294
 30
-1338.973
 70
    32
  0
VERTEX
  8
W66LALIFT
 62
5
 10
1574.555
 20
-7240.186
 30
-1338.973
 70
    32
  0
VERTEX
  8
W66LALIFT
 62
5
 10
1574.537
 20
-7240.119
 30
-1338.973
 70
    32
  0
VERTEX
  8
W66LALIFT
 62
5
 10
1574.232
 20
-7239.069
 30
-1338.973
 70
    32
  0
VERTEX
  8
W66LALIFT
 62
5
 10
1574.464
 20
-7238.531
 30
-1338.973
 70
    32
  0
VERTEX
  8
W66LALIFT
 62
5
 10
1574.576
 20
-7237.888
 30
-1338.973
 70
    32
  0
VERTEX
  8
W66LALIFT
 62
5
 10
1575.072
 20
-7237.812
 30
-1338.973
 70
    32
  0
VERTEX
  8
W66LALIFT
 62
5
 10
1576.255
 20
-7238.008
 30
-1338.973
 70
    32
  0
VERTEX
  8
W66LALIFT
 62
5
 10
1574.967
 20
-7235.350
 30
-1338.973
 70
    32
  0
VERTEX
  8
W66LALIFT
 62
5
 10
1574.774
 20
-7234.615
 30
-1338.973
 70
    32
  0
VERTEX
  8
W66LALIFT
 62
5
 10
1574.605
 20
-7233.988
 30
-1338.973
 70
    32
  0
VERTEX
  8
W66LALIFT
 62
5
 10
1574.833
 20
-7233.660
 30
-1338.973
 70
    32
  0
VERTEX
  8
W66LALIFT
 62
5
 10
1575.049
 20
-7233.430
 30
-1338.973
 70
    32
  0
VERTEX
  8
W66LALIFT
 62
5
 10
1575.214
 20
-7233.269
 30
-1338.973
 70
    32
  0
VERTEX
  8
W66LALIFT
 62
5
 10
1575.539
 20
-7232.977
 30
-1338.973
 70
    32
  0
VERTEX
  8
W66LALIFT
 62
5
 10
1576.033
 20
-7232.467
 30
-1338.973
 70
    32
  0
VERTEX
  8
W66LALIFT
 62
5
 10
1576.449
 20
-7232.335
 30
-1338.973
 70
    32
  0
VERTEX
  8
W66LALIFT
 62
5
 10
1577.237
 20
-7232.268
 30
-1338.973
 70
    32
  0
VERTEX
  8
W66LALIFT
 62
5
 10
1577.341
 20
-7232.267
 30
-1338.973
 70
    32
  0
VERTEX
  8
W66LALIFT
 62
5
 10
1577.390
 20
-7232.251
 30
-1338.973
 70
    32
  0
VERTEX
  8
W66LALIFT
 62
5
 10
1577.462
 20
-7232.158
 30
-1338.973
 70
    32
  0
VERTEX
  8
W66LALIFT
 62
5
 10
1578.305
 20
-7231.373
 30
-1338.973
 70
    32
  0
VERTEX
  8
W66LALIFT
 62
5
 10
1579.187
 20
-7230.972
 30
-1338.973
 70
    32
  0
VERTEX
  8
W66LALIFT
 62
5
 10
1579.455
 20
-7230.880
 30
-1338.973
 70
    32
  0
VERTEX
  8
W66LALIFT
 62
5
 10
1579.764
 20
-7230.683
 30
-1338.973
 70
    32
  0
VERTEX
  8
W66LALIFT
 62
5
 10
1580.508
 20
-7230.215
 30
-1338.973
 70
    32
  0
VERTEX
  8
W66LALIFT
 62
5
 10
1580.957
 20
-7230.053
 30
-1338.973
 70
    32
  0
VERTEX
  8
W66LALIFT
 62
5
 10
1581.551
 20
-7229.929
 30
-1338.973
 70
    32
  0
VERTEX
  8
W66LALIFT
 62
5
 10
1582.164
 20
-7229.740
 30
-1338.973
 70
    32
  0
VERTEX
  8
W66LALIFT
 62
5
 10
1582.643
 20
-7229.639
 30
-1338.973
 70
    32
  0
VERTEX
  8
W66LALIFT
 62
5
 10
1583.415
 20
-7229.439
 30
-1338.973
 70
    32
  0
VERTEX
  8
W66LALIFT
 62
5
 10
1583.744
 20
-7229.401
 30
-1338.973
 70
    32
  0
VERTEX
  8
W66LALIFT
 62
5
 10
1584.072
 20
-7229.280
 30
-1338.973
 70
    32
  0
VERTEX
  8
W66LALIFT
 62
5
 10
1585.128
 20
-7229.127
 30
-1338.973
 70
    32
  0
VERTEX
  8
W66LALIFT
 62
5
 10
1586.309
 20
-7229.824
 30
-1338.973
 70
    32
  0
VERTEX
  8
W66LALIFT
 62
5
 10
1586.521
 20
-7229.937
 30
-1338.973
 70
    32
  0
VERTEX
  8
W66LALIFT
 62
5
 10
1586.798
 20
-7230.569
 30
-1338.973
 70
    32
  0
VERTEX
  8
W66LALIFT
 62
5
 10
1587.162
 20
-7231.375
 30
-1338.973
 70
    32
  0
VERTEX
  8
W66LALIFT
 62
5
 10
1588.423
 20
-7234.217
 30
-1338.973
 70
    32
  0
VERTEX
  8
W66LALIFT
 62
5
 10
1589.223
 20
-7235.989
 30
-1338.973
 70
    32
  0
VERTEX
  8
W66LALIFT
 62
5
 10
1590.078
 20
-7236.503
 30
-1338.973
 70
    32
  0
VERTEX
  8
W66LALIFT
 62
5
 10
1590.179
 20
-7236.580
 30
-1338.973
 70
    32
  0
VERTEX
  8
W66LALIFT
 62
5
 10
1590.244
 20
-7236.578
 30
-1338.973
 70
    32
  0
VERTEX
  8
W66LALIFT
 62
5
 10
1590.570
 20
-7236.571
 30
-1338.973
 70
    32
  0
VERTEX
  8
W66LALIFT
 62
5
 10
1590.977
 20
-7236.563
 30
-1338.973
 70
    32
  0
VERTEX
  8
W66LALIFT
 62
5
 10
1591.049
 20
-7236.553
 30
-1338.973
 70
    32
  0
VERTEX
  8
W66LALIFT
 62
5
 10
1591.118
 20
-7236.602
 30
-1338.973
 70
    32
  0
VERTEX
  8
W66LALIFT
 62
5
 10
1591.162
 20
-7236.570
 30
-1338.973
 70
    32
  0
VERTEX
  8
W66LALIFT
 62
5
 10
1591.614
 20
-7236.608
 30
-1338.973
 70
    32
  0
VERTEX
  8
W66LALIFT
 62
5
 10
1592.041
 20
-7236.534
 30
-1338.973
 70
    32
  0
VERTEX
  8
W66LALIFT
 62
5
 10
1592.284
 20
-7236.725
 30
-1338.973
 70
    32
  0
VERTEX
  8
W66LALIFT
 62
5
 10
1592.916
 20
-7237.255
 30
-1338.973
 70
    32
  0
VERTEX
  8
W66LALIFT
 62
5
 10
1592.935
 20
-7237.271
 30
-1338.973
 70
    32
  0
VERTEX
  8
W66LALIFT
 62
5
 10
1592.942
 20
-7237.276
 30
-1338.973
 70
    32
  0
VERTEX
  8
W66LALIFT
 62
5
 10
1593.322
 20
-7237.187
 30
-1338.973
 70
    32
  0
VERTEX
  8
W66LALIFT
 62
5
 10
1593.724
 20
-7237.255
 30
-1338.973
 70
    32
  0
VERTEX
  8
W66LALIFT
 62
5
 10
1593.734
 20
-7237.249
 30
-1338.973
 70
    32
  0
VERTEX
  8
W66LALIFT
 62
5
 10
1593.770
 20
-7237.233
 30
-1338.973
 70
    32
  0
VERTEX
  8
W66LALIFT
 62
5
 10
1594.396
 20
-7236.916
 30
-1338.973
 70
    32
  0
VERTEX
  8
W66LALIFT
 62
5
 10
1594.566
 20
-7236.829
 30
-1338.973
 70
    32
  0
VERTEX
  8
W66LALIFT
 62
5
 10
1594.851
 20
-7236.774
 30
-1338.973
 70
    32
  0
VERTEX
  8
W66LALIFT
 62
5
 10
1595.054
 20
-7236.751
 30
-1338.973
 70
    32
  0
VERTEX
  8
W66LALIFT
 62
5
 10
1595.205
 20
-7236.757
 30
-1338.973
 70
    32
  0
VERTEX
  8
W66LALIFT
 62
5
 10
1595.403
 20
-7236.734
 30
-1338.973
 70
    32
  0
VERTEX
  8
W66LALIFT
 62
5
 10
1595.612
 20
-7236.785
 30
-1338.973
 70
    32
  0
VERTEX
  8
W66LALIFT
 62
5
 10
1595.840
 20
-7236.856
 30
-1338.973
 70
    32
  0
VERTEX
  8
W66LALIFT
 62
5
 10
1596.045
 20
-7236.931
 30
-1338.973
 70
    32
  0
VERTEX
  8
W66LALIFT
 62
5
 10
1596.199
 20
-7237.011
 30
-1338.973
 70
    32
  0
VERTEX
  8
W66LALIFT
 62
5
 10
1596.348
 20
-7237.000
 30
-1338.973
 70
    32
  0
VERTEX
  8
W66LALIFT
 62
5
 10
1596.389
 20
-7236.976
 30
-1338.973
 70
    32
  0
VERTEX
  8
W66LALIFT
 62
5
 10
1596.556
 20
-7236.833
 30
-1338.973
 70
    32
  0
VERTEX
  8
W66LALIFT
 62
5
 10
1596.653
 20
-7236.782
 30
-1338.973
 70
    32
  0
VERTEX
  8
W66LALIFT
 62
5
 10
1596.758
 20
-7236.742
 30
-1338.973
 70
    32
  0
VERTEX
  8
W66LALIFT
 62
5
 10
1596.901
 20
-7236.664
 30
-1338.973
 70
    32
  0
VERTEX
  8
W66LALIFT
 62
5
 10
1596.956
 20
-7236.621
 30
-1338.973
 70
    32
  0
VERTEX
  8
W66LALIFT
 62
5
 10
1597.114
 20
-7236.587
 30
-1338.973
 70
    32
  0
VERTEX
  8
W66LALIFT
 62
5
 10
1597.117
 20
-7236.587
 30
-1338.973
 70
    32
  0
VERTEX
  8
W66LALIFT
 62
5
 10
1597.306
 20
-7236.592
 30
-1338.973
 70
    32
  0
VERTEX
  8
W66LALIFT
 62
5
 10
1597.340
 20
-7236.583
 30
-1338.973
 70
    32
  0
VERTEX
  8
W66LALIFT
 62
5
 10
1597.475
 20
-7236.492
 30
-1338.973
 70
    32
  0
VERTEX
  8
W66LALIFT
 62
5
 10
1597.540
 20
-7236.448
 30
-1338.973
 70
    32
  0
VERTEX
  8
W66LALIFT
 62
5
 10
1597.633
 20
-7236.395
 30
-1338.973
 70
    32
  0
VERTEX
  8
W66LALIFT
 62
5
 10
1597.719
 20
-7236.425
 30
-1338.973
 70
    32
  0
VERTEX
  8
W66LALIFT
 62
5
 10
1597.769
 20
-7236.412
 30
-1338.973
 70
    32
  0
VERTEX
  8
W66LALIFT
 62
5
 10
1597.872
 20
-7236.456
 30
-1338.973
 70
    32
  0
VERTEX
  8
W66LALIFT
 62
5
 10
1597.898
 20
-7236.463
 30
-1338.973
 70
    32
  0
VERTEX
  8
W66LALIFT
 62
5
 10
1598.012
 20
-7236.456
 30
-1338.973
 70
    32
  0
VERTEX
  8
W66LALIFT
 62
5
 10
1598.017
 20
-7236.456
 30
-1338.973
 70
    32
  0
VERTEX
  8
W66LALIFT
 62
5
 10
1598.105
 20
-7236.486
 30
-1338.973
 70
    32
  0
VERTEX
  8
W66LALIFT
 62
5
 10
1598.114
 20
-7236.494
 30
-1338.973
 70
    32
  0
VERTEX
  8
W66LALIFT
 62
5
 10
1598.189
 20
-7236.539
 30
-1338.973
 70
    32
  0
VERTEX
  8
W66LALIFT
 62
5
 10
1598.205
 20
-7236.545
 30
-1338.973
 70
    32
  0
VERTEX
  8
W66LALIFT
 62
5
 10
1598.282
 20
-7236.561
 30
-1338.973
 70
    32
  0
VERTEX
  8
W66LALIFT
 62
5
 10
1598.305
 20
-7236.535
 30
-1338.973
 70
    32
  0
VERTEX
  8
W66LALIFT
 62
5
 10
1598.360
 20
-7236.509
 30
-1338.973
 70
    32
  0
VERTEX
  8
W66LALIFT
 62
5
 10
1598.392
 20
-7236.492
 30
-1338.973
 70
    32
  0
VERTEX
  8
W66LALIFT
 62
5
 10
1598.442
 20
-7236.470
 30
-1338.973
 70
    32
  0
VERTEX
  8
W66LALIFT
 62
5
 10
1598.475
 20
-7236.482
 30
-1338.973
 70
    32
  0
VERTEX
  8
W66LALIFT
 62
5
 10
1598.516
 20
-7236.451
 30
-1338.973
 70
    32
  0
VERTEX
  8
W66LALIFT
 62
5
 10
1598.555
 20
-7236.451
 30
-1338.973
 70
    32
  0
VERTEX
  8
W66LALIFT
 62
5
 10
1598.585
 20
-7236.451
 30
-1338.973
 70
    32
  0
VERTEX
  8
W66LALIFT
 62
5
 10
1598.623
 20
-7236.450
 30
-1338.973
 70
    32
  0
VERTEX
  8
W66LALIFT
 62
5
 10
1598.645
 20
-7236.435
 30
-1338.973
 70
    32
  0
VERTEX
  8
W66LALIFT
 62
5
 10
1598.693
 20
-7236.415
 30
-1338.973
 70
    32
  0
VERTEX
  8
W66LALIFT
 62
5
 10
1598.711
 20
-7236.392
 30
-1338.973
 70
    32
  0
VERTEX
  8
W66LALIFT
 62
5
 10
1598.754
 20
-7236.462
 30
-1338.973
 70
    32
  0
VERTEX
  8
W66LALIFT
 62
5
 10
1598.763
 20
-7236.460
 30
-1338.973
 70
    32
  0
VERTEX
  8
W66LALIFT
 62
5
 10
1598.816
 20
-7236.505
 30
-1338.973
 70
    32
  0
VERTEX
  8
W66LALIFT
 62
5
 10
1598.820
 20
-7236.505
 30
-1338.973
 70
    32
  0
VERTEX
  8
W66LALIFT
 62
5
 10
1598.858
 20
-7236.520
 30
-1338.973
 70
    32
  0
VERTEX
  8
W66LALIFT
 62
5
 10
1598.869
 20
-7236.518
 30
-1338.973
 70
    32
  0
VERTEX
  8
W66LALIFT
 62
5
 10
1598.931
 20
-7236.413
 30
-1338.973
 70
    32
  0
VERTEX
  8
W66LALIFT
 62
5
 10
1598.983
 20
-7236.432
 30
-1338.973
 70
    32
  0
VERTEX
  8
W66LALIFT
 62
5
 10
1598.986
 20
-7236.432
 30
-1338.973
 70
    32
  0
VERTEX
  8
W66LALIFT
 62
5
 10
1599.040
 20
-7236.373
 30
-1338.973
 70
    32
  0
VERTEX
  8
W66LALIFT
 62
5
 10
1599.044
 20
-7236.364
 30
-1338.973
 70
    32
  0
VERTEX
  8
W66LALIFT
 62
5
 10
1599.096
 20
-7236.356
 30
-1338.973
 70
    32
  0
VERTEX
  8
W66LALIFT
 62
5
 10
1599.101
 20
-7236.355
 30
-1338.973
 70
    32
  0
VERTEX
  8
W66LALIFT
 62
5
 10
1599.134
 20
-7236.396
 30
-1338.973
 70
    32
  0
VERTEX
  8
W66LALIFT
 62
5
 10
1599.138
 20
-7236.402
 30
-1338.973
 70
    32
  0
VERTEX
  8
W66LALIFT
 62
5
 10
1599.174
 20
-7236.424
 30
-1338.973
 70
    32
  0
VERTEX
  8
W66LALIFT
 62
5
 10
1599.185
 20
-7236.390
 30
-1338.973
 70
    32
  0
VERTEX
  8
W66LALIFT
 62
5
 10
1599.230
 20
-7236.350
 30
-1338.973
 70
    32
  0
VERTEX
  8
W66LALIFT
 62
5
 10
1599.236
 20
-7236.365
 30
-1338.973
 70
    32
  0
VERTEX
  8
W66LALIFT
 62
5
 10
1599.274
 20
-7236.299
 30
-1338.973
 70
    32
  0
VERTEX
  8
W66LALIFT
 62
5
 10
1599.284
 20
-7236.279
 30
-1338.973
 70
    32
  0
VERTEX
  8
W66LALIFT
 62
5
 10
1599.314
 20
-7236.292
 30
-1338.973
 70
    32
  0
VERTEX
  8
W66LALIFT
 62
5
 10
1599.321
 20
-7236.301
 30
-1338.973
 70
    32
  0
VERTEX
  8
W66LALIFT
 62
5
 10
1599.354
 20
-7236.295
 30
-1338.973
 70
    32
  0
VERTEX
  8
W66LALIFT
 62
5
 10
1599.361
 20
-7236.305
 30
-1338.973
 70
    32
  0
VERTEX
  8
W66LALIFT
 62
5
 10
1599.382
 20
-7236.336
 30
-1338.973
 70
    32
  0
VERTEX
  8
W66LALIFT
 62
5
 10
1599.399
 20
-7236.281
 30
-1338.973
 70
    32
  0
VERTEX
  8
W66LALIFT
 62
5
 10
1599.433
 20
-7236.224
 30
-1338.973
 70
    32
  0
VERTEX
  8
W66LALIFT
 62
5
 10
1599.439
 20
-7236.252
 30
-1338.973
 70
    32
  0
VERTEX
  8
W66LALIFT
 62
5
 10
1599.459
 20
-7236.280
 30
-1338.973
 70
    32
  0
VERTEX
  8
W66LALIFT
 62
5
 10
1599.469
 20
-7236.278
 30
-1338.973
 70
    32
  0
VERTEX
  8
W66LALIFT
 62
5
 10
1599.495
 20
-7236.243
 30
-1338.973
 70
    32
  0
VERTEX
  8
W66LALIFT
 62
5
 10
1599.507
 20
-7236.227
 30
-1338.973
 70
    32
  0
VERTEX
  8
W66LALIFT
 62
5
 10
1599.532
 20
-7236.204
 30
-1338.973
 70
    32
  0
VERTEX
  8
W66LALIFT
 62
5
 10
1599.542
 20
-7236.203
 30
-1338.973
 70
    32
  0
VERTEX
  8
W66LALIFT
 62
5
 10
1599.558
 20
-7236.232
 30
-1338.973
 70
    32
  0
VERTEX
  8
W66LALIFT
 62
5
 10
1599.570
 20
-7236.230
 30
-1338.973
 70
    32
  0
VERTEX
  8
W66LALIFT
 62
5
 10
1599.594
 20
-7236.183
 30
-1338.973
 70
    32
  0
VERTEX
  8
W66LALIFT
 62
5
 10
1599.606
 20
-7236.182
 30
-1338.973
 70
    32
  0
VERTEX
  8
W66LALIFT
 62
5
 10
1599.618
 20
-7236.223
 30
-1338.973
 70
    32
  0
VERTEX
  8
W66LALIFT
 62
5
 10
1599.630
 20
-7236.221
 30
-1338.973
 70
    32
  0
VERTEX
  8
W66LALIFT
 62
5
 10
1599.647
 20
-7236.230
 30
-1338.973
 70
    32
  0
VERTEX
  8
W66LALIFT
 62
5
 10
1599.661
 20
-7236.205
 30
-1338.973
 70
    32
  0
VERTEX
  8
W66LALIFT
 62
5
 10
1599.680
 20
-7236.178
 30
-1338.973
 70
    32
  0
VERTEX
  8
W66LALIFT
 62
5
 10
1599.688
 20
-7236.200
 30
-1338.973
 70
    32
  0
VERTEX
  8
W66LALIFT
 62
5
 10
1599.708
 20
-7236.172
 30
-1338.973
 70
    32
  0
VERTEX
  8
W66LALIFT
 62
5
 10
1599.720
 20
-7236.171
 30
-1338.973
 70
    32
  0
VERTEX
  8
W66LALIFT
 62
5
 10
1599.734
 20
-7236.170
 30
-1338.973
 70
    32
  0
VERTEX
  8
W66LALIFT
 62
5
 10
1599.751
 20
-7236.143
 30
-1338.973
 70
    32
  0
VERTEX
  8
W66LALIFT
 62
5
 10
1599.759
 20
-7236.176
 30
-1338.973
 70
    32
  0
VERTEX
  8
W66LALIFT
 62
5
 10
1599.770
 20
-7236.175
 30
-1338.973
 70
    32
  0
VERTEX
  8
W66LALIFT
 62
5
 10
1599.789
 20
-7236.150
 30
-1338.973
 70
    32
  0
VERTEX
  8
W66LALIFT
 62
5
 10
1599.798
 20
-7236.174
 30
-1338.973
 70
    32
  0
VERTEX
  8
W66LALIFT
 62
5
 10
1599.809
 20
-7236.173
 30
-1338.973
 70
    32
  0
VERTEX
  8
W66LALIFT
 62
5
 10
1599.818
 20
-7236.193
 30
-1338.973
 70
    32
  0
VERTEX
  8
W66LALIFT
 62
5
 10
1599.830
 20
-7236.192
 30
-1338.973
 70
    32
  0
VERTEX
  8
W66LALIFT
 62
5
 10
1599.845
 20
-7236.171
 30
-1338.973
 70
    32
  0
VERTEX
  8
W66LALIFT
 62
5
 10
1599.855
 20
-7236.183
 30
-1338.973
 70
    32
  0
VERTEX
  8
W66LALIFT
 62
5
 10
1599.869
 20
-7236.182
 30
-1338.973
 70
    32
  0
VERTEX
  8
W66LALIFT
 62
5
 10
1599.880
 20
-7236.170
 30
-1338.973
 70
    32
  0
VERTEX
  8
W66LALIFT
 62
5
 10
1599.893
 20
-7236.169
 30
-1338.973
 70
    32
  0
VERTEX
  8
W66LALIFT
 62
5
 10
1599.904
 20
-7236.161
 30
-1338.973
 70
    32
  0
VERTEX
  8
W66LALIFT
 62
5
 10
1599.914
 20
-7236.181
 30
-1338.973
 70
    32
  0
VERTEX
  8
W66LALIFT
 62
5
 10
1599.921
 20
-7236.189
 30
-1338.973
 70
    32
  0
VERTEX
  8
W66LALIFT
 62
5
 10
1599.934
 20
-7236.189
 30
-1338.973
 70
    32
  0
VERTEX
  8
W66LALIFT
 62
5
 10
1599.938
 20
-7236.213
 30
-1338.973
 70
    32
  0
VERTEX
  8
W66LALIFT
 62
5
 10
1599.962
 20
-7236.139
 30
-1338.973
 70
    32
  0
VERTEX
  8
W66LALIFT
 62
5
 10
1599.976
 20
-7236.107
 30
-1338.973
 70
    32
  0
VERTEX
  8
W66LALIFT
 62
5
 10
1599.981
 20
-7236.159
 30
-1338.973
 70
    32
  0
VERTEX
  8
W66LALIFT
 62
5
 10
1599.985
 20
-7236.188
 30
-1338.973
 70
    32
  0
VERTEX
  8
W66LALIFT
 62
5
 10
1599.998
 20
-7236.188
 30
-1338.973
 70
    32
  0
VERTEX
  8
W66LALIFT
 62
5
 10
1600.009
 20
-7236.166
 30
-1338.973
 70
    32
  0
VERTEX
  8
W66LALIFT
 62
5
 10
1600.017
 20
-7236.189
 30
-1338.973
 70
    32
  0
VERTEX
  8
W66LALIFT
 62
5
 10
1600.022
 20
-7236.203
 30
-1338.973
 70
    32
  0
VERTEX
  8
W66LALIFT
 62
5
 10
1600.045
 20
-7236.149
 30
-1338.973
 70
    32
  0
VERTEX
  8
W66LALIFT
 62
5
 10
1600.053
 20
-7236.143
 30
-1338.973
 70
    32
  0
VERTEX
  8
W66LALIFT
 62
5
 10
1600.056
 20
-7236.197
 30
-1338.973
 70
    32
  0
VERTEX
  8
W66LALIFT
 62
5
 10
1600.070
 20
-7236.158
 30
-1338.973
 70
    32
  0
VERTEX
  8
W66LALIFT
 62
5
 10
1600.085
 20
-7236.136
 30
-1338.973
 70
    32
  0
VERTEX
  8
W66LALIFT
 62
5
 10
1600.097
 20
-7236.112
 30
-1338.973
 70
    32
  0
VERTEX
  8
W66LALIFT
 62
5
 10
1600.111
 20
-7236.114
 30
-1338.973
 70
    32
  0
VERTEX
  8
W66LALIFT
 62
5
 10
1600.117
 20
-7236.107
 30
-1338.973
 70
    32
  0
VERTEX
  8
W66LALIFT
 62
5
 10
1600.123
 20
-7236.158
 30
-1338.973
 70
    32
  0
VERTEX
  8
W66LALIFT
 62
5
 10
1600.127
 20
-7236.166
 30
-1338.973
 70
    32
  0
VERTEX
  8
W66LALIFT
 62
5
 10
1600.144
 20
-7236.144
 30
-1338.973
 70
    32
  0
VERTEX
  8
W66LALIFT
 62
5
 10
1600.149
 20
-7236.145
 30
-1338.973
 70
    32
  0
VERTEX
  8
W66LALIFT
 62
5
 10
1600.163
 20
-7236.146
 30
-1338.973
 70
    32
  0
VERTEX
  8
W66LALIFT
 62
5
 10
1600.168
 20
-7236.140
 30
-1338.973
 70
    32
  0
VERTEX
  8
W66LALIFT
 62
5
 10
1600.186
 20
-7236.117
 30
-1338.973
 70
    32
  0
VERTEX
  8
W66LALIFT
 62
5
 10
1600.191
 20
-7236.124
 30
-1338.973
 70
    32
  0
VERTEX
  8
W66LALIFT
 62
5
 10
1600.204
 20
-7236.127
 30
-1338.973
 70
    32
  0
VERTEX
  8
W66LALIFT
 62
5
 10
1600.211
 20
-7236.117
 30
-1338.973
 70
    32
  0
VERTEX
  8
W66LALIFT
 62
5
 10
1600.230
 20
-7236.085
 30
-1338.973
 70
    32
  0
VERTEX
  8
W66LALIFT
 62
5
 10
1600.232
 20
-7236.097
 30
-1338.973
 70
    32
  0
VERTEX
  8
W66LALIFT
 62
5
 10
1600.259
 20
-7236.023
 30
-1338.973
 70
    32
  0
VERTEX
  8
W66LALIFT
 62
5
 10
1600.266
 20
-7236.014
 30
-1338.973
 70
    32
  0
VERTEX
  8
W66LALIFT
 62
5
 10
1600.274
 20
-7236.041
 30
-1338.973
 70
    32
  0
VERTEX
  8
W66LALIFT
 62
5
 10
1600.278
 20
-7236.041
 30
-1338.973
 70
    32
  0
VERTEX
  8
W66LALIFT
 62
5
 10
1600.307
 20
-7235.959
 30
-1338.973
 70
    32
  0
VERTEX
  8
W66LALIFT
 62
5
 10
1600.311
 20
-7235.960
 30
-1338.973
 70
    32
  0
VERTEX
  8
W66LALIFT
 62
5
 10
1600.319
 20
-7235.987
 30
-1338.973
 70
    32
  0
VERTEX
  8
W66LALIFT
 62
5
 10
1600.324
 20
-7235.988
 30
-1338.973
 70
    32
  0
VERTEX
  8
W66LALIFT
 62
5
 10
1600.337
 20
-7235.990
 30
-1338.973
 70
    32
  0
VERTEX
  8
W66LALIFT
 62
5
 10
1600.340
 20
-7235.994
 30
-1338.973
 70
    32
  0
VERTEX
  8
W66LALIFT
 62
5
 10
1600.353
 20
-7235.996
 30
-1338.973
 70
    32
  0
VERTEX
  8
W66LALIFT
 62
5
 10
1600.357
 20
-7236.002
 30
-1338.973
 70
    32
  0
VERTEX
  8
W66LALIFT
 62
5
 10
1600.390
 20
-7235.893
 30
-1338.973
 70
    32
  0
VERTEX
  8
W66LALIFT
 62
5
 10
1600.396
 20
-7235.889
 30
-1338.973
 70
    32
  0
VERTEX
  8
W66LALIFT
 62
5
 10
1600.396
 20
-7235.976
 30
-1338.973
 70
    32
  0
VERTEX
  8
W66LALIFT
 62
5
 10
1600.398
 20
-7235.982
 30
-1338.973
 70
    32
  0
VERTEX
  8
W66LALIFT
 62
5
 10
1600.404
 20
-7235.957
 30
-1338.973
 70
    32
  0
VERTEX
  8
W66LALIFT
 62
5
 10
1600.420
 20
-7235.872
 30
-1338.973
 70
    32
  0
VERTEX
  8
W66LALIFT
 62
5
 10
1600.407
 20
-7235.957
 30
-1338.973
 70
    32
  0
VERTEX
  8
W66LALIFT
 62
5
 10
1600.411
 20
-7235.953
 30
-1338.973
 70
    32
  0
VERTEX
  8
W66LALIFT
 62
5
 10
1600.430
 20
-7235.895
 30
-1338.973
 70
    32
  0
VERTEX
  8
W66LALIFT
 62
5
 10
1600.436
 20
-7235.901
 30
-1338.973
 70
    32
  0
VERTEX
  8
W66LALIFT
 62
5
 10
1600.433
 20
-7235.961
 30
-1338.973
 70
    32
  0
VERTEX
  8
W66LALIFT
 62
5
 10
1600.464
 20
-7235.853
 30
-1338.973
 70
    32
  0
VERTEX
  8
W66LALIFT
 62
5
 10
1600.462
 20
-7235.905
 30
-1338.973
 70
    32
  0
VERTEX
  8
W66LALIFT
 62
5
 10
1600.466
 20
-7235.905
 30
-1338.973
 70
    32
  0
VERTEX
  8
W66LALIFT
 62
5
 10
1600.468
 20
-7235.933
 30
-1338.973
 70
    32
  0
VERTEX
  8
W66LALIFT
 62
5
 10
1600.470
 20
-7235.937
 30
-1338.973
 70
    32
  0
VERTEX
  8
W66LALIFT
 62
5
 10
1600.494
 20
-7235.862
 30
-1338.973
 70
    32
  0
VERTEX
  8
W66LALIFT
 62
5
 10
1600.495
 20
-7235.866
 30
-1338.973
 70
    32
  0
VERTEX
  8
W66LALIFT
 62
5
 10
1600.501
 20
-7235.894
 30
-1338.973
 70
    32
  0
VERTEX
  8
W66LALIFT
 62
5
 10
1600.507
 20
-7235.921
 30
-1338.973
 70
    32
  0
VERTEX
  8
W66LALIFT
 62
5
 10
1600.527
 20
-7235.873
 30
-1338.973
 70
    32
  0
VERTEX
  8
W66LALIFT
 62
5
 10
1600.531
 20
-7235.870
 30
-1338.973
 70
    32
  0
VERTEX
  8
W66LALIFT
 62
5
 10
1600.530
 20
-7235.922
 30
-1338.973
 70
    32
  0
VERTEX
  8
W66LALIFT
 62
5
 10
1600.531
 20
-7235.932
 30
-1338.973
 70
    32
  0
VERTEX
  8
W66LALIFT
 62
5
 10
1600.550
 20
-7235.883
 30
-1338.973
 70
    32
  0
VERTEX
  8
W66LALIFT
 62
5
 10
1600.552
 20
-7235.883
 30
-1338.973
 70
    32
  0
VERTEX
  8
W66LALIFT
 62
5
 10
1600.552
 20
-7235.936
 30
-1338.973
 70
    32
  0
VERTEX
  8
W66LALIFT
 62
5
 10
1600.553
 20
-7235.944
 30
-1338.973
 70
    32
  0
VERTEX
  8
W66LALIFT
 62
5
 10
1600.572
 20
-7235.895
 30
-1338.973
 70
    32
  0
VERTEX
  8
W66LALIFT
 62
5
 10
1600.575
 20
-7235.893
 30
-1338.973
 70
    32
  0
VERTEX
  8
W66LALIFT
 62
5
 10
1600.574
 20
-7235.946
 30
-1338.973
 70
    32
  0
VERTEX
  8
W66LALIFT
 62
5
 10
1600.580
 20
-7235.929
 30
-1338.973
 70
    32
  0
VERTEX
  8
W66LALIFT
 62
5
 10
1600.594
 20
-7235.907
 30
-1338.973
 70
    32
  0
VERTEX
  8
W66LALIFT
 62
5
 10
1600.593
 20
-7235.924
 30
-1338.973
 70
    32
  0
VERTEX
  8
W66LALIFT
 62
5
 10
1600.598
 20
-7235.916
 30
-1338.973
 70
    32
  0
VERTEX
  8
W66LALIFT
 62
5
 10
1600.607
 20
-7235.918
 30
-1338.973
 70
    32
  0
VERTEX
  8
W66LALIFT
 62
5
 10
1600.609
 20
-7235.924
 30
-1338.973
 70
    32
  0
VERTEX
  8
W66LALIFT
 62
5
 10
1600.614
 20
-7235.952
 30
-1338.973
 70
    32
  0
VERTEX
  8
W66LALIFT
 62
5
 10
1600.616
 20
-7235.953
 30
-1338.973
 70
    32
  0
VERTEX
  8
W66LALIFT
 62
5
 10
1600.622
 20
-7235.981
 30
-1338.973
 70
    32
  0
VERTEX
  8
W66LALIFT
 62
5
 10
1600.626
 20
-7235.977
 30
-1338.973
 70
    32
  0
VERTEX
  8
W66LALIFT
 62
5
 10
1600.636
 20
-7235.979
 30
-1338.973
 70
    32
  0
VERTEX
  8
W66LALIFT
 62
5
 10
1600.639
 20
-7235.985
 30
-1338.973
 70
    32
  0
VERTEX
  8
W66LALIFT
 62
5
 10
1600.658
 20
-7235.939
 30
-1338.973
 70
    32
  0
VERTEX
  8
W66LALIFT
 62
5
 10
1600.661
 20
-7235.939
 30
-1338.973
 70
    32
  0
VERTEX
  8
W66LALIFT
 62
5
 10
1600.666
 20
-7235.967
 30
-1338.973
 70
    32
  0
VERTEX
  8
W66LALIFT
 62
5
 10
1600.669
 20
-7235.968
 30
-1338.973
 70
    32
  0
VERTEX
  8
W66LALIFT
 62
5
 10
1600.690
 20
-7235.922
 30
-1338.973
 70
    32
  0
VERTEX
  8
W66LALIFT
 62
5
 10
1600.695
 20
-7235.913
 30
-1338.973
 70
    32
  0
VERTEX
  8
W66LALIFT
 62
5
 10
1600.700
 20
-7235.940
 30
-1338.973
 70
    32
  0
VERTEX
  8
W66LALIFT
 62
5
 10
1600.699
 20
-7235.961
 30
-1338.973
 70
    32
  0
VERTEX
  8
W66LALIFT
 62
5
 10
1600.705
 20
-7235.947
 30
-1338.973
 70
    32
  0
VERTEX
  8
W66LALIFT
 62
5
 10
1600.705
 20
-7235.999
 30
-1338.973
 70
    32
  0
VERTEX
  8
W66LALIFT
 62
5
 10
1600.707
 20
-7236.006
 30
-1338.973
 70
    32
  0
VERTEX
  8
W66LALIFT
 62
5
 10
1600.718
 20
-7236.010
 30
-1338.973
 70
    32
  0
VERTEX
  8
W66LALIFT
 62
5
 10
1600.722
 20
-7236.005
 30
-1338.973
 70
    32
  0
VERTEX
  8
W66LALIFT
 62
5
 10
1600.739
 20
-7235.984
 30
-1338.973
 70
    32
  0
VERTEX
  8
W66LALIFT
 62
5
 10
1600.743
 20
-7235.986
 30
-1338.973
 70
    32
  0
VERTEX
  8
W66LALIFT
 62
5
 10
1600.752
 20
-7235.989
 30
-1338.973
 70
    32
  0
VERTEX
  8
W66LALIFT
 62
5
 10
1600.755
 20
-7235.997
 30
-1338.973
 70
    32
  0
VERTEX
  8
W66LALIFT
 62
5
 10
1600.775
 20
-7235.952
 30
-1338.973
 70
    32
  0
VERTEX
  8
W66LALIFT
 62
5
 10
1600.781
 20
-7235.947
 30
-1338.973
 70
    32
  0
VERTEX
  8
W66LALIFT
 62
5
 10
1600.785
 20
-7235.975
 30
-1338.973
 70
    32
  0
VERTEX
  8
W66LALIFT
 62
5
 10
1600.788
 20
-7235.983
 30
-1338.973
 70
    32
  0
VERTEX
  8
W66LALIFT
 62
5
 10
1600.804
 20
-7235.964
 30
-1338.973
 70
    32
  0
VERTEX
  8
W66LALIFT
 62
5
 10
1600.811
 20
-7235.954
 30
-1338.973
 70
    32
  0
VERTEX
  8
W66LALIFT
 62
5
 10
1600.818
 20
-7235.981
 30
-1338.973
 70
    32
  0
VERTEX
  8
W66LALIFT
 62
5
 10
1600.822
 20
-7235.983
 30
-1338.973
 70
    32
  0
VERTEX
  8
W66LALIFT
 62
5
 10
1600.850
 20
-7235.909
 30
-1338.973
 70
    32
  0
VERTEX
  8
W66LALIFT
 62
5
 10
1600.859
 20
-7235.893
 30
-1338.973
 70
    32
  0
VERTEX
  8
W66LALIFT
 62
5
 10
1600.852
 20
-7235.974
 30
-1338.973
 70
    32
  0
VERTEX
  8
W66LALIFT
 62
5
 10
1600.858
 20
-7235.970
 30
-1338.973
 70
    32
  0
VERTEX
  8
W66LALIFT
 62
5
 10
1600.868
 20
-7235.975
 30
-1338.973
 70
    32
  0
VERTEX
  8
W66LALIFT
 62
5
 10
1600.870
 20
-7235.988
 30
-1338.973
 70
    32
  0
VERTEX
  8
W66LALIFT
 62
5
 10
1600.885
 20
-7235.969
 30
-1338.973
 70
    32
  0
VERTEX
  8
W66LALIFT
 62
5
 10
1600.894
 20
-7235.953
 30
-1338.973
 70
    32
  0
VERTEX
  8
W66LALIFT
 62
5
 10
1600.899
 20
-7235.979
 30
-1338.973
 70
    32
  0
VERTEX
  8
W66LALIFT
 62
5
 10
1600.901
 20
-7235.999
 30
-1338.973
 70
    32
  0
VERTEX
  8
W66LALIFT
 62
5
 10
1600.906
 20
-7236.002
 30
-1338.973
 70
    32
  0
VERTEX
  8
W66LALIFT
 62
5
 10
1600.929
 20
-7235.954
 30
-1338.973
 70
    32
  0
VERTEX
  8
W66LALIFT
 62
5
 10
1600.938
 20
-7235.943
 30
-1338.973
 70
    32
  0
VERTEX
  8
W66LALIFT
 62
5
 10
1600.937
 20
-7235.999
 30
-1338.973
 70
    32
  0
VERTEX
  8
W66LALIFT
 62
5
 10
1600.948
 20
-7235.980
 30
-1338.973
 70
    32
  0
VERTEX
  8
W66LALIFT
 62
5
 10
1600.975
 20
-7235.910
 30
-1338.973
 70
    32
  0
VERTEX
  8
W66LALIFT
 62
5
 10
1600.988
 20
-7235.889
 30
-1338.973
 70
    32
  0
VERTEX
  8
W66LALIFT
 62
5
 10
1600.983
 20
-7235.965
 30
-1338.973
 70
    32
  0
VERTEX
  8
W66LALIFT
 62
5
 10
1600.996
 20
-7235.936
 30
-1338.973
 70
    32
  0
VERTEX
  8
W66LALIFT
 62
5
 10
1601.019
 20
-7235.888
 30
-1338.973
 70
    32
  0
VERTEX
  8
W66LALIFT
 62
5
 10
1601.030
 20
-7235.874
 30
-1338.973
 70
    32
  0
VERTEX
  8
W66LALIFT
 62
5
 10
1601.035
 20
-7235.906
 30
-1338.973
 70
    32
  0
VERTEX
  8
W66LALIFT
 62
5
 10
1601.041
 20
-7235.916
 30
-1338.973
 70
    32
  0
VERTEX
  8
W66LALIFT
 62
5
 10
1601.059
 20
-7235.890
 30
-1338.973
 70
    32
  0
VERTEX
  8
W66LALIFT
 62
5
 10
1601.063
 20
-7235.909
 30
-1338.973
 70
    32
  0
VERTEX
  8
W66LALIFT
 62
5
 10
1601.091
 20
-7235.842
 30
-1338.973
 70
    32
  0
VERTEX
  8
W66LALIFT
 62
5
 10
1601.101
 20
-7235.837
 30
-1338.973
 70
    32
  0
VERTEX
  8
W66LALIFT
 62
5
 10
1601.105
 20
-7235.868
 30
-1338.973
 70
    32
  0
VERTEX
  8
W66LALIFT
 62
5
 10
1601.115
 20
-7235.862
 30
-1338.973
 70
    32
  0
VERTEX
  8
W66LALIFT
 62
5
 10
1601.125
 20
-7235.864
 30
-1338.973
 70
    32
  0
VERTEX
  8
W66LALIFT
 62
5
 10
1601.149
 20
-7235.807
 30
-1338.973
 70
    32
  0
VERTEX
  8
W66LALIFT
 62
5
 10
1601.165
 20
-7235.782
 30
-1338.973
 70
    32
  0
VERTEX
  8
W66LALIFT
 62
5
 10
1601.171
 20
-7235.806
 30
-1338.973
 70
    32
  0
VERTEX
  8
W66LALIFT
 62
5
 10
1601.175
 20
-7235.835
 30
-1338.973
 70
    32
  0
VERTEX
  8
W66LALIFT
 62
5
 10
1601.194
 20
-7235.805
 30
-1338.973
 70
    32
  0
VERTEX
  8
W66LALIFT
 62
5
 10
1601.195
 20
-7235.845
 30
-1338.973
 70
    32
  0
VERTEX
  8
W66LALIFT
 62
5
 10
1601.209
 20
-7235.837
 30
-1338.973
 70
    32
  0
VERTEX
  8
W66LALIFT
 62
5
 10
1601.240
 20
-7235.756
 30
-1338.973
 70
    32
  0
VERTEX
  8
W66LALIFT
 62
5
 10
1601.249
 20
-7235.769
 30
-1338.973
 70
    32
  0
VERTEX
  8
W66LALIFT
 62
5
 10
1601.245
 20
-7235.833
 30
-1338.973
 70
    32
  0
VERTEX
  8
W66LALIFT
 62
5
 10
1601.260
 20
-7235.824
 30
-1338.973
 70
    32
  0
VERTEX
  8
W66LALIFT
 62
5
 10
1601.270
 20
-7235.825
 30
-1338.973
 70
    32
  0
VERTEX
  8
W66LALIFT
 62
5
 10
1601.290
 20
-7235.800
 30
-1338.973
 70
    32
  0
VERTEX
  8
W66LALIFT
 62
5
 10
1601.311
 20
-7235.760
 30
-1338.973
 70
    32
  0
VERTEX
  8
W66LALIFT
 62
5
 10
1601.316
 20
-7235.801
 30
-1338.973
 70
    32
  0
VERTEX
  8
W66LALIFT
 62
5
 10
1601.312
 20
-7235.861
 30
-1338.973
 70
    32
  0
VERTEX
  8
W66LALIFT
 62
5
 10
1601.335
 20
-7235.834
 30
-1338.973
 70
    32
  0
VERTEX
  8
W66LALIFT
 62
5
 10
1601.353
 20
-7235.801
 30
-1338.973
 70
    32
  0
VERTEX
  8
W66LALIFT
 62
5
 10
1601.369
 20
-7235.803
 30
-1338.973
 70
    32
  0
VERTEX
  8
W66LALIFT
 62
5
 10
1601.389
 20
-7235.767
 30
-1338.973
 70
    32
  0
VERTEX
  8
W66LALIFT
 62
5
 10
1601.416
 20
-7235.725
 30
-1338.973
 70
    32
  0
VERTEX
  8
W66LALIFT
 62
5
 10
1601.427
 20
-7235.725
 30
-1338.973
 70
    32
  0
VERTEX
  8
W66LALIFT
 62
5
 10
1601.432
 20
-7235.792
 30
-1338.973
 70
    32
  0
VERTEX
  8
W66LALIFT
 62
5
 10
1601.442
 20
-7235.794
 30
-1338.973
 70
    32
  0
VERTEX
  8
W66LALIFT
 62
5
 10
1601.472
 20
-7235.749
 30
-1338.973
 70
    32
  0
VERTEX
  8
W66LALIFT
 62
5
 10
1601.478
 20
-7235.765
 30
-1338.973
 70
    32
  0
VERTEX
  8
W66LALIFT
 62
5
 10
1601.498
 20
-7235.767
 30
-1338.973
 70
    32
  0
VERTEX
  8
W66LALIFT
 62
5
 10
1601.525
 20
-7235.694
 30
-1338.973
 70
    32
  0
VERTEX
  8
W66LALIFT
 62
5
 10
1601.546
 20
-7235.698
 30
-1338.973
 70
    32
  0
VERTEX
  8
W66LALIFT
 62
5
 10
1601.551
 20
-7235.713
 30
-1338.973
 70
    32
  0
VERTEX
  8
W66LALIFT
 62
5
 10
1601.573
 20
-7235.717
 30
-1338.973
 70
    32
  0
VERTEX
  8
W66LALIFT
 62
5
 10
1601.581
 20
-7235.719
 30
-1338.973
 70
    32
  0
VERTEX
  8
W66LALIFT
 62
5
 10
1601.596
 20
-7235.758
 30
-1338.973
 70
    32
  0
VERTEX
  8
W66LALIFT
 62
5
 10
1601.609
 20
-7235.748
 30
-1338.973
 70
    32
  0
VERTEX
  8
W66LALIFT
 62
5
 10
1601.651
 20
-7235.695
 30
-1338.973
 70
    32
  0
VERTEX
  8
W66LALIFT
 62
5
 10
1601.655
 20
-7235.708
 30
-1338.973
 70
    32
  0
VERTEX
  8
W66LALIFT
 62
5
 10
1601.665
 20
-7235.774
 30
-1338.973
 70
    32
  0
VERTEX
  8
W66LALIFT
 62
5
 10
1601.681
 20
-7235.742
 30
-1338.973
 70
    32
  0
VERTEX
  8
W66LALIFT
 62
5
 10
1601.715
 20
-7235.710
 30
-1338.973
 70
    32
  0
VERTEX
  8
W66LALIFT
 62
5
 10
1601.723
 20
-7235.712
 30
-1338.973
 70
    32
  0
VERTEX
  8
W66LALIFT
 62
5
 10
1601.762
 20
-7235.694
 30
-1338.973
 70
    32
  0
VERTEX
  8
W66LALIFT
 62
5
 10
1601.756
 20
-7235.745
 30
-1338.973
 70
    32
  0
VERTEX
  8
W66LALIFT
 62
5
 10
1601.791
 20
-7235.748
 30
-1338.973
 70
    32
  0
VERTEX
  8
W66LALIFT
 62
5
 10
1601.804
 20
-7235.723
 30
-1338.973
 70
    32
  0
VERTEX
  8
W66LALIFT
 62
5
 10
1601.854
 20
-7235.663
 30
-1338.973
 70
    32
  0
VERTEX
  8
W66LALIFT
 62
5
 10
1601.862
 20
-7235.656
 30
-1338.973
 70
    32
  0
VERTEX
  8
W66LALIFT
 62
5
 10
1601.892
 20
-7235.684
 30
-1338.973
 70
    32
  0
VERTEX
  8
W66LALIFT
 62
5
 10
1601.951
 20
-7235.634
 30
-1338.973
 70
    32
  0
VERTEX
  8
W66LALIFT
 62
5
 10
1601.956
 20
-7235.634
 30
-1338.973
 70
    32
  0
VERTEX
  8
W66LALIFT
 62
5
 10
1602.005
 20
-7235.613
 30
-1338.973
 70
    32
  0
VERTEX
  8
W66LALIFT
 62
5
 10
1602.009
 20
-7235.608
 30
-1338.973
 70
    32
  0
VERTEX
  8
W66LALIFT
 62
5
 10
1602.052
 20
-7235.641
 30
-1338.973
 70
    32
  0
VERTEX
  8
W66LALIFT
 62
5
 10
1602.054
 20
-7235.645
 30
-1338.973
 70
    32
  0
VERTEX
  8
W66LALIFT
 62
5
 10
1602.104
 20
-7235.650
 30
-1338.973
 70
    32
  0
VERTEX
  8
W66LALIFT
 62
5
 10
1602.135
 20
-7235.707
 30
-1338.973
 70
    32
  0
VERTEX
  8
W66LALIFT
 62
5
 10
1602.143
 20
-7235.727
 30
-1338.973
 70
    32
  0
VERTEX
  8
W66LALIFT
 62
5
 10
1602.194
 20
-7235.750
 30
-1338.973
 70
    32
  0
VERTEX
  8
W66LALIFT
 62
5
 10
1602.201
 20
-7235.751
 30
-1338.973
 70
    32
  0
VERTEX
  8
W66LALIFT
 62
5
 10
1602.254
 20
-7235.773
 30
-1338.973
 70
    32
  0
VERTEX
  8
W66LALIFT
 62
5
 10
1602.268
 20
-7235.774
 30
-1338.973
 70
    32
  0
VERTEX
  8
W66LALIFT
 62
5
 10
1602.328
 20
-7235.773
 30
-1338.973
 70
    32
  0
VERTEX
  8
W66LALIFT
 62
5
 10
1602.349
 20
-7235.771
 30
-1338.973
 70
    32
  0
VERTEX
  8
W66LALIFT
 62
5
 10
1602.384
 20
-7235.830
 30
-1338.973
 70
    32
  0
VERTEX
  8
W66LALIFT
 62
5
 10
1602.405
 20
-7235.871
 30
-1338.973
 70
    32
  0
VERTEX
  8
W66LALIFT
 62
5
 10
1602.455
 20
-7235.852
 30
-1338.973
 70
    32
  0
VERTEX
  8
W66LALIFT
 62
5
 10
1602.509
 20
-7235.833
 30
-1338.973
 70
    32
  0
VERTEX
  8
W66LALIFT
 62
5
 10
1602.540
 20
-7235.863
 30
-1338.973
 70
    32
  0
VERTEX
  8
W66LALIFT
 62
5
 10
1602.571
 20
-7235.928
 30
-1338.973
 70
    32
  0
VERTEX
  8
W66LALIFT
 62
5
 10
1602.607
 20
-7235.931
 30
-1338.973
 70
    32
  0
VERTEX
  8
W66LALIFT
 62
5
 10
1602.667
 20
-7235.942
 30
-1338.973
 70
    32
  0
VERTEX
  8
W66LALIFT
 62
5
 10
1602.690
 20
-7235.964
 30
-1338.973
 70
    32
  0
VERTEX
  8
W66LALIFT
 62
5
 10
1602.783
 20
-7235.948
 30
-1338.973
 70
    32
  0
VERTEX
  8
W66LALIFT
 62
5
 10
1602.803
 20
-7235.948
 30
-1338.973
 70
    32
  0
VERTEX
  8
W66LALIFT
 62
5
 10
1602.925
 20
-7235.910
 30
-1338.973
 70
    32
  0
VERTEX
  8
W66LALIFT
 62
5
 10
1602.933
 20
-7235.913
 30
-1338.973
 70
    32
  0
VERTEX
  8
W66LALIFT
 62
5
 10
1602.998
 20
-7235.973
 30
-1338.973
 70
    32
  0
VERTEX
  8
W66LALIFT
 62
5
 10
1603.028
 20
-7236.000
 30
-1338.973
 70
    32
  0
VERTEX
  8
W66LALIFT
 62
5
 10
1603.043
 20
-7235.973
 30
-1338.973
 70
    32
  0
VERTEX
  8
W66LALIFT
 62
5
 10
1603.196
 20
-7235.873
 30
-1338.973
 70
    32
  0
VERTEX
  8
W66LALIFT
 62
5
 10
1603.254
 20
-7235.804
 30
-1338.973
 70
    32
  0
VERTEX
  8
W66LALIFT
 62
5
 10
1603.424
 20
-7235.619
 30
-1338.973
 70
    32
  0
VERTEX
  8
W66LALIFT
 62
5
 10
1603.512
 20
-7235.563
 30
-1338.973
 70
    32
  0
VERTEX
  8
W66LALIFT
 62
5
 10
1603.645
 20
-7235.431
 30
-1338.973
 70
    32
  0
VERTEX
  8
W66LALIFT
 62
5
 10
1603.766
 20
-7235.404
 30
-1338.973
 70
    32
  0
VERTEX
  8
W66LALIFT
 62
5
 10
1603.850
 20
-7235.324
 30
-1338.973
 70
    32
  0
VERTEX
  8
W66LALIFT
 62
5
 10
1604.031
 20
-7235.268
 30
-1338.973
 70
    32
  0
VERTEX
  8
W66LALIFT
 62
5
 10
1604.070
 20
-7235.251
 30
-1338.973
 70
    32
  0
VERTEX
  8
W66LALIFT
 62
5
 10
1604.269
 20
-7235.144
 30
-1338.973
 70
    32
  0
VERTEX
  8
W66LALIFT
 62
5
 10
1604.306
 20
-7235.137
 30
-1338.973
 70
    32
  0
VERTEX
  8
W66LALIFT
 62
5
 10
1604.317
 20
-7235.137
 30
-1338.973
 70
    32
  0
VERTEX
  8
W66LALIFT
 62
5
 10
1604.511
 20
-7235.226
 30
-1338.973
 70
    32
  0
VERTEX
  8
W66LALIFT
 62
5
 10
1604.650
 20
-7235.187
 30
-1338.973
 70
    32
  0
VERTEX
  8
W66LALIFT
 62
5
 10
1604.849
 20
-7235.144
 30
-1338.973
 70
    32
  0
VERTEX
  8
W66LALIFT
 62
5
 10
1605.037
 20
-7235.210
 30
-1338.973
 70
    32
  0
VERTEX
  8
W66LALIFT
 62
5
 10
1605.099
 20
-7235.220
 30
-1338.973
 70
    32
  0
VERTEX
  8
W66LALIFT
 62
5
 10
1605.353
 20
-7235.138
 30
-1338.973
 70
    32
  0
VERTEX
  8
W66LALIFT
 62
5
 10
1605.432
 20
-7235.150
 30
-1338.973
 70
    32
  0
VERTEX
  8
W66LALIFT
 62
5
 10
1605.464
 20
-7235.158
 30
-1338.973
 70
    32
  0
VERTEX
  8
W66LALIFT
 62
5
 10
1605.613
 20
-7235.342
 30
-1338.973
 70
    32
  0
VERTEX
  8
W66LALIFT
 62
5
 10
1605.725
 20
-7235.352
 30
-1338.973
 70
    32
  0
VERTEX
  8
W66LALIFT
 62
5
 10
1605.826
 20
-7235.395
 30
-1338.973
 70
    32
  0
VERTEX
  8
W66LALIFT
 62
5
 10
1606.055
 20
-7235.420
 30
-1338.973
 70
    32
  0
VERTEX
  8
W66LALIFT
 62
5
 10
1606.072
 20
-7235.481
 30
-1338.973
 70
    32
  0
VERTEX
  8
W66LALIFT
 62
5
 10
1606.216
 20
-7235.456
 30
-1338.973
 70
    32
  0
VERTEX
  8
W66LALIFT
 62
5
 10
1606.645
 20
-7235.310
 30
-1338.973
 70
    32
  0
VERTEX
  8
W66LALIFT
 62
5
 10
1607.436
 20
-7234.893
 30
-1338.973
 70
    32
  0
VERTEX
  8
W66LALIFT
 62
5
 10
1607.503
 20
-7234.861
 30
-1338.973
 70
    32
  0
VERTEX
  8
W66LALIFT
 62
5
 10
1607.555
 20
-7234.843
 30
-1338.973
 70
    32
  0
VERTEX
  8
W66LALIFT
 62
5
 10
1607.928
 20
-7234.998
 30
-1338.973
 70
    32
  0
VERTEX
  8
W66LALIFT
 62
5
 10
1608.363
 20
-7235.119
 30
-1338.973
 70
    32
  0
VERTEX
  8
W66LALIFT
 62
5
 10
1608.463
 20
-7235.150
 30
-1338.973
 70
    32
  0
VERTEX
  8
W66LALIFT
 62
5
 10
1608.508
 20
-7235.278
 30
-1338.973
 70
    32
  0
VERTEX
  8
W66LALIFT
 62
5
 10
1608.951
 20
-7235.357
 30
-1338.973
 70
    32
  0
VERTEX
  8
W66LALIFT
 62
5
 10
1609.424
 20
-7235.572
 30
-1338.973
 70
    32
  0
VERTEX
  8
W66LALIFT
 62
5
 10
1609.506
 20
-7235.604
 30
-1338.973
 70
    32
  0
VERTEX
  8
W66LALIFT
 62
5
 10
1609.561
 20
-7235.670
 30
-1338.973
 70
    32
  0
VERTEX
  8
W66LALIFT
 62
5
 10
1609.954
 20
-7235.764
 30
-1338.973
 70
    32
  0
VERTEX
  8
W66LALIFT
 62
5
 10
1610.093
 20
-7236.303
 30
-1338.973
 70
    32
  0
VERTEX
  8
W66LALIFT
 62
5
 10
1610.546
 20
-7237.058
 30
-1338.973
 70
    32
  0
VERTEX
  8
W66LALIFT
 62
5
 10
1610.770
 20
-7237.344
 30
-1338.973
 70
    32
  0
VERTEX
  8
W66LALIFT
 62
5
 10
1611.285
 20
-7237.343
 30
-1338.973
 70
    32
  0
VERTEX
  8
W66LALIFT
 62
5
 10
1611.838
 20
-7237.506
 30
-1338.973
 70
    32
  0
VERTEX
  8
W66LALIFT
 62
5
 10
1611.931
 20
-7237.476
 30
-1338.973
 70
    32
  0
VERTEX
  8
W66LALIFT
 62
5
 10
1613.338
 20
-7236.978
 30
-1338.973
 70
    32
  0
VERTEX
  8
W66LALIFT
 62
5
 10
1613.411
 20
-7237.014
 30
-1338.973
 70
    32
  0
VERTEX
  8
W66LALIFT
 62
5
 10
1613.554
 20
-7237.156
 30
-1338.973
 70
    32
  0
VERTEX
  8
W66LALIFT
 62
5
 10
1613.880
 20
-7237.527
 30
-1338.973
 70
    32
  0
VERTEX
  8
W66LALIFT
 62
5
 10
1614.036
 20
-7237.667
 30
-1338.973
 70
    32
  0
VERTEX
  8
W66LALIFT
 62
5
 10
1614.274
 20
-7238.348
 30
-1338.973
 70
    32
  0
VERTEX
  8
W66LALIFT
 62
5
 10
1614.512
 20
-7238.605
 30
-1338.973
 70
    32
  0
VERTEX
  8
W66LALIFT
 62
5
 10
1615.040
 20
-7238.714
 30
-1338.973
 70
    32
  0
VERTEX
  8
W66LALIFT
 62
5
 10
1615.655
 20
-7239.024
 30
-1338.973
 70
    32
  0
VERTEX
  8
W66LALIFT
 62
5
 10
1615.707
 20
-7239.048
 30
-1338.973
 70
    32
  0
VERTEX
  8
W66LALIFT
 62
5
 10
1615.734
 20
-7239.069
 30
-1338.973
 70
    32
  0
VERTEX
  8
W66LALIFT
 62
5
 10
1615.792
 20
-7239.109
 30
-1338.973
 70
    32
  0
VERTEX
  8
W66LALIFT
 62
5
 10
1616.553
 20
-7239.627
 30
-1338.973
 70
    32
  0
VERTEX
  8
W66LALIFT
 62
5
 10
1616.768
 20
-7239.830
 30
-1338.973
 70
    32
  0
VERTEX
  8
W66LALIFT
 62
5
 10
1616.908
 20
-7240.087
 30
-1338.973
 70
    32
  0
VERTEX
  8
W66LALIFT
 62
5
 10
1616.997
 20
-7240.278
 30
-1338.973
 70
    32
  0
VERTEX
  8
W66LALIFT
 62
5
 10
1616.935
 20
-7240.609
 30
-1338.973
 70
    32
  0
VERTEX
  8
W66LALIFT
 62
5
 10
1616.833
 20
-7241.096
 30
-1338.973
 70
    32
  0
VERTEX
  8
W66LALIFT
 62
5
 10
1616.306
 20
-7242.380
 30
-1338.973
 70
    32
  0
VERTEX
  8
W66LALIFT
 62
5
 10
1616.457
 20
-7242.777
 30
-1338.973
 70
    32
  0
VERTEX
  8
W66LALIFT
 62
5
 10
1615.689
 20
-7243.804
 30
-1338.973
 70
    32
  0
VERTEX
  8
W66LALIFT
 62
5
 10
1615.384
 20
-7244.232
 30
-1338.973
 70
    32
  0
VERTEX
  8
W66LALIFT
 62
5
 10
1615.588
 20
-7244.264
 30
-1338.973
 70
    32
  0
VERTEX
  8
W66LALIFT
 62
5
 10
1615.665
 20
-7244.428
 30
-1338.973
 70
    32
  0
VERTEX
  8
W66LALIFT
 62
5
 10
1616.404
 20
-7244.204
 30
-1338.973
 70
    32
  0
VERTEX
  8
W66LALIFT
 62
5
 10
1617.306
 20
-7243.846
 30
-1338.973
 70
    32
  0
VERTEX
  8
W66LALIFT
 62
5
 10
1617.361
 20
-7244.101
 30
-1338.973
 70
    32
  0
VERTEX
  8
W66LALIFT
 62
5
 10
1617.288
 20
-7244.359
 30
-1338.973
 70
    32
  0
VERTEX
  8
W66LALIFT
 62
5
 10
1617.010
 20
-7244.760
 30
-1338.973
 70
    32
  0
VERTEX
  8
W66LALIFT
 62
5
 10
1616.276
 20
-7245.690
 30
-1338.973
 70
    32
  0
VERTEX
  8
W66LALIFT
 62
5
 10
1616.303
 20
-7246.057
 30
-1338.973
 70
    32
  0
VERTEX
  8
W66LALIFT
 62
5
 10
1616.002
 20
-7247.109
 30
-1338.973
 70
    32
  0
VERTEX
  8
W66LALIFT
 62
5
 10
1615.966
 20
-7247.371
 30
-1338.973
 70
    32
  0
VERTEX
  8
W66LALIFT
 62
5
 10
1616.008
 20
-7247.484
 30
-1338.973
 70
    32
  0
VERTEX
  8
W66LALIFT
 62
5
 10
1616.420
 20
-7248.033
 30
-1338.973
 70
    32
  0
VERTEX
  8
W66LALIFT
 62
5
 10
1615.217
 20
-7249.606
 30
-1338.973
 70
    32
  0
VERTEX
  8
W66LALIFT
 62
5
 10
1615.146
 20
-7249.702
 30
-1338.973
 70
    32
  0
VERTEX
  8
W66LALIFT
 62
5
 10
1615.180
 20
-7249.726
 30
-1338.973
 70
    32
  0
VERTEX
  8
W66LALIFT
 62
5
 10
1615.171
 20
-7249.848
 30
-1338.973
 70
    32
  0
VERTEX
  8
W66LALIFT
 62
5
 10
1615.262
 20
-7250.305
 30
-1338.973
 70
    32
  0
VERTEX
  8
W66LALIFT
 62
5
 10
1615.269
 20
-7250.465
 30
-1338.973
 70
    32
  0
VERTEX
  8
W66LALIFT
 62
5
 10
1615.161
 20
-7250.709
 30
-1338.973
 70
    32
  0
VERTEX
  8
W66LALIFT
 62
5
 10
1614.668
 20
-7251.474
 30
-1338.973
 70
    32
  0
VERTEX
  8
W66LALIFT
 62
5
 10
1614.578
 20
-7251.661
 30
-1338.973
 70
    32
  0
VERTEX
  8
W66LALIFT
 62
5
 10
1614.502
 20
-7251.751
 30
-1338.973
 70
    32
  0
VERTEX
  8
W66LALIFT
 62
5
 10
1614.520
 20
-7251.789
 30
-1338.973
 70
    32
  0
VERTEX
  8
W66LALIFT
 62
5
 10
1614.575
 20
-7251.905
 30
-1338.973
 70
    32
  0
VERTEX
  8
W66LALIFT
 62
5
 10
1614.796
 20
-7252.260
 30
-1338.973
 70
    32
  0
VERTEX
  8
W66LALIFT
 62
5
 10
1614.724
 20
-7252.440
 30
-1338.973
 70
    32
  0
VERTEX
  8
W66LALIFT
 62
5
 10
1614.576
 20
-7252.614
 30
-1338.973
 70
    32
  0
VERTEX
  8
W66LALIFT
 62
5
 10
1614.055
 20
-7253.134
 30
-1338.973
 70
    32
  0
VERTEX
  8
W66LALIFT
 62
5
 10
1614.018
 20
-7253.544
 30
-1338.973
 70
    32
  0
VERTEX
  8
W66LALIFT
 62
5
 10
1614.120
 20
-7254.060
 30
-1338.973
 70
    32
  0
VERTEX
  8
W66LALIFT
 62
5
 10
1613.259
 20
-7254.957
 30
-1338.973
 70
    32
  0
VERTEX
  8
W66LALIFT
 62
5
 10
1613.163
 20
-7255.167
 30
-1338.973
 70
    32
  0
VERTEX
  8
W66LALIFT
 62
5
 10
1613.488
 20
-7255.304
 30
-1338.973
 70
    32
  0
VERTEX
  8
W66LALIFT
 62
5
 10
1614.273
 20
-7255.530
 30
-1338.973
 70
    32
  0
VERTEX
  8
W66LALIFT
 62
5
 10
1613.772
 20
-7256.105
 30
-1338.973
 70
    32
  0
VERTEX
  8
W66LALIFT
 62
5
 10
1613.651
 20
-7256.293
 30
-1338.973
 70
    32
  0
VERTEX
  8
W66LALIFT
 62
5
 10
1613.072
 20
-7256.502
 30
-1338.973
 70
    32
  0
VERTEX
  8
W66LALIFT
 62
5
 10
1612.568
 20
-7256.726
 30
-1338.973
 70
    32
  0
VERTEX
  8
W66LALIFT
 62
5
 10
1610.916
 20
-7257.378
 30
-1338.973
 70
    32
  0
VERTEX
  8
W66LALIFT
 62
5
 10
1611.380
 20
-7257.504
 30
-1338.973
 70
    32
  0
VERTEX
  8
W66LALIFT
 62
5
 10
1610.467
 20
-7257.912
 30
-1338.973
 70
    32
  0
VERTEX
  8
W66LALIFT
 62
5
 10
1612.420
 20
-7257.849
 30
-1338.973
 70
    32
  0
VERTEX
  8
W66LALIFT
 62
5
 10
1611.864
 20
-7258.293
 30
-1338.973
 70
    32
  0
VERTEX
  8
W66LALIFT
 62
5
 10
1610.704
 20
-7258.649
 30
-1338.973
 70
    32
  0
VERTEX
  8
W66LALIFT
 62
5
 10
1611.274
 20
-7258.937
 30
-1338.973
 70
    32
  0
VERTEX
  8
W66LALIFT
 62
5
 10
1610.686
 20
-7259.154
 30
-1338.973
 70
    32
  0
VERTEX
  8
W66LALIFT
 62
5
 10
1610.673
 20
-7259.232
 30
-1338.973
 70
    32
  0
VERTEX
  8
W66LALIFT
 62
5
 10
1610.579
 20
-7259.538
 30
-1338.973
 70
    32
  0
VERTEX
  8
W66LALIFT
 62
5
 10
1610.479
 20
-7259.682
 30
-1338.973
 70
    32
  0
VERTEX
  8
W66LALIFT
 62
5
 10
1610.419
 20
-7259.717
 30
-1338.973
 70
    32
  0
VERTEX
  8
W66LALIFT
 62
5
 10
1610.537
 20
-7259.765
 30
-1338.973
 70
    32
  0
VERTEX
  8
W66LALIFT
 62
5
 10
1610.888
 20
-7260.225
 30
-1338.973
 70
    32
  0
VERTEX
  8
W66LALIFT
 62
5
 10
1610.670
 20
-7260.528
 30
-1338.973
 70
    32
  0
VERTEX
  8
W66LALIFT
 62
5
 10
1610.740
 20
-7260.647
 30
-1338.973
 70
    32
  0
VERTEX
  8
W66LALIFT
 62
5
 10
1611.230
 20
-7260.932
 30
-1338.973
 70
    32
  0
VERTEX
  8
W66LALIFT
 62
5
 10
1611.847
 20
-7261.254
 30
-1338.973
 70
    32
  0
VERTEX
  8
W66LALIFT
 62
5
 10
1611.741
 20
-7261.505
 30
-1338.973
 70
    32
  0
VERTEX
  8
W66LALIFT
 62
5
 10
1611.606
 20
-7261.883
 30
-1338.973
 70
    32
  0
VERTEX
  8
W66LALIFT
 62
5
 10
1611.493
 20
-7262.033
 30
-1338.973
 70
    32
  0
VERTEX
  8
W66LALIFT
 62
5
 10
1611.282
 20
-7262.375
 30
-1338.973
 70
    32
  0
VERTEX
  8
W66LALIFT
 62
5
 10
1611.109
 20
-7262.851
 30
-1338.973
 70
    32
  0
VERTEX
  8
W66LALIFT
 62
5
 10
1611.073
 20
-7262.924
 30
-1338.973
 70
    32
  0
VERTEX
  8
W66LALIFT
 62
5
 10
1611.022
 20
-7263.016
 30
-1338.973
 70
    32
  0
VERTEX
  8
W66LALIFT
 62
5
 10
1610.845
 20
-7263.433
 30
-1338.973
 70
    32
  0
VERTEX
  8
W66LALIFT
 62
5
 10
1610.625
 20
-7263.730
 30
-1338.973
 70
    32
  0
VERTEX
  8
W66LALIFT
 62
5
 10
1610.593
 20
-7263.817
 30
-1338.973
 70
    32
  0
VERTEX
  8
W66LALIFT
 62
5
 10
1610.555
 20
-7263.895
 30
-1338.973
 70
    32
  0
VERTEX
  8
W66LALIFT
 62
5
 10
1610.400
 20
-7264.317
 30
-1338.973
 70
    32
  0
VERTEX
  8
W66LALIFT
 62
5
 10
1610.376
 20
-7264.416
 30
-1338.973
 70
    32
  0
VERTEX
  8
W66LALIFT
 62
5
 10
1610.249
 20
-7264.826
 30
-1338.973
 70
    32
  0
VERTEX
  8
W66LALIFT
 62
5
 10
1610.415
 20
-7265.274
 30
-1338.973
 70
    32
  0
VERTEX
  8
W66LALIFT
 62
5
 10
1610.225
 20
-7265.406
 30
-1338.973
 70
    32
  0
VERTEX
  8
W66LALIFT
 62
5
 10
1610.623
 20
-7265.860
 30
-1338.973
 70
    32
  0
VERTEX
  8
W66LALIFT
 62
5
 10
1610.768
 20
-7266.277
 30
-1338.973
 70
    32
  0
VERTEX
  8
W66LALIFT
 62
5
 10
1610.759
 20
-7266.545
 30
-1338.973
 70
    32
  0
VERTEX
  8
W66LALIFT
 62
5
 10
1610.740
 20
-7266.754
 30
-1338.973
 70
    32
  0
VERTEX
  8
W66LALIFT
 62
5
 10
1610.827
 20
-7267.322
 30
-1338.973
 70
    32
  0
VERTEX
  8
W66LALIFT
 62
5
 10
1610.844
 20
-7267.431
 30
-1338.973
 70
    32
  0
VERTEX
  8
W66LALIFT
 62
5
 10
1610.738
 20
-7267.778
 30
-1338.973
 70
    32
  0
VERTEX
  8
W66LALIFT
 62
5
 10
1610.687
 20
-7268.003
 30
-1338.973
 70
    32
  0
VERTEX
  8
W66LALIFT
 62
5
 10
1609.429
 20
-7267.742
 30
-1338.973
 70
    32
  0
VERTEX
  8
W66LALIFT
 62
5
 10
1608.070
 20
-7267.262
 30
-1338.973
 70
    32
  0
VERTEX
  8
W66LALIFT
 62
5
 10
1608.093
 20
-7267.520
 30
-1338.973
 70
    32
  0
VERTEX
  8
W66LALIFT
 62
5
 10
1607.239
 20
-7267.339
 30
-1338.973
 70
    32
  0
VERTEX
  8
W66LALIFT
 62
5
 10
1607.584
 20
-7267.977
 30
-1338.973
 70
    32
  0
VERTEX
  8
W66LALIFT
 62
5
 10
1607.507
 20
-7268.072
 30
-1338.973
 70
    32
  0
VERTEX
  8
W66LALIFT
 62
5
 10
1609.250
 20
-7269.743
 30
-1338.973
 70
    32
  0
VERTEX
  8
W66LALIFT
 62
5
 10
1609.770
 20
-7270.250
 30
-1338.973
 70
    32
  0
VERTEX
  8
W66LALIFT
 62
5
 10
1609.769
 20
-7270.290
 30
-1338.973
 70
    32
  0
VERTEX
  8
W66LALIFT
 62
5
 10
1609.668
 20
-7270.885
 30
-1338.973
 70
    32
  0
VERTEX
  8
W66LALIFT
 62
5
 10
1608.208
 20
-7270.355
 30
-1338.973
 70
    32
  0
VERTEX
  8
W66LALIFT
 62
5
 10
1608.168
 20
-7270.497
 30
-1338.973
 70
    32
  0
VERTEX
  8
W66LALIFT
 62
5
 10
1607.752
 20
-7270.288
 30
-1338.973
 70
    32
  0
VERTEX
  8
W66LALIFT
 62
5
 10
1607.565
 20
-7270.406
 30
-1338.973
 70
    32
  0
VERTEX
  8
W66LALIFT
 62
5
 10
1607.398
 20
-7270.498
 30
-1338.973
 70
    32
  0
VERTEX
  8
W66LALIFT
 62
5
 10
1607.345
 20
-7270.560
 30
-1338.973
 70
    32
  0
VERTEX
  8
W66LALIFT
 62
5
 10
1607.226
 20
-7270.927
 30
-1338.973
 70
    32
  0
VERTEX
  8
W66LALIFT
 62
5
 10
1607.175
 20
-7271.102
 30
-1338.973
 70
    32
  0
VERTEX
  8
W66LALIFT
 62
5
 10
1607.198
 20
-7271.292
 30
-1338.973
 70
    32
  0
VERTEX
  8
W66LALIFT
 62
5
 10
1607.346
 20
-7272.087
 30
-1338.973
 70
    32
  0
VERTEX
  8
W66LALIFT
 62
5
 10
1607.631
 20
-7272.664
 30
-1338.973
 70
    32
  0
VERTEX
  8
W66LALIFT
 62
5
 10
1608.253
 20
-7273.955
 30
-1338.973
 70
    32
  0
VERTEX
  8
W66LALIFT
 62
5
 10
1607.994
 20
-7274.361
 30
-1338.973
 70
    32
  0
VERTEX
  8
W66LALIFT
 62
5
 10
1607.946
 20
-7274.488
 30
-1338.973
 70
    32
  0
VERTEX
  8
W66LALIFT
 62
5
 10
1607.939
 20
-7274.637
 30
-1338.973
 70
    32
  0
VERTEX
  8
W66LALIFT
 62
5
 10
1607.934
 20
-7274.964
 30
-1338.973
 70
    32
  0
VERTEX
  8
W66LALIFT
 62
5
 10
1607.874
 20
-7275.326
 30
-1338.973
 70
    32
  0
VERTEX
  8
W66LALIFT
 62
5
 10
1607.820
 20
-7275.476
 30
-1338.973
 70
    32
  0
VERTEX
  8
W66LALIFT
 62
5
 10
1607.849
 20
-7275.721
 30
-1338.973
 70
    32
  0
VERTEX
  8
W66LALIFT
 62
5
 10
1607.600
 20
-7275.898
 30
-1338.973
 70
    32
  0
VERTEX
  8
W66LALIFT
 62
5
 10
1607.503
 20
-7275.985
 30
-1338.973
 70
    32
  0
VERTEX
  8
W66LALIFT
 62
5
 10
1607.473
 20
-7276.026
 30
-1338.973
 70
    32
  0
VERTEX
  8
W66LALIFT
 62
5
 10
1607.415
 20
-7276.089
 30
-1338.973
 70
    32
  0
VERTEX
  8
W66LALIFT
 62
5
 10
1607.008
 20
-7276.494
 30
-1338.973
 70
    32
  0
VERTEX
  8
W66LALIFT
 62
5
 10
1606.737
 20
-7276.809
 30
-1338.973
 70
    32
  0
VERTEX
  8
W66LALIFT
 62
5
 10
1606.510
 20
-7276.991
 30
-1338.973
 70
    32
  0
VERTEX
  8
W66LALIFT
 62
5
 10
1605.789
 20
-7276.933
 30
-1338.973
 70
    32
  0
VERTEX
  8
W66LALIFT
 62
5
 10
1605.701
 20
-7276.994
 30
-1338.973
 70
    32
  0
VERTEX
  8
W66LALIFT
 62
5
 10
1605.665
 20
-7277.059
 30
-1338.973
 70
    32
  0
VERTEX
  8
W66LALIFT
 62
5
 10
1605.461
 20
-7277.109
 30
-1338.973
 70
    32
  0
VERTEX
  8
W66LALIFT
 62
5
 10
1605.212
 20
-7277.320
 30
-1338.973
 70
    32
  0
VERTEX
  8
W66LALIFT
 62
5
 10
1605.138
 20
-7277.377
 30
-1338.973
 70
    32
  0
VERTEX
  8
W66LALIFT
 62
5
 10
1605.206
 20
-7277.918
 30
-1338.973
 70
    32
  0
VERTEX
  8
W66LALIFT
 62
5
 10
1605.267
 20
-7279.055
 30
-1338.973
 70
    32
  0
SEQEND
  8
W66LALIFT
  0
POLYLINE
  8
W66LALIFT
 62
14
 66
     1
 70
     9
  0
VERTEX
  8
W66LALIFT
 62
14
 10
1577.309
 20
-7278.827
 30
-1327.771
 70
    32
  0
VERTEX
  8
W66LALIFT
 62
14
 10
1577.266
 20
-7277.912
 30
-1327.771
 70
    32
  0
VERTEX
  8
W66LALIFT
 62
14
 10
1578.162
 20
-7275.774
 30
-1327.771
 70
    32
  0
VERTEX
  8
W66LALIFT
 62
14
 10
1579.239
 20
-7274.588
 30
-1327.771
 70
    32
  0
VERTEX
  8
W66LALIFT
 62
14
 10
1580.010
 20
-7272.883
 30
-1327.771
 70
    32
  0
VERTEX
  8
W66LALIFT
 62
14
 10
1580.577
 20
-7270.946
 30
-1327.771
 70
    32
  0
VERTEX
  8
W66LALIFT
 62
14
 10
1580.061
 20
-7267.147
 30
-1327.771
 70
    32
  0
VERTEX
  8
W66LALIFT
 62
14
 10
1580.782
 20
-7263.512
 30
-1327.771
 70
    32
  0
VERTEX
  8
W66LALIFT
 62
14
 10
1580.238
 20
-7260.927
 30
-1327.771
 70
    32
  0
VERTEX
  8
W66LALIFT
 62
14
 10
1579.386
 20
-7258.688
 30
-1327.771
 70
    32
  0
VERTEX
  8
W66LALIFT
 62
14
 10
1577.457
 20
-7255.884
 30
-1327.771
 70
    32
  0
VERTEX
  8
W66LALIFT
 62
14
 10
1576.925
 20
-7253.821
 30
-1327.771
 70
    32
  0
VERTEX
  8
W66LALIFT
 62
14
 10
1576.107
 20
-7251.816
 30
-1327.771
 70
    32
  0
VERTEX
  8
W66LALIFT
 62
14
 10
1576.633
 20
-7249.264
 30
-1327.771
 70
    32
  0
VERTEX
  8
W66LALIFT
 62
14
 10
1576.392
 20
-7244.973
 30
-1327.771
 70
    32
  0
VERTEX
  8
W66LALIFT
 62
14
 10
1577.346
 20
-7242.342
 30
-1327.771
 70
    32
  0
VERTEX
  8
W66LALIFT
 62
14
 10
1579.048
 20
-7240.760
 30
-1327.771
 70
    32
  0
VERTEX
  8
W66LALIFT
 62
14
 10
1580.442
 20
-7239.950
 30
-1327.771
 70
    32
  0
VERTEX
  8
W66LALIFT
 62
14
 10
1581.929
 20
-7238.920
 30
-1327.771
 70
    32
  0
VERTEX
  8
W66LALIFT
 62
14
 10
1583.411
 20
-7238.312
 30
-1327.771
 70
    32
  0
VERTEX
  8
W66LALIFT
 62
14
 10
1584.220
 20
-7238.182
 30
-1327.771
 70
    32
  0
VERTEX
  8
W66LALIFT
 62
14
 10
1585.296
 20
-7238.796
 30
-1327.771
 70
    32
  0
VERTEX
  8
W66LALIFT
 62
14
 10
1586.080
 20
-7239.308
 30
-1327.771
 70
    32
  0
VERTEX
  8
W66LALIFT
 62
14
 10
1586.811
 20
-7239.892
 30
-1327.771
 70
    32
  0
VERTEX
  8
W66LALIFT
 62
14
 10
1588.171
 20
-7239.609
 30
-1327.771
 70
    32
  0
VERTEX
  8
W66LALIFT
 62
14
 10
1589.794
 20
-7239.762
 30
-1327.771
 70
    32
  0
VERTEX
  8
W66LALIFT
 62
14
 10
1591.953
 20
-7240.701
 30
-1327.771
 70
    32
  0
VERTEX
  8
W66LALIFT
 62
14
 10
1594.099
 20
-7239.744
 30
-1327.771
 70
    32
  0
VERTEX
  8
W66LALIFT
 62
14
 10
1596.742
 20
-7240.439
 30
-1327.771
 70
    32
  0
VERTEX
  8
W66LALIFT
 62
14
 10
1598.534
 20
-7241.081
 30
-1327.771
 70
    32
  0
VERTEX
  8
W66LALIFT
 62
14
 10
1600.297
 20
-7241.627
 30
-1327.771
 70
    32
  0
VERTEX
  8
W66LALIFT
 62
14
 10
1601.360
 20
-7242.491
 30
-1327.771
 70
    32
  0
VERTEX
  8
W66LALIFT
 62
14
 10
1602.053
 20
-7243.315
 30
-1327.771
 70
    32
  0
VERTEX
  8
W66LALIFT
 62
14
 10
1602.034
 20
-7244.999
 30
-1327.771
 70
    32
  0
VERTEX
  8
W66LALIFT
 62
14
 10
1601.769
 20
-7247.249
 30
-1327.771
 70
    32
  0
VERTEX
  8
W66LALIFT
 62
14
 10
1601.284
 20
-7249.274
 30
-1327.771
 70
    32
  0
VERTEX
  8
W66LALIFT
 62
14
 10
1602.627
 20
-7251.197
 30
-1327.771
 70
    32
  0
VERTEX
  8
W66LALIFT
 62
14
 10
1604.026
 20
-7253.880
 30
-1327.771
 70
    32
  0
VERTEX
  8
W66LALIFT
 62
14
 10
1602.837
 20
-7256.183
 30
-1327.771
 70
    32
  0
VERTEX
  8
W66LALIFT
 62
14
 10
1602.972
 20
-7257.204
 30
-1327.771
 70
    32
  0
VERTEX
  8
W66LALIFT
 62
14
 10
1602.513
 20
-7259.674
 30
-1327.771
 70
    32
  0
VERTEX
  8
W66LALIFT
 62
14
 10
1601.925
 20
-7260.142
 30
-1327.771
 70
    32
  0
VERTEX
  8
W66LALIFT
 62
14
 10
1601.067
 20
-7262.745
 30
-1327.771
 70
    32
  0
VERTEX
  8
W66LALIFT
 62
14
 10
1600.726
 20
-7263.896
 30
-1327.771
 70
    32
  0
VERTEX
  8
W66LALIFT
 62
14
 10
1601.043
 20
-7264.344
 30
-1327.771
 70
    32
  0
VERTEX
  8
W66LALIFT
 62
14
 10
1599.158
 20
-7264.917
 30
-1327.771
 70
    32
  0
VERTEX
  8
W66LALIFT
 62
14
 10
1598.115
 20
-7266.662
 30
-1327.771
 70
    32
  0
VERTEX
  8
W66LALIFT
 62
14
 10
1597.052
 20
-7269.737
 30
-1327.771
 70
    32
  0
VERTEX
  8
W66LALIFT
 62
14
 10
1595.626
 20
-7271.639
 30
-1327.771
 70
    32
  0
VERTEX
  8
W66LALIFT
 62
14
 10
1595.733
 20
-7273.148
 30
-1327.771
 70
    32
  0
SEQEND
  8
W66LALIFT
  0
POLYLINE
  8
W66LALIFT
 62
6
 66
     1
 70
     9
  0
VERTEX
  8
W66LALIFT
 62
6
 10
1592.588
 20
-7265.304
 30
-1341.774
 70
    32
  0
VERTEX
  8
W66LALIFT
 62
6
 10
1588.748
 20
-7264.599
 30
-1341.774
 70
    32
  0
VERTEX
  8
W66LALIFT
 62
6
 10
1587.773
 20
-7264.560
 30
-1341.774
 70
    32
  0
VERTEX
  8
W66LALIFT
 62
6
 10
1586.264
 20
-7264.269
 30
-1341.774
 70
    32
  0
VERTEX
  8
W66LALIFT
 62
6
 10
1584.825
 20
-7263.759
 30
-1341.774
 70
    32
  0
VERTEX
  8
W66LALIFT
 62
6
 10
1584.242
 20
-7261.711
 30
-1341.774
 70
    32
  0
VERTEX
  8
W66LALIFT
 62
6
 10
1584.128
 20
-7259.754
 30
-1341.774
 70
    32
  0
VERTEX
  8
W66LALIFT
 62
6
 10
1583.563
 20
-7257.875
 30
-1341.774
 70
    32
  0
VERTEX
  8
W66LALIFT
 62
6
 10
1584.371
 20
-7257.246
 30
-1341.774
 70
    32
  0
VERTEX
  8
W66LALIFT
 62
6
 10
1583.767
 20
-7257.068
 30
-1341.774
 70
    32
  0
VERTEX
  8
W66LALIFT
 62
6
 10
1583.064
 20
-7256.171
 30
-1341.774
 70
    32
  0
VERTEX
  8
W66LALIFT
 62
6
 10
1583.064
 20
-7256.171
 30
-1341.774
 70
    32
  0
VERTEX
  8
W66LALIFT
 62
6
 10
1583.093
 20
-7255.050
 30
-1341.774
 70
    32
  0
VERTEX
  8
W66LALIFT
 62
6
 10
1583.479
 20
-7254.327
 30
-1341.774
 70
    32
  0
VERTEX
  8
W66LALIFT
 62
6
 10
1583.984
 20
-7254.035
 30
-1341.774
 70
    32
  0
VERTEX
  8
W66LALIFT
 62
6
 10
1583.736
 20
-7253.333
 30
-1341.774
 70
    32
  0
VERTEX
  8
W66LALIFT
 62
6
 10
1583.715
 20
-7252.790
 30
-1341.774
 70
    32
  0
VERTEX
  8
W66LALIFT
 62
6
 10
1583.974
 20
-7252.225
 30
-1341.774
 70
    32
  0
VERTEX
  8
W66LALIFT
 62
6
 10
1585.247
 20
-7252.684
 30
-1341.774
 70
    32
  0
VERTEX
  8
W66LALIFT
 62
6
 10
1582.984
 20
-7250.206
 30
-1341.774
 70
    32
  0
VERTEX
  8
W66LALIFT
 62
6
 10
1583.093
 20
-7248.357
 30
-1341.774
 70
    32
  0
VERTEX
  8
W66LALIFT
 62
6
 10
1579.322
 20
-7242.186
 30
-1341.774
 70
    32
  0
VERTEX
  8
W66LALIFT
 62
6
 10
1581.294
 20
-7242.685
 30
-1341.774
 70
    32
  0
VERTEX
  8
W66LALIFT
 62
6
 10
1583.236
 20
-7246.899
 30
-1341.774
 70
    32
  0
VERTEX
  8
W66LALIFT
 62
6
 10
1584.664
 20
-7249.030
 30
-1341.774
 70
    32
  0
VERTEX
  8
W66LALIFT
 62
6
 10
1586.138
 20
-7249.936
 30
-1341.774
 70
    32
  0
VERTEX
  8
W66LALIFT
 62
6
 10
1586.949
 20
-7249.474
 30
-1341.774
 70
    32
  0
VERTEX
  8
W66LALIFT
 62
6
 10
1589.199
 20
-7248.279
 30
-1341.774
 70
    32
  0
VERTEX
  8
W66LALIFT
 62
6
 10
1588.108
 20
-7246.098
 30
-1341.774
 70
    32
  0
VERTEX
  8
W66LALIFT
 62
6
 10
1587.497
 20
-7246.113
 30
-1341.774
 70
    32
  0
VERTEX
  8
W66LALIFT
 62
6
 10
1584.042
 20
-7239.644
 30
-1341.774
 70
    32
  0
VERTEX
  8
W66LALIFT
 62
6
 10
1582.964
 20
-7239.482
 30
-1341.774
 70
    32
  0
VERTEX
  8
W66LALIFT
 62
6
 10
1579.892
 20
-7234.123
 30
-1341.774
 70
    32
  0
VERTEX
  8
W66LALIFT
 62
6
 10
1582.983
 20
-7232.387
 30
-1341.774
 70
    32
  0
VERTEX
  8
W66LALIFT
 62
6
 10
1585.313
 20
-7233.517
 30
-1341.774
 70
    32
  0
VERTEX
  8
W66LALIFT
 62
6
 10
1586.823
 20
-7234.136
 30
-1341.774
 70
    32
  0
VERTEX
  8
W66LALIFT
 62
6
 10
1588.972
 20
-7235.586
 30
-1341.774
 70
    32
  0
VERTEX
  8
W66LALIFT
 62
6
 10
1590.358
 20
-7236.975
 30
-1341.774
 70
    32
  0
VERTEX
  8
W66LALIFT
 62
6
 10
1592.345
 20
-7237.568
 30
-1341.774
 70
    32
  0
VERTEX
  8
W66LALIFT
 62
6
 10
1593.786
 20
-7239.128
 30
-1341.774
 70
    32
  0
VERTEX
  8
W66LALIFT
 62
6
 10
1594.394
 20
-7239.440
 30
-1341.774
 70
    32
  0
VERTEX
  8
W66LALIFT
 62
6
 10
1595.514
 20
-7238.330
 30
-1341.774
 70
    32
  0
VERTEX
  8
W66LALIFT
 62
6
 10
1596.025
 20
-7238.771
 30
-1341.774
 70
    32
  0
VERTEX
  8
W66LALIFT
 62
6
 10
1596.548
 20
-7238.094
 30
-1341.774
 70
    32
  0
VERTEX
  8
W66LALIFT
 62
6
 10
1596.938
 20
-7238.902
 30
-1341.774
 70
    32
  0
VERTEX
  8
W66LALIFT
 62
6
 10
1597.158
 20
-7240.077
 30
-1341.774
 70
    32
  0
VERTEX
  8
W66LALIFT
 62
6
 10
1597.982
 20
-7240.080
 30
-1341.774
 70
    32
  0
VERTEX
  8
W66LALIFT
 62
6
 10
1599.894
 20
-7239.039
 30
-1341.774
 70
    32
  0
VERTEX
  8
W66LALIFT
 62
6
 10
1601.575
 20
-7238.471
 30
-1341.774
 70
    32
  0
VERTEX
  8
W66LALIFT
 62
6
 10
1602.977
 20
-7238.346
 30
-1341.774
 70
    32
  0
VERTEX
  8
W66LALIFT
 62
6
 10
1604.239
 20
-7240.251
 30
-1341.774
 70
    32
  0
VERTEX
  8
W66LALIFT
 62
6
 10
1605.300
 20
-7239.452
 30
-1341.774
 70
    32
  0
VERTEX
  8
W66LALIFT
 62
6
 10
1605.776
 20
-7241.533
 30
-1341.774
 70
    32
  0
VERTEX
  8
W66LALIFT
 62
6
 10
1605.433
 20
-7242.589
 30
-1341.774
 70
    32
  0
VERTEX
  8
W66LALIFT
 62
6
 10
1604.866
 20
-7245.874
 30
-1341.774
 70
    32
  0
VERTEX
  8
W66LALIFT
 62
6
 10
1606.022
 20
-7244.963
 30
-1341.774
 70
    32
  0
VERTEX
  8
W66LALIFT
 62
6
 10
1605.778
 20
-7246.659
 30
-1341.774
 70
    32
  0
VERTEX
  8
W66LALIFT
 62
6
 10
1606.898
 20
-7247.181
 30
-1341.774
 70
    32
  0
VERTEX
  8
W66LALIFT
 62
6
 10
1608.448
 20
-7246.169
 30
-1341.774
 70
    32
  0
VERTEX
  8
W66LALIFT
 62
6
 10
1608.273
 20
-7245.662
 30
-1341.774
 70
    32
  0
VERTEX
  8
W66LALIFT
 62
6
 10
1609.264
 20
-7244.556
 30
-1341.774
 70
    32
  0
VERTEX
  8
W66LALIFT
 62
6
 10
1609.956
 20
-7246.046
 30
-1341.774
 70
    32
  0
VERTEX
  8
W66LALIFT
 62
6
 10
1611.227
 20
-7245.876
 30
-1341.774
 70
    32
  0
VERTEX
  8
W66LALIFT
 62
6
 10
1612.007
 20
-7247.400
 30
-1341.774
 70
    32
  0
VERTEX
  8
W66LALIFT
 62
6
 10
1613.499
 20
-7248.002
 30
-1341.774
 70
    32
  0
VERTEX
  8
W66LALIFT
 62
6
 10
1612.594
 20
-7249.525
 30
-1341.774
 70
    32
  0
VERTEX
  8
W66LALIFT
 62
6
 10
1613.799
 20
-7249.601
 30
-1341.774
 70
    32
  0
VERTEX
  8
W66LALIFT
 62
6
 10
1612.670
 20
-7251.304
 30
-1341.774
 70
    32
  0
VERTEX
  8
W66LALIFT
 62
6
 10
1609.788
 20
-7252.615
 30
-1341.774
 70
    32
  0
VERTEX
  8
W66LALIFT
 62
6
 10
1605.935
 20
-7253.438
 30
-1341.774
 70
    32
  0
VERTEX
  8
W66LALIFT
 62
6
 10
1604.399
 20
-7253.920
 30
-1341.774
 70
    32
  0
VERTEX
  8
W66LALIFT
 62
6
 10
1604.209
 20
-7255.091
 30
-1341.774
 70
    32
  0
VERTEX
  8
W66LALIFT
 62
6
 10
1604.642
 20
-7256.528
 30
-1341.774
 70
    32
  0
VERTEX
  8
W66LALIFT
 62
6
 10
1605.391
 20
-7256.988
 30
-1341.774
 70
    32
  0
VERTEX
  8
W66LALIFT
 62
6
 10
1606.450
 20
-7258.837
 30
-1341.774
 70
    32
  0
VERTEX
  8
W66LALIFT
 62
6
 10
1607.887
 20
-7259.904
 30
-1341.774
 70
    32
  0
VERTEX
  8
W66LALIFT
 62
6
 10
1609.191
 20
-7260.704
 30
-1341.774
 70
    32
  0
VERTEX
  8
W66LALIFT
 62
6
 10
1607.278
 20
-7261.121
 30
-1341.774
 70
    32
  0
VERTEX
  8
W66LALIFT
 62
6
 10
1607.709
 20
-7262.526
 30
-1341.774
 70
    32
  0
VERTEX
  8
W66LALIFT
 62
6
 10
1605.450
 20
-7262.796
 30
-1341.774
 70
    32
  0
VERTEX
  8
W66LALIFT
 62
6
 10
1605.542
 20
-7263.441
 30
-1341.774
 70
    32
  0
VERTEX
  8
W66LALIFT
 62
6
 10
1606.272
 20
-7263.837
 30
-1341.774
 70
    32
  0
VERTEX
  8
W66LALIFT
 62
6
 10
1605.657
 20
-7264.596
 30
-1341.774
 70
    32
  0
VERTEX
  8
W66LALIFT
 62
6
 10
1606.145
 20
-7265.554
 30
-1341.774
 70
    32
  0
VERTEX
  8
W66LALIFT
 62
6
 10
1605.718
 20
-7265.860
 30
-1341.774
 70
    32
  0
VERTEX
  8
W66LALIFT
 62
6
 10
1602.239
 20
-7265.161
 30
-1341.774
 70
    32
  0
VERTEX
  8
W66LALIFT
 62
6
 10
1601.720
 20
-7265.723
 30
-1341.774
 70
    32
  0
VERTEX
  8
W66LALIFT
 62
6
 10
1601.861
 20
-7266.898
 30
-1341.774
 70
    32
  0
VERTEX
  8
W66LALIFT
 62
6
 10
1601.655
 20
-7268.195
 30
-1341.774
 70
    32
  0
VERTEX
  8
W66LALIFT
 62
6
 10
1602.732
 20
-7270.623
 30
-1341.774
 70
    32
  0
VERTEX
  8
W66LALIFT
 62
6
 10
1603.172
 20
-7272.050
 30
-1341.774
 70
    32
  0
VERTEX
  8
W66LALIFT
 62
6
 10
1602.406
 20
-7273.648
 30
-1341.774
 70
    32
  0
VERTEX
  8
W66LALIFT
 62
6
 10
1601.251
 20
-7272.343
 30
-1341.774
 70
    32
  0
SEQEND
  8
W66LALIFT
  0
POLYLINE
  8
W66LALIFT
 62
4
 66
     1
 70
     9
  0
VERTEX
  8
W66LALIFT
 62
4
 10
1582.341
 20
-7282.574
 30
-1319.369
 70
    32
  0
VERTEX
  8
W66LALIFT
 62
4
 10
1581.830
 20
-7281.325
 30
-1319.369
 70
    32
  0
VERTEX
  8
W66LALIFT
 62
4
 10
1582.483
 20
-7278.226
 30
-1319.369
 70
    32
  0
VERTEX
  8
W66LALIFT
 62
4
 10
1582.886
 20
-7276.862
 30
-1319.369
 70
    32
  0
VERTEX
  8
W66LALIFT
 62
4
 10
1583.046
 20
-7275.101
 30
-1319.369
 70
    32
  0
VERTEX
  8
W66LALIFT
 62
4
 10
1583.258
 20
-7274.424
 30
-1319.369
 70
    32
  0
VERTEX
  8
W66LALIFT
 62
4
 10
1584.614
 20
-7272.082
 30
-1319.369
 70
    32
  0
VERTEX
  8
W66LALIFT
 62
4
 10
1585.322
 20
-7271.248
 30
-1319.369
 70
    32
  0
VERTEX
  8
W66LALIFT
 62
4
 10
1585.700
 20
-7271.273
 30
-1319.369
 70
    32
  0
VERTEX
  8
W66LALIFT
 62
4
 10
1587.273
 20
-7269.673
 30
-1319.369
 70
    32
  0
VERTEX
  8
W66LALIFT
 62
4
 10
1589.033
 20
-7268.578
 30
-1319.369
 70
    32
  0
VERTEX
  8
W66LALIFT
 62
4
 10
1590.123
 20
-7268.481
 30
-1319.369
 70
    32
  0
VERTEX
  8
W66LALIFT
 62
4
 10
1590.562
 20
-7269.019
 30
-1319.369
 70
    32
  0
VERTEX
  8
W66LALIFT
 62
4
 10
1591.435
 20
-7270.102
 30
-1319.369
 70
    32
  0
VERTEX
  8
W66LALIFT
 62
4
 10
1591.050
 20
-7271.289
 30
-1319.369
 70
    32
  0
VERTEX
  8
W66LALIFT
 62
4
 10
1590.958
 20
-7272.653
 30
-1319.369
 70
    32
  0
VERTEX
  8
W66LALIFT
 62
4
 10
1591.111
 20
-7273.206
 30
-1319.369
 70
    32
  0
VERTEX
  8
W66LALIFT
 62
4
 10
1590.922
 20
-7277.217
 30
-1319.369
 70
    32
  0
VERTEX
  8
W66LALIFT
 62
4
 10
1590.909
 20
-7278.386
 30
-1319.369
 70
    32
  0
VERTEX
  8
W66LALIFT
 62
4
 10
1591.214
 20
-7279.300
 30
-1319.369
 70
    32
  0
VERTEX
  8
W66LALIFT
 62
4
 10
1591.449
 20
-7279.702
 30
-1319.369
 70
    32
  0
VERTEX
  8
W66LALIFT
 62
4
 10
1591.803
 20
-7279.961
 30
-1319.369
 70
    32
  0
VERTEX
  8
W66LALIFT
 62
4
 10
1591.692
 20
-7281.740
 30
-1319.369
 70
    32
  0
SEQEND
  8
W66LALIFT
  0
POLYLINE
  8
W66LALIFT
 62
16
 66
     1
 70
     9
  0
VERTEX
  8
W66LALIFT
 62
16
 10
1586.060
 20
-7284.654
 30
-1316.568
 70
    32
  0
VERTEX
  8
W66LALIFT
 62
16
 10
1585.972
 20
-7283.953
 30
-1316.568
 70
    32
  0
VERTEX
  8
W66LALIFT
 62
16
 10
1585.799
 20
-7283.245
 30
-1316.568
 70
    32
  0
VERTEX
  8
W66LALIFT
 62
16
 10
1586.552
 20
-7281.382
 30
-1316.568
 70
    32
  0
VERTEX
  8
W66LALIFT
 62
16
 10
1586.675
 20
-7281.377
 30
-1316.568
 70
    32
  0
VERTEX
  8
W66LALIFT
 62
16
 10
1586.648
 20
-7282.151
 30
-1316.568
 70
    32
  0
VERTEX
  8
W66LALIFT
 62
16
 10
1586.754
 20
-7282.941
 30
-1316.568
 70
    32
  0
VERTEX
  8
W66LALIFT
 62
16
 10
1586.939
 20
-7284.045
 30
-1316.568
 70
    32
  0
VERTEX
  8
W66LALIFT
 62
16
 10
1586.969
 20
-7284.613
 30
-1316.568
 70
    32
  0
SEQEND
  8
W66LALIFT
  0
POLYLINE
  8
W66LALIFT
 62
4
 66
     1
 70
     9
  0
VERTEX
  8
W66LALIFT
 62
4
 10
1349.477
 20
-7052.535
 30
-1268.841
 70
    32
  0
VERTEX
  8
W66LALIFT
 62
4
 10
1341.151
 20
-7041.708
 30
-1266.216
 70
    32
  0
VERTEX
  8
W66LALIFT
 62
4
 10
1347.555
 20
-7036.238
 30
-1266.496
 70
    32
  0
VERTEX
  8
W66LALIFT
 62
4
 10
1352.811
 20
-7029.622
 30
-1264.859
 70
    32
  0
VERTEX
  8
W66LALIFT
 62
4
 10
1355.830
 20
-7022.586
 30
-1263.844
 70
    32
  0
VERTEX
  8
W66LALIFT
 62
4
 10
1354.184
 20
-7009.985
 30
-1262.580
 70
    32
  0
VERTEX
  8
W66LALIFT
 62
4
 10
1350.375
 20
-6995.555
 30
-1262.311
 70
    32
  0
VERTEX
  8
W66LALIFT
 62
4
 10
1349.915
 20
-6980.061
 30
-1264.071
 70
    32
  0
VERTEX
  8
W66LALIFT
 62
4
 10
1347.661
 20
-6972.216
 30
-1264.050
 70
    32
  0
VERTEX
  8
W66LALIFT
 62
4
 10
1350.583
 20
-6970.263
 30
-1263.383
 70
    32
  0
VERTEX
  8
W66LALIFT
 62
4
 10
1354.855
 20
-6969.252
 30
-1264.262
 70
    32
  0
VERTEX
  8
W66LALIFT
 62
4
 10
1355.678
 20
-6974.310
 30
-1261.058
 70
    32
  0
VERTEX
  8
W66LALIFT
 62
4
 10
1363.947
 20
-6973.569
 30
-1262.387
 70
    32
  0
VERTEX
  8
W66LALIFT
 62
4
 10
1365.726
 20
-6968.320
 30
-1261.936
 70
    32
  0
VERTEX
  8
W66LALIFT
 62
4
 10
1365.453
 20
-6942.469
 30
-1258.539
 70
    32
  0
VERTEX
  8
W66LALIFT
 62
4
 10
1375.328
 20
-6942.711
 30
-1258.539
 70
    32
  0
VERTEX
  8
W66LALIFT
 62
4
 10
1375.931
 20
-6957.763
 30
-1260.064
 70
    32
  0
VERTEX
  8
W66LALIFT
 62
4
 10
1377.091
 20
-6963.511
 30
-1260.590
 70
    32
  0
VERTEX
  8
W66LALIFT
 62
4
 10
1377.800
 20
-6968.135
 30
-1262.056
 70
    32
  0
VERTEX
  8
W66LALIFT
 62
4
 10
1378.781
 20
-6972.032
 30
-1261.839
 70
    32
  0
VERTEX
  8
W66LALIFT
 62
4
 10
1375.194
 20
-6986.903
 30
-1262.991
 70
    32
  0
VERTEX
  8
W66LALIFT
 62
4
 10
1377.746
 20
-6996.271
 30
-1261.601
 70
    32
  0
VERTEX
  8
W66LALIFT
 62
4
 10
1379.398
 20
-7001.702
 30
-1262.467
 70
    32
  0
VERTEX
  8
W66LALIFT
 62
4
 10
1380.103
 20
-7010.319
 30
-1262.203
 70
    32
  0
VERTEX
  8
W66LALIFT
 62
4
 10
1378.841
 20
-7013.368
 30
-1262.518
 70
    32
  0
VERTEX
  8
W66LALIFT
 62
4
 10
1378.244
 20
-7017.302
 30
-1263.233
 70
    32
  0
VERTEX
  8
W66LALIFT
 62
4
 10
1377.763
 20
-7024.575
 30
-1262.092
 70
    32
  0
VERTEX
  8
W66LALIFT
 62
4
 10
1373.650
 20
-7030.150
 30
-1265.545
 70
    32
  0
VERTEX
  8
W66LALIFT
 62
4
 10
1373.543
 20
-7035.878
 30
-1264.324
 70
    32
  0
VERTEX
  8
W66LALIFT
 62
4
 10
1366.713
 20
-7039.986
 30
-1265.633
 70
    32
  0
VERTEX
  8
W66LALIFT
 62
4
 10
1362.594
 20
-7047.307
 30
-1267.803
 70
    32
  0
VERTEX
  8
W66LALIFT
 62
4
 10
1356.331
 20
-7047.397
 30
-1268.658
 70
    32
  0
VERTEX
  8
W66LALIFT
 62
4
 10
1352.726
 20
-7050.490
 30
-1269.603
 70
    32
  0
SEQEND
  8
W66LALIFT
  0
POLYLINE
  8
W66LALIFT
 62
8
 66
     1
 70
     9
  0
VERTEX
  8
W66LALIFT
 62
8
 10
1555.564
 20
-6459.153
 30
-1241.369
 70
    32
  0
VERTEX
  8
W66LALIFT
 62
8
 10
1565.284
 20
-6454.327
 30
-1242.908
 70
    32
  0
VERTEX
  8
W66LALIFT
 62
8
 10
1565.063
 20
-6451.681
 30
-1241.403
 70
    32
  0
VERTEX
  8
W66LALIFT
 62
8
 10
1563.138
 20
-6439.924
 30
-1241.033
 70
    32
  0
VERTEX
  8
W66LALIFT
 62
8
 10
1564.401
 20
-6436.151
 30
-1241.810
 70
    32
  0
VERTEX
  8
W66LALIFT
 62
8
 10
1559.367
 20
-6423.484
 30
-1242.508
 70
    32
  0
VERTEX
  8
W66LALIFT
 62
8
 10
1558.663
 20
-6422.260
 30
-1241.547
 70
    32
  0
VERTEX
  8
W66LALIFT
 62
8
 10
1549.411
 20
-6410.036
 30
-1240.920
 70
    32
  0
VERTEX
  8
W66LALIFT
 62
8
 10
1548.766
 20
-6402.629
 30
-1240.752
 70
    32
  0
VERTEX
  8
W66LALIFT
 62
8
 10
1544.968
 20
-6399.610
 30
-1240.214
 70
    32
  0
VERTEX
  8
W66LALIFT
 62
8
 10
1544.578
 20
-6390.639
 30
-1238.998
 70
    32
  0
VERTEX
  8
W66LALIFT
 62
8
 10
1553.127
 20
-6385.070
 30
-1240.486
 70
    32
  0
VERTEX
  8
W66LALIFT
 62
8
 10
1559.476
 20
-6386.764
 30
-1239.455
 70
    32
  0
VERTEX
  8
W66LALIFT
 62
8
 10
1565.096
 20
-6394.097
 30
-1240.439
 70
    32
  0
VERTEX
  8
W66LALIFT
 62
8
 10
1571.921
 20
-6403.305
 30
-1242.260
 70
    32
  0
VERTEX
  8
W66LALIFT
 62
8
 10
1579.596
 20
-6405.210
 30
-1237.901
 70
    32
  0
VERTEX
  8
W66LALIFT
 62
8
 10
1588.288
 20
-6412.295
 30
-1238.062
 70
    32
  0
VERTEX
  8
W66LALIFT
 62
8
 10
1589.853
 20
-6419.149
 30
-1240.194
 70
    32
  0
VERTEX
  8
W66LALIFT
 62
8
 10
1593.151
 20
-6434.494
 30
-1241.650
 70
    32
  0
VERTEX
  8
W66LALIFT
 62
8
 10
1597.132
 20
-6437.858
 30
-1239.926
 70
    32
  0
VERTEX
  8
W66LALIFT
 62
8
 10
1597.751
 20
-6449.788
 30
-1238.805
 70
    32
  0
VERTEX
  8
W66LALIFT
 62
8
 10
1593.806
 20
-6457.212
 30
-1240.428
 70
    32
  0
VERTEX
  8
W66LALIFT
 62
8
 10
1587.557
 20
-6469.409
 30
-1239.609
 70
    32
  0
VERTEX
  8
W66LALIFT
 62
8
 10
1585.468
 20
-6477.820
 30
-1238.878
 70
    32
  0
VERTEX
  8
W66LALIFT
 62
8
 10
1585.916
 20
-6487.390
 30
-1238.266
 70
    32
  0
VERTEX
  8
W66LALIFT
 62
8
 10
1588.364
 20
-6500.714
 30
-1238.666
 70
    32
  0
VERTEX
  8
W66LALIFT
 62
8
 10
1589.372
 20
-6510.376
 30
-1239.319
 70
    32
  0
VERTEX
  8
W66LALIFT
 62
8
 10
1588.539
 20
-6519.422
 30
-1238.328
 70
    32
  0
VERTEX
  8
W66LALIFT
 62
8
 10
1583.802
 20
-6517.060
 30
-1238.273
 70
    32
  0
VERTEX
  8
W66LALIFT
 62
8
 10
1578.495
 20
-6518.677
 30
-1238.514
 70
    32
  0
VERTEX
  8
W66LALIFT
 62
8
 10
1574.636
 20
-6519.041
 30
-1238.178
 70
    32
  0
VERTEX
  8
W66LALIFT
 62
8
 10
1573.448
 20
-6518.534
 30
-1238.317
 70
    32
  0
VERTEX
  8
W66LALIFT
 62
8
 10
1570.993
 20
-6515.040
 30
-1237.980
 70
    32
  0
VERTEX
  8
W66LALIFT
 62
8
 10
1570.939
 20
-6499.321
 30
-1238.603
 70
    32
  0
VERTEX
  8
W66LALIFT
 62
8
 10
1569.908
 20
-6497.289
 30
-1238.084
 70
    32
  0
VERTEX
  8
W66LALIFT
 62
8
 10
1567.951
 20
-6491.254
 30
-1239.558
 70
    32
  0
VERTEX
  8
W66LALIFT
 62
8
 10
1566.620
 20
-6485.600
 30
-1240.330
 70
    32
  0
VERTEX
  8
W66LALIFT
 62
8
 10
1565.065
 20
-6473.574
 30
-1241.853
 70
    32
  0
VERTEX
  8
W66LALIFT
 62
8
 10
1554.143
 20
-6475.420
 30
-1239.423
 70
    32
  0
SEQEND
  8
W66LALIFT
  0
POLYLINE
  8
W66LALIFT
 62
1
 66
     1
 70
     9
  0
VERTEX
  8
W66LALIFT
 62
1
 10
1957.239
 20
-8567.876
 30
-1239.755
 70
    32
  0
VERTEX
  8
W66LALIFT
 62
1
 10
1959.936
 20
-8565.658
 30
-1240.191
 70
    32
  0
VERTEX
  8
W66LALIFT
 62
1
 10
1963.653
 20
-8557.934
 30
-1238.450
 70
    32
  0
VERTEX
  8
W66LALIFT
 62
1
 10
1963.270
 20
-8554.328
 30
-1243.334
 70
    32
  0
VERTEX
  8
W66LALIFT
 62
1
 10
1962.304
 20
-8548.138
 30
-1243.786
 70
    32
  0
VERTEX
  8
W66LALIFT
 62
1
 10
1962.304
 20
-8548.138
 30
-1244.362
 70
    32
  0
VERTEX
  8
W66LALIFT
 62
1
 10
1952.480
 20
-8516.330
 30
-1246.141
 70
    32
  0
VERTEX
  8
W66LALIFT
 62
1
 10
1951.932
 20
-8497.951
 30
-1248.884
 70
    32
  0
VERTEX
  8
W66LALIFT
 62
1
 10
1947.750
 20
-8482.548
 30
-1249.095
 70
    32
  0
VERTEX
  8
W66LALIFT
 62
1
 10
1947.340
 20
-8481.435
 30
-1249.223
 70
    32
  0
VERTEX
  8
W66LALIFT
 62
1
 10
1944.479
 20
-8475.936
 30
-1247.612
 70
    32
  0
VERTEX
  8
W66LALIFT
 62
1
 10
1934.941
 20
-8457.279
 30
-1247.298
 70
    32
  0
VERTEX
  8
W66LALIFT
 62
1
 10
1922.872
 20
-8437.359
 30
-1247.551
 70
    32
  0
VERTEX
  8
W66LALIFT
 62
1
 10
1915.357
 20
-8432.887
 30
-1247.512
 70
    32
  0
VERTEX
  8
W66LALIFT
 62
1
 10
1915.052
 20
-8423.609
 30
-1247.463
 70
    32
  0
VERTEX
  8
W66LALIFT
 62
1
 10
1907.773
 20
-8418.671
 30
-1247.422
 70
    32
  0
VERTEX
  8
W66LALIFT
 62
1
 10
1902.098
 20
-8401.954
 30
-1247.442
 70
    32
  0
VERTEX
  8
W66LALIFT
 62
1
 10
1901.798
 20
-8390.825
 30
-1249.787
 70
    32
  0
VERTEX
  8
W66LALIFT
 62
1
 10
1905.269
 20
-8384.061
 30
-1251.673
 70
    32
  0
VERTEX
  8
W66LALIFT
 62
1
 10
1906.827
 20
-8380.166
 30
-1252.957
 70
    32
  0
VERTEX
  8
W66LALIFT
 62
1
 10
1906.042
 20
-8371.458
 30
-1252.660
 70
    32
  0
VERTEX
  8
W66LALIFT
 62
1
 10
1907.631
 20
-8363.790
 30
-1249.667
 70
    32
  0
VERTEX
  8
W66LALIFT
 62
1
 10
1912.741
 20
-8348.178
 30
-1248.502
 70
    32
  0
VERTEX
  8
W66LALIFT
 62
1
 10
1914.109
 20
-8329.497
 30
-1247.448
 70
    32
  0
VERTEX
  8
W66LALIFT
 62
1
 10
1909.041
 20
-8320.988
 30
-1247.653
 70
    32
  0
VERTEX
  8
W66LALIFT
 62
1
 10
1914.183
 20
-8316.716
 30
-1247.742
 70
    32
  0
VERTEX
  8
W66LALIFT
 62
1
 10
1916.815
 20
-8310.161
 30
-1247.896
 70
    32
  0
VERTEX
  8
W66LALIFT
 62
1
 10
1916.103
 20
-8305.020
 30
-1249.294
 70
    32
  0
VERTEX
  8
W66LALIFT
 62
1
 10
1914.242
 20
-8303.871
 30
-1249.781
 70
    32
  0
VERTEX
  8
W66LALIFT
 62
1
 10
1913.378
 20
-8296.359
 30
-1248.219
 70
    32
  0
VERTEX
  8
W66LALIFT
 62
1
 10
1909.136
 20
-8293.659
 30
-1248.128
 70
    32
  0
VERTEX
  8
W66LALIFT
 62
1
 10
1904.925
 20
-8285.162
 30
-1247.270
 70
    32
  0
VERTEX
  8
W66LALIFT
 62
1
 10
1900.848
 20
-8281.770
 30
-1245.656
 70
    32
  0
VERTEX
  8
W66LALIFT
 62
1
 10
1897.470
 20
-8277.484
 30
-1244.498
 70
    32
  0
VERTEX
  8
W66LALIFT
 62
1
 10
1886.876
 20
-8268.990
 30
-1245.097
 70
    32
  0
VERTEX
  8
W66LALIFT
 62
1
 10
1876.983
 20
-8264.546
 30
-1246.138
 70
    32
  0
VERTEX
  8
W66LALIFT
 62
1
 10
1885.156
 20
-8256.408
 30
-1246.085
 70
    32
  0
VERTEX
  8
W66LALIFT
 62
1
 10
1897.398
 20
-8262.976
 30
-1245.729
 70
    32
  0
VERTEX
  8
W66LALIFT
 62
1
 10
1913.626
 20
-8251.874
 30
-1245.764
 70
    32
  0
VERTEX
  8
W66LALIFT
 62
1
 10
1920.973
 20
-8259.548
 30
-1243.366
 70
    32
  0
VERTEX
  8
W66LALIFT
 62
1
 10
1925.471
 20
-8270.378
 30
-1245.379
 70
    32
  0
VERTEX
  8
W66LALIFT
 62
1
 10
1934.672
 20
-8287.504
 30
-1248.660
 70
    32
  0
VERTEX
  8
W66LALIFT
 62
1
 10
1935.209
 20
-8303.886
 30
-1249.316
 70
    32
  0
VERTEX
  8
W66LALIFT
 62
1
 10
1929.934
 20
-8313.314
 30
-1247.841
 70
    32
  0
VERTEX
  8
W66LALIFT
 62
1
 10
1929.431
 20
-8333.819
 30
-1247.813
 70
    32
  0
VERTEX
  8
W66LALIFT
 62
1
 10
1931.269
 20
-8358.015
 30
-1248.302
 70
    32
  0
VERTEX
  8
W66LALIFT
 62
1
 10
1925.312
 20
-8363.157
 30
-1249.516
 70
    32
  0
VERTEX
  8
W66LALIFT
 62
1
 10
1918.371
 20
-8386.597
 30
-1252.328
 70
    32
  0
VERTEX
  8
W66LALIFT
 62
1
 10
1923.989
 20
-8401.613
 30
-1247.832
 70
    32
  0
VERTEX
  8
W66LALIFT
 62
1
 10
1928.264
 20
-8413.132
 30
-1247.438
 70
    32
  0
VERTEX
  8
W66LALIFT
 62
1
 10
1938.332
 20
-8436.778
 30
-1247.582
 70
    32
  0
VERTEX
  8
W66LALIFT
 62
1
 10
1949.756
 20
-8455.895
 30
-1247.168
 70
    32
  0
VERTEX
  8
W66LALIFT
 62
1
 10
1951.361
 20
-8459.992
 30
-1247.273
 70
    32
  0
VERTEX
  8
W66LALIFT
 62
1
 10
1955.706
 20
-8467.643
 30
-1249.014
 70
    32
  0
VERTEX
  8
W66LALIFT
 62
1
 10
1955.845
 20
-8467.828
 30
-1248.978
 70
    32
  0
VERTEX
  8
W66LALIFT
 62
1
 10
1963.442
 20
-8491.822
 30
-1247.026
 70
    32
  0
VERTEX
  8
W66LALIFT
 62
1
 10
1964.032
 20
-8514.279
 30
-1246.054
 70
    32
  0
VERTEX
  8
W66LALIFT
 62
1
 10
1971.237
 20
-8541.727
 30
-1243.065
 70
    32
  0
VERTEX
  8
W66LALIFT
 62
1
 10
1971.237
 20
-8541.727
 30
-1243.490
 70
    32
  0
VERTEX
  8
W66LALIFT
 62
1
 10
1974.400
 20
-8541.374
 30
-1243.268
 70
    32
  0
VERTEX
  8
W66LALIFT
 62
1
 10
1972.760
 20
-8555.647
 30
-1241.047
 70
    32
  0
VERTEX
  8
W66LALIFT
 62
1
 10
1973.065
 20
-8561.287
 30
-1239.909
 70
    32
  0
VERTEX
  8
W66LALIFT
 62
1
 10
1970.195
 20
-8568.487
 30
-1238.183
 70
    32
  0
VERTEX
  8
W66LALIFT
 62
1
 10
1964.105
 20
-8574.915
 30
-1239.677
 70
    32
  0
VERTEX
  8
W66LALIFT
 62
1
 10
1958.724
 20
-8580.279
 30
-1239.877
 70
    32
  0
SEQEND
  8
W66LALIFT
  0
POLYLINE
  8
W66LALIFT
 62
6
 66
     1
 70
     9
  0
VERTEX
  8
W66LALIFT
 62
6
 10
2169.778
 20
-9261.208
 30
-1325.349
 70
    32
  0
VERTEX
  8
W66LALIFT
 62
6
 10
2175.114
 20
-9270.964
 30
-1324.721
 70
    32
  0
VERTEX
  8
W66LALIFT
 62
6
 10
2171.735
 20
-9276.400
 30
-1324.359
 70
    32
  0
VERTEX
  8
W66LALIFT
 62
6
 10
2173.901
 20
-9286.997
 30
-1315.138
 70
    32
  0
VERTEX
  8
W66LALIFT
 62
6
 10
2189.434
 20
-9313.026
 30
-1312.400
 70
    32
  0
VERTEX
  8
W66LALIFT
 62
6
 10
2193.121
 20
-9326.185
 30
-1303.841
 70
    32
  0
VERTEX
  8
W66LALIFT
 62
6
 10
2198.826
 20
-9335.806
 30
-1308.180
 70
    32
  0
VERTEX
  8
W66LALIFT
 62
6
 10
2206.251
 20
-9355.177
 30
-1305.689
 70
    32
  0
VERTEX
  8
W66LALIFT
 62
6
 10
2211.978
 20
-9367.328
 30
-1307.268
 70
    32
  0
VERTEX
  8
W66LALIFT
 62
6
 10
2222.461
 20
-9388.929
 30
-1303.011
 70
    32
  0
VERTEX
  8
W66LALIFT
 62
6
 10
2207.387
 20
-9394.160
 30
-1302.705
 70
    32
  0
VERTEX
  8
W66LALIFT
 62
6
 10
2197.087
 20
-9364.612
 30
-1310.231
 70
    32
  0
VERTEX
  8
W66LALIFT
 62
6
 10
2193.093
 20
-9360.587
 30
-1305.896
 70
    32
  0
VERTEX
  8
W66LALIFT
 62
6
 10
2190.225
 20
-9350.971
 30
-1308.919
 70
    32
  0
VERTEX
  8
W66LALIFT
 62
6
 10
2182.562
 20
-9340.866
 30
-1308.911
 70
    32
  0
VERTEX
  8
W66LALIFT
 62
6
 10
2175.324
 20
-9338.850
 30
-1309.403
 70
    32
  0
VERTEX
  8
W66LALIFT
 62
6
 10
2161.056
 20
-9334.864
 30
-1309.229
 70
    32
  0
VERTEX
  8
W66LALIFT
 62
6
 10
2155.179
 20
-9321.815
 30
-1309.109
 70
    32
  0
VERTEX
  8
W66LALIFT
 62
6
 10
2156.467
 20
-9309.271
 30
-1312.481
 70
    32
  0
VERTEX
  8
W66LALIFT
 62
6
 10
2150.374
 20
-9283.835
 30
-1315.115
 70
    32
  0
VERTEX
  8
W66LALIFT
 62
6
 10
2156.200
 20
-9264.251
 30
-1324.033
 70
    32
  0
SEQEND
  8
W66LALIFT
  0
ENDSEC
  0
EOF
