999
********************************
999
*   DXF File - Entities Only   *
999
*        3D Data Format        *
999
*     Output from ENVISAGE     *
999
*     02-Jan-2008 11:10:30     *
999
********************************
  0
SECTION 
  2
HEADER
  9
$ACADVER
  1
AC1009
  9
$EXTMIN
 10
-290000.000
 20
-250000.000
 30
-4000.000
  9
$EXTMAX
 10
320000.000
 20
160000.000
 30
6000.000
  0
ENDSEC
  0
SECTION
  2
ENTITIES
  0
POLYLINE
  8
W66LPLIFT
 62
2
 66
     1
 70
     9
  0
VERTEX
  8
W66LPLIFT
 62
2
 10
2128.268
 20
-8891.474
 30
-1370.000
 70
    32
  0
VERTEX
  8
W66LPLIFT
 62
2
 10
2118.276
 20
-8900.725
 30
-1370.000
 70
    32
  0
VERTEX
  8
W66LPLIFT
 62
2
 10
2120.956
 20
-8906.529
 30
-1370.000
 70
    32
  0
VERTEX
  8
W66LPLIFT
 62
2
 10
2124.792
 20
-8914.771
 30
-1370.000
 70
    32
  0
VERTEX
  8
W66LPLIFT
 62
2
 10
2127.039
 20
-8915.833
 30
-1370.000
 70
    32
  0
VERTEX
  8
W66LPLIFT
 62
2
 10
2132.285
 20
-8937.627
 30
-1370.000
 70
    32
  0
VERTEX
  8
W66LPLIFT
 62
2
 10
2134.914
 20
-8945.843
 30
-1370.000
 70
    32
  0
VERTEX
  8
W66LPLIFT
 62
2
 10
2137.571
 20
-8964.443
 30
-1370.000
 70
    32
  0
VERTEX
  8
W66LPLIFT
 62
2
 10
2146.878
 20
-8983.619
 30
-1370.000
 70
    32
  0
VERTEX
  8
W66LPLIFT
 62
2
 10
2152.137
 20
-9000.052
 30
-1370.000
 70
    32
  0
VERTEX
  8
W66LPLIFT
 62
2
 10
2161.186
 20
-9006.040
 30
-1370.000
 70
    32
  0
VERTEX
  8
W66LPLIFT
 62
2
 10
2153.199
 20
-8965.114
 30
-1370.000
 70
    32
  0
VERTEX
  8
W66LPLIFT
 62
2
 10
2149.167
 20
-8957.013
 30
-1370.000
 70
    32
  0
VERTEX
  8
W66LPLIFT
 62
2
 10
2148.713
 20
-8943.965
 30
-1370.000
 70
    32
  0
VERTEX
  8
W66LPLIFT
 62
2
 10
2146.740
 20
-8929.630
 30
-1370.000
 70
    32
  0
VERTEX
  8
W66LPLIFT
 62
2
 10
2144.845
 20
-8923.264
 30
-1370.000
 70
    32
  0
VERTEX
  8
W66LPLIFT
 62
2
 10
2143.225
 20
-8915.213
 30
-1370.000
 70
    32
  0
VERTEX
  8
W66LPLIFT
 62
2
 10
2138.434
 20
-8906.467
 30
-1370.000
 70
    32
  0
VERTEX
  8
W66LPLIFT
 62
2
 10
2139.383
 20
-8904.894
 30
-1370.000
 70
    32
  0
VERTEX
  8
W66LPLIFT
 62
2
 10
2137.603
 20
-8899.931
 30
-1370.000
 70
    32
  0
VERTEX
  8
W66LPLIFT
 62
2
 10
2135.387
 20
-8899.739
 30
-1370.000
 70
    32
  0
VERTEX
  8
W66LPLIFT
 62
2
 10
2131.354
 20
-8891.637
 30
-1370.000
 70
    32
  0
SEQEND
  8
W66LPLIFT
  0
POLYLINE
  8
W66LPLIFT
 62
2
 66
     1
 70
     9
  0
VERTEX
  8
W66LPLIFT
 62
2
 10
2129.793
 20
-8906.428
 30
-1360.000
 70
    32
  0
VERTEX
  8
W66LPLIFT
 62
2
 10
2124.525
 20
-8909.019
 30
-1360.000
 70
    32
  0
VERTEX
  8
W66LPLIFT
 62
2
 10
2123.047
 20
-8912.754
 30
-1360.000
 70
    32
  0
VERTEX
  8
W66LPLIFT
 62
2
 10
2125.549
 20
-8936.517
 30
-1360.000
 70
    32
  0
VERTEX
  8
W66LPLIFT
 62
2
 10
2127.042
 20
-8939.012
 30
-1360.000
 70
    32
  0
VERTEX
  8
W66LPLIFT
 62
2
 10
2127.901
 20
-8934.829
 30
-1360.000
 70
    32
  0
VERTEX
  8
W66LPLIFT
 62
2
 10
2132.531
 20
-8935.073
 30
-1360.000
 70
    32
  0
VERTEX
  8
W66LPLIFT
 62
2
 10
2129.748
 20
-8955.197
 30
-1360.000
 70
    32
  0
VERTEX
  8
W66LPLIFT
 62
2
 10
2132.333
 20
-8967.904
 30
-1360.000
 70
    32
  0
VERTEX
  8
W66LPLIFT
 62
2
 10
2137.567
 20
-8973.955
 30
-1360.000
 70
    32
  0
VERTEX
  8
W66LPLIFT
 62
2
 10
2144.069
 20
-8993.361
 30
-1360.000
 70
    32
  0
VERTEX
  8
W66LPLIFT
 62
2
 10
2145.104
 20
-8992.321
 30
-1360.000
 70
    32
  0
VERTEX
  8
W66LPLIFT
 62
2
 10
2143.325
 20
-8954.667
 30
-1360.000
 70
    32
  0
VERTEX
  8
W66LPLIFT
 62
2
 10
2139.047
 20
-8949.119
 30
-1360.000
 70
    32
  0
VERTEX
  8
W66LPLIFT
 62
2
 10
2139.202
 20
-8943.955
 30
-1360.000
 70
    32
  0
VERTEX
  8
W66LPLIFT
 62
2
 10
2141.348
 20
-8938.255
 30
-1360.000
 70
    32
  0
VERTEX
  8
W66LPLIFT
 62
2
 10
2140.191
 20
-8935.816
 30
-1360.000
 70
    32
  0
VERTEX
  8
W66LPLIFT
 62
2
 10
2139.311
 20
-8931.692
 30
-1360.000
 70
    32
  0
VERTEX
  8
W66LPLIFT
 62
2
 10
2136.827
 20
-8925.748
 30
-1360.000
 70
    32
  0
VERTEX
  8
W66LPLIFT
 62
2
 10
2133.123
 20
-8925.138
 30
-1360.000
 70
    32
  0
VERTEX
  8
W66LPLIFT
 62
2
 10
2134.072
 20
-8923.565
 30
-1360.000
 70
    32
  0
VERTEX
  8
W66LPLIFT
 62
2
 10
2136.259
 20
-8922.887
 30
-1360.000
 70
    32
  0
VERTEX
  8
W66LPLIFT
 62
2
 10
2132.649
 20
-8915.374
 30
-1360.000
 70
    32
  0
SEQEND
  8
W66LPLIFT
  0
POLYLINE
  8
W66LPLIFT
 62
2
 66
     1
 70
     9
  0
VERTEX
  8
W66LPLIFT
 62
2
 10
2129.845
 20
-8927.193
 30
-1350.000
 70
    32
  0
VERTEX
  8
W66LPLIFT
 62
2
 10
2125.668
 20
-8928.407
 30
-1350.000
 70
    32
  0
VERTEX
  8
W66LPLIFT
 62
2
 10
2122.029
 20
-8931.613
 30
-1350.000
 70
    32
  0
VERTEX
  8
W66LPLIFT
 62
2
 10
2121.357
 20
-8943.091
 30
-1350.000
 70
    32
  0
VERTEX
  8
W66LPLIFT
 62
2
 10
2124.244
 20
-8952.907
 30
-1350.000
 70
    32
  0
VERTEX
  8
W66LPLIFT
 62
2
 10
2129.884
 20
-8953.317
 30
-1350.000
 70
    32
  0
VERTEX
  8
W66LPLIFT
 62
2
 10
2128.237
 20
-8967.575
 30
-1350.000
 70
    32
  0
VERTEX
  8
W66LPLIFT
 62
2
 10
2133.621
 20
-8977.976
 30
-1350.000
 70
    32
  0
VERTEX
  8
W66LPLIFT
 62
2
 10
2138.935
 20
-8982.483
 30
-1350.000
 70
    32
  0
VERTEX
  8
W66LPLIFT
 62
2
 10
2141.811
 20
-8988.146
 30
-1350.000
 70
    32
  0
VERTEX
  8
W66LPLIFT
 62
2
 10
2137.156
 20
-8989.109
 30
-1350.000
 70
    32
  0
VERTEX
  8
W66LPLIFT
 62
2
 10
2141.209
 20
-8993.928
 30
-1350.000
 70
    32
  0
VERTEX
  8
W66LPLIFT
 62
2
 10
2145.029
 20
-8995.941
 30
-1350.000
 70
    32
  0
VERTEX
  8
W66LPLIFT
 62
2
 10
2144.470
 20
-8985.644
 30
-1350.000
 70
    32
  0
VERTEX
  8
W66LPLIFT
 62
2
 10
2137.552
 20
-8979.315
 30
-1350.000
 70
    32
  0
VERTEX
  8
W66LPLIFT
 62
2
 10
2138.779
 20
-8976.058
 30
-1350.000
 70
    32
  0
VERTEX
  8
W66LPLIFT
 62
2
 10
2137.763
 20
-8973.815
 30
-1350.000
 70
    32
  0
VERTEX
  8
W66LPLIFT
 62
2
 10
2138.636
 20
-8964.272
 30
-1350.000
 70
    32
  0
VERTEX
  8
W66LPLIFT
 62
2
 10
2133.137
 20
-8964.058
 30
-1350.000
 70
    32
  0
VERTEX
  8
W66LPLIFT
 62
2
 10
2133.469
 20
-8962.037
 30
-1350.000
 70
    32
  0
VERTEX
  8
W66LPLIFT
 62
2
 10
2138.369
 20
-8958.520
 30
-1350.000
 70
    32
  0
VERTEX
  8
W66LPLIFT
 62
2
 10
2137.525
 20
-8957.343
 30
-1350.000
 70
    32
  0
VERTEX
  8
W66LPLIFT
 62
2
 10
2136.178
 20
-8957.121
 30
-1350.000
 70
    32
  0
VERTEX
  8
W66LPLIFT
 62
2
 10
2135.755
 20
-8956.533
 30
-1350.000
 70
    32
  0
VERTEX
  8
W66LPLIFT
 62
2
 10
2138.977
 20
-8954.815
 30
-1350.000
 70
    32
  0
VERTEX
  8
W66LPLIFT
 62
2
 10
2138.202
 20
-8947.942
 30
-1350.000
 70
    32
  0
VERTEX
  8
W66LPLIFT
 62
2
 10
2135.030
 20
-8947.246
 30
-1350.000
 70
    32
  0
VERTEX
  8
W66LPLIFT
 62
2
 10
2135.376
 20
-8939.866
 30
-1350.000
 70
    32
  0
VERTEX
  8
W66LPLIFT
 62
2
 10
2129.902
 20
-8938.445
 30
-1350.000
 70
    32
  0
VERTEX
  8
W66LPLIFT
 62
2
 10
2130.510
 20
-8934.740
 30
-1350.000
 70
    32
  0
VERTEX
  8
W66LPLIFT
 62
2
 10
2132.274
 20
-8933.474
 30
-1350.000
 70
    32
  0
SEQEND
  8
W66LPLIFT
  0
POLYLINE
  8
W66LPLIFT
 62
2
 66
     1
 70
     9
  0
VERTEX
  8
W66LPLIFT
 62
2
 10
2128.485
 20
-8943.919
 30
-1340.000
 70
    32
  0
VERTEX
  8
W66LPLIFT
 62
2
 10
2128.063
 20
-8943.331
 30
-1340.000
 70
    32
  0
VERTEX
  8
W66LPLIFT
 62
2
 10
2126.108
 20
-8946.814
 30
-1340.000
 70
    32
  0
VERTEX
  8
W66LPLIFT
 62
2
 10
2126.535
 20
-8949.479
 30
-1340.000
 70
    32
  0
VERTEX
  8
W66LPLIFT
 62
2
 10
2129.397
 20
-8960.502
 30
-1340.000
 70
    32
  0
VERTEX
  8
W66LPLIFT
 62
2
 10
2132.218
 20
-8966.501
 30
-1340.000
 70
    32
  0
VERTEX
  8
W66LPLIFT
 62
2
 10
2132.143
 20
-8970.121
 30
-1340.000
 70
    32
  0
VERTEX
  8
W66LPLIFT
 62
2
 10
2132.877
 20
-8971.972
 30
-1340.000
 70
    32
  0
VERTEX
  8
W66LPLIFT
 62
2
 10
2135.161
 20
-8987.569
 30
-1340.000
 70
    32
  0
VERTEX
  8
W66LPLIFT
 62
2
 10
2136.247
 20
-8995.705
 30
-1340.000
 70
    32
  0
VERTEX
  8
W66LPLIFT
 62
2
 10
2137.368
 20
-8995.198
 30
-1340.000
 70
    32
  0
VERTEX
  8
W66LPLIFT
 62
2
 10
2137.543
 20
-8986.751
 30
-1340.000
 70
    32
  0
VERTEX
  8
W66LPLIFT
 62
2
 10
2137.581
 20
-8968.596
 30
-1340.000
 70
    32
  0
VERTEX
  8
W66LPLIFT
 62
2
 10
2137.687
 20
-8965.845
 30
-1340.000
 70
    32
  0
VERTEX
  8
W66LPLIFT
 62
2
 10
2133.955
 20
-8954.853
 30
-1340.000
 70
    32
  0
VERTEX
  8
W66LPLIFT
 62
2
 10
2130.386
 20
-8952.362
 30
-1340.000
 70
    32
  0
VERTEX
  8
W66LPLIFT
 62
2
 10
2128.194
 20
-8950.963
 30
-1340.000
 70
    32
  0
SEQEND
  8
W66LPLIFT
  0
POLYLINE
  8
W66LPLIFT
 62
4
 66
     1
 70
     9
  0
VERTEX
  8
W66LPLIFT
 62
4
 10
1835.510
 20
-8041.138
 30
-1381.000
 70
    32
  0
VERTEX
  8
W66LPLIFT
 62
4
 10
1806.876
 20
-8051.379
 30
-1386.000
 70
    32
  0
VERTEX
  8
W66LPLIFT
 62
4
 10
1823.445
 20
-8033.651
 30
-1381.000
 70
    32
  0
VERTEX
  8
W66LPLIFT
 62
4
 10
1824.322
 20
-8031.533
 30
-1381.000
 70
    32
  0
VERTEX
  8
W66LPLIFT
 62
4
 10
1824.189
 20
-8030.504
 30
-1381.000
 70
    32
  0
VERTEX
  8
W66LPLIFT
 62
4
 10
1823.418
 20
-8025.239
 30
-1381.000
 70
    32
  0
VERTEX
  8
W66LPLIFT
 62
4
 10
1820.271
 20
-8016.662
 30
-1381.000
 70
    32
  0
VERTEX
  8
W66LPLIFT
 62
4
 10
1821.804
 20
-8005.416
 30
-1381.000
 70
    32
  0
VERTEX
  8
W66LPLIFT
 62
4
 10
1816.108
 20
-7992.532
 30
-1381.000
 70
    32
  0
VERTEX
  8
W66LPLIFT
 62
4
 10
1815.570
 20
-7986.011
 30
-1381.000
 70
    32
  0
VERTEX
  8
W66LPLIFT
 62
4
 10
1829.353
 20
-7984.606
 30
-1381.000
 70
    32
  0
VERTEX
  8
W66LPLIFT
 62
4
 10
1830.058
 20
-7990.810
 30
-1381.000
 70
    32
  0
VERTEX
  8
W66LPLIFT
 62
4
 10
1833.330
 20
-7995.369
 30
-1381.000
 70
    32
  0
VERTEX
  8
W66LPLIFT
 62
4
 10
1835.641
 20
-8002.986
 30
-1381.000
 70
    32
  0
VERTEX
  8
W66LPLIFT
 62
4
 10
1839.247
 20
-8006.911
 30
-1381.000
 70
    32
  0
VERTEX
  8
W66LPLIFT
 62
4
 10
1838.211
 20
-8017.632
 30
-1381.000
 70
    32
  0
VERTEX
  8
W66LPLIFT
 62
4
 10
1835.874
 20
-8029.743
 30
-1381.000
 70
    32
  0
VERTEX
  8
W66LPLIFT
 62
4
 10
1837.410
 20
-8032.067
 30
-1381.000
 70
    32
  0
SEQEND
  8
W66LPLIFT
  0
POLYLINE
  8
W66LPLIFT
 62
4
 66
     1
 70
     8
  0
VERTEX
  8
W66LPLIFT
 62
4
 10
1440.676
 20
-6075.788
 30
-1249.000
 70
    32
  0
VERTEX
  8
W66LPLIFT
 62
4
 10
1425.468
 20
-6057.796
 30
-1250.000
 70
    32
  0
VERTEX
  8
W66LPLIFT
 62
4
 10
1425.343
 20
-6052.979
 30
-1249.000
 70
    32
  0
VERTEX
  8
W66LPLIFT
 62
4
 10
1413.914
 20
-6040.914
 30
-1249.000
 70
    32
  0
VERTEX
  8
W66LPLIFT
 62
4
 10
1415.789
 20
-6037.127
 30
-1249.000
 70
    32
  0
VERTEX
  8
W66LPLIFT
 62
4
 10
1409.107
 20
-6024.772
 30
-1249.000
 70
    32
  0
VERTEX
  8
W66LPLIFT
 62
4
 10
1393.421
 20
-6007.531
 30
-1249.000
 70
    32
  0
VERTEX
  8
W66LPLIFT
 62
4
 10
1384.192
 20
-5996.102
 30
-1249.000
 70
    32
  0
VERTEX
  8
W66LPLIFT
 62
4
 10
1366.748
 20
-5964.638
 30
-1249.000
 70
    32
  0
VERTEX
  8
W66LPLIFT
 62
4
 10
1344.594
 20
-5942.148
 30
-1249.000
 70
    32
  0
VERTEX
  8
W66LPLIFT
 62
4
 10
1356.351
 20
-5933.661
 30
-1249.000
 70
    32
  0
VERTEX
  8
W66LPLIFT
 62
4
 10
1374.887
 20
-5955.122
 30
-1249.000
 70
    32
  0
VERTEX
  8
W66LPLIFT
 62
4
 10
1377.044
 20
-5955.819
 30
-1249.000
 70
    32
  0
VERTEX
  8
W66LPLIFT
 62
4
 10
1387.639
 20
-5965.506
 30
-1249.000
 70
    32
  0
VERTEX
  8
W66LPLIFT
 62
4
 10
1398.708
 20
-5982.059
 30
-1249.000
 70
    32
  0
VERTEX
  8
W66LPLIFT
 62
4
 10
1398.754
 20
-5995.309
 30
-1249.000
 70
    32
  0
VERTEX
  8
W66LPLIFT
 62
4
 10
1405.862
 20
-6005.467
 30
-1249.000
 70
    32
  0
VERTEX
  8
W66LPLIFT
 62
4
 10
1411.249
 20
-6004.030
 30
-1249.000
 70
    32
  0
VERTEX
  8
W66LPLIFT
 62
4
 10
1424.560
 20
-6030.266
 30
-1249.000
 70
    32
  0
VERTEX
  8
W66LPLIFT
 62
4
 10
1432.723
 20
-6043.417
 30
-1249.000
 70
    32
  0
VERTEX
  8
W66LPLIFT
 62
4
 10
1434.883
 20
-6048.832
 30
-1250.000
 70
    32
  0
VERTEX
  8
W66LPLIFT
 62
4
 10
1449.731
 20
-6069.350
 30
-1252.000
 70
    32
  0
VERTEX
  8
W66LPLIFT
 62
4
 10
1440.676
 20
-6075.788
 30
-1252.000
 70
    32
  0
SEQEND
  8
W66LPLIFT
  0
POLYLINE
  8
W66LPLIFT
 62
3
 66
     1
 70
     9
  0
VERTEX
  8
W66LPLIFT
 62
3
 10
1426.778
 20
-6020.614
 30
-1302.000
 70
    32
  0
VERTEX
  8
W66LPLIFT
 62
3
 10
1438.900
 20
-6029.540
 30
-1302.000
 70
    32
  0
VERTEX
  8
W66LPLIFT
 62
3
 10
1470.561
 20
-6053.985
 30
-1302.000
 70
    32
  0
VERTEX
  8
W66LPLIFT
 62
3
 10
1491.738
 20
-6071.551
 30
-1302.000
 70
    32
  0
VERTEX
  8
W66LPLIFT
 62
3
 10
1500.851
 20
-6089.479
 30
-1302.000
 70
    32
  0
VERTEX
  8
W66LPLIFT
 62
3
 10
1507.730
 20
-6082.220
 30
-1302.000
 70
    32
  0
VERTEX
  8
W66LPLIFT
 62
3
 10
1504.147
 20
-6070.761
 30
-1302.000
 70
    32
  0
VERTEX
  8
W66LPLIFT
 62
3
 10
1489.474
 20
-6053.897
 30
-1302.000
 70
    32
  0
VERTEX
  8
W66LPLIFT
 62
3
 10
1455.656
 20
-6027.427
 30
-1302.000
 70
    32
  0
VERTEX
  8
W66LPLIFT
 62
3
 10
1448.059
 20
-6017.678
 30
-1302.000
 70
    32
  0
VERTEX
  8
W66LPLIFT
 62
3
 10
1439.115
 20
-6004.233
 30
-1302.000
 70
    32
  0
VERTEX
  8
W66LPLIFT
 62
3
 10
1428.409
 20
-5992.478
 30
-1300.000
 70
    32
  0
VERTEX
  8
W66LPLIFT
 62
3
 10
1421.835
 20
-5991.004
 30
-1300.000
 70
    32
  0
VERTEX
  8
W66LPLIFT
 62
3
 10
1396.026
 20
-5965.304
 30
-1300.000
 70
    32
  0
VERTEX
  8
W66LPLIFT
 62
3
 10
1377.728
 20
-5944.254
 30
-1300.000
 70
    32
  0
VERTEX
  8
W66LPLIFT
 62
3
 10
1372.182
 20
-5949.959
 30
-1300.000
 70
    32
  0
VERTEX
  8
W66LPLIFT
 62
3
 10
1381.704
 20
-5966.165
 30
-1300.500
 70
    32
  0
VERTEX
  8
W66LPLIFT
 62
3
 10
1385.890
 20
-5968.851
 30
-1300.000
 70
    32
  0
VERTEX
  8
W66LPLIFT
 62
3
 10
1398.228
 20
-5985.846
 30
-1300.000
 70
    32
  0
VERTEX
  8
W66LPLIFT
 62
3
 10
1400.058
 20
-5993.616
 30
-1300.000
 70
    32
  0
VERTEX
  8
W66LPLIFT
 62
3
 10
1415.830
 20
-6003.434
 30
-1300.000
 70
    32
  0
VERTEX
  8
W66LPLIFT
 62
3
 10
1424.917
 20
-6011.439
 30
-1302.000
 70
    32
  0
SEQEND
  8
W66LPLIFT
  0
POLYLINE
  8
W66LPLIFT
 62
19
 66
     1
 70
     9
  0
VERTEX
  8
W66LPLIFT
 62
19
 10
1413.422
 20
-6031.986
 30
-1241.000
 70
    32
  0
VERTEX
  8
W66LPLIFT
 62
19
 10
1422.706
 20
-6026.970
 30
-1241.000
 70
    32
  0
VERTEX
  8
W66LPLIFT
 62
19
 10
1409.909
 20
-6006.408
 30
-1241.000
 70
    32
  0
VERTEX
  8
W66LPLIFT
 62
19
 10
1396.860
 20
-5991.612
 30
-1241.000
 70
    32
  0
VERTEX
  8
W66LPLIFT
 62
19
 10
1396.107
 20
-5981.833
 30
-1241.000
 70
    32
  0
VERTEX
  8
W66LPLIFT
 62
19
 10
1382.808
 20
-5961.771
 30
-1241.000
 70
    32
  0
VERTEX
  8
W66LPLIFT
 62
19
 10
1369.759
 20
-5969.294
 30
-1241.000
 70
    32
  0
VERTEX
  8
W66LPLIFT
 62
19
 10
1383.561
 20
-5995.875
 30
-1241.000
 70
    32
  0
VERTEX
  8
W66LPLIFT
 62
19
 10
1409.156
 20
-6024.713
 30
-1241.000
 70
    32
  0
SEQEND
  8
W66LPLIFT
  0
POLYLINE
  8
W66LPLIFT
 62
18
 66
     1
 70
     9
  0
VERTEX
  8
W66LPLIFT
 62
18
 10
1413.422
 20
-6031.986
 30
-1273.000
 70
    32
  0
VERTEX
  8
W66LPLIFT
 62
18
 10
1422.706
 20
-6026.970
 30
-1273.000
 70
    32
  0
VERTEX
  8
W66LPLIFT
 62
18
 10
1409.909
 20
-6006.408
 30
-1273.000
 70
    32
  0
VERTEX
  8
W66LPLIFT
 62
18
 10
1396.860
 20
-5991.612
 30
-1273.000
 70
    32
  0
VERTEX
  8
W66LPLIFT
 62
18
 10
1396.107
 20
-5981.833
 30
-1273.000
 70
    32
  0
VERTEX
  8
W66LPLIFT
 62
18
 10
1382.808
 20
-5961.771
 30
-1273.000
 70
    32
  0
VERTEX
  8
W66LPLIFT
 62
18
 10
1369.759
 20
-5969.294
 30
-1273.000
 70
    32
  0
VERTEX
  8
W66LPLIFT
 62
18
 10
1383.561
 20
-5995.875
 30
-1273.000
 70
    32
  0
VERTEX
  8
W66LPLIFT
 62
18
 10
1409.156
 20
-6024.713
 30
-1273.000
 70
    32
  0
SEQEND
  8
W66LPLIFT
  0
TEXT
  8
W66LPLIFT
 62
7
 10
1656.232
 20
-6591.549
 30
-1356.783
 40
3.000
  1
ST-992O
 50
29.322
 41
 1.0 
  0
TEXT
  8
W66LPLIFT
 62
7
 10
1660.143
 20
-6609.453
 30
-1357.010
 40
3.000
  1
-1357.010
 50
35.667
 41
 1.0 
  0
TEXT
  8
W66LPLIFT
 62
7
 10
1660.293
 20
-6603.837
 30
-1357.010
 40
3.000
  1
ST-992P
 50
35.667
 41
 1.0 
  0
TEXT
  8
W66LPLIFT
 62
7
 10
1654.676
 20
-6597.588
 30
-1356.783
 40
3.000
  1
-1356.783
 50
29.322
 41
 1.0 
  0
TEXT
  8
W66LPLIFT
 62
3
 10
2149.520
 20
-8889.012
 30
-1374.648
 40
3.000
  1
ST-54R
 41
 1.0 
  0
TEXT
  8
W66LPLIFT
 62
3
 10
2146.092
 20
-8893.012
 30
-1374.648
 40
3.000
  1
-1374.648
 41
 1.0 
  0
TEXT
  8
W66LPLIFT
 62
3
 10
2151.228
 20
-8900.556
 30
-1375.000
 40
3.000
  1
3-25-97
 50
0.302
 41
 1.0 
  0
TEXT
  8
W66LPLIFT
 62
3
 10
2153.995
 20
-8905.271
 30
-1374.964
 40
3.000
  1
ST-54Q
 41
 1.0 
  0
TEXT
  8
W66LPLIFT
 62
3
 10
2150.638
 20
-8909.271
 30
-1374.964
 40
3.000
  1
-1374.964
 41
 1.0 
  0
TEXT
  8
W66LPLIFT
 62
3
 10
1435.942
 20
-5984.387
 30
-1302.017
 40
3.000
  1
ST-253R
 50
49.522
 41
 1.0 
  0
TEXT
  8
W66LPLIFT
 62
3
 10
1438.660
 20
-5987.364
 30
-1302.017
 40
3.000
  1
-1302.017
 50
49.522
 41
 1.0 
  0
TEXT
  8
W66LPLIFT
 62
3
 10
1444.799
 20
-5994.720
 30
-1303.347
 40
3.000
  1
ST-253Q
 50
40.864
 41
 1.0 
  0
TEXT
  8
W66LPLIFT
 62
3
 10
1446.471
 20
-5998.563
 30
-1303.347
 40
3.000
  1
-1303.347
 50
40.864
 41
 1.0 
  0
TEXT
  8
W66LPLIFT
 62
3
 10
1442.414
 20
-5990.590
 30
-1303.000
 40
3.000
  1
5-14-97
 50
42.796
 41
 1.0 
  0
TEXT
  8
W66LPLIFT
 62
4
 10
1930.944
 20
-7988.522
 30
-1367.789
 40
3.000
  1
-1367.789
 50
305.665
 41
 1.0 
  0
TEXT
  8
W66LPLIFT
 62
4
 10
1935.319
 20
-7987.757
 30
-1367.789
 40
3.000
  1
ST-373R
 50
305.665
 41
 1.0 
  0
TEXT
  8
W66LPLIFT
 62
4
 10
1935.026
 20
-8025.785
 30
-1369.102
 40
3.000
  1
ST-373Q
 50
305.665
 41
 1.0 
  0
TEXT
  8
W66LPLIFT
 62
4
 10
1930.411
 20
-8025.941
 30
-1369.102
 40
3.000
  1
-1369.102
 50
305.665
 41
 1.0 
  0
TEXT
  8
W66LPLIFT
 62
4
 10
1926.948
 20
-8035.474
 30
-1369.917
 40
3.000
  1
ST-668Q
 50
305.665
 41
 1.0 
  0
TEXT
  8
W66LPLIFT
 62
4
 10
1921.317
 20
-8035.796
 30
-1369.917
 40
3.000
  1
-1369.917
 50
305.665
 41
 1.0 
  0
TEXT
  8
W66LPLIFT
 62
4
 10
1867.894
 20
-7989.479
 30
-1368.971
 40
3.000
  1
ST-348R
 50
304.318
 41
 1.0 
  0
TEXT
  8
W66LPLIFT
 62
4
 10
1862.926
 20
-7990.164
 30
-1368.971
 40
3.000
  1
-1368.971
 50
304.318
 41
 1.0 
  0
TEXT
  8
W66LPLIFT
 62
4
 10
1930.660
 20
-8033.312
 30
-1369.000
 40
3.000
  1
8-4-97
 50
306.150
 41
 1.0 
  0
TEXT
  8
W66LPLIFT
 62
4
 10
1938.918
 20
-8024.741
 30
-1369.000
 40
3.000
  1
10-3-97
 50
306.150
 41
 1.0 
  0
TEXT
  8
W66LPLIFT
 62
4
 10
1870.674
 20
-7986.893
 30
-1369.000
 40
3.000
  1
10-3-97
 50
306.150
 41
 1.0 
  0
TEXT
  8
W66LPLIFT
 62
4
 10
1787.142
 20
-8049.529
 30
-1381.256
 40
3.000
  1
-1381.256
 50
23.681
 41
 1.0 
  0
TEXT
  8
W66LPLIFT
 62
4
 10
1789.444
 20
-8043.007
 30
-1381.256
 40
3.000
  1
ST-388Q
 50
23.681
 41
 1.0 
  0
TEXT
  8
W66LPLIFT
 62
4
 10
1785.976
 20
-8060.549
 30
-1381.255
 40
3.000
  1
ST-388R
 50
28.430
 41
 1.0 
  0
TEXT
  8
W66LPLIFT
 62
4
 10
1781.585
 20
-8068.549
 30
-1381.255
 40
3.000
  1
-1381.255
 50
28.430
 41
 1.0 
  0
TEXT
  8
W66LPLIFT
 62
3
 10
1388.665
 20
-5955.225
 30
-1299.172
 40
3.000
  1
-1299.172
 41
 1.0 
  0
TEXT
  8
W66LPLIFT
 62
3
 10
1389.665
 20
-5951.225
 30
-1299.172
 40
3.000
  1
ST-477R
 41
 1.0 
  0
TEXT
  8
W66LPLIFT
 62
4
 10
1445.911
 20
-6046.996
 30
-1252.170
 40
3.000
  1
ST-403R
 50
33.504
 41
 1.0 
  0
TEXT
  8
W66LPLIFT
 62
4
 10
1447.285
 20
-6050.883
 30
-1252.170
 40
3.000
  1
-1252.170
 50
33.504
 41
 1.0 
  0
TEXT
  8
W66LPLIFT
 62
4
 10
1454.651
 20
-6058.589
 30
-1252.556
 40
3.000
  1
ST-403Q
 50
32.802
 41
 1.0 
  0
TEXT
  8
W66LPLIFT
 62
4
 10
1455.347
 20
-6062.899
 30
-1252.556
 40
3.000
  1
-1252.556
 50
32.802
 41
 1.0 
  0
TEXT
  8
W66LPLIFT
 62
4
 10
1450.793
 20
-6055.025
 30
-1252.000
 40
3.000
  1
10-29-97
 50
32.761
 41
 1.0 
  0
TEXT
  8
W66LPLIFT
 62
7
 10
1659.326
 20
-7200.272
 30
-1264.461
 40
3.000
  1
ST-952Q
 41
 1.0 
  0
TEXT
  8
W66LPLIFT
 62
7
 10
1656.362
 20
-7204.272
 30
-1264.461
 40
3.000
  1
-1264.461
 41
 1.0 
  0
TEXT
  8
W66LPLIFT
 62
7
 10
1657.903
 20
-7213.844
 30
-1264.394
 40
3.000
  1
ST-952R
 41
 1.0 
  0
TEXT
  8
W66LPLIFT
 62
7
 10
1655.420
 20
-7218.824
 30
-1264.394
 40
3.000
  1
-1264.394
 41
 1.0 
  0
POINT
  8
W66LPLIFT
 62
7
 10
1648.011
 20
-7231.285
 30
-1257.570
  0
TEXT
  8
W66LPLIFT
 62
7
 10
1626.287
 20
-7331.023
 30
-1262.497
 40
3.000
  1
ST-936Q
 41
 1.0 
  0
TEXT
  8
W66LPLIFT
 62
7
 10
1624.787
 20
-7335.023
 30
-1262.497
 40
3.000
  1
-1262.497
 41
 1.0 
  0
TEXT
  8
W66LPLIFT
 62
7
 10
1655.672
 20
-7348.716
 30
-1262.980
 40
3.000
  1
BK -1262.98
 41
 1.0 
  0
POLYLINE
  8
W66LPLIFT
 62
7
 66
     1
 70
     8
  0
VERTEX
  8
W66LPLIFT
 62
7
 10
1656.672
 20
-7350.016
 30
-1262.980
 70
    32
  0
VERTEX
  8
W66LPLIFT
 62
7
 10
1656.670
 20
-7349.972
 30
-1262.980
 70
    32
  0
VERTEX
  8
W66LPLIFT
 62
7
 10
1656.664
 20
-7349.929
 30
-1262.980
 70
    32
  0
VERTEX
  8
W66LPLIFT
 62
7
 10
1656.655
 20
-7349.887
 30
-1262.980
 70
    32
  0
VERTEX
  8
W66LPLIFT
 62
7
 10
1656.642
 20
-7349.845
 30
-1262.980
 70
    32
  0
VERTEX
  8
W66LPLIFT
 62
7
 10
1656.625
 20
-7349.805
 30
-1262.980
 70
    32
  0
VERTEX
  8
W66LPLIFT
 62
7
 10
1656.605
 20
-7349.766
 30
-1262.980
 70
    32
  0
VERTEX
  8
W66LPLIFT
 62
7
 10
1656.582
 20
-7349.729
 30
-1262.980
 70
    32
  0
VERTEX
  8
W66LPLIFT
 62
7
 10
1656.555
 20
-7349.695
 30
-1262.980
 70
    32
  0
VERTEX
  8
W66LPLIFT
 62
7
 10
1656.526
 20
-7349.662
 30
-1262.980
 70
    32
  0
VERTEX
  8
W66LPLIFT
 62
7
 10
1656.493
 20
-7349.633
 30
-1262.980
 70
    32
  0
VERTEX
  8
W66LPLIFT
 62
7
 10
1656.459
 20
-7349.606
 30
-1262.980
 70
    32
  0
VERTEX
  8
W66LPLIFT
 62
7
 10
1656.422
 20
-7349.583
 30
-1262.980
 70
    32
  0
VERTEX
  8
W66LPLIFT
 62
7
 10
1656.383
 20
-7349.563
 30
-1262.980
 70
    32
  0
VERTEX
  8
W66LPLIFT
 62
7
 10
1656.343
 20
-7349.546
 30
-1262.980
 70
    32
  0
VERTEX
  8
W66LPLIFT
 62
7
 10
1656.301
 20
-7349.533
 30
-1262.980
 70
    32
  0
VERTEX
  8
W66LPLIFT
 62
7
 10
1656.259
 20
-7349.524
 30
-1262.980
 70
    32
  0
VERTEX
  8
W66LPLIFT
 62
7
 10
1656.216
 20
-7349.518
 30
-1262.980
 70
    32
  0
VERTEX
  8
W66LPLIFT
 62
7
 10
1656.172
 20
-7349.516
 30
-1262.980
 70
    32
  0
VERTEX
  8
W66LPLIFT
 62
7
 10
1656.128
 20
-7349.518
 30
-1262.980
 70
    32
  0
VERTEX
  8
W66LPLIFT
 62
7
 10
1656.085
 20
-7349.524
 30
-1262.980
 70
    32
  0
VERTEX
  8
W66LPLIFT
 62
7
 10
1656.043
 20
-7349.533
 30
-1262.980
 70
    32
  0
VERTEX
  8
W66LPLIFT
 62
7
 10
1656.001
 20
-7349.546
 30
-1262.980
 70
    32
  0
VERTEX
  8
W66LPLIFT
 62
7
 10
1655.961
 20
-7349.563
 30
-1262.980
 70
    32
  0
VERTEX
  8
W66LPLIFT
 62
7
 10
1655.922
 20
-7349.583
 30
-1262.980
 70
    32
  0
VERTEX
  8
W66LPLIFT
 62
7
 10
1655.885
 20
-7349.606
 30
-1262.980
 70
    32
  0
VERTEX
  8
W66LPLIFT
 62
7
 10
1655.851
 20
-7349.633
 30
-1262.980
 70
    32
  0
VERTEX
  8
W66LPLIFT
 62
7
 10
1655.818
 20
-7349.662
 30
-1262.980
 70
    32
  0
VERTEX
  8
W66LPLIFT
 62
7
 10
1655.789
 20
-7349.695
 30
-1262.980
 70
    32
  0
VERTEX
  8
W66LPLIFT
 62
7
 10
1655.762
 20
-7349.729
 30
-1262.980
 70
    32
  0
VERTEX
  8
W66LPLIFT
 62
7
 10
1655.739
 20
-7349.766
 30
-1262.980
 70
    32
  0
VERTEX
  8
W66LPLIFT
 62
7
 10
1655.719
 20
-7349.805
 30
-1262.980
 70
    32
  0
VERTEX
  8
W66LPLIFT
 62
7
 10
1655.702
 20
-7349.845
 30
-1262.980
 70
    32
  0
VERTEX
  8
W66LPLIFT
 62
7
 10
1655.689
 20
-7349.887
 30
-1262.980
 70
    32
  0
VERTEX
  8
W66LPLIFT
 62
7
 10
1655.680
 20
-7349.929
 30
-1262.980
 70
    32
  0
VERTEX
  8
W66LPLIFT
 62
7
 10
1655.674
 20
-7349.972
 30
-1262.980
 70
    32
  0
VERTEX
  8
W66LPLIFT
 62
7
 10
1655.672
 20
-7350.016
 30
-1262.980
 70
    32
  0
VERTEX
  8
W66LPLIFT
 62
7
 10
1655.674
 20
-7350.060
 30
-1262.980
 70
    32
  0
VERTEX
  8
W66LPLIFT
 62
7
 10
1655.680
 20
-7350.103
 30
-1262.980
 70
    32
  0
VERTEX
  8
W66LPLIFT
 62
7
 10
1655.689
 20
-7350.145
 30
-1262.980
 70
    32
  0
VERTEX
  8
W66LPLIFT
 62
7
 10
1655.702
 20
-7350.187
 30
-1262.980
 70
    32
  0
VERTEX
  8
W66LPLIFT
 62
7
 10
1655.719
 20
-7350.227
 30
-1262.980
 70
    32
  0
VERTEX
  8
W66LPLIFT
 62
7
 10
1655.739
 20
-7350.266
 30
-1262.980
 70
    32
  0
VERTEX
  8
W66LPLIFT
 62
7
 10
1655.762
 20
-7350.303
 30
-1262.980
 70
    32
  0
VERTEX
  8
W66LPLIFT
 62
7
 10
1655.789
 20
-7350.337
 30
-1262.980
 70
    32
  0
VERTEX
  8
W66LPLIFT
 62
7
 10
1655.818
 20
-7350.370
 30
-1262.980
 70
    32
  0
VERTEX
  8
W66LPLIFT
 62
7
 10
1655.851
 20
-7350.399
 30
-1262.980
 70
    32
  0
VERTEX
  8
W66LPLIFT
 62
7
 10
1655.885
 20
-7350.426
 30
-1262.980
 70
    32
  0
VERTEX
  8
W66LPLIFT
 62
7
 10
1655.922
 20
-7350.449
 30
-1262.980
 70
    32
  0
VERTEX
  8
W66LPLIFT
 62
7
 10
1655.961
 20
-7350.469
 30
-1262.980
 70
    32
  0
VERTEX
  8
W66LPLIFT
 62
7
 10
1656.001
 20
-7350.486
 30
-1262.980
 70
    32
  0
VERTEX
  8
W66LPLIFT
 62
7
 10
1656.043
 20
-7350.499
 30
-1262.980
 70
    32
  0
VERTEX
  8
W66LPLIFT
 62
7
 10
1656.085
 20
-7350.508
 30
-1262.980
 70
    32
  0
VERTEX
  8
W66LPLIFT
 62
7
 10
1656.128
 20
-7350.514
 30
-1262.980
 70
    32
  0
VERTEX
  8
W66LPLIFT
 62
7
 10
1656.172
 20
-7350.516
 30
-1262.980
 70
    32
  0
VERTEX
  8
W66LPLIFT
 62
7
 10
1656.216
 20
-7350.514
 30
-1262.980
 70
    32
  0
VERTEX
  8
W66LPLIFT
 62
7
 10
1656.259
 20
-7350.508
 30
-1262.980
 70
    32
  0
VERTEX
  8
W66LPLIFT
 62
7
 10
1656.301
 20
-7350.499
 30
-1262.980
 70
    32
  0
VERTEX
  8
W66LPLIFT
 62
7
 10
1656.343
 20
-7350.486
 30
-1262.980
 70
    32
  0
VERTEX
  8
W66LPLIFT
 62
7
 10
1656.383
 20
-7350.469
 30
-1262.980
 70
    32
  0
VERTEX
  8
W66LPLIFT
 62
7
 10
1656.422
 20
-7350.449
 30
-1262.980
 70
    32
  0
VERTEX
  8
W66LPLIFT
 62
7
 10
1656.459
 20
-7350.426
 30
-1262.980
 70
    32
  0
VERTEX
  8
W66LPLIFT
 62
7
 10
1656.493
 20
-7350.399
 30
-1262.980
 70
    32
  0
VERTEX
  8
W66LPLIFT
 62
7
 10
1656.526
 20
-7350.370
 30
-1262.980
 70
    32
  0
VERTEX
  8
W66LPLIFT
 62
7
 10
1656.555
 20
-7350.337
 30
-1262.980
 70
    32
  0
VERTEX
  8
W66LPLIFT
 62
7
 10
1656.582
 20
-7350.303
 30
-1262.980
 70
    32
  0
VERTEX
  8
W66LPLIFT
 62
7
 10
1656.605
 20
-7350.266
 30
-1262.980
 70
    32
  0
VERTEX
  8
W66LPLIFT
 62
7
 10
1656.625
 20
-7350.227
 30
-1262.980
 70
    32
  0
VERTEX
  8
W66LPLIFT
 62
7
 10
1656.642
 20
-7350.187
 30
-1262.980
 70
    32
  0
VERTEX
  8
W66LPLIFT
 62
7
 10
1656.655
 20
-7350.145
 30
-1262.980
 70
    32
  0
VERTEX
  8
W66LPLIFT
 62
7
 10
1656.664
 20
-7350.103
 30
-1262.980
 70
    32
  0
VERTEX
  8
W66LPLIFT
 62
7
 10
1656.670
 20
-7350.060
 30
-1262.980
 70
    32
  0
VERTEX
  8
W66LPLIFT
 62
7
 10
1656.672
 20
-7350.016
 30
-1262.980
 70
    32
  0
SEQEND
  8
W66LPLIFT
  0
TEXT
  8
W66LPLIFT
 62
7
 10
1623.350
 20
-7350.197
 30
-1262.484
 40
3.000
  1
ST-974Q
 50
-0.713
 41
 1.0 
  0
TEXT
  8
W66LPLIFT
 62
7
 10
1619.110
 20
-7353.534
 30
-1262.484
 40
3.000
  1
-1262.484
 50
-0.713
 41
 1.0 
  0
TEXT
  8
W66LPLIFT
 62
7
 10
1625.062
 20
-7363.475
 30
-1261.650
 40
3.000
  1
ST-974R
 50
-0.713
 41
 1.0 
  0
TEXT
  8
W66LPLIFT
 62
7
 10
1622.328
 20
-7366.717
 30
-1261.650
 40
3.000
  1
-1261.650
 50
-0.713
 41
 1.0 
  0
TEXT
  8
W66LPLIFT
 62
7
 10
1675.876
 20
-7408.239
 30
-1259.655
 40
1.969
  1
BK -1259.655
 41
 1.0 
  0
TEXT
  8
W66LPLIFT
 62
4
 10
1886.461
 20
-7891.791
 30
-1361.484
 40
3.000
  1
ST-988R
 41
 1.0 
  0
TEXT
  8
W66LPLIFT
 62
4
 10
1884.675
 20
-7895.791
 30
-1361.484
 40
3.000
  1
-1361.484
 41
 1.0 
  0
TEXT
  8
W66LPLIFT
 62
4
 10
1893.256
 20
-7904.568
 30
-1361.038
 40
3.000
  1
ST-988Q
 41
 1.0 
  0
TEXT
  8
W66LPLIFT
 62
4
 10
1891.685
 20
-7908.568
 30
-1361.038
 40
3.000
  1
-1361.038
 41
 1.0 
  0
TEXT
  8
W66LPLIFT
 62
8
 10
1721.588
 20
-7948.792
 30
-1293.959
 40
3.000
  1
BK -1293.959
 41
 1.0 
  0
TEXT
  8
W66LPLIFT
 62
8
 10
1739.740
 20
-7958.800
 30
-1294.159
 40
3.000
  1
ST-013T
 41
 1.0 
  0
TEXT
  8
W66LPLIFT
 62
8
 10
1736.839
 20
-7962.638
 30
-1294.159
 40
3.000
  1
-1294.159
 41
 1.0 
  0
TEXT
  8
W66LPLIFT
 62
8
 10
1746.063
 20
-7968.532
 30
-1294.056
 40
3.000
  1
ST-013S
 41
 1.0 
  0
TEXT
  8
W66LPLIFT
 62
8
 10
1744.173
 20
-7971.558
 30
-1294.056
 40
3.000
  1
-1294.056
 41
 1.0 
  0
TEXT
  8
W66LPLIFT
 62
1
 10
1825.528
 20
-7847.095
 30
-1359.570
 40
3.000
  1
-1359.570
 50
90.000
 41
 1.0 
  0
TEXT
  8
W66LPLIFT
 62
1
 10
1821.816
 20
-7843.309
 30
-1359.570
 40
3.000
  1
ST-014S
 50
90.000
 41
 1.0 
  0
TEXT
  8
W66LPLIFT
 62
1
 10
1809.917
 20
-7841.904
 30
-1359.885
 40
3.000
  1
-1359.885
 50
90.000
 41
 1.0 
  0
TEXT
  8
W66LPLIFT
 62
1
 10
1805.910
 20
-7838.144
 30
-1359.885
 40
3.000
  1
ST-014T
 50
90.000
 41
 1.0 
  0
TEXT
  8
W66LPLIFT
 62
1
 10
1617.322
 20
-7137.708
 30
-1252.514
 40
1.575
  1
ST-059S
 50
8.107
 41
 1.0 
  0
TEXT
  8
W66LPLIFT
 62
1
 10
1617.712
 20
-7139.768
 30
-1252.514
 40
1.575
  1
-1252.514
 50
8.107
 41
 1.0 
  0
TEXT
  8
W66LPLIFT
 62
1
 10
1618.361
 20
-7143.860
 30
-1252.967
 40
1.575
  1
ST-059T
 50
8.107
 41
 1.0 
  0
TEXT
  8
W66LPLIFT
 62
1
 10
1618.653
 20
-7145.989
 30
-1252.967
 40
1.575
  1
-1252.967
 50
8.107
 41
 1.0 
  0
POLYLINE
  8
W66LPLIFT
 62
1
 66
     1
 70
     8
  0
VERTEX
  8
W66LPLIFT
 62
1
 10
1562.393
 20
-7025.154
 30
-1238.956
 70
    32
  0
VERTEX
  8
W66LPLIFT
 62
1
 10
1562.391
 20
-7025.110
 30
-1238.956
 70
    32
  0
VERTEX
  8
W66LPLIFT
 62
1
 10
1562.385
 20
-7025.067
 30
-1238.956
 70
    32
  0
VERTEX
  8
W66LPLIFT
 62
1
 10
1562.376
 20
-7025.025
 30
-1238.956
 70
    32
  0
VERTEX
  8
W66LPLIFT
 62
1
 10
1562.363
 20
-7024.983
 30
-1238.956
 70
    32
  0
VERTEX
  8
W66LPLIFT
 62
1
 10
1562.346
 20
-7024.943
 30
-1238.956
 70
    32
  0
VERTEX
  8
W66LPLIFT
 62
1
 10
1562.326
 20
-7024.904
 30
-1238.956
 70
    32
  0
VERTEX
  8
W66LPLIFT
 62
1
 10
1562.303
 20
-7024.867
 30
-1238.956
 70
    32
  0
VERTEX
  8
W66LPLIFT
 62
1
 10
1562.276
 20
-7024.833
 30
-1238.956
 70
    32
  0
VERTEX
  8
W66LPLIFT
 62
1
 10
1562.247
 20
-7024.800
 30
-1238.956
 70
    32
  0
VERTEX
  8
W66LPLIFT
 62
1
 10
1562.214
 20
-7024.771
 30
-1238.956
 70
    32
  0
VERTEX
  8
W66LPLIFT
 62
1
 10
1562.180
 20
-7024.744
 30
-1238.956
 70
    32
  0
VERTEX
  8
W66LPLIFT
 62
1
 10
1562.143
 20
-7024.721
 30
-1238.956
 70
    32
  0
VERTEX
  8
W66LPLIFT
 62
1
 10
1562.104
 20
-7024.701
 30
-1238.956
 70
    32
  0
VERTEX
  8
W66LPLIFT
 62
1
 10
1562.064
 20
-7024.684
 30
-1238.956
 70
    32
  0
VERTEX
  8
W66LPLIFT
 62
1
 10
1562.022
 20
-7024.671
 30
-1238.956
 70
    32
  0
VERTEX
  8
W66LPLIFT
 62
1
 10
1561.980
 20
-7024.662
 30
-1238.956
 70
    32
  0
VERTEX
  8
W66LPLIFT
 62
1
 10
1561.937
 20
-7024.656
 30
-1238.956
 70
    32
  0
VERTEX
  8
W66LPLIFT
 62
1
 10
1561.893
 20
-7024.654
 30
-1238.956
 70
    32
  0
VERTEX
  8
W66LPLIFT
 62
1
 10
1561.849
 20
-7024.656
 30
-1238.956
 70
    32
  0
VERTEX
  8
W66LPLIFT
 62
1
 10
1561.806
 20
-7024.662
 30
-1238.956
 70
    32
  0
VERTEX
  8
W66LPLIFT
 62
1
 10
1561.764
 20
-7024.671
 30
-1238.956
 70
    32
  0
VERTEX
  8
W66LPLIFT
 62
1
 10
1561.722
 20
-7024.684
 30
-1238.956
 70
    32
  0
VERTEX
  8
W66LPLIFT
 62
1
 10
1561.682
 20
-7024.701
 30
-1238.956
 70
    32
  0
VERTEX
  8
W66LPLIFT
 62
1
 10
1561.643
 20
-7024.721
 30
-1238.956
 70
    32
  0
VERTEX
  8
W66LPLIFT
 62
1
 10
1561.606
 20
-7024.744
 30
-1238.956
 70
    32
  0
VERTEX
  8
W66LPLIFT
 62
1
 10
1561.572
 20
-7024.771
 30
-1238.956
 70
    32
  0
VERTEX
  8
W66LPLIFT
 62
1
 10
1561.539
 20
-7024.800
 30
-1238.956
 70
    32
  0
VERTEX
  8
W66LPLIFT
 62
1
 10
1561.510
 20
-7024.833
 30
-1238.956
 70
    32
  0
VERTEX
  8
W66LPLIFT
 62
1
 10
1561.483
 20
-7024.867
 30
-1238.956
 70
    32
  0
VERTEX
  8
W66LPLIFT
 62
1
 10
1561.460
 20
-7024.904
 30
-1238.956
 70
    32
  0
VERTEX
  8
W66LPLIFT
 62
1
 10
1561.440
 20
-7024.943
 30
-1238.956
 70
    32
  0
VERTEX
  8
W66LPLIFT
 62
1
 10
1561.423
 20
-7024.983
 30
-1238.956
 70
    32
  0
VERTEX
  8
W66LPLIFT
 62
1
 10
1561.410
 20
-7025.025
 30
-1238.956
 70
    32
  0
VERTEX
  8
W66LPLIFT
 62
1
 10
1561.401
 20
-7025.067
 30
-1238.956
 70
    32
  0
VERTEX
  8
W66LPLIFT
 62
1
 10
1561.395
 20
-7025.110
 30
-1238.956
 70
    32
  0
VERTEX
  8
W66LPLIFT
 62
1
 10
1561.393
 20
-7025.154
 30
-1238.956
 70
    32
  0
VERTEX
  8
W66LPLIFT
 62
1
 10
1561.395
 20
-7025.198
 30
-1238.956
 70
    32
  0
VERTEX
  8
W66LPLIFT
 62
1
 10
1561.401
 20
-7025.241
 30
-1238.956
 70
    32
  0
VERTEX
  8
W66LPLIFT
 62
1
 10
1561.410
 20
-7025.283
 30
-1238.956
 70
    32
  0
VERTEX
  8
W66LPLIFT
 62
1
 10
1561.423
 20
-7025.325
 30
-1238.956
 70
    32
  0
VERTEX
  8
W66LPLIFT
 62
1
 10
1561.440
 20
-7025.365
 30
-1238.956
 70
    32
  0
VERTEX
  8
W66LPLIFT
 62
1
 10
1561.460
 20
-7025.404
 30
-1238.956
 70
    32
  0
VERTEX
  8
W66LPLIFT
 62
1
 10
1561.483
 20
-7025.441
 30
-1238.956
 70
    32
  0
VERTEX
  8
W66LPLIFT
 62
1
 10
1561.510
 20
-7025.475
 30
-1238.956
 70
    32
  0
VERTEX
  8
W66LPLIFT
 62
1
 10
1561.539
 20
-7025.508
 30
-1238.956
 70
    32
  0
VERTEX
  8
W66LPLIFT
 62
1
 10
1561.572
 20
-7025.537
 30
-1238.956
 70
    32
  0
VERTEX
  8
W66LPLIFT
 62
1
 10
1561.606
 20
-7025.564
 30
-1238.956
 70
    32
  0
VERTEX
  8
W66LPLIFT
 62
1
 10
1561.643
 20
-7025.587
 30
-1238.956
 70
    32
  0
VERTEX
  8
W66LPLIFT
 62
1
 10
1561.682
 20
-7025.607
 30
-1238.956
 70
    32
  0
VERTEX
  8
W66LPLIFT
 62
1
 10
1561.722
 20
-7025.624
 30
-1238.956
 70
    32
  0
VERTEX
  8
W66LPLIFT
 62
1
 10
1561.764
 20
-7025.637
 30
-1238.956
 70
    32
  0
VERTEX
  8
W66LPLIFT
 62
1
 10
1561.806
 20
-7025.646
 30
-1238.956
 70
    32
  0
VERTEX
  8
W66LPLIFT
 62
1
 10
1561.849
 20
-7025.652
 30
-1238.956
 70
    32
  0
VERTEX
  8
W66LPLIFT
 62
1
 10
1561.893
 20
-7025.654
 30
-1238.956
 70
    32
  0
VERTEX
  8
W66LPLIFT
 62
1
 10
1561.937
 20
-7025.652
 30
-1238.956
 70
    32
  0
VERTEX
  8
W66LPLIFT
 62
1
 10
1561.980
 20
-7025.646
 30
-1238.956
 70
    32
  0
VERTEX
  8
W66LPLIFT
 62
1
 10
1562.022
 20
-7025.637
 30
-1238.956
 70
    32
  0
VERTEX
  8
W66LPLIFT
 62
1
 10
1562.064
 20
-7025.624
 30
-1238.956
 70
    32
  0
VERTEX
  8
W66LPLIFT
 62
1
 10
1562.104
 20
-7025.607
 30
-1238.956
 70
    32
  0
VERTEX
  8
W66LPLIFT
 62
1
 10
1562.143
 20
-7025.587
 30
-1238.956
 70
    32
  0
VERTEX
  8
W66LPLIFT
 62
1
 10
1562.180
 20
-7025.564
 30
-1238.956
 70
    32
  0
VERTEX
  8
W66LPLIFT
 62
1
 10
1562.214
 20
-7025.537
 30
-1238.956
 70
    32
  0
VERTEX
  8
W66LPLIFT
 62
1
 10
1562.247
 20
-7025.508
 30
-1238.956
 70
    32
  0
VERTEX
  8
W66LPLIFT
 62
1
 10
1562.276
 20
-7025.475
 30
-1238.956
 70
    32
  0
VERTEX
  8
W66LPLIFT
 62
1
 10
1562.303
 20
-7025.441
 30
-1238.956
 70
    32
  0
VERTEX
  8
W66LPLIFT
 62
1
 10
1562.326
 20
-7025.404
 30
-1238.956
 70
    32
  0
VERTEX
  8
W66LPLIFT
 62
1
 10
1562.346
 20
-7025.365
 30
-1238.956
 70
    32
  0
VERTEX
  8
W66LPLIFT
 62
1
 10
1562.363
 20
-7025.325
 30
-1238.956
 70
    32
  0
VERTEX
  8
W66LPLIFT
 62
1
 10
1562.376
 20
-7025.283
 30
-1238.956
 70
    32
  0
VERTEX
  8
W66LPLIFT
 62
1
 10
1562.385
 20
-7025.241
 30
-1238.956
 70
    32
  0
VERTEX
  8
W66LPLIFT
 62
1
 10
1562.391
 20
-7025.198
 30
-1238.956
 70
    32
  0
VERTEX
  8
W66LPLIFT
 62
1
 10
1562.393
 20
-7025.154
 30
-1238.956
 70
    32
  0
SEQEND
  8
W66LPLIFT
  0
TEXT
  8
W66LPLIFT
 62
1
 10
1561.393
 20
-7023.854
 30
-1238.956
 40
1.575
  1
BK -1238.956
 41
 1.0 
  0
TEXT
  8
W66LPLIFT
 62
1
 10
1568.991
 20
-7027.973
 30
-1242.756
 40
1.575
  1
BK -1242.756
 41
 1.0 
  0
TEXT
  8
W66LPLIFT
 62
1
 10
1561.393
 20
-7031.154
 30
-1238.956
 40
1.575
  1
11SILL
 41
 1.0 
  0
TEXT
  8
W66LPLIFT
 62
1
 10
1607.096
 20
-7157.047
 30
-1258.652
 40
1.575
  1
BK -1258.652
 50
-53.973
 41
 1.0 
  0
TEXT
  8
W66LPLIFT
 62
1
 10
1575.838
 20
-7128.412
 30
-1259.903
 40
1.575
  1
BK -1259.903
 50
-53.858
 41
 1.0 
  0
TEXT
  8
W66LPLIFT
 62
1
 10
1585.095
 20
-7147.629
 30
-1262.479
 40
1.575
  1
BK -1262.479
 50
-53.858
 41
 1.0 
  0
POLYLINE
  8
W66LPLIFT
 62
7
 66
     1
 70
     9
  0
VERTEX
  8
W66LPLIFT
 62
7
 10
1685.718
 20
-6578.048
 30
-1356.783
 70
    32
  0
VERTEX
  8
W66LPLIFT
 62
7
 10
1687.467
 20
-6581.228
 30
-1356.783
 70
    32
  0
VERTEX
  8
W66LPLIFT
 62
7
 10
1683.968
 20
-6581.226
 30
-1356.783
 70
    32
  0
SEQEND
  8
W66LPLIFT
  0
POINT
  8
W66LPLIFT
 62
7
 10
1685.718
 20
-6580.258
 30
-1356.783
  0
POLYLINE
  8
W66LPLIFT
 62
7
 66
     1
 70
     9
  0
VERTEX
  8
W66LPLIFT
 62
7
 10
1687.120
 20
-6580.837
 30
-1357.010
 70
    32
  0
VERTEX
  8
W66LPLIFT
 62
7
 10
1688.869
 20
-6584.017
 30
-1357.010
 70
    32
  0
VERTEX
  8
W66LPLIFT
 62
7
 10
1685.370
 20
-6584.015
 30
-1357.010
 70
    32
  0
SEQEND
  8
W66LPLIFT
  0
POINT
  8
W66LPLIFT
 62
7
 10
1687.120
 20
-6583.047
 30
-1357.010
  0
POINT
  8
W66LPLIFT
 62
3
 10
2131.342
 20
-8893.851
 30
-1374.648
  0
POLYLINE
  8
W66LPLIFT
 62
3
 66
     1
 70
     9
  0
VERTEX
  8
W66LPLIFT
 62
3
 10
2131.342
 20
-8891.641
 30
-1374.648
 70
    32
  0
VERTEX
  8
W66LPLIFT
 62
3
 10
2133.091
 20
-8894.821
 30
-1374.648
 70
    32
  0
VERTEX
  8
W66LPLIFT
 62
3
 10
2129.592
 20
-8894.819
 30
-1374.648
 70
    32
  0
SEQEND
  8
W66LPLIFT
  0
POINT
  8
W66LPLIFT
 62
3
 10
2133.605
 20
-8904.766
 30
-1374.964
  0
POLYLINE
  8
W66LPLIFT
 62
3
 66
     1
 70
     9
  0
VERTEX
  8
W66LPLIFT
 62
3
 10
2133.605
 20
-8902.556
 30
-1374.964
 70
    32
  0
VERTEX
  8
W66LPLIFT
 62
3
 10
2135.354
 20
-8905.736
 30
-1374.964
 70
    32
  0
VERTEX
  8
W66LPLIFT
 62
3
 10
2131.855
 20
-8905.734
 30
-1374.964
 70
    32
  0
SEQEND
  8
W66LPLIFT
  0
POINT
  8
W66LPLIFT
 62
3
 10
1424.189
 20
-6005.320
 30
-1302.017
  0
POLYLINE
  8
W66LPLIFT
 62
3
 66
     1
 70
     9
  0
VERTEX
  8
W66LPLIFT
 62
3
 10
1424.189
 20
-6003.110
 30
-1302.017
 70
    32
  0
VERTEX
  8
W66LPLIFT
 62
3
 10
1425.938
 20
-6006.290
 30
-1302.017
 70
    32
  0
VERTEX
  8
W66LPLIFT
 62
3
 10
1422.439
 20
-6006.288
 30
-1302.017
 70
    32
  0
SEQEND
  8
W66LPLIFT
  0
POINT
  8
W66LPLIFT
 62
3
 10
1433.312
 20
-6011.698
 30
-1303.347
  0
POLYLINE
  8
W66LPLIFT
 62
3
 66
     1
 70
     9
  0
VERTEX
  8
W66LPLIFT
 62
3
 10
1433.312
 20
-6009.488
 30
-1303.347
 70
    32
  0
VERTEX
  8
W66LPLIFT
 62
3
 10
1435.061
 20
-6012.668
 30
-1303.347
 70
    32
  0
VERTEX
  8
W66LPLIFT
 62
3
 10
1431.562
 20
-6012.666
 30
-1303.347
 70
    32
  0
SEQEND
  8
W66LPLIFT
  0
POINT
  8
W66LPLIFT
 62
4
 10
1903.048
 20
-8005.894
 30
-1369.917
  0
POLYLINE
  8
W66LPLIFT
 62
4
 66
     1
 70
     9
  0
VERTEX
  8
W66LPLIFT
 62
4
 10
1903.048
 20
-8003.684
 30
-1369.917
 70
    32
  0
VERTEX
  8
W66LPLIFT
 62
4
 10
1904.797
 20
-8006.864
 30
-1369.917
 70
    32
  0
VERTEX
  8
W66LPLIFT
 62
4
 10
1901.298
 20
-8006.862
 30
-1369.917
 70
    32
  0
SEQEND
  8
W66LPLIFT
  0
POINT
  8
W66LPLIFT
 62
4
 10
1889.017
 20
-8017.463
 30
-1368.971
  0
POINT
  8
W66LPLIFT
 62
4
 10
1910.186
 20
-7998.270
 30
-1369.102
  0
POINT
  8
W66LPLIFT
 62
4
 10
1919.341
 20
-7969.893
 30
-1367.789
  0
POLYLINE
  8
W66LPLIFT
 62
4
 66
     1
 70
     9
  0
VERTEX
  8
W66LPLIFT
 62
4
 10
1889.017
 20
-8015.253
 30
-1368.971
 70
    32
  0
VERTEX
  8
W66LPLIFT
 62
4
 10
1890.766
 20
-8018.433
 30
-1368.971
 70
    32
  0
VERTEX
  8
W66LPLIFT
 62
4
 10
1887.267
 20
-8018.431
 30
-1368.971
 70
    32
  0
SEQEND
  8
W66LPLIFT
  0
POLYLINE
  8
W66LPLIFT
 62
4
 66
     1
 70
     9
  0
VERTEX
  8
W66LPLIFT
 62
4
 10
1910.186
 20
-7996.060
 30
-1369.102
 70
    32
  0
VERTEX
  8
W66LPLIFT
 62
4
 10
1911.935
 20
-7999.240
 30
-1369.102
 70
    32
  0
VERTEX
  8
W66LPLIFT
 62
4
 10
1908.436
 20
-7999.238
 30
-1369.102
 70
    32
  0
SEQEND
  8
W66LPLIFT
  0
POLYLINE
  8
W66LPLIFT
 62
4
 66
     1
 70
     9
  0
VERTEX
  8
W66LPLIFT
 62
4
 10
1919.341
 20
-7967.683
 30
-1367.789
 70
    32
  0
VERTEX
  8
W66LPLIFT
 62
4
 10
1921.090
 20
-7970.863
 30
-1367.789
 70
    32
  0
VERTEX
  8
W66LPLIFT
 62
4
 10
1917.591
 20
-7970.861
 30
-1367.789
 70
    32
  0
SEQEND
  8
W66LPLIFT
  0
POINT
  8
W66LPLIFT
 62
4
 10
1830.827
 20
-8033.808
 30
-1381.256
  0
POLYLINE
  8
W66LPLIFT
 62
4
 66
     1
 70
     9
  0
VERTEX
  8
W66LPLIFT
 62
4
 10
1830.827
 20
-8031.598
 30
-1381.256
 70
    32
  0
VERTEX
  8
W66LPLIFT
 62
4
 10
1832.576
 20
-8034.778
 30
-1381.256
 70
    32
  0
VERTEX
  8
W66LPLIFT
 62
4
 10
1829.077
 20
-8034.776
 30
-1381.256
 70
    32
  0
SEQEND
  8
W66LPLIFT
  0
POINT
  8
W66LPLIFT
 62
4
 10
1834.721
 20
-8043.119
 30
-1381.255
  0
POLYLINE
  8
W66LPLIFT
 62
4
 66
     1
 70
     9
  0
VERTEX
  8
W66LPLIFT
 62
4
 10
1834.721
 20
-8040.909
 30
-1381.255
 70
    32
  0
VERTEX
  8
W66LPLIFT
 62
4
 10
1836.470
 20
-8044.089
 30
-1381.255
 70
    32
  0
VERTEX
  8
W66LPLIFT
 62
4
 10
1832.971
 20
-8044.087
 30
-1381.255
 70
    32
  0
SEQEND
  8
W66LPLIFT
  0
POLYLINE
  8
W66LPLIFT
 62
3
 66
     1
 70
     9
  0
VERTEX
  8
W66LPLIFT
 62
3
 10
1383.779
 20
-5955.238
 30
-1299.172
 70
    32
  0
VERTEX
  8
W66LPLIFT
 62
3
 10
1385.528
 20
-5958.418
 30
-1299.172
 70
    32
  0
VERTEX
  8
W66LPLIFT
 62
3
 10
1382.029
 20
-5958.416
 30
-1299.172
 70
    32
  0
SEQEND
  8
W66LPLIFT
  0
POINT
  8
W66LPLIFT
 62
3
 10
1383.779
 20
-5957.448
 30
-1299.172
  0
POINT
  8
W66LPLIFT
 62
4
 10
1436.913
 20
-6059.798
 30
-1252.170
  0
POLYLINE
  8
W66LPLIFT
 62
4
 66
     1
 70
     9
  0
VERTEX
  8
W66LPLIFT
 62
4
 10
1436.913
 20
-6057.588
 30
-1252.170
 70
    32
  0
VERTEX
  8
W66LPLIFT
 62
4
 10
1438.662
 20
-6060.768
 30
-1252.170
 70
    32
  0
VERTEX
  8
W66LPLIFT
 62
4
 10
1435.163
 20
-6060.766
 30
-1252.170
 70
    32
  0
SEQEND
  8
W66LPLIFT
  0
POLYLINE
  8
W66LPLIFT
 62
4
 66
     1
 70
     9
  0
VERTEX
  8
W66LPLIFT
 62
4
 10
1441.085
 20
-6063.438
 30
-1252.556
 70
    32
  0
VERTEX
  8
W66LPLIFT
 62
4
 10
1442.834
 20
-6066.618
 30
-1252.556
 70
    32
  0
VERTEX
  8
W66LPLIFT
 62
4
 10
1439.335
 20
-6066.616
 30
-1252.556
 70
    32
  0
SEQEND
  8
W66LPLIFT
  0
POINT
  8
W66LPLIFT
 62
4
 10
1441.085
 20
-6065.648
 30
-1252.556
  0
POLYLINE
  8
W66LPLIFT
 62
7
 66
     1
 70
     9
  0
VERTEX
  8
W66LPLIFT
 62
7
 10
1641.333
 20
-7199.917
 30
-1264.461
 70
    32
  0
VERTEX
  8
W66LPLIFT
 62
7
 10
1643.082
 20
-7203.097
 30
-1264.461
 70
    32
  0
VERTEX
  8
W66LPLIFT
 62
7
 10
1639.583
 20
-7203.095
 30
-1264.461
 70
    32
  0
SEQEND
  8
W66LPLIFT
  0
POINT
  8
W66LPLIFT
 62
7
 10
1641.333
 20
-7202.127
 30
-1264.461
  0
POLYLINE
  8
W66LPLIFT
 62
7
 66
     1
 70
     9
  0
VERTEX
  8
W66LPLIFT
 62
7
 10
1642.856
 20
-7211.041
 30
-1264.394
 70
    32
  0
VERTEX
  8
W66LPLIFT
 62
7
 10
1644.605
 20
-7214.221
 30
-1264.394
 70
    32
  0
VERTEX
  8
W66LPLIFT
 62
7
 10
1641.106
 20
-7214.219
 30
-1264.394
 70
    32
  0
SEQEND
  8
W66LPLIFT
  0
POINT
  8
W66LPLIFT
 62
7
 10
1642.856
 20
-7213.251
 30
-1264.394
  0
POINT
  8
W66LPLIFT
 62
7
 10
1636.287
 20
-7326.023
 30
-1262.497
  0
POLYLINE
  8
W66LPLIFT
 62
7
 66
     1
 70
     9
  0
VERTEX
  8
W66LPLIFT
 62
7
 10
1636.287
 20
-7323.813
 30
-1262.497
 70
    32
  0
VERTEX
  8
W66LPLIFT
 62
7
 10
1638.036
 20
-7326.993
 30
-1262.497
 70
    32
  0
VERTEX
  8
W66LPLIFT
 62
7
 10
1634.537
 20
-7326.991
 30
-1262.497
 70
    32
  0
SEQEND
  8
W66LPLIFT
  0
POLYLINE
  8
W66LPLIFT
 62
7
 66
     1
 70
     9
  0
VERTEX
  8
W66LPLIFT
 62
7
 10
1659.426
 20
-7350.663
 30
-1262.484
 70
    32
  0
VERTEX
  8
W66LPLIFT
 62
7
 10
1661.175
 20
-7353.843
 30
-1262.484
 70
    32
  0
VERTEX
  8
W66LPLIFT
 62
7
 10
1657.676
 20
-7353.841
 30
-1262.484
 70
    32
  0
SEQEND
  8
W66LPLIFT
  0
POINT
  8
W66LPLIFT
 62
7
 10
1659.426
 20
-7352.873
 30
-1262.484
  0
POINT
  8
W66LPLIFT
 62
7
 10
1661.421
 20
-7363.403
 30
-1261.650
  0
POLYLINE
  8
W66LPLIFT
 62
7
 66
     1
 70
     9
  0
VERTEX
  8
W66LPLIFT
 62
7
 10
1661.421
 20
-7361.193
 30
-1261.650
 70
    32
  0
VERTEX
  8
W66LPLIFT
 62
7
 10
1663.170
 20
-7364.373
 30
-1261.650
 70
    32
  0
VERTEX
  8
W66LPLIFT
 62
7
 10
1659.671
 20
-7364.371
 30
-1261.650
 70
    32
  0
SEQEND
  8
W66LPLIFT
  0
POINT
  8
W66LPLIFT
 62
7
 10
1670.907
 20
-7356.612
 30
-1268.766
  0
POINT
  8
W66LPLIFT
 62
7
 10
1670.907
 20
-7356.612
 30
-1268.766
  0
POLYLINE
  8
W66LPLIFT
 62
7
 66
     1
 70
     9
  0
VERTEX
  8
W66LPLIFT
 62
7
 10
1670.907
 20
-7354.402
 30
-1268.766
 70
    32
  0
VERTEX
  8
W66LPLIFT
 62
7
 10
1672.656
 20
-7357.582
 30
-1268.766
 70
    32
  0
VERTEX
  8
W66LPLIFT
 62
7
 10
1669.157
 20
-7357.580
 30
-1268.766
 70
    32
  0
SEQEND
  8
W66LPLIFT
  0
POINT
  8
W66LPLIFT
 62
4
 10
1873.426
 20
-7901.692
 30
-1361.484
  0
POLYLINE
  8
W66LPLIFT
 62
4
 66
     1
 70
     9
  0
VERTEX
  8
W66LPLIFT
 62
4
 10
1873.426
 20
-7899.482
 30
-1361.484
 70
    32
  0
VERTEX
  8
W66LPLIFT
 62
4
 10
1875.175
 20
-7902.662
 30
-1361.484
 70
    32
  0
VERTEX
  8
W66LPLIFT
 62
4
 10
1871.676
 20
-7902.660
 30
-1361.484
 70
    32
  0
SEQEND
  8
W66LPLIFT
  0
POINT
  8
W66LPLIFT
 62
4
 10
1877.314
 20
-7905.964
 30
-1361.038
  0
POLYLINE
  8
W66LPLIFT
 62
4
 66
     1
 70
     9
  0
VERTEX
  8
W66LPLIFT
 62
4
 10
1877.314
 20
-7903.754
 30
-1361.038
 70
    32
  0
VERTEX
  8
W66LPLIFT
 62
4
 10
1879.063
 20
-7906.934
 30
-1361.038
 70
    32
  0
VERTEX
  8
W66LPLIFT
 62
4
 10
1875.564
 20
-7906.932
 30
-1361.038
 70
    32
  0
SEQEND
  8
W66LPLIFT
  0
POLYLINE
  8
W66LPLIFT
 62
8
 66
     1
 70
     9
  0
VERTEX
  8
W66LPLIFT
 62
8
 10
1724.582
 20
-7960.817
 30
-1294.159
 70
    32
  0
VERTEX
  8
W66LPLIFT
 62
8
 10
1726.331
 20
-7963.997
 30
-1294.159
 70
    32
  0
VERTEX
  8
W66LPLIFT
 62
8
 10
1722.832
 20
-7963.995
 30
-1294.159
 70
    32
  0
SEQEND
  8
W66LPLIFT
  0
POLYLINE
  8
W66LPLIFT
 62
8
 66
     1
 70
     9
  0
VERTEX
  8
W66LPLIFT
 62
8
 10
1726.623
 20
-7965.056
 30
-1294.056
 70
    32
  0
VERTEX
  8
W66LPLIFT
 62
8
 10
1728.372
 20
-7968.236
 30
-1294.056
 70
    32
  0
VERTEX
  8
W66LPLIFT
 62
8
 10
1724.873
 20
-7968.234
 30
-1294.056
 70
    32
  0
SEQEND
  8
W66LPLIFT
  0
POINT
  8
W66LPLIFT
 62
8
 10
1724.582
 20
-7963.027
 30
-1294.159
  0
POINT
  8
W66LPLIFT
 62
8
 10
1726.623
 20
-7967.266
 30
-1294.056
  0
POLYLINE
  8
W66LPLIFT
 62
1
 66
     1
 70
     9
  0
VERTEX
  8
W66LPLIFT
 62
1
 10
1819.557
 20
-7846.903
 30
-1359.570
 70
    32
  0
VERTEX
  8
W66LPLIFT
 62
1
 10
1821.306
 20
-7850.083
 30
-1359.570
 70
    32
  0
VERTEX
  8
W66LPLIFT
 62
1
 10
1817.807
 20
-7850.081
 30
-1359.570
 70
    32
  0
SEQEND
  8
W66LPLIFT
  0
POINT
  8
W66LPLIFT
 62
1
 10
1819.557
 20
-7849.113
 30
-1359.570
  0
POINT
  8
W66LPLIFT
 62
1
 10
1809.712
 20
-7849.061
 30
-1359.885
  0
POLYLINE
  8
W66LPLIFT
 62
1
 66
     1
 70
     9
  0
VERTEX
  8
W66LPLIFT
 62
1
 10
1809.712
 20
-7846.851
 30
-1359.885
 70
    32
  0
VERTEX
  8
W66LPLIFT
 62
1
 10
1811.461
 20
-7850.031
 30
-1359.885
 70
    32
  0
VERTEX
  8
W66LPLIFT
 62
1
 10
1807.962
 20
-7850.029
 30
-1359.885
 70
    32
  0
SEQEND
  8
W66LPLIFT
  0
POLYLINE
  8
W66LPLIFT
 62
1
 66
     1
 70
     9
  0
VERTEX
  8
W66LPLIFT
 62
1
 10
1616.257
 20
-7142.499
 30
-1252.967
 70
    32
  0
VERTEX
  8
W66LPLIFT
 62
1
 10
1618.006
 20
-7145.679
 30
-1252.967
 70
    32
  0
VERTEX
  8
W66LPLIFT
 62
1
 10
1614.507
 20
-7145.677
 30
-1252.967
 70
    32
  0
SEQEND
  8
W66LPLIFT
  0
POINT
  8
W66LPLIFT
 62
1
 10
1616.257
 20
-7144.709
 30
-1252.967
  0
POLYLINE
  8
W66LPLIFT
 62
1
 66
     1
 70
     9
  0
VERTEX
  8
W66LPLIFT
 62
1
 10
1615.750
 20
-7136.610
 30
-1252.514
 70
    32
  0
VERTEX
  8
W66LPLIFT
 62
1
 10
1617.499
 20
-7139.790
 30
-1252.514
 70
    32
  0
VERTEX
  8
W66LPLIFT
 62
1
 10
1614.000
 20
-7139.788
 30
-1252.514
 70
    32
  0
SEQEND
  8
W66LPLIFT
  0
POINT
  8
W66LPLIFT
 62
1
 10
1615.750
 20
-7138.820
 30
-1252.514
  0
POLYLINE
  8
W66LPLIFT
 62
6
 66
     1
 70
     9
  0
VERTEX
  8
W66LPLIFT
 62
6
 10
2157.345
 20
-9274.651
 30
-1335.733
 70
    32
  0
VERTEX
  8
W66LPLIFT
 62
6
 10
2147.795
 20
-9294.825
 30
-1331.980
 70
    32
  0
VERTEX
  8
W66LPLIFT
 62
6
 10
2151.167
 20
-9299.872
 30
-1331.553
 70
    32
  0
VERTEX
  8
W66LPLIFT
 62
6
 10
2153.239
 20
-9305.552
 30
-1330.885
 70
    32
  0
VERTEX
  8
W66LPLIFT
 62
6
 10
2162.197
 20
-9333.920
 30
-1330.209
 70
    32
  0
VERTEX
  8
W66LPLIFT
 62
6
 10
2168.215
 20
-9333.935
 30
-1331.326
 70
    32
  0
VERTEX
  8
W66LPLIFT
 62
6
 10
2177.675
 20
-9354.050
 30
-1332.479
 70
    32
  0
VERTEX
  8
W66LPLIFT
 62
6
 10
2199.187
 20
-9359.880
 30
-1337.661
 70
    32
  0
VERTEX
  8
W66LPLIFT
 62
6
 10
2209.378
 20
-9372.436
 30
-1339.255
 70
    32
  0
VERTEX
  8
W66LPLIFT
 62
6
 10
2216.077
 20
-9400.353
 30
-1337.826
 70
    32
  0
VERTEX
  8
W66LPLIFT
 62
6
 10
2219.294
 20
-9418.033
 30
-1336.579
 70
    32
  0
VERTEX
  8
W66LPLIFT
 62
6
 10
2223.661
 20
-9437.212
 30
-1335.689
 70
    32
  0
VERTEX
  8
W66LPLIFT
 62
6
 10
2236.527
 20
-9455.600
 30
-1324.489
 70
    32
  0
VERTEX
  8
W66LPLIFT
 62
6
 10
2248.782
 20
-9480.174
 30
-1323.841
 70
    32
  0
VERTEX
  8
W66LPLIFT
 62
6
 10
2260.346
 20
-9506.351
 30
-1324.984
 70
    32
  0
VERTEX
  8
W66LPLIFT
 62
6
 10
2262.205
 20
-9516.372
 30
-1325.388
 70
    32
  0
VERTEX
  8
W66LPLIFT
 62
6
 10
2276.259
 20
-9514.960
 30
-1325.513
 70
    32
  0
VERTEX
  8
W66LPLIFT
 62
6
 10
2275.014
 20
-9504.597
 30
-1325.103
 70
    32
  0
VERTEX
  8
W66LPLIFT
 62
6
 10
2270.503
 20
-9478.739
 30
-1324.063
 70
    32
  0
VERTEX
  8
W66LPLIFT
 62
6
 10
2266.745
 20
-9461.146
 30
-1323.346
 70
    32
  0
VERTEX
  8
W66LPLIFT
 62
6
 10
2248.024
 20
-9439.564
 30
-1335.264
 70
    32
  0
VERTEX
  8
W66LPLIFT
 62
6
 10
2234.899
 20
-9421.199
 30
-1336.036
 70
    32
  0
VERTEX
  8
W66LPLIFT
 62
6
 10
2234.384
 20
-9408.903
 30
-1336.211
 70
    32
  0
VERTEX
  8
W66LPLIFT
 62
6
 10
2225.614
 20
-9377.838
 30
-1338.748
 70
    32
  0
VERTEX
  8
W66LPLIFT
 62
6
 10
2209.666
 20
-9346.414
 30
-1338.475
 70
    32
  0
VERTEX
  8
W66LPLIFT
 62
6
 10
2206.311
 20
-9327.487
 30
-1337.261
 70
    32
  0
VERTEX
  8
W66LPLIFT
 62
6
 10
2198.153
 20
-9310.971
 30
-1338.063
 70
    32
  0
VERTEX
  8
W66LPLIFT
 62
6
 10
2194.131
 20
-9303.362
 30
-1337.153
 70
    32
  0
VERTEX
  8
W66LPLIFT
 62
6
 10
2174.617
 20
-9274.529
 30
-1337.600
 70
    32
  0
VERTEX
  8
W66LPLIFT
 62
6
 10
2173.819
 20
-9266.722
 30
-1331.484
 70
    32
  0
VERTEX
  8
W66LPLIFT
 62
6
 10
2175.499
 20
-9265.636
 30
-1331.484
 70
    32
  0
VERTEX
  8
W66LPLIFT
 62
6
 10
2171.302
 20
-9255.937
 30
-1331.484
 70
    32
  0
VERTEX
  8
W66LPLIFT
 62
6
 10
2156.852
 20
-9255.136
 30
-1331.484
 70
    32
  0
VERTEX
  8
W66LPLIFT
 62
6
 10
2160.400
 20
-9263.590
 30
-1331.484
 70
    32
  0
SEQEND
  8
W66LPLIFT
  0
TEXT
  8
W66LPLIFT
 62
24
 10
2161.169
 20
-9321.800
 30
-1330.517
 40
2.362
  1
BK -1330.517
 50
3.933
 41
 1.0 
  0
TEXT
  8
W66LPLIFT
 62
1
 10
2185.535
 20
-9313.538
 30
-1329.970
 40
2.362
  1
BK -1329.97
 50
-53.858
 41
 1.0 
  0
TEXT
  8
W66LPLIFT
 62
1
 10
2195.601
 20
-9332.990
 30
-1325.436
 40
2.362
  1
BK -1325.436
 50
-53.858
 41
 1.0 
  0
TEXT
  8
W66LPLIFT
 62
1
 10
2202.060
 20
-9349.148
 30
-1325.942
 40
2.362
  1
BK -1325.942
 50
-53.858
 41
 1.0 
  0
TEXT
  8
W66LPLIFT
 62
1
 10
2216.127
 20
-9377.116
 30
-1330.570
 40
2.362
  1
BK -1330.57
 50
-53.858
 41
 1.0 
  0
TEXT
  8
W66LPLIFT
 62
1
 10
2223.443
 20
-9400.186
 30
-1327.467
 40
2.362
  1
BK -1327.467
 50
-53.858
 41
 1.0 
  0
TEXT
  8
W66LPLIFT
 62
1
 10
2234.715
 20
-9431.765
 30
-1323.055
 40
2.362
  1
BK -1323.055
 50
-53.858
 41
 1.0 
  0
TEXT
  8
W66LPLIFT
 62
1
 10
2237.216
 20
-9445.788
 30
-1326.262
 40
2.362
  1
BK -1326.262
 50
-53.858
 41
 1.0 
  0
TEXT
  8
W66LPLIFT
 62
1
 10
2235.846
 20
-9438.710
 30
-1325.864
 40
2.362
  1
BK -1325.864
 50
-53.858
 41
 1.0 
  0
TEXT
  8
W66LPLIFT
 62
1
 10
2254.566
 20
-9465.526
 30
-1319.553
 40
1.969
  1
BK -1319.553
 41
 1.0 
  0
TEXT
  8
W66LPLIFT
 62
1
 10
2257.814
 20
-9476.568
 30
-1323.176
 40
2.362
  1
BK -1323.176
 50
-53.858
 41
 1.0 
  0
TEXT
  8
W66LPLIFT
 62
1
 10
2268.995
 20
-9512.567
 30
-1325.330
 40
1.969
  1
BK -1325.33
 41
 1.0 
  0
TEXT
  8
W66LPLIFT
 62
1
 10
2268.995
 20
-9516.867
 30
-1337.330
 40
1.969
  1
Fl -1337.33
 41
 1.0 
  0
TEXT
  8
W66LPLIFT
 62
24
 10
2178.091
 20
-9288.679
 30
-1331.649
 40
2.362
  1
-1331.649
 50
-53.858
 41
 1.0 
  0
TEXT
  8
W66LPLIFT
 62
24
 10
2179.864
 20
-9284.791
 30
-1331.649
 40
3.000
  1
ST-152S
 50
-53.858
 41
 1.0 
  0
POLYLINE
  8
W66LPLIFT
 62
24
 66
     1
 70
     9
  0
VERTEX
  8
W66LPLIFT
 62
24
 10
2175.834
 20
-9282.369
 30
-1331.649
 70
    32
  0
VERTEX
  8
W66LPLIFT
 62
24
 10
2177.583
 20
-9285.549
 30
-1331.649
 70
    32
  0
VERTEX
  8
W66LPLIFT
 62
24
 10
2174.084
 20
-9285.547
 30
-1331.649
 70
    32
  0
SEQEND
  8
W66LPLIFT
  0
POINT
  8
W66LPLIFT
 62
24
 10
2175.834
 20
-9284.579
 30
-1331.649
  0
TEXT
  8
W66LPLIFT
 62
24
 10
2170.566
 20
-9274.121
 30
-1331.970
 40
3.000
  1
ST-115T
 50
3.347
 41
 1.0 
  0
TEXT
  8
W66LPLIFT
 62
24
 10
2170.496
 20
-9277.788
 30
-1331.970
 40
2.362
  1
-1331.970
 50
3.347
 41
 1.0 
  0
TEXT
  8
W66LPLIFT
 62
24
 10
2171.886
 20
-9269.379
 30
-1331.490
 40
2.362
  1
-1331.490
 50
3.347
 41
 1.0 
  0
TEXT
  8
W66LPLIFT
 62
24
 10
2171.624
 20
-9265.823
 30
-1331.490
 40
3.000
  1
ST-115S
 50
3.347
 41
 1.0 
  0
POINT
  8
W66LPLIFT
 62
24
 10
2169.921
 20
-9268.279
 30
-1331.490
  0
POLYLINE
  8
W66LPLIFT
 62
24
 66
     1
 70
     9
  0
VERTEX
  8
W66LPLIFT
 62
24
 10
2169.921
 20
-9266.069
 30
-1331.490
 70
    32
  0
VERTEX
  8
W66LPLIFT
 62
24
 10
2171.670
 20
-9269.249
 30
-1331.490
 70
    32
  0
VERTEX
  8
W66LPLIFT
 62
24
 10
2168.171
 20
-9269.247
 30
-1331.490
 70
    32
  0
SEQEND
  8
W66LPLIFT
  0
POINT
  8
W66LPLIFT
 62
24
 10
2168.454
 20
-9274.841
 30
-1331.970
  0
POLYLINE
  8
W66LPLIFT
 62
24
 66
     1
 70
     9
  0
VERTEX
  8
W66LPLIFT
 62
24
 10
2168.454
 20
-9272.631
 30
-1331.970
 70
    32
  0
VERTEX
  8
W66LPLIFT
 62
24
 10
2170.203
 20
-9275.811
 30
-1331.970
 70
    32
  0
VERTEX
  8
W66LPLIFT
 62
24
 10
2166.704
 20
-9275.809
 30
-1331.970
 70
    32
  0
SEQEND
  8
W66LPLIFT
  0
POLYLINE
  8
W66LPLIFT
 62
1
 66
     1
 70
     8
  0
VERTEX
  8
W66LPLIFT
 62
1
 10
1957.239
 20
-8567.876
 30
-1239.755
 70
    32
  0
VERTEX
  8
W66LPLIFT
 62
1
 10
1959.936
 20
-8565.658
 30
-1240.191
 70
    32
  0
VERTEX
  8
W66LPLIFT
 62
1
 10
1963.653
 20
-8557.934
 30
-1238.450
 70
    32
  0
VERTEX
  8
W66LPLIFT
 62
1
 10
1963.270
 20
-8554.328
 30
-1243.334
 70
    32
  0
VERTEX
  8
W66LPLIFT
 62
1
 10
1962.304
 20
-8548.138
 30
-1243.786
 70
    32
  0
VERTEX
  8
W66LPLIFT
 62
1
 10
1962.304
 20
-8548.138
 30
-1244.362
 70
    32
  0
VERTEX
  8
W66LPLIFT
 62
1
 10
1952.480
 20
-8516.330
 30
-1246.141
 70
    32
  0
VERTEX
  8
W66LPLIFT
 62
1
 10
1951.932
 20
-8497.951
 30
-1248.884
 70
    32
  0
VERTEX
  8
W66LPLIFT
 62
1
 10
1947.750
 20
-8482.548
 30
-1249.095
 70
    32
  0
VERTEX
  8
W66LPLIFT
 62
1
 10
1947.340
 20
-8481.435
 30
-1249.223
 70
    32
  0
VERTEX
  8
W66LPLIFT
 62
1
 10
1944.479
 20
-8475.936
 30
-1247.612
 70
    32
  0
VERTEX
  8
W66LPLIFT
 62
1
 10
1934.941
 20
-8457.279
 30
-1247.298
 70
    32
  0
VERTEX
  8
W66LPLIFT
 62
1
 10
1922.872
 20
-8437.359
 30
-1247.551
 70
    32
  0
VERTEX
  8
W66LPLIFT
 62
1
 10
1915.357
 20
-8432.887
 30
-1247.512
 70
    32
  0
VERTEX
  8
W66LPLIFT
 62
1
 10
1915.052
 20
-8423.609
 30
-1247.463
 70
    32
  0
VERTEX
  8
W66LPLIFT
 62
1
 10
1907.773
 20
-8418.671
 30
-1247.422
 70
    32
  0
VERTEX
  8
W66LPLIFT
 62
1
 10
1902.098
 20
-8401.954
 30
-1247.442
 70
    32
  0
VERTEX
  8
W66LPLIFT
 62
1
 10
1901.798
 20
-8390.825
 30
-1249.787
 70
    32
  0
VERTEX
  8
W66LPLIFT
 62
1
 10
1905.269
 20
-8384.061
 30
-1251.673
 70
    32
  0
VERTEX
  8
W66LPLIFT
 62
1
 10
1906.827
 20
-8380.166
 30
-1252.957
 70
    32
  0
VERTEX
  8
W66LPLIFT
 62
1
 10
1906.042
 20
-8371.458
 30
-1252.660
 70
    32
  0
VERTEX
  8
W66LPLIFT
 62
1
 10
1907.631
 20
-8363.790
 30
-1249.667
 70
    32
  0
VERTEX
  8
W66LPLIFT
 62
1
 10
1912.741
 20
-8348.178
 30
-1248.502
 70
    32
  0
VERTEX
  8
W66LPLIFT
 62
1
 10
1914.109
 20
-8329.497
 30
-1247.448
 70
    32
  0
VERTEX
  8
W66LPLIFT
 62
1
 10
1909.041
 20
-8320.988
 30
-1247.653
 70
    32
  0
VERTEX
  8
W66LPLIFT
 62
1
 10
1914.183
 20
-8316.716
 30
-1247.742
 70
    32
  0
VERTEX
  8
W66LPLIFT
 62
1
 10
1916.815
 20
-8310.161
 30
-1247.896
 70
    32
  0
VERTEX
  8
W66LPLIFT
 62
1
 10
1916.103
 20
-8305.020
 30
-1249.294
 70
    32
  0
VERTEX
  8
W66LPLIFT
 62
1
 10
1914.242
 20
-8303.871
 30
-1249.781
 70
    32
  0
VERTEX
  8
W66LPLIFT
 62
1
 10
1913.378
 20
-8296.359
 30
-1248.219
 70
    32
  0
VERTEX
  8
W66LPLIFT
 62
1
 10
1909.136
 20
-8293.659
 30
-1248.128
 70
    32
  0
VERTEX
  8
W66LPLIFT
 62
1
 10
1904.925
 20
-8285.162
 30
-1247.270
 70
    32
  0
VERTEX
  8
W66LPLIFT
 62
1
 10
1900.848
 20
-8281.770
 30
-1245.656
 70
    32
  0
VERTEX
  8
W66LPLIFT
 62
1
 10
1897.470
 20
-8277.484
 30
-1244.498
 70
    32
  0
VERTEX
  8
W66LPLIFT
 62
1
 10
1886.876
 20
-8268.990
 30
-1245.097
 70
    32
  0
VERTEX
  8
W66LPLIFT
 62
1
 10
1876.983
 20
-8264.546
 30
-1246.138
 70
    32
  0
VERTEX
  8
W66LPLIFT
 62
1
 10
1885.156
 20
-8256.408
 30
-1246.085
 70
    32
  0
VERTEX
  8
W66LPLIFT
 62
1
 10
1897.398
 20
-8262.976
 30
-1245.729
 70
    32
  0
VERTEX
  8
W66LPLIFT
 62
1
 10
1913.626
 20
-8251.874
 30
-1245.764
 70
    32
  0
VERTEX
  8
W66LPLIFT
 62
1
 10
1920.973
 20
-8259.548
 30
-1243.366
 70
    32
  0
VERTEX
  8
W66LPLIFT
 62
1
 10
1925.471
 20
-8270.378
 30
-1245.379
 70
    32
  0
VERTEX
  8
W66LPLIFT
 62
1
 10
1934.672
 20
-8287.504
 30
-1248.660
 70
    32
  0
VERTEX
  8
W66LPLIFT
 62
1
 10
1935.209
 20
-8303.886
 30
-1249.316
 70
    32
  0
VERTEX
  8
W66LPLIFT
 62
1
 10
1929.934
 20
-8313.314
 30
-1247.841
 70
    32
  0
VERTEX
  8
W66LPLIFT
 62
1
 10
1929.431
 20
-8333.819
 30
-1247.813
 70
    32
  0
VERTEX
  8
W66LPLIFT
 62
1
 10
1931.269
 20
-8358.015
 30
-1248.302
 70
    32
  0
VERTEX
  8
W66LPLIFT
 62
1
 10
1925.312
 20
-8363.157
 30
-1249.516
 70
    32
  0
VERTEX
  8
W66LPLIFT
 62
1
 10
1918.371
 20
-8386.597
 30
-1252.328
 70
    32
  0
VERTEX
  8
W66LPLIFT
 62
1
 10
1923.989
 20
-8401.613
 30
-1247.832
 70
    32
  0
VERTEX
  8
W66LPLIFT
 62
1
 10
1928.264
 20
-8413.132
 30
-1247.438
 70
    32
  0
VERTEX
  8
W66LPLIFT
 62
1
 10
1938.332
 20
-8436.778
 30
-1247.582
 70
    32
  0
VERTEX
  8
W66LPLIFT
 62
1
 10
1949.756
 20
-8455.895
 30
-1247.168
 70
    32
  0
VERTEX
  8
W66LPLIFT
 62
1
 10
1951.361
 20
-8459.992
 30
-1247.273
 70
    32
  0
VERTEX
  8
W66LPLIFT
 62
1
 10
1955.706
 20
-8467.643
 30
-1249.014
 70
    32
  0
VERTEX
  8
W66LPLIFT
 62
1
 10
1955.845
 20
-8467.828
 30
-1248.978
 70
    32
  0
VERTEX
  8
W66LPLIFT
 62
1
 10
1963.442
 20
-8491.822
 30
-1247.026
 70
    32
  0
VERTEX
  8
W66LPLIFT
 62
1
 10
1964.032
 20
-8514.279
 30
-1246.054
 70
    32
  0
VERTEX
  8
W66LPLIFT
 62
1
 10
1971.237
 20
-8541.727
 30
-1243.065
 70
    32
  0
VERTEX
  8
W66LPLIFT
 62
1
 10
1971.237
 20
-8541.727
 30
-1243.490
 70
    32
  0
VERTEX
  8
W66LPLIFT
 62
1
 10
1974.400
 20
-8541.374
 30
-1243.268
 70
    32
  0
VERTEX
  8
W66LPLIFT
 62
1
 10
1972.760
 20
-8555.647
 30
-1241.047
 70
    32
  0
VERTEX
  8
W66LPLIFT
 62
1
 10
1973.065
 20
-8561.287
 30
-1239.909
 70
    32
  0
VERTEX
  8
W66LPLIFT
 62
1
 10
1970.195
 20
-8568.487
 30
-1238.183
 70
    32
  0
VERTEX
  8
W66LPLIFT
 62
1
 10
1964.105
 20
-8574.915
 30
-1239.677
 70
    32
  0
VERTEX
  8
W66LPLIFT
 62
1
 10
1958.724
 20
-8580.279
 30
-1239.877
 70
    32
  0
SEQEND
  8
W66LPLIFT
  0
TEXT
  8
W66LPLIFT
 62
1
 10
1895.416
 20
-8267.012
 30
-1245.312
 40
1.969
  1
BK -1245.312
 41
 1.0 
  0
TEXT
  8
W66LPLIFT
 62
1
 10
1910.171
 20
-8273.155
 30
-1243.928
 40
1.969
  1
BK -1243.928
 41
 1.0 
  0
TEXT
  8
W66LPLIFT
 62
1
 10
1918.125
 20
-8280.800
 30
-1246.348
 40
1.969
  1
BK -1246.348
 41
 1.0 
  0
TEXT
  8
W66LPLIFT
 62
1
 10
1923.334
 20
-8306.927
 30
-1249.303
 40
1.969
  1
BK -1249.303
 41
 1.0 
  0
TEXT
  8
W66LPLIFT
 62
1
 10
1923.127
 20
-8313.426
 30
-1247.893
 40
1.969
  1
BK -1247.893
 41
 1.0 
  0
TEXT
  8
W66LPLIFT
 62
1
 10
1922.117
 20
-8324.246
 30
-1247.629
 40
1.969
  1
BK -1247.629
 41
 1.0 
  0
TEXT
  8
W66LPLIFT
 62
1
 10
1918.755
 20
-8345.752
 30
-1248.595
 40
1.969
  1
BK -1248.595
 41
 1.0 
  0
TEXT
  8
W66LPLIFT
 62
1
 10
1918.038
 20
-8358.744
 30
-1249.584
 40
2.362
  1
BK -1249.584
 50
0.426
 41
 1.0 
  0
TEXT
  8
W66LPLIFT
 62
1
 10
1916.049
 20
-8375.648
 30
-1252.472
 40
1.969
  1
BK -1252.472
 41
 1.0 
  0
POINT
  8
W66LPLIFT
 62
8
 10
1912.963
 20
-8409.535
 30
-1248.496
  0
POLYLINE
  8
W66LPLIFT
 62
8
 66
     1
 70
     9
  0
VERTEX
  8
W66LPLIFT
 62
8
 10
1912.963
 20
-8407.325
 30
-1248.496
 70
    32
  0
VERTEX
  8
W66LPLIFT
 62
8
 10
1914.712
 20
-8410.505
 30
-1248.496
 70
    32
  0
VERTEX
  8
W66LPLIFT
 62
8
 10
1911.213
 20
-8410.503
 30
-1248.496
 70
    32
  0
SEQEND
  8
W66LPLIFT
  0
POINT
  8
W66LPLIFT
 62
8
 10
1913.629
 20
-8403.159
 30
-1247.355
  0
POLYLINE
  8
W66LPLIFT
 62
8
 66
     1
 70
     9
  0
VERTEX
  8
W66LPLIFT
 62
8
 10
1913.629
 20
-8400.949
 30
-1247.355
 70
    32
  0
VERTEX
  8
W66LPLIFT
 62
8
 10
1915.378
 20
-8404.129
 30
-1247.355
 70
    32
  0
VERTEX
  8
W66LPLIFT
 62
8
 10
1911.879
 20
-8404.127
 30
-1247.355
 70
    32
  0
SEQEND
  8
W66LPLIFT
  0
POINT
  8
W66LPLIFT
 62
8
 10
1950.560
 20
-8469.586
 30
-1246.994
  0
POLYLINE
  8
W66LPLIFT
 62
8
 66
     1
 70
     9
  0
VERTEX
  8
W66LPLIFT
 62
8
 10
1950.560
 20
-8467.376
 30
-1246.994
 70
    32
  0
VERTEX
  8
W66LPLIFT
 62
8
 10
1952.309
 20
-8470.556
 30
-1246.994
 70
    32
  0
VERTEX
  8
W66LPLIFT
 62
8
 10
1948.810
 20
-8470.554
 30
-1246.994
 70
    32
  0
SEQEND
  8
W66LPLIFT
  0
TEXT
  8
W66LPLIFT
 62
8
 10
1884.854
 20
-8401.913
 30
-1247.355
 40
3.000
  1
-1247.355
 50
-8.103
 41
 1.0 
  0
TEXT
  8
W66LPLIFT
 62
8
 10
1890.697
 20
-8399.367
 30
-1247.355
 40
3.000
  1
ST-197S
 50
-8.103
 41
 1.0 
  0
TEXT
  8
W66LPLIFT
 62
8
 10
1889.968
 20
-8407.097
 30
-1248.496
 40
3.000
  1
ST-197T
 50
-8.103
 41
 1.0 
  0
TEXT
  8
W66LPLIFT
 62
8
 10
1884.225
 20
-8409.361
 30
-1248.496
 40
3.000
  1
-1248.496
 50
-8.103
 41
 1.0 
  0
TEXT
  8
W66LPLIFT
 62
8
 10
1955.222
 20
-8470.410
 30
-1246.994
 40
3.000
  1
ST-137S
 50
30.900
 41
 1.0 
  0
TEXT
  8
W66LPLIFT
 62
8
 10
1951.911
 20
-8467.819
 30
-1246.994
 40
3.000
  1
-1246.994
 50
30.900
 41
 1.0 
  0
TEXT
  8
W66LPLIFT
 62
6
 10
1648.011
 20
-7234.417
 30
-1257.570
 40
1.969
  1
BK -1257.57
 41
 1.0 
  0
TEXT
  8
W66LPLIFT
 62
6
 10
1675.872
 20
-7356.698
 30
-1268.750
 40
1.181
  1
Elev. Plug
 41
 1.0 
  0
TEXT
  8
W66LPLIFT
 62
6
 10
1675.872
 20
-7358.470
 30
-1268.750
 40
1.181
  1
-1268.75
 41
 1.0 
  0
LINE
  8
W66LPLIFT
 62
23
 10
1683.586
 20
-7458.363
 30
-1260.000
 11
1723.018
 21
-7434.610
 31
-1260.000
  0
TEXT
  8
W66LPLIFT
 62
6
 10
1700.345
 20
-7446.628
 30
-1260.000
 40
1.969
  1
01-31-99
 50
31.678
 41
 1.0 
  0
LINE
  8
W66LPLIFT
 62
1
 10
1843.491
 20
-7858.168
 30
-1361.000
 11
1810.287
 21
-7890.684
 31
-1361.000
  0
TEXT
  8
W66LPLIFT
 62
6
 10
1818.281
 20
-7880.805
 30
-1361.000
 40
1.969
  1
01-31-99
 50
43.857
 41
 1.0 
  0
LINE
  8
W66LPLIFT
 62
1
 10
1753.427
 20
-7985.825
 30
-1300.826
 11
1732.477
 21
-8018.464
 31
-1300.826
  0
TEXT
  8
W66LPLIFT
 62
6
 10
1734.450
 20
-8014.174
 30
-1300.826
 40
2.362
  1
1-31-99
 50
56.515
 41
 1.0 
  0
POLYLINE
  8
W66LPLIFT
 62
7
 66
     1
 70
     9
  0
VERTEX
  8
W66LPLIFT
 62
7
 10
1707.885
 20
-6642.720
 30
-1356.245
 70
    32
  0
VERTEX
  8
W66LPLIFT
 62
7
 10
1710.586
 20
-6652.564
 30
-1356.245
 70
    32
  0
VERTEX
  8
W66LPLIFT
 62
7
 10
1713.773
 20
-6654.199
 30
-1356.245
 70
    32
  0
VERTEX
  8
W66LPLIFT
 62
7
 10
1716.587
 20
-6660.903
 30
-1356.245
 70
    32
  0
VERTEX
  8
W66LPLIFT
 62
7
 10
1726.291
 20
-6658.032
 30
-1356.245
 70
    32
  0
VERTEX
  8
W66LPLIFT
 62
7
 10
1724.239
 20
-6649.736
 30
-1356.245
 70
    32
  0
VERTEX
  8
W66LPLIFT
 62
7
 10
1722.372
 20
-6645.062
 30
-1356.245
 70
    32
  0
VERTEX
  8
W66LPLIFT
 62
7
 10
1722.723
 20
-6638.583
 30
-1356.245
 70
    32
  0
VERTEX
  8
W66LPLIFT
 62
7
 10
1724.356
 20
-6634.097
 30
-1356.245
 70
    32
  0
SEQEND
  8
W66LPLIFT
  0
POLYLINE
  8
W66LPLIFT
 62
7
 66
     1
 70
     9
  0
VERTEX
  8
W66LPLIFT
 62
7
 10
1708.879
 20
-6613.408
 30
-1357.302
 70
    32
  0
VERTEX
  8
W66LPLIFT
 62
7
 10
1705.140
 20
-6609.166
 30
-1357.188
 70
    32
  0
VERTEX
  8
W66LPLIFT
 62
7
 10
1702.307
 20
-6603.339
 30
-1357.122
 70
    32
  0
VERTEX
  8
W66LPLIFT
 62
7
 10
1701.681
 20
-6601.962
 30
-1357.106
 70
    32
  0
VERTEX
  8
W66LPLIFT
 62
7
 10
1700.337
 20
-6599.008
 30
-1357.061
 70
    32
  0
VERTEX
  8
W66LPLIFT
 62
7
 10
1699.333
 20
-6596.802
 30
-1357.031
 70
    32
  0
VERTEX
  8
W66LPLIFT
 62
7
 10
1694.724
 20
-6589.681
 30
-1356.924
 70
    32
  0
VERTEX
  8
W66LPLIFT
 62
7
 10
1693.121
 20
-6587.204
 30
-1356.892
 70
    32
  0
VERTEX
  8
W66LPLIFT
 62
7
 10
1690.835
 20
-6586.517
 30
-1356.875
 70
    32
  0
VERTEX
  8
W66LPLIFT
 62
7
 10
1690.686
 20
-6586.133
 30
-1356.871
 70
    32
  0
VERTEX
  8
W66LPLIFT
 62
7
 10
1688.472
 20
-6580.443
 30
-1356.802
 70
    32
  0
VERTEX
  8
W66LPLIFT
 62
7
 10
1688.218
 20
-6579.790
 30
-1356.793
 70
    32
  0
VERTEX
  8
W66LPLIFT
 62
7
 10
1685.945
 20
-6571.229
 30
-1356.683
 70
    32
  0
VERTEX
  8
W66LPLIFT
 62
7
 10
1683.645
 20
-6562.567
 30
-1356.576
 70
    32
  0
VERTEX
  8
W66LPLIFT
 62
7
 10
1680.857
 20
-6546.872
 30
-1355.000
 70
    32
  0
VERTEX
  8
W66LPLIFT
 62
7
 10
1671.625
 20
-6497.075
 30
-1355.000
 70
    32
  0
VERTEX
  8
W66LPLIFT
 62
7
 10
1669.514
 20
-6482.333
 30
-1355.000
 70
    32
  0
VERTEX
  8
W66LPLIFT
 62
7
 10
1666.875
 20
-6483.495
 30
-1355.000
 70
    32
  0
VERTEX
  8
W66LPLIFT
 62
7
 10
1666.017
 20
-6490.246
 30
-1355.000
 70
    32
  0
VERTEX
  8
W66LPLIFT
 62
7
 10
1666.017
 20
-6490.246
 30
-1355.000
 70
    32
  0
VERTEX
  8
W66LPLIFT
 62
7
 10
1666.017
 20
-6490.246
 30
-1355.000
 70
    32
  0
VERTEX
  8
W66LPLIFT
 62
7
 10
1661.087
 20
-6494.903
 30
-1355.000
 70
    32
  0
VERTEX
  8
W66LPLIFT
 62
7
 10
1654.030
 20
-6498.201
 30
-1355.000
 70
    32
  0
VERTEX
  8
W66LPLIFT
 62
7
 10
1654.030
 20
-6498.201
 30
-1355.000
 70
    32
  0
VERTEX
  8
W66LPLIFT
 62
7
 10
1656.096
 20
-6502.970
 30
-1355.000
 70
    32
  0
VERTEX
  8
W66LPLIFT
 62
7
 10
1664.399
 20
-6519.718
 30
-1356.000
 70
    32
  0
VERTEX
  8
W66LPLIFT
 62
7
 10
1667.066
 20
-6544.522
 30
-1356.000
 70
    32
  0
VERTEX
  8
W66LPLIFT
 62
7
 10
1675.787
 20
-6572.312
 30
-1356.654
 70
    32
  0
VERTEX
  8
W66LPLIFT
 62
7
 10
1676.760
 20
-6574.547
 30
-1356.683
 70
    32
  0
VERTEX
  8
W66LPLIFT
 62
7
 10
1678.459
 20
-6578.449
 30
-1356.736
 70
    32
  0
VERTEX
  8
W66LPLIFT
 62
7
 10
1682.738
 20
-6588.279
 30
-1356.858
 70
    32
  0
VERTEX
  8
W66LPLIFT
 62
7
 10
1682.896
 20
-6589.476
 30
-1356.871
 70
    32
  0
VERTEX
  8
W66LPLIFT
 62
7
 10
1683.423
 20
-6593.467
 30
-1356.914
 70
    32
  0
VERTEX
  8
W66LPLIFT
 62
7
 10
1688.083
 20
-6600.654
 30
-1357.007
 70
    32
  0
VERTEX
  8
W66LPLIFT
 62
7
 10
1690.430
 20
-6604.274
 30
-1357.061
 70
    32
  0
VERTEX
  8
W66LPLIFT
 62
7
 10
1691.545
 20
-6605.994
 30
-1357.090
 70
    32
  0
VERTEX
  8
W66LPLIFT
 62
7
 10
1694.812
 20
-6611.708
 30
-1357.181
 70
    32
  0
VERTEX
  8
W66LPLIFT
 62
7
 10
1695.352
 20
-6612.652
 30
-1357.192
 70
    32
  0
VERTEX
  8
W66LPLIFT
 62
7
 10
1695.265
 20
-6614.715
 30
-1357.208
 70
    32
  0
SEQEND
  8
W66LPLIFT
  0
POLYLINE
  8
W66LPLIFT
 62
1
 66
     1
 70
     9
  0
VERTEX
  8
W66LPLIFT
 62
1
 10
1599.782
 20
-7149.608
 30
-1258.174
 70
    32
  0
VERTEX
  8
W66LPLIFT
 62
1
 10
1606.898
 20
-7139.951
 30
-1252.467
 70
    32
  0
VERTEX
  8
W66LPLIFT
 62
1
 10
1606.343
 20
-7131.479
 30
-1251.851
 70
    32
  0
VERTEX
  8
W66LPLIFT
 62
1
 10
1608.076
 20
-7124.129
 30
-1250.072
 70
    32
  0
VERTEX
  8
W66LPLIFT
 62
1
 10
1605.971
 20
-7114.833
 30
-1249.843
 70
    32
  0
VERTEX
  8
W66LPLIFT
 62
1
 10
1605.717
 20
-7113.166
 30
-1249.861
 70
    32
  0
VERTEX
  8
W66LPLIFT
 62
1
 10
1601.739
 20
-7098.961
 30
-1250.259
 70
    32
  0
VERTEX
  8
W66LPLIFT
 62
1
 10
1591.453
 20
-7070.124
 30
-1251.600
 70
    32
  0
VERTEX
  8
W66LPLIFT
 62
1
 10
1578.326
 20
-7051.011
 30
-1249.490
 70
    32
  0
VERTEX
  8
W66LPLIFT
 62
1
 10
1563.960
 20
-7032.857
 30
-1238.175
 70
    32
  0
VERTEX
  8
W66LPLIFT
 62
1
 10
1557.141
 20
-7030.849
 30
-1238.504
 70
    32
  0
VERTEX
  8
W66LPLIFT
 62
1
 10
1563.614
 20
-7020.640
 30
-1238.290
 70
    32
  0
VERTEX
  8
W66LPLIFT
 62
1
 10
1573.224
 20
-7015.502
 30
-1238.689
 70
    32
  0
VERTEX
  8
W66LPLIFT
 62
1
 10
1578.406
 20
-7021.323
 30
-1238.228
 70
    32
  0
VERTEX
  8
W66LPLIFT
 62
1
 10
1587.637
 20
-7031.715
 30
-1246.595
 70
    32
  0
VERTEX
  8
W66LPLIFT
 62
1
 10
1582.858
 20
-7038.571
 30
-1248.085
 70
    32
  0
VERTEX
  8
W66LPLIFT
 62
1
 10
1593.756
 20
-7053.081
 30
-1250.498
 70
    32
  0
VERTEX
  8
W66LPLIFT
 62
1
 10
1604.747
 20
-7070.892
 30
-1252.342
 70
    32
  0
VERTEX
  8
W66LPLIFT
 62
1
 10
1617.312
 20
-7102.286
 30
-1250.026
 70
    32
  0
VERTEX
  8
W66LPLIFT
 62
1
 10
1628.218
 20
-7115.643
 30
-1249.606
 70
    32
  0
VERTEX
  8
W66LPLIFT
 62
1
 10
1624.385
 20
-7128.792
 30
-1253.234
 70
    32
  0
VERTEX
  8
W66LPLIFT
 62
1
 10
1624.517
 20
-7129.625
 30
-1250.485
 70
    32
  0
VERTEX
  8
W66LPLIFT
 62
1
 10
1631.214
 20
-7146.396
 30
-1252.125
 70
    32
  0
VERTEX
  8
W66LPLIFT
 62
1
 10
1623.324
 20
-7152.404
 30
-1253.784
 70
    32
  0
VERTEX
  8
W66LPLIFT
 62
1
 10
1615.532
 20
-7156.712
 30
-1255.749
 70
    32
  0
VERTEX
  8
W66LPLIFT
 62
1
 10
1607.418
 20
-7159.337
 30
-1258.626
 70
    32
  0
SEQEND
  8
W66LPLIFT
  0
POLYLINE
  8
W66LPLIFT
 62
1
 66
     1
 70
     9
  0
VERTEX
  8
W66LPLIFT
 62
1
 10
1602.867
 20
-7144.755
 30
-1263.098
 70
    32
  0
VERTEX
  8
W66LPLIFT
 62
1
 10
1596.687
 20
-7143.918
 30
-1262.683
 70
    32
  0
VERTEX
  8
W66LPLIFT
 62
1
 10
1589.132
 20
-7137.312
 30
-1261.568
 70
    32
  0
VERTEX
  8
W66LPLIFT
 62
1
 10
1580.827
 20
-7125.034
 30
-1259.797
 70
    32
  0
VERTEX
  8
W66LPLIFT
 62
1
 10
1571.421
 20
-7131.497
 30
-1260.007
 70
    32
  0
VERTEX
  8
W66LPLIFT
 62
1
 10
1573.884
 20
-7139.723
 30
-1261.031
 70
    32
  0
VERTEX
  8
W66LPLIFT
 62
1
 10
1578.615
 20
-7147.205
 30
-1262.093
 70
    32
  0
VERTEX
  8
W66LPLIFT
 62
1
 10
1579.280
 20
-7159.127
 30
-1263.425
 70
    32
  0
VERTEX
  8
W66LPLIFT
 62
1
 10
1580.787
 20
-7162.877
 30
-1263.912
 70
    32
  0
VERTEX
  8
W66LPLIFT
 62
1
 10
1579.325
 20
-7169.391
 30
-1264.544
 70
    32
  0
SEQEND
  8
W66LPLIFT
  0
POLYLINE
  8
W66LPLIFT
 62
7
 66
     1
 70
     9
  0
VERTEX
  8
W66LPLIFT
 62
7
 10
1628.368
 20
-7142.494
 30
-1263.000
 70
    32
  0
VERTEX
  8
W66LPLIFT
 62
7
 10
1630.977
 20
-7156.541
 30
-1263.000
 70
    32
  0
VERTEX
  8
W66LPLIFT
 62
7
 10
1635.099
 20
-7165.012
 30
-1263.000
 70
    32
  0
VERTEX
  8
W66LPLIFT
 62
7
 10
1642.120
 20
-7172.484
 30
-1263.000
 70
    32
  0
VERTEX
  8
W66LPLIFT
 62
7
 10
1640.354
 20
-7177.509
 30
-1263.000
 70
    32
  0
VERTEX
  8
W66LPLIFT
 62
7
 10
1645.015
 20
-7197.604
 30
-1263.000
 70
    32
  0
VERTEX
  8
W66LPLIFT
 62
7
 10
1647.525
 20
-7206.141
 30
-1263.000
 70
    32
  0
VERTEX
  8
W66LPLIFT
 62
7
 10
1651.827
 20
-7214.172
 30
-1263.000
 70
    32
  0
VERTEX
  8
W66LPLIFT
 62
7
 10
1652.314
 20
-7213.933
 30
-1263.000
 70
    32
  0
VERTEX
  8
W66LPLIFT
 62
7
 10
1654.090
 20
-7213.062
 30
-1263.000
 70
    32
  0
VERTEX
  8
W66LPLIFT
 62
7
 10
1656.432
 20
-7228.047
 30
-1263.000
 70
    32
  0
VERTEX
  8
W66LPLIFT
 62
7
 10
1657.229
 20
-7231.536
 30
-1263.000
 70
    32
  0
VERTEX
  8
W66LPLIFT
 62
7
 10
1657.066
 20
-7256.387
 30
-1263.000
 70
    32
  0
VERTEX
  8
W66LPLIFT
 62
7
 10
1649.897
 20
-7261.529
 30
-1263.000
 70
    32
  0
VERTEX
  8
W66LPLIFT
 62
7
 10
1645.956
 20
-7276.094
 30
-1263.000
 70
    32
  0
VERTEX
  8
W66LPLIFT
 62
7
 10
1642.280
 20
-7286.344
 30
-1263.000
 70
    32
  0
VERTEX
  8
W66LPLIFT
 62
7
 10
1639.443
 20
-7288.704
 30
-1263.000
 70
    32
  0
VERTEX
  8
W66LPLIFT
 62
7
 10
1637.374
 20
-7304.005
 30
-1263.000
 70
    32
  0
VERTEX
  8
W66LPLIFT
 62
7
 10
1639.650
 20
-7317.589
 30
-1263.000
 70
    32
  0
VERTEX
  8
W66LPLIFT
 62
7
 10
1642.332
 20
-7322.435
 30
-1263.000
 70
    32
  0
VERTEX
  8
W66LPLIFT
 62
7
 10
1650.872
 20
-7333.595
 30
-1263.000
 70
    32
  0
VERTEX
  8
W66LPLIFT
 62
7
 10
1658.297
 20
-7338.058
 30
-1263.000
 70
    32
  0
VERTEX
  8
W66LPLIFT
 62
7
 10
1667.755
 20
-7341.664
 30
-1263.000
 70
    32
  0
VERTEX
  8
W66LPLIFT
 62
7
 10
1668.207
 20
-7348.051
 30
-1263.000
 70
    32
  0
VERTEX
  8
W66LPLIFT
 62
7
 10
1670.907
 20
-7356.612
 30
-1261.766
 70
    32
  0
VERTEX
  8
W66LPLIFT
 62
7
 10
1670.174
 20
-7361.515
 30
-1261.641
 70
    32
  0
VERTEX
  8
W66LPLIFT
 62
7
 10
1666.583
 20
-7364.676
 30
-1261.524
 70
    32
  0
VERTEX
  8
W66LPLIFT
 62
7
 10
1673.091
 20
-7392.072
 30
-1258.722
 70
    32
  0
VERTEX
  8
W66LPLIFT
 62
7
 10
1683.427
 20
-7410.668
 30
-1258.985
 70
    32
  0
VERTEX
  8
W66LPLIFT
 62
7
 10
1691.892
 20
-7432.382
 30
-1258.199
 70
    32
  0
VERTEX
  8
W66LPLIFT
 62
7
 10
1696.868
 20
-7444.392
 30
-1258.068
 70
    32
  0
VERTEX
  8
W66LPLIFT
 62
7
 10
1692.754
 20
-7446.549
 30
-1258.070
 70
    32
  0
VERTEX
  8
W66LPLIFT
 62
7
 10
1694.635
 20
-7451.180
 30
-1258.020
 70
    32
  0
VERTEX
  8
W66LPLIFT
 62
7
 10
1683.305
 20
-7457.963
 30
-1258.045
 70
    32
  0
VERTEX
  8
W66LPLIFT
 62
7
 10
1677.850
 20
-7439.739
 30
-1258.338
 70
    32
  0
VERTEX
  8
W66LPLIFT
 62
7
 10
1671.141
 20
-7422.090
 30
-1259.129
 70
    32
  0
VERTEX
  8
W66LPLIFT
 62
7
 10
1661.474
 20
-7400.409
 30
-1259.999
 70
    32
  0
VERTEX
  8
W66LPLIFT
 62
7
 10
1661.474
 20
-7400.409
 30
-1260.098
 70
    32
  0
VERTEX
  8
W66LPLIFT
 62
7
 10
1651.919
 20
-7383.459
 30
-1260.748
 70
    32
  0
VERTEX
  8
W66LPLIFT
 62
7
 10
1652.367
 20
-7372.013
 30
-1261.322
 70
    32
  0
VERTEX
  8
W66LPLIFT
 62
7
 10
1649.970
 20
-7363.363
 30
-1261.521
 70
    32
  0
VERTEX
  8
W66LPLIFT
 62
7
 10
1648.862
 20
-7358.057
 30
-1263.000
 70
    32
  0
VERTEX
  8
W66LPLIFT
 62
7
 10
1645.513
 20
-7348.137
 30
-1263.000
 70
    32
  0
VERTEX
  8
W66LPLIFT
 62
7
 10
1641.411
 20
-7339.881
 30
-1263.000
 70
    32
  0
VERTEX
  8
W66LPLIFT
 62
7
 10
1635.377
 20
-7338.629
 30
-1263.000
 70
    32
  0
VERTEX
  8
W66LPLIFT
 62
7
 10
1628.582
 20
-7317.412
 30
-1263.000
 70
    32
  0
VERTEX
  8
W66LPLIFT
 62
7
 10
1626.198
 20
-7308.295
 30
-1263.000
 70
    32
  0
VERTEX
  8
W66LPLIFT
 62
7
 10
1625.854
 20
-7298.229
 30
-1263.000
 70
    32
  0
VERTEX
  8
W66LPLIFT
 62
7
 10
1624.604
 20
-7285.927
 30
-1263.000
 70
    32
  0
VERTEX
  8
W66LPLIFT
 62
7
 10
1631.745
 20
-7274.276
 30
-1263.000
 70
    32
  0
VERTEX
  8
W66LPLIFT
 62
7
 10
1635.586
 20
-7255.981
 30
-1263.000
 70
    32
  0
VERTEX
  8
W66LPLIFT
 62
7
 10
1638.932
 20
-7243.870
 30
-1263.000
 70
    32
  0
VERTEX
  8
W66LPLIFT
 62
7
 10
1640.730
 20
-7231.859
 30
-1263.000
 70
    32
  0
VERTEX
  8
W66LPLIFT
 62
7
 10
1638.403
 20
-7222.226
 30
-1263.000
 70
    32
  0
VERTEX
  8
W66LPLIFT
 62
7
 10
1636.915
 20
-7221.715
 30
-1263.000
 70
    32
  0
VERTEX
  8
W66LPLIFT
 62
7
 10
1634.075
 20
-7209.073
 30
-1263.000
 70
    32
  0
VERTEX
  8
W66LPLIFT
 62
7
 10
1634.129
 20
-7209.315
 30
-1263.000
 70
    32
  0
VERTEX
  8
W66LPLIFT
 62
7
 10
1633.380
 20
-7204.390
 30
-1263.000
 70
    32
  0
VERTEX
  8
W66LPLIFT
 62
7
 10
1629.888
 20
-7185.805
 30
-1263.000
 70
    32
  0
VERTEX
  8
W66LPLIFT
 62
7
 10
1626.222
 20
-7176.666
 30
-1263.000
 70
    32
  0
VERTEX
  8
W66LPLIFT
 62
7
 10
1620.189
 20
-7170.389
 30
-1263.000
 70
    32
  0
VERTEX
  8
W66LPLIFT
 62
7
 10
1616.509
 20
-7163.612
 30
-1263.000
 70
    32
  0
VERTEX
  8
W66LPLIFT
 62
7
 10
1610.103
 20
-7158.208
 30
-1263.000
 70
    32
  0
SEQEND
  8
W66LPLIFT
  0
POLYLINE
  8
W66LPLIFT
 62
8
 66
     1
 70
     9
  0
VERTEX
  8
W66LPLIFT
 62
8
 10
1746.880
 20
-7996.025
 30
-1294.412
 70
    32
  0
VERTEX
  8
W66LPLIFT
 62
8
 10
1745.224
 20
-7995.110
 30
-1294.412
 70
    32
  0
VERTEX
  8
W66LPLIFT
 62
8
 10
1740.712
 20
-7994.004
 30
-1294.412
 70
    32
  0
VERTEX
  8
W66LPLIFT
 62
8
 10
1729.290
 20
-7986.560
 30
-1294.412
 70
    32
  0
VERTEX
  8
W66LPLIFT
 62
8
 10
1720.385
 20
-7978.481
 30
-1294.412
 70
    32
  0
VERTEX
  8
W66LPLIFT
 62
8
 10
1718.832
 20
-7973.346
 30
-1294.412
 70
    32
  0
VERTEX
  8
W66LPLIFT
 62
8
 10
1712.716
 20
-7963.897
 30
-1294.412
 70
    32
  0
VERTEX
  8
W66LPLIFT
 62
8
 10
1708.680
 20
-7960.792
 30
-1294.412
 70
    32
  0
VERTEX
  8
W66LPLIFT
 62
8
 10
1714.037
 20
-7951.823
 30
-1294.002
 70
    32
  0
VERTEX
  8
W66LPLIFT
 62
8
 10
1711.824
 20
-7944.846
 30
-1293.940
 70
    32
  0
VERTEX
  8
W66LPLIFT
 62
8
 10
1715.931
 20
-7936.914
 30
-1293.824
 70
    32
  0
VERTEX
  8
W66LPLIFT
 62
8
 10
1720.735
 20
-7930.745
 30
-1293.728
 70
    32
  0
VERTEX
  8
W66LPLIFT
 62
8
 10
1723.492
 20
-7924.729
 30
-1293.641
 70
    32
  0
VERTEX
  8
W66LPLIFT
 62
8
 10
1724.453
 20
-7905.423
 30
-1293.381
 70
    32
  0
VERTEX
  8
W66LPLIFT
 62
8
 10
1722.644
 20
-7888.104
 30
-1293.193
 70
    32
  0
VERTEX
  8
W66LPLIFT
 62
8
 10
1720.494
 20
-7869.200
 30
-1292.987
 70
    32
  0
VERTEX
  8
W66LPLIFT
 62
8
 10
1728.269
 20
-7866.828
 30
-1292.967
 70
    32
  0
VERTEX
  8
W66LPLIFT
 62
8
 10
1732.028
 20
-7869.695
 30
-1293.001
 70
    32
  0
VERTEX
  8
W66LPLIFT
 62
8
 10
1735.235
 20
-7885.386
 30
-1293.173
 70
    32
  0
VERTEX
  8
W66LPLIFT
 62
8
 10
1738.311
 20
-7899.083
 30
-1293.323
 70
    32
  0
VERTEX
  8
W66LPLIFT
 62
8
 10
1733.117
 20
-7924.018
 30
-1293.600
 70
    32
  0
VERTEX
  8
W66LPLIFT
 62
8
 10
1730.342
 20
-7940.221
 30
-1293.819
 70
    32
  0
VERTEX
  8
W66LPLIFT
 62
8
 10
1728.169
 20
-7958.909
 30
-1294.068
 70
    32
  0
VERTEX
  8
W66LPLIFT
 62
8
 10
1730.107
 20
-7963.718
 30
-1294.412
 70
    32
  0
VERTEX
  8
W66LPLIFT
 62
8
 10
1735.414
 20
-7970.958
 30
-1294.412
 70
    32
  0
VERTEX
  8
W66LPLIFT
 62
8
 10
1744.595
 20
-7980.586
 30
-1294.412
 70
    32
  0
VERTEX
  8
W66LPLIFT
 62
8
 10
1753.427
 20
-7985.825
 30
-1294.412
 70
    32
  0
SEQEND
  8
W66LPLIFT
  0
POLYLINE
  8
W66LPLIFT
 62
4
 66
     1
 70
     9
  0
VERTEX
  8
W66LPLIFT
 62
4
 10
1903.864
 20
-7960.866
 30
-1369.000
 70
    32
  0
VERTEX
  8
W66LPLIFT
 62
4
 10
1889.805
 20
-7939.690
 30
-1369.000
 70
    32
  0
VERTEX
  8
W66LPLIFT
 62
4
 10
1886.010
 20
-7935.521
 30
-1370.000
 70
    32
  0
VERTEX
  8
W66LPLIFT
 62
4
 10
1883.216
 20
-7934.350
 30
-1370.000
 70
    32
  0
VERTEX
  8
W66LPLIFT
 62
4
 10
1882.774
 20
-7930.702
 30
-1369.000
 70
    32
  0
VERTEX
  8
W66LPLIFT
 62
4
 10
1876.558
 20
-7922.228
 30
-1365.000
 70
    32
  0
VERTEX
  8
W66LPLIFT
 62
4
 10
1871.303
 20
-7915.234
 30
-1365.000
 70
    32
  0
VERTEX
  8
W66LPLIFT
 62
4
 10
1871.477
 20
-7911.031
 30
-1362.653
 70
    32
  0
VERTEX
  8
W66LPLIFT
 62
4
 10
1867.596
 20
-7901.100
 30
-1361.014
 70
    32
  0
VERTEX
  8
W66LPLIFT
 62
4
 10
1861.181
 20
-7894.317
 30
-1365.882
 70
    32
  0
VERTEX
  8
W66LPLIFT
 62
4
 10
1861.181
 20
-7894.317
 30
-1361.182
 70
    32
  0
VERTEX
  8
W66LPLIFT
 62
4
 10
1847.940
 20
-7886.505
 30
-1360.547
 70
    32
  0
VERTEX
  8
W66LPLIFT
 62
4
 10
1840.797
 20
-7879.342
 30
-1360.741
 70
    32
  0
VERTEX
  8
W66LPLIFT
 62
4
 10
1840.841
 20
-7872.243
 30
-1364.550
 70
    32
  0
VERTEX
  8
W66LPLIFT
 62
4
 10
1840.841
 20
-7872.243
 30
-1360.347
 70
    32
  0
VERTEX
  8
W66LPLIFT
 62
4
 10
1808.739
 20
-7855.868
 30
-1359.470
 70
    32
  0
VERTEX
  8
W66LPLIFT
 62
4
 10
1788.488
 20
-7861.034
 30
-1359.581
 70
    32
  0
VERTEX
  8
W66LPLIFT
 62
4
 10
1776.070
 20
-7853.654
 30
-1359.581
 70
    32
  0
VERTEX
  8
W66LPLIFT
 62
4
 10
1766.446
 20
-7846.409
 30
-1359.581
 70
    32
  0
VERTEX
  8
W66LPLIFT
 62
4
 10
1760.755
 20
-7841.612
 30
-1359.581
 70
    32
  0
VERTEX
  8
W66LPLIFT
 62
4
 10
1756.261
 20
-7837.913
 30
-1359.581
 70
    32
  0
VERTEX
  8
W66LPLIFT
 62
4
 10
1756.435
 20
-7836.928
 30
-1359.581
 70
    32
  0
VERTEX
  8
W66LPLIFT
 62
4
 10
1764.792
 20
-7830.807
 30
-1359.581
 70
    32
  0
VERTEX
  8
W66LPLIFT
 62
4
 10
1768.709
 20
-7834.612
 30
-1359.581
 70
    32
  0
VERTEX
  8
W66LPLIFT
 62
4
 10
1783.522
 20
-7844.615
 30
-1359.581
 70
    32
  0
VERTEX
  8
W66LPLIFT
 62
4
 10
1794.914
 20
-7844.479
 30
-1359.581
 70
    32
  0
VERTEX
  8
W66LPLIFT
 62
4
 10
1797.082
 20
-7843.401
 30
-1359.581
 70
    32
  0
VERTEX
  8
W66LPLIFT
 62
4
 10
1816.264
 20
-7846.320
 30
-1359.538
 70
    32
  0
VERTEX
  8
W66LPLIFT
 62
4
 10
1833.023
 20
-7852.740
 30
-1360.882
 70
    32
  0
VERTEX
  8
W66LPLIFT
 62
4
 10
1848.309
 20
-7862.839
 30
-1365.006
 70
    32
  0
VERTEX
  8
W66LPLIFT
 62
4
 10
1855.753
 20
-7870.435
 30
-1361.365
 70
    32
  0
VERTEX
  8
W66LPLIFT
 62
4
 10
1860.502
 20
-7872.702
 30
-1361.691
 70
    32
  0
VERTEX
  8
W66LPLIFT
 62
4
 10
1868.697
 20
-7883.776
 30
-1366.005
 70
    32
  0
VERTEX
  8
W66LPLIFT
 62
4
 10
1875.687
 20
-7894.828
 30
-1361.533
 70
    32
  0
VERTEX
  8
W66LPLIFT
 62
4
 10
1884.827
 20
-7910.547
 30
-1365.000
 70
    32
  0
VERTEX
  8
W66LPLIFT
 62
4
 10
1889.996
 20
-7919.561
 30
-1369.000
 70
    32
  0
VERTEX
  8
W66LPLIFT
 62
4
 10
1902.731
 20
-7934.950
 30
-1369.000
 70
    32
  0
VERTEX
  8
W66LPLIFT
 62
4
 10
1918.327
 20
-7951.501
 30
-1369.000
 70
    32
  0
SEQEND
  8
W66LPLIFT
  0
POLYLINE
  8
W66LPLIFT
 62
4
 66
     1
 70
     9
  0
VERTEX
  8
W66LPLIFT
 62
4
 10
1867.072
 20
-8028.486
 30
-1371.500
 70
    32
  0
VERTEX
  8
W66LPLIFT
 62
4
 10
1869.157
 20
-8026.751
 30
-1369.000
 70
    32
  0
VERTEX
  8
W66LPLIFT
 62
4
 10
1876.074
 20
-8021.005
 30
-1369.000
 70
    32
  0
VERTEX
  8
W66LPLIFT
 62
4
 10
1880.533
 20
-8015.537
 30
-1369.000
 70
    32
  0
VERTEX
  8
W66LPLIFT
 62
4
 10
1882.172
 20
-8007.019
 30
-1369.000
 70
    32
  0
VERTEX
  8
W66LPLIFT
 62
4
 10
1889.801
 20
-8003.636
 30
-1369.000
 70
    32
  0
VERTEX
  8
W66LPLIFT
 62
4
 10
1889.990
 20
-7998.093
 30
-1369.000
 70
    32
  0
VERTEX
  8
W66LPLIFT
 62
4
 10
1887.882
 20
-7996.177
 30
-1369.000
 70
    32
  0
VERTEX
  8
W66LPLIFT
 62
4
 10
1890.940
 20
-7989.658
 30
-1369.000
 70
    32
  0
VERTEX
  8
W66LPLIFT
 62
4
 10
1884.055
 20
-7983.864
 30
-1369.000
 70
    32
  0
VERTEX
  8
W66LPLIFT
 62
4
 10
1884.196
 20
-7976.778
 30
-1369.000
 70
    32
  0
VERTEX
  8
W66LPLIFT
 62
4
 10
1884.196
 20
-7976.778
 30
-1370.000
 70
    32
  0
VERTEX
  8
W66LPLIFT
 62
4
 10
1880.396
 20
-7968.881
 30
-1370.000
 70
    32
  0
VERTEX
  8
W66LPLIFT
 62
4
 10
1881.979
 20
-7965.300
 30
-1370.000
 70
    32
  0
VERTEX
  8
W66LPLIFT
 62
4
 10
1878.016
 20
-7949.568
 30
-1370.000
 70
    32
  0
VERTEX
  8
W66LPLIFT
 62
4
 10
1873.010
 20
-7938.737
 30
-1370.000
 70
    32
  0
VERTEX
  8
W66LPLIFT
 62
4
 10
1883.216
 20
-7934.350
 30
-1370.000
 70
    32
  0
VERTEX
  8
W66LPLIFT
 62
4
 10
1886.010
 20
-7935.521
 30
-1370.000
 70
    32
  0
VERTEX
  8
W66LPLIFT
 62
4
 10
1885.304
 20
-7938.961
 30
-1370.000
 70
    32
  0
VERTEX
  8
W66LPLIFT
 62
4
 10
1888.216
 20
-7949.826
 30
-1370.000
 70
    32
  0
VERTEX
  8
W66LPLIFT
 62
4
 10
1894.291
 20
-7970.885
 30
-1370.000
 70
    32
  0
VERTEX
  8
W66LPLIFT
 62
4
 10
1903.429
 20
-7980.215
 30
-1370.000
 70
    32
  0
VERTEX
  8
W66LPLIFT
 62
4
 10
1907.455
 20
-7977.324
 30
-1370.000
 70
    32
  0
VERTEX
  8
W66LPLIFT
 62
4
 10
1903.864
 20
-7960.866
 30
-1369.000
 70
    32
  0
VERTEX
  8
W66LPLIFT
 62
4
 10
1918.327
 20
-7951.501
 30
-1369.000
 70
    32
  0
VERTEX
  8
W66LPLIFT
 62
4
 10
1924.714
 20
-7955.149
 30
-1369.000
 70
    32
  0
VERTEX
  8
W66LPLIFT
 62
4
 10
1928.150
 20
-7960.842
 30
-1369.000
 70
    32
  0
VERTEX
  8
W66LPLIFT
 62
4
 10
1935.278
 20
-7958.411
 30
-1369.000
 70
    32
  0
VERTEX
  8
W66LPLIFT
 62
4
 10
1941.289
 20
-7953.105
 30
-1366.000
 70
    32
  0
VERTEX
  8
W66LPLIFT
 62
4
 10
1950.393
 20
-7945.225
 30
-1365.010
 70
    32
  0
VERTEX
  8
W66LPLIFT
 62
4
 10
1951.009
 20
-7944.298
 30
-1365.011
 70
    32
  0
VERTEX
  8
W66LPLIFT
 62
4
 10
1958.101
 20
-7935.166
 30
-1364.000
 70
    32
  0
VERTEX
  8
W66LPLIFT
 62
4
 10
1960.357
 20
-7937.262
 30
-1364.000
 70
    32
  0
VERTEX
  8
W66LPLIFT
 62
4
 10
1968.499
 20
-7931.169
 30
-1364.000
 70
    32
  0
VERTEX
  8
W66LPLIFT
 62
4
 10
1971.302
 20
-7931.096
 30
-1364.000
 70
    32
  0
VERTEX
  8
W66LPLIFT
 62
4
 10
1980.618
 20
-7939.267
 30
-1364.000
 70
    32
  0
VERTEX
  8
W66LPLIFT
 62
4
 10
1980.591
 20
-7949.982
 30
-1364.000
 70
    32
  0
VERTEX
  8
W66LPLIFT
 62
4
 10
1972.876
 20
-7953.921
 30
-1364.000
 70
    32
  0
VERTEX
  8
W66LPLIFT
 62
4
 10
1964.229
 20
-7957.918
 30
-1364.000
 70
    32
  0
VERTEX
  8
W66LPLIFT
 62
4
 10
1964.935
 20
-7960.774
 30
-1364.000
 70
    32
  0
VERTEX
  8
W66LPLIFT
 62
4
 10
1956.635
 20
-7964.089
 30
-1364.000
 70
    32
  0
VERTEX
  8
W66LPLIFT
 62
4
 10
1949.231
 20
-7964.852
 30
-1366.000
 70
    32
  0
VERTEX
  8
W66LPLIFT
 62
4
 10
1941.347
 20
-7970.639
 30
-1367.000
 70
    32
  0
VERTEX
  8
W66LPLIFT
 62
4
 10
1937.766
 20
-7978.010
 30
-1368.000
 70
    32
  0
VERTEX
  8
W66LPLIFT
 62
4
 10
1929.188
 20
-7988.729
 30
-1369.000
 70
    32
  0
VERTEX
  8
W66LPLIFT
 62
4
 10
1925.459
 20
-7993.787
 30
-1369.000
 70
    32
  0
VERTEX
  8
W66LPLIFT
 62
4
 10
1919.549
 20
-8002.021
 30
-1369.000
 70
    32
  0
VERTEX
  8
W66LPLIFT
 62
4
 10
1920.429
 20
-8011.622
 30
-1369.000
 70
    32
  0
VERTEX
  8
W66LPLIFT
 62
4
 10
1924.103
 20
-8024.554
 30
-1369.000
 70
    32
  0
VERTEX
  8
W66LPLIFT
 62
4
 10
1926.236
 20
-8033.153
 30
-1369.000
 70
    32
  0
VERTEX
  8
W66LPLIFT
 62
4
 10
1919.187
 20
-8034.210
 30
-1369.000
 70
    32
  0
VERTEX
  8
W66LPLIFT
 62
4
 10
1913.464
 20
-8021.820
 30
-1369.000
 70
    32
  0
VERTEX
  8
W66LPLIFT
 62
4
 10
1910.895
 20
-8018.341
 30
-1369.000
 70
    32
  0
VERTEX
  8
W66LPLIFT
 62
4
 10
1906.110
 20
-8017.027
 30
-1369.000
 70
    32
  0
VERTEX
  8
W66LPLIFT
 62
4
 10
1905.192
 20
-8017.585
 30
-1369.000
 70
    32
  0
VERTEX
  8
W66LPLIFT
 62
4
 10
1902.740
 20
-8019.481
 30
-1369.000
 70
    32
  0
VERTEX
  8
W66LPLIFT
 62
4
 10
1902.504
 20
-8029.538
 30
-1369.000
 70
    32
  0
VERTEX
  8
W66LPLIFT
 62
4
 10
1901.747
 20
-8029.774
 30
-1369.000
 70
    32
  0
VERTEX
  8
W66LPLIFT
 62
4
 10
1901.386
 20
-8035.210
 30
-1369.000
 70
    32
  0
VERTEX
  8
W66LPLIFT
 62
4
 10
1897.659
 20
-8044.663
 30
-1369.000
 70
    32
  0
VERTEX
  8
W66LPLIFT
 62
4
 10
1902.693
 20
-8055.354
 30
-1369.000
 70
    32
  0
VERTEX
  8
W66LPLIFT
 62
4
 10
1906.788
 20
-8071.616
 30
-1369.000
 70
    32
  0
VERTEX
  8
W66LPLIFT
 62
4
 10
1896.114
 20
-8075.894
 30
-1369.000
 70
    32
  0
VERTEX
  8
W66LPLIFT
 62
4
 10
1891.655
 20
-8057.707
 30
-1369.000
 70
    32
  0
VERTEX
  8
W66LPLIFT
 62
4
 10
1884.782
 20
-8045.598
 30
-1369.000
 70
    32
  0
VERTEX
  8
W66LPLIFT
 62
4
 10
1883.055
 20
-8039.591
 30
-1369.000
 70
    32
  0
VERTEX
  8
W66LPLIFT
 62
4
 10
1878.333
 20
-8037.089
 30
-1369.000
 70
    32
  0
VERTEX
  8
W66LPLIFT
 62
4
 10
1876.443
 20
-8037.369
 30
-1371.180
 70
    32
  0
VERTEX
  8
W66LPLIFT
 62
4
 10
1872.657
 20
-8038.655
 30
-1371.500
 70
    32
  0
SEQEND
  8
W66LPLIFT
  0
ENDSEC
  0
EOF
