999
********************************
999
*   DXF File - Entities Only   *
999
*        3D Data Format        *
999
*     Output from ENVISAGE     *
999
*     02-Jan-2008 11:14:07     *
999
********************************
  0
SECTION 
  2
HEADER
  9
$ACADVER
  1
AC1009
  9
$EXTMIN
 10
-290000.000
 20
-250000.000
 30
-4000.000
  9
$EXTMAX
 10
320000.000
 20
160000.000
 30
6000.000
  0
ENDSEC
  0
SECTION
  2
ENTITIES
  0
POLYLINE
  8
W68LPLIFT
 62
6
 66
     1
 70
     9
  0
VERTEX
  8
W68LPLIFT
 62
6
 10
1859.790
 20
-8032.034
 30
-1404.000
 70
    32
  0
VERTEX
  8
W68LPLIFT
 62
6
 10
1867.383
 20
-8020.763
 30
-1404.000
 70
    32
  0
VERTEX
  8
W68LPLIFT
 62
6
 10
1865.478
 20
-8008.946
 30
-1404.000
 70
    32
  0
VERTEX
  8
W68LPLIFT
 62
6
 10
1850.025
 20
-7993.522
 30
-1404.000
 70
    32
  0
VERTEX
  8
W68LPLIFT
 62
6
 10
1857.089
 20
-7986.445
 30
-1404.000
 70
    32
  0
VERTEX
  8
W68LPLIFT
 62
6
 10
1879.241
 20
-8007.806
 30
-1404.000
 70
    32
  0
VERTEX
  8
W68LPLIFT
 62
6
 10
1881.364
 20
-7984.326
 30
-1409.000
 70
    32
  0
VERTEX
  8
W68LPLIFT
 62
6
 10
1878.230
 20
-7965.793
 30
-1413.000
 70
    32
  0
VERTEX
  8
W68LPLIFT
 62
6
 10
1879.771
 20
-7952.268
 30
-1413.000
 70
    32
  0
VERTEX
  8
W68LPLIFT
 62
6
 10
1886.831
 20
-7937.310
 30
-1413.000
 70
    32
  0
VERTEX
  8
W68LPLIFT
 62
6
 10
1893.381
 20
-7931.760
 30
-1413.000
 70
    32
  0
VERTEX
  8
W68LPLIFT
 62
6
 10
1895.620
 20
-7914.322
 30
-1413.000
 70
    32
  0
VERTEX
  8
W68LPLIFT
 62
6
 10
1889.391
 20
-7896.017
 30
-1413.000
 70
    32
  0
VERTEX
  8
W68LPLIFT
 62
6
 10
1901.186
 20
-7889.872
 30
-1413.000
 70
    32
  0
VERTEX
  8
W68LPLIFT
 62
6
 10
1915.165
 20
-7917.072
 30
-1413.000
 70
    32
  0
VERTEX
  8
W68LPLIFT
 62
6
 10
1927.089
 20
-7927.093
 30
-1413.000
 70
    32
  0
VERTEX
  8
W68LPLIFT
 62
6
 10
1929.187
 20
-7932.534
 30
-1413.000
 70
    32
  0
VERTEX
  8
W68LPLIFT
 62
6
 10
1914.984
 20
-7952.017
 30
-1413.000
 70
    32
  0
VERTEX
  8
W68LPLIFT
 62
6
 10
1904.802
 20
-7961.862
 30
-1413.000
 70
    32
  0
VERTEX
  8
W68LPLIFT
 62
6
 10
1893.197
 20
-7980.385
 30
-1409.000
 70
    32
  0
VERTEX
  8
W68LPLIFT
 62
6
 10
1893.847
 20
-8003.048
 30
-1404.000
 70
    32
  0
VERTEX
  8
W68LPLIFT
 62
6
 10
1902.215
 20
-7995.927
 30
-1408.000
 70
    32
  0
VERTEX
  8
W68LPLIFT
 62
6
 10
1896.316
 20
-7984.116
 30
-1408.000
 70
    32
  0
VERTEX
  8
W68LPLIFT
 62
6
 10
1926.209
 20
-7962.436
 30
-1408.000
 70
    32
  0
VERTEX
  8
W68LPLIFT
 62
6
 10
1949.116
 20
-7971.602
 30
-1408.000
 70
    32
  0
VERTEX
  8
W68LPLIFT
 62
6
 10
1973.664
 20
-7992.043
 30
-1408.000
 70
    32
  0
VERTEX
  8
W68LPLIFT
 62
6
 10
1971.829
 20
-7996.723
 30
-1408.000
 70
    32
  0
VERTEX
  8
W68LPLIFT
 62
6
 10
1961.702
 20
-7999.121
 30
-1408.000
 70
    32
  0
VERTEX
  8
W68LPLIFT
 62
6
 10
1945.402
 20
-7992.174
 30
-1408.000
 70
    32
  0
VERTEX
  8
W68LPLIFT
 62
6
 10
1943.928
 20
-8004.768
 30
-1408.000
 70
    32
  0
VERTEX
  8
W68LPLIFT
 62
6
 10
1955.349
 20
-8017.681
 30
-1408.000
 70
    32
  0
VERTEX
  8
W68LPLIFT
 62
6
 10
1960.670
 20
-8029.649
 30
-1408.000
 70
    32
  0
VERTEX
  8
W68LPLIFT
 62
6
 10
1956.436
 20
-8032.778
 30
-1408.000
 70
    32
  0
VERTEX
  8
W68LPLIFT
 62
6
 10
1950.212
 20
-8035.030
 30
-1408.000
 70
    32
  0
VERTEX
  8
W68LPLIFT
 62
6
 10
1939.019
 20
-8033.826
 30
-1408.000
 70
    32
  0
VERTEX
  8
W68LPLIFT
 62
6
 10
1923.460
 20
-8012.699
 30
-1408.000
 70
    32
  0
VERTEX
  8
W68LPLIFT
 62
6
 10
1914.900
 20
-8016.136
 30
-1408.000
 70
    32
  0
VERTEX
  8
W68LPLIFT
 62
6
 10
1910.722
 20
-8017.741
 30
-1404.000
 70
    32
  0
VERTEX
  8
W68LPLIFT
 62
6
 10
1912.488
 20
-8020.320
 30
-1404.000
 70
    32
  0
VERTEX
  8
W68LPLIFT
 62
6
 10
1919.790
 20
-8038.582
 30
-1404.000
 70
    32
  0
VERTEX
  8
W68LPLIFT
 62
6
 10
1924.801
 20
-8044.569
 30
-1404.000
 70
    32
  0
VERTEX
  8
W68LPLIFT
 62
6
 10
1926.715
 20
-8065.805
 30
-1404.000
 70
    32
  0
VERTEX
  8
W68LPLIFT
 62
6
 10
1923.140
 20
-8075.872
 30
-1404.000
 70
    32
  0
VERTEX
  8
W68LPLIFT
 62
6
 10
1914.507
 20
-8069.279
 30
-1404.000
 70
    32
  0
VERTEX
  8
W68LPLIFT
 62
6
 10
1902.384
 20
-8067.459
 30
-1404.000
 70
    32
  0
VERTEX
  8
W68LPLIFT
 62
6
 10
1897.519
 20
-8058.393
 30
-1404.000
 70
    32
  0
VERTEX
  8
W68LPLIFT
 62
6
 10
1889.355
 20
-8057.418
 30
-1404.000
 70
    32
  0
VERTEX
  8
W68LPLIFT
 62
6
 10
1881.647
 20
-8057.894
 30
-1404.000
 70
    32
  0
VERTEX
  8
W68LPLIFT
 62
6
 10
1876.479
 20
-8051.169
 30
-1404.000
 70
    32
  0
VERTEX
  8
W68LPLIFT
 62
6
 10
1872.296
 20
-8046.639
 30
-1404.000
 70
    32
  0
SEQEND
  8
W68LPLIFT
  0
TEXT
  8
W68LPLIFT
 62
1
 10
2313.375
 20
-9348.095
 30
-1530.899
 40
1.969
  1
BK -1530.899
 41
 1.0 
  0
POLYLINE
  8
W68LPLIFT
 62
3
 66
     1
 70
     8
  0
VERTEX
  8
W68LPLIFT
 62
3
 10
1683.176
 20
-6507.146
 30
-1409.000
 70
    32
  0
VERTEX
  8
W68LPLIFT
 62
3
 10
1683.245
 20
-6507.103
 30
-1409.000
 70
    32
  0
VERTEX
  8
W68LPLIFT
 62
3
 10
1684.281
 20
-6504.119
 30
-1409.000
 70
    32
  0
VERTEX
  8
W68LPLIFT
 62
3
 10
1681.222
 20
-6495.818
 30
-1409.000
 70
    32
  0
VERTEX
  8
W68LPLIFT
 62
3
 10
1674.598
 20
-6486.878
 30
-1409.000
 70
    32
  0
VERTEX
  8
W68LPLIFT
 62
3
 10
1685.700
 20
-6479.858
 30
-1409.000
 70
    32
  0
VERTEX
  8
W68LPLIFT
 62
3
 10
1698.382
 20
-6476.915
 30
-1409.000
 70
    32
  0
VERTEX
  8
W68LPLIFT
 62
3
 10
1707.866
 20
-6475.096
 30
-1409.000
 70
    32
  0
VERTEX
  8
W68LPLIFT
 62
3
 10
1711.313
 20
-6482.583
 30
-1409.000
 70
    32
  0
VERTEX
  8
W68LPLIFT
 62
3
 10
1715.350
 20
-6490.351
 30
-1409.000
 70
    32
  0
VERTEX
  8
W68LPLIFT
 62
3
 10
1715.705
 20
-6495.524
 30
-1409.000
 70
    32
  0
VERTEX
  8
W68LPLIFT
 62
3
 10
1723.194
 20
-6510.597
 30
-1409.000
 70
    32
  0
VERTEX
  8
W68LPLIFT
 62
3
 10
1728.208
 20
-6522.642
 30
-1409.000
 70
    32
  0
VERTEX
  8
W68LPLIFT
 62
3
 10
1729.476
 20
-6535.076
 30
-1409.000
 70
    32
  0
VERTEX
  8
W68LPLIFT
 62
3
 10
1732.362
 20
-6544.119
 30
-1409.000
 70
    32
  0
VERTEX
  8
W68LPLIFT
 62
3
 10
1731.468
 20
-6544.855
 30
-1409.000
 70
    32
  0
VERTEX
  8
W68LPLIFT
 62
3
 10
1731.485
 20
-6545.713
 30
-1409.000
 70
    32
  0
VERTEX
  8
W68LPLIFT
 62
3
 10
1748.277
 20
-6597.180
 30
-1409.000
 70
    32
  0
VERTEX
  8
W68LPLIFT
 62
3
 10
1751.819
 20
-6617.605
 30
-1409.000
 70
    32
  0
VERTEX
  8
W68LPLIFT
 62
3
 10
1753.507
 20
-6622.096
 30
-1409.000
 70
    32
  0
VERTEX
  8
W68LPLIFT
 62
3
 10
1760.569
 20
-6633.371
 30
-1409.000
 70
    32
  0
VERTEX
  8
W68LPLIFT
 62
3
 10
1764.132
 20
-6647.010
 30
-1409.000
 70
    32
  0
VERTEX
  8
W68LPLIFT
 62
3
 10
1767.364
 20
-6658.181
 30
-1409.000
 70
    32
  0
VERTEX
  8
W68LPLIFT
 62
3
 10
1773.970
 20
-6667.473
 30
-1409.000
 70
    32
  0
VERTEX
  8
W68LPLIFT
 62
3
 10
1756.994
 20
-6669.892
 30
-1409.000
 70
    32
  0
VERTEX
  8
W68LPLIFT
 62
3
 10
1752.682
 20
-6658.649
 30
-1409.000
 70
    32
  0
VERTEX
  8
W68LPLIFT
 62
3
 10
1747.497
 20
-6648.850
 30
-1409.000
 70
    32
  0
VERTEX
  8
W68LPLIFT
 62
3
 10
1740.960
 20
-6646.241
 30
-1409.000
 70
    32
  0
VERTEX
  8
W68LPLIFT
 62
3
 10
1735.905
 20
-6628.897
 30
-1409.000
 70
    32
  0
VERTEX
  8
W68LPLIFT
 62
3
 10
1732.188
 20
-6616.326
 30
-1409.000
 70
    32
  0
VERTEX
  8
W68LPLIFT
 62
3
 10
1723.601
 20
-6599.915
 30
-1409.000
 70
    32
  0
VERTEX
  8
W68LPLIFT
 62
3
 10
1715.131
 20
-6557.090
 30
-1409.000
 70
    32
  0
VERTEX
  8
W68LPLIFT
 62
3
 10
1713.643
 20
-6551.657
 30
-1409.000
 70
    32
  0
VERTEX
  8
W68LPLIFT
 62
3
 10
1713.320
 20
-6551.665
 30
-1409.000
 70
    32
  0
VERTEX
  8
W68LPLIFT
 62
3
 10
1710.233
 20
-6535.846
 30
-1409.000
 70
    32
  0
VERTEX
  8
W68LPLIFT
 62
3
 10
1704.545
 20
-6524.366
 30
-1409.000
 70
    32
  0
VERTEX
  8
W68LPLIFT
 62
3
 10
1688.485
 20
-6519.669
 30
-1409.000
 70
    32
  0
SEQEND
  8
W68LPLIFT
  0
POLYLINE
  8
W68LPLIFT
 62
3
 66
     1
 70
     9
  0
VERTEX
  8
W68LPLIFT
 62
3
 10
1861.207
 20
-8031.072
 30
-1399.000
 70
    32
  0
VERTEX
  8
W68LPLIFT
 62
3
 10
1869.171
 20
-8039.601
 30
-1399.000
 70
    32
  0
VERTEX
  8
W68LPLIFT
 62
3
 10
1875.650
 20
-8044.429
 30
-1399.000
 70
    32
  0
VERTEX
  8
W68LPLIFT
 62
3
 10
1893.312
 20
-8054.965
 30
-1399.000
 70
    32
  0
VERTEX
  8
W68LPLIFT
 62
3
 10
1901.396
 20
-8058.149
 30
-1399.000
 70
    32
  0
VERTEX
  8
W68LPLIFT
 62
3
 10
1909.429
 20
-8056.215
 30
-1399.000
 70
    32
  0
VERTEX
  8
W68LPLIFT
 62
3
 10
1902.335
 20
-8031.041
 30
-1399.000
 70
    32
  0
VERTEX
  8
W68LPLIFT
 62
3
 10
1907.442
 20
-8014.684
 30
-1399.000
 70
    32
  0
VERTEX
  8
W68LPLIFT
 62
3
 10
1943.417
 20
-8008.196
 30
-1396.000
 70
    32
  0
VERTEX
  8
W68LPLIFT
 62
3
 10
1958.538
 20
-8000.370
 30
-1396.000
 70
    32
  0
VERTEX
  8
W68LPLIFT
 62
3
 10
1971.214
 20
-7997.354
 30
-1396.000
 70
    32
  0
VERTEX
  8
W68LPLIFT
 62
3
 10
1971.860
 20
-7989.728
 30
-1396.000
 70
    32
  0
VERTEX
  8
W68LPLIFT
 62
3
 10
1963.922
 20
-7978.831
 30
-1396.000
 70
    32
  0
VERTEX
  8
W68LPLIFT
 62
3
 10
1955.421
 20
-7977.365
 30
-1396.000
 70
    32
  0
VERTEX
  8
W68LPLIFT
 62
3
 10
1930.709
 20
-7958.456
 30
-1396.000
 70
    32
  0
VERTEX
  8
W68LPLIFT
 62
3
 10
1902.405
 20
-7984.248
 30
-1399.000
 70
    32
  0
VERTEX
  8
W68LPLIFT
 62
3
 10
1896.033
 20
-7983.871
 30
-1399.000
 70
    32
  0
VERTEX
  8
W68LPLIFT
 62
3
 10
1895.168
 20
-7982.678
 30
-1399.000
 70
    32
  0
VERTEX
  8
W68LPLIFT
 62
3
 10
1893.880
 20
-7974.424
 30
-1399.000
 70
    32
  0
VERTEX
  8
W68LPLIFT
 62
3
 10
1899.098
 20
-7952.471
 30
-1399.000
 70
    32
  0
VERTEX
  8
W68LPLIFT
 62
3
 10
1905.450
 20
-7941.799
 30
-1399.000
 70
    32
  0
VERTEX
  8
W68LPLIFT
 62
3
 10
1915.534
 20
-7936.393
 30
-1399.000
 70
    32
  0
VERTEX
  8
W68LPLIFT
 62
3
 10
1917.189
 20
-7928.805
 30
-1399.000
 70
    32
  0
VERTEX
  8
W68LPLIFT
 62
3
 10
1907.279
 20
-7919.326
 30
-1399.000
 70
    32
  0
VERTEX
  8
W68LPLIFT
 62
3
 10
1900.067
 20
-7906.664
 30
-1399.000
 70
    32
  0
VERTEX
  8
W68LPLIFT
 62
3
 10
1891.325
 20
-7893.942
 30
-1399.000
 70
    32
  0
VERTEX
  8
W68LPLIFT
 62
3
 10
1884.700
 20
-7897.699
 30
-1399.000
 70
    32
  0
VERTEX
  8
W68LPLIFT
 62
3
 10
1883.488
 20
-7903.135
 30
-1399.000
 70
    32
  0
VERTEX
  8
W68LPLIFT
 62
3
 10
1886.739
 20
-7911.326
 30
-1399.000
 70
    32
  0
VERTEX
  8
W68LPLIFT
 62
3
 10
1894.464
 20
-7920.901
 30
-1399.000
 70
    32
  0
VERTEX
  8
W68LPLIFT
 62
3
 10
1894.924
 20
-7927.693
 30
-1399.000
 70
    32
  0
VERTEX
  8
W68LPLIFT
 62
3
 10
1891.474
 20
-7936.522
 30
-1399.000
 70
    32
  0
VERTEX
  8
W68LPLIFT
 62
3
 10
1880.397
 20
-7939.088
 30
-1399.000
 70
    32
  0
VERTEX
  8
W68LPLIFT
 62
3
 10
1877.449
 20
-7945.633
 30
-1399.000
 70
    32
  0
VERTEX
  8
W68LPLIFT
 62
3
 10
1879.468
 20
-7954.894
 30
-1399.000
 70
    32
  0
VERTEX
  8
W68LPLIFT
 62
3
 10
1881.662
 20
-7964.732
 30
-1399.000
 70
    32
  0
VERTEX
  8
W68LPLIFT
 62
3
 10
1880.629
 20
-7977.621
 30
-1399.000
 70
    32
  0
VERTEX
  8
W68LPLIFT
 62
3
 10
1881.063
 20
-7991.136
 30
-1399.000
 70
    32
  0
VERTEX
  8
W68LPLIFT
 62
3
 10
1877.609
 20
-7996.504
 30
-1399.000
 70
    32
  0
VERTEX
  8
W68LPLIFT
 62
3
 10
1869.337
 20
-7997.970
 30
-1399.000
 70
    32
  0
VERTEX
  8
W68LPLIFT
 62
3
 10
1868.723
 20
-8001.715
 30
-1399.000
 70
    32
  0
VERTEX
  8
W68LPLIFT
 62
3
 10
1868.067
 20
-8018.124
 30
-1399.000
 70
    32
  0
VERTEX
  8
W68LPLIFT
 62
3
 10
1867.463
 20
-8024.399
 30
-1399.000
 70
    32
  0
SEQEND
  8
W68LPLIFT
  0
POLYLINE
  8
W68LPLIFT
 62
6
 66
     1
 70
     8
  0
VERTEX
  8
W68LPLIFT
 62
6
 10
1941.030
 20
-8301.165
 30
-1479.098
 70
    32
  0
VERTEX
  8
W68LPLIFT
 62
6
 10
1937.052
 20
-8316.776
 30
-1477.319
 70
    32
  0
VERTEX
  8
W68LPLIFT
 62
6
 10
1932.491
 20
-8327.771
 30
-1476.596
 70
    32
  0
VERTEX
  8
W68LPLIFT
 62
6
 10
1923.343
 20
-8338.852
 30
-1476.191
 70
    32
  0
VERTEX
  8
W68LPLIFT
 62
6
 10
1921.722
 20
-8344.083
 30
-1476.020
 70
    32
  0
VERTEX
  8
W68LPLIFT
 62
6
 10
1922.229
 20
-8349.646
 30
-1475.855
 70
    32
  0
VERTEX
  8
W68LPLIFT
 62
6
 10
1923.228
 20
-8360.925
 30
-1475.522
 70
    32
  0
VERTEX
  8
W68LPLIFT
 62
6
 10
1925.083
 20
-8368.901
 30
-1475.295
 70
    32
  0
VERTEX
  8
W68LPLIFT
 62
6
 10
1931.206
 20
-8371.858
 30
-1475.252
 70
    32
  0
VERTEX
  8
W68LPLIFT
 62
6
 10
1938.049
 20
-8370.743
 30
-1475.338
 70
    32
  0
VERTEX
  8
W68LPLIFT
 62
6
 10
1939.379
 20
-8363.041
 30
-1475.582
 70
    32
  0
VERTEX
  8
W68LPLIFT
 62
6
 10
1941.135
 20
-8351.018
 30
-1475.959
 70
    32
  0
VERTEX
  8
W68LPLIFT
 62
6
 10
1943.816
 20
-8333.830
 30
-1476.500
 70
    32
  0
VERTEX
  8
W68LPLIFT
 62
6
 10
1947.315
 20
-8320.198
 30
-1477.518
 70
    32
  0
VERTEX
  8
W68LPLIFT
 62
6
 10
1950.588
 20
-8312.601
 30
-1478.454
 70
    32
  0
SEQEND
  8
W68LPLIFT
  0
POLYLINE
  8
W68LPLIFT
 62
24
 66
     1
 70
     9
  0
VERTEX
  8
W68LPLIFT
 62
24
 10
1941.484
 20
-8300.510
 30
-1490.000
 70
    32
  0
VERTEX
  8
W68LPLIFT
 62
24
 10
1937.237
 20
-8317.271
 30
-1492.000
 70
    32
  0
VERTEX
  8
W68LPLIFT
 62
24
 10
1932.991
 20
-8327.987
 30
-1495.000
 70
    32
  0
VERTEX
  8
W68LPLIFT
 62
24
 10
1928.744
 20
-8339.802
 30
-1497.000
 70
    32
  0
VERTEX
  8
W68LPLIFT
 62
24
 10
1926.142
 20
-8355.190
 30
-1497.000
 70
    32
  0
VERTEX
  8
W68LPLIFT
 62
24
 10
1925.457
 20
-8368.654
 30
-1497.000
 70
    32
  0
VERTEX
  8
W68LPLIFT
 62
24
 10
1937.374
 20
-8370.577
 30
-1497.000
 70
    32
  0
VERTEX
  8
W68LPLIFT
 62
24
 10
1942.169
 20
-8341.314
 30
-1497.000
 70
    32
  0
VERTEX
  8
W68LPLIFT
 62
24
 10
1944.223
 20
-8328.949
 30
-1495.000
 70
    32
  0
VERTEX
  8
W68LPLIFT
 62
24
 10
1946.689
 20
-8319.744
 30
-1492.000
 70
    32
  0
VERTEX
  8
W68LPLIFT
 62
24
 10
1950.250
 20
-8302.159
 30
-1490.000
 70
    32
  0
SEQEND
  8
W68LPLIFT
  0
POLYLINE
  8
W68LPLIFT
 62
2
 66
     1
 70
     9
  0
VERTEX
  8
W68LPLIFT
 62
2
 10
1938.981
 20
-8298.183
 30
-1490.000
 70
    32
  0
VERTEX
  8
W68LPLIFT
 62
2
 10
1934.735
 20
-8314.944
 30
-1492.000
 70
    32
  0
VERTEX
  8
W68LPLIFT
 62
2
 10
1930.489
 20
-8325.660
 30
-1495.000
 70
    32
  0
VERTEX
  8
W68LPLIFT
 62
2
 10
1926.242
 20
-8337.476
 30
-1497.000
 70
    32
  0
VERTEX
  8
W68LPLIFT
 62
2
 10
1923.640
 20
-8352.863
 30
-1497.000
 70
    32
  0
VERTEX
  8
W68LPLIFT
 62
2
 10
1922.955
 20
-8366.327
 30
-1497.000
 70
    32
  0
VERTEX
  8
W68LPLIFT
 62
2
 10
1934.872
 20
-8368.250
 30
-1497.000
 70
    32
  0
VERTEX
  8
W68LPLIFT
 62
2
 10
1939.666
 20
-8338.987
 30
-1497.000
 70
    32
  0
VERTEX
  8
W68LPLIFT
 62
2
 10
1941.721
 20
-8326.622
 30
-1495.000
 70
    32
  0
VERTEX
  8
W68LPLIFT
 62
2
 10
1944.187
 20
-8317.417
 30
-1492.000
 70
    32
  0
VERTEX
  8
W68LPLIFT
 62
2
 10
1947.748
 20
-8299.832
 30
-1490.000
 70
    32
  0
SEQEND
  8
W68LPLIFT
  0
TEXT
  8
W68LPLIFT
 62
3
 10
1690.378
 20
-6528.604
 30
-1409.642
 40
3.000
  1
ST-752O
 50
22.007
 41
 1.0 
  0
TEXT
  8
W68LPLIFT
 62
3
 10
1690.718
 20
-6532.781
 30
-1409.642
 40
3.000
  1
-1409.642
 50
22.007
 41
 1.0 
  0
TEXT
  8
W68LPLIFT
 62
3
 10
1696.368
 20
-6542.425
 30
-1409.956
 40
3.000
  1
ST-752P
 50
26.197
 41
 1.0 
  0
TEXT
  8
W68LPLIFT
 62
3
 10
1697.012
 20
-6546.566
 30
-1409.956
 40
3.000
  1
-1409.956
 50
26.197
 41
 1.0 
  0
TEXT
  8
W68LPLIFT
 62
3
 10
1837.109
 20
-8018.773
 30
-1396.668
 40
3.000
  1
ST-828O
 41
 1.0 
  0
TEXT
  8
W68LPLIFT
 62
3
 10
1831.851
 20
-8023.174
 30
-1396.668
 40
3.000
  1
-1396.668
 41
 1.0 
  0
TEXT
  8
W68LPLIFT
 62
3
 10
1836.231
 20
-8027.683
 30
-1397.000
 40
3.000
  1
9-16-96
 50
359.843
 41
 1.0 
  0
TEXT
  8
W68LPLIFT
 62
3
 10
1836.018
 20
-8032.660
 30
-1397.703
 40
3.000
  1
ST-828P
 41
 1.0 
  0
TEXT
  8
W68LPLIFT
 62
3
 10
1831.618
 20
-8037.261
 30
-1397.703
 40
3.000
  1
-1397.703
 41
 1.0 
  0
TEXT
  8
W68LPLIFT
 62
3
 10
1915.025
 20
-8017.507
 30
-1395.981
 40
3.000
  1
-1395.981
 50
284.112
 41
 1.0 
  0
TEXT
  8
W68LPLIFT
 62
3
 10
1920.551
 20
-8021.013
 30
-1395.981
 40
3.000
  1
ST-932P
 50
284.112
 41
 1.0 
  0
TEXT
  8
W68LPLIFT
 62
3
 10
1924.141
 20
-8017.452
 30
-1396.000
 40
3.000
  1
11-25-96
 50
285.534
 41
 1.0 
  0
TEXT
  8
W68LPLIFT
 62
3
 10
1927.342
 20
-8013.895
 30
-1395.806
 40
3.000
  1
-1395.806
 50
288.322
 41
 1.0 
  0
TEXT
  8
W68LPLIFT
 62
3
 10
1932.227
 20
-8014.860
 30
-1395.806
 40
3.000
  1
ST-932O
 50
288.322
 41
 1.0 
  0
TEXT
  8
W68LPLIFT
 62
3
 10
1907.002
 20
-7911.536
 30
-1398.749
 40
3.000
  1
ST-911O
 50
33.373
 41
 1.0 
  0
TEXT
  8
W68LPLIFT
 62
3
 10
1907.760
 20
-7917.228
 30
-1398.749
 40
3.000
  1
-1398.749
 50
33.373
 41
 1.0 
  0
TEXT
  8
W68LPLIFT
 62
3
 10
1912.779
 20
-7920.104
 30
-1399.000
 40
3.000
  1
11-5-96
 50
34.495
 41
 1.0 
  0
TEXT
  8
W68LPLIFT
 62
3
 10
1916.365
 20
-7923.805
 30
-1399.209
 40
3.000
  1
ST-911P
 50
35.665
 41
 1.0 
  0
TEXT
  8
W68LPLIFT
 62
3
 10
1918.509
 20
-7928.513
 30
-1399.209
 40
3.000
  1
-1399.209
 50
35.665
 41
 1.0 
  0
LINE
  8
W68LPLIFT
 62
1
 10
2303.173
 20
-9293.827
 30
0.000
 11
2269.922
 21
-9307.739
 31
0.000
  0
TEXT
  8
W68LPLIFT
 62
1
 10
2274.347
 20
-9307.349
 30
0.000
 40
2.000
  1
10/01/98
 50
22.191
 41
 1.0 
  0
TEXT
  8
W68LPLIFT
 62
1
 10
2290.992
 20
-9302.507
 30
-1517.305
 40
1.500
  1
BK -1517.305
 41
 1.0 
  0
POLYLINE
  8
W68LPLIFT
 62
1
 66
     1
 70
     8
  0
VERTEX
  8
W68LPLIFT
 62
1
 10
2290.585
 20
-9301.416
 30
-1517.305
 70
    32
  0
VERTEX
  8
W68LPLIFT
 62
1
 10
2290.583
 20
-9301.372
 30
-1517.305
 70
    32
  0
VERTEX
  8
W68LPLIFT
 62
1
 10
2290.577
 20
-9301.329
 30
-1517.305
 70
    32
  0
VERTEX
  8
W68LPLIFT
 62
1
 10
2290.568
 20
-9301.287
 30
-1517.305
 70
    32
  0
VERTEX
  8
W68LPLIFT
 62
1
 10
2290.555
 20
-9301.245
 30
-1517.305
 70
    32
  0
VERTEX
  8
W68LPLIFT
 62
1
 10
2290.538
 20
-9301.205
 30
-1517.305
 70
    32
  0
VERTEX
  8
W68LPLIFT
 62
1
 10
2290.518
 20
-9301.166
 30
-1517.305
 70
    32
  0
VERTEX
  8
W68LPLIFT
 62
1
 10
2290.495
 20
-9301.129
 30
-1517.305
 70
    32
  0
VERTEX
  8
W68LPLIFT
 62
1
 10
2290.468
 20
-9301.095
 30
-1517.305
 70
    32
  0
VERTEX
  8
W68LPLIFT
 62
1
 10
2290.439
 20
-9301.062
 30
-1517.305
 70
    32
  0
VERTEX
  8
W68LPLIFT
 62
1
 10
2290.406
 20
-9301.033
 30
-1517.305
 70
    32
  0
VERTEX
  8
W68LPLIFT
 62
1
 10
2290.372
 20
-9301.006
 30
-1517.305
 70
    32
  0
VERTEX
  8
W68LPLIFT
 62
1
 10
2290.335
 20
-9300.983
 30
-1517.305
 70
    32
  0
VERTEX
  8
W68LPLIFT
 62
1
 10
2290.296
 20
-9300.963
 30
-1517.305
 70
    32
  0
VERTEX
  8
W68LPLIFT
 62
1
 10
2290.256
 20
-9300.946
 30
-1517.305
 70
    32
  0
VERTEX
  8
W68LPLIFT
 62
1
 10
2290.214
 20
-9300.933
 30
-1517.305
 70
    32
  0
VERTEX
  8
W68LPLIFT
 62
1
 10
2290.172
 20
-9300.924
 30
-1517.305
 70
    32
  0
VERTEX
  8
W68LPLIFT
 62
1
 10
2290.129
 20
-9300.918
 30
-1517.305
 70
    32
  0
VERTEX
  8
W68LPLIFT
 62
1
 10
2290.085
 20
-9300.916
 30
-1517.305
 70
    32
  0
VERTEX
  8
W68LPLIFT
 62
1
 10
2290.041
 20
-9300.918
 30
-1517.305
 70
    32
  0
VERTEX
  8
W68LPLIFT
 62
1
 10
2289.998
 20
-9300.924
 30
-1517.305
 70
    32
  0
VERTEX
  8
W68LPLIFT
 62
1
 10
2289.956
 20
-9300.933
 30
-1517.305
 70
    32
  0
VERTEX
  8
W68LPLIFT
 62
1
 10
2289.914
 20
-9300.946
 30
-1517.305
 70
    32
  0
VERTEX
  8
W68LPLIFT
 62
1
 10
2289.874
 20
-9300.963
 30
-1517.305
 70
    32
  0
VERTEX
  8
W68LPLIFT
 62
1
 10
2289.835
 20
-9300.983
 30
-1517.305
 70
    32
  0
VERTEX
  8
W68LPLIFT
 62
1
 10
2289.798
 20
-9301.006
 30
-1517.305
 70
    32
  0
VERTEX
  8
W68LPLIFT
 62
1
 10
2289.764
 20
-9301.033
 30
-1517.305
 70
    32
  0
VERTEX
  8
W68LPLIFT
 62
1
 10
2289.731
 20
-9301.062
 30
-1517.305
 70
    32
  0
VERTEX
  8
W68LPLIFT
 62
1
 10
2289.702
 20
-9301.095
 30
-1517.305
 70
    32
  0
VERTEX
  8
W68LPLIFT
 62
1
 10
2289.675
 20
-9301.129
 30
-1517.305
 70
    32
  0
VERTEX
  8
W68LPLIFT
 62
1
 10
2289.652
 20
-9301.166
 30
-1517.305
 70
    32
  0
VERTEX
  8
W68LPLIFT
 62
1
 10
2289.632
 20
-9301.205
 30
-1517.305
 70
    32
  0
VERTEX
  8
W68LPLIFT
 62
1
 10
2289.615
 20
-9301.245
 30
-1517.305
 70
    32
  0
VERTEX
  8
W68LPLIFT
 62
1
 10
2289.602
 20
-9301.287
 30
-1517.305
 70
    32
  0
VERTEX
  8
W68LPLIFT
 62
1
 10
2289.593
 20
-9301.329
 30
-1517.305
 70
    32
  0
VERTEX
  8
W68LPLIFT
 62
1
 10
2289.587
 20
-9301.372
 30
-1517.305
 70
    32
  0
VERTEX
  8
W68LPLIFT
 62
1
 10
2289.585
 20
-9301.416
 30
-1517.305
 70
    32
  0
VERTEX
  8
W68LPLIFT
 62
1
 10
2289.587
 20
-9301.460
 30
-1517.305
 70
    32
  0
VERTEX
  8
W68LPLIFT
 62
1
 10
2289.593
 20
-9301.503
 30
-1517.305
 70
    32
  0
VERTEX
  8
W68LPLIFT
 62
1
 10
2289.602
 20
-9301.545
 30
-1517.305
 70
    32
  0
VERTEX
  8
W68LPLIFT
 62
1
 10
2289.615
 20
-9301.587
 30
-1517.305
 70
    32
  0
VERTEX
  8
W68LPLIFT
 62
1
 10
2289.632
 20
-9301.627
 30
-1517.305
 70
    32
  0
VERTEX
  8
W68LPLIFT
 62
1
 10
2289.652
 20
-9301.666
 30
-1517.305
 70
    32
  0
VERTEX
  8
W68LPLIFT
 62
1
 10
2289.675
 20
-9301.703
 30
-1517.305
 70
    32
  0
VERTEX
  8
W68LPLIFT
 62
1
 10
2289.702
 20
-9301.737
 30
-1517.305
 70
    32
  0
VERTEX
  8
W68LPLIFT
 62
1
 10
2289.731
 20
-9301.770
 30
-1517.305
 70
    32
  0
VERTEX
  8
W68LPLIFT
 62
1
 10
2289.764
 20
-9301.799
 30
-1517.305
 70
    32
  0
VERTEX
  8
W68LPLIFT
 62
1
 10
2289.798
 20
-9301.826
 30
-1517.305
 70
    32
  0
VERTEX
  8
W68LPLIFT
 62
1
 10
2289.835
 20
-9301.849
 30
-1517.305
 70
    32
  0
VERTEX
  8
W68LPLIFT
 62
1
 10
2289.874
 20
-9301.869
 30
-1517.305
 70
    32
  0
VERTEX
  8
W68LPLIFT
 62
1
 10
2289.914
 20
-9301.886
 30
-1517.305
 70
    32
  0
VERTEX
  8
W68LPLIFT
 62
1
 10
2289.956
 20
-9301.899
 30
-1517.305
 70
    32
  0
VERTEX
  8
W68LPLIFT
 62
1
 10
2289.998
 20
-9301.908
 30
-1517.305
 70
    32
  0
VERTEX
  8
W68LPLIFT
 62
1
 10
2290.041
 20
-9301.914
 30
-1517.305
 70
    32
  0
VERTEX
  8
W68LPLIFT
 62
1
 10
2290.085
 20
-9301.916
 30
-1517.305
 70
    32
  0
VERTEX
  8
W68LPLIFT
 62
1
 10
2290.129
 20
-9301.914
 30
-1517.305
 70
    32
  0
VERTEX
  8
W68LPLIFT
 62
1
 10
2290.172
 20
-9301.908
 30
-1517.305
 70
    32
  0
VERTEX
  8
W68LPLIFT
 62
1
 10
2290.214
 20
-9301.899
 30
-1517.305
 70
    32
  0
VERTEX
  8
W68LPLIFT
 62
1
 10
2290.256
 20
-9301.886
 30
-1517.305
 70
    32
  0
VERTEX
  8
W68LPLIFT
 62
1
 10
2290.296
 20
-9301.869
 30
-1517.305
 70
    32
  0
VERTEX
  8
W68LPLIFT
 62
1
 10
2290.335
 20
-9301.849
 30
-1517.305
 70
    32
  0
VERTEX
  8
W68LPLIFT
 62
1
 10
2290.372
 20
-9301.826
 30
-1517.305
 70
    32
  0
VERTEX
  8
W68LPLIFT
 62
1
 10
2290.406
 20
-9301.799
 30
-1517.305
 70
    32
  0
VERTEX
  8
W68LPLIFT
 62
1
 10
2290.439
 20
-9301.770
 30
-1517.305
 70
    32
  0
VERTEX
  8
W68LPLIFT
 62
1
 10
2290.468
 20
-9301.737
 30
-1517.305
 70
    32
  0
VERTEX
  8
W68LPLIFT
 62
1
 10
2290.495
 20
-9301.703
 30
-1517.305
 70
    32
  0
VERTEX
  8
W68LPLIFT
 62
1
 10
2290.518
 20
-9301.666
 30
-1517.305
 70
    32
  0
VERTEX
  8
W68LPLIFT
 62
1
 10
2290.538
 20
-9301.627
 30
-1517.305
 70
    32
  0
VERTEX
  8
W68LPLIFT
 62
1
 10
2290.555
 20
-9301.587
 30
-1517.305
 70
    32
  0
VERTEX
  8
W68LPLIFT
 62
1
 10
2290.568
 20
-9301.545
 30
-1517.305
 70
    32
  0
VERTEX
  8
W68LPLIFT
 62
1
 10
2290.577
 20
-9301.503
 30
-1517.305
 70
    32
  0
VERTEX
  8
W68LPLIFT
 62
1
 10
2290.583
 20
-9301.460
 30
-1517.305
 70
    32
  0
VERTEX
  8
W68LPLIFT
 62
1
 10
2290.585
 20
-9301.416
 30
-1517.305
 70
    32
  0
SEQEND
  8
W68LPLIFT
  0
POLYLINE
  8
W68LPLIFT
 62
8
 66
     1
 70
     8
  0
VERTEX
  8
W68LPLIFT
 62
8
 10
2306.688
 20
-9322.192
 30
-1516.680
 70
    32
  0
VERTEX
  8
W68LPLIFT
 62
8
 10
2306.686
 20
-9322.148
 30
-1516.680
 70
    32
  0
VERTEX
  8
W68LPLIFT
 62
8
 10
2306.680
 20
-9322.105
 30
-1516.680
 70
    32
  0
VERTEX
  8
W68LPLIFT
 62
8
 10
2306.671
 20
-9322.063
 30
-1516.680
 70
    32
  0
VERTEX
  8
W68LPLIFT
 62
8
 10
2306.658
 20
-9322.021
 30
-1516.680
 70
    32
  0
VERTEX
  8
W68LPLIFT
 62
8
 10
2306.641
 20
-9321.981
 30
-1516.680
 70
    32
  0
VERTEX
  8
W68LPLIFT
 62
8
 10
2306.621
 20
-9321.942
 30
-1516.680
 70
    32
  0
VERTEX
  8
W68LPLIFT
 62
8
 10
2306.598
 20
-9321.905
 30
-1516.680
 70
    32
  0
VERTEX
  8
W68LPLIFT
 62
8
 10
2306.571
 20
-9321.871
 30
-1516.680
 70
    32
  0
VERTEX
  8
W68LPLIFT
 62
8
 10
2306.542
 20
-9321.838
 30
-1516.680
 70
    32
  0
VERTEX
  8
W68LPLIFT
 62
8
 10
2306.509
 20
-9321.809
 30
-1516.680
 70
    32
  0
VERTEX
  8
W68LPLIFT
 62
8
 10
2306.475
 20
-9321.782
 30
-1516.680
 70
    32
  0
VERTEX
  8
W68LPLIFT
 62
8
 10
2306.438
 20
-9321.759
 30
-1516.680
 70
    32
  0
VERTEX
  8
W68LPLIFT
 62
8
 10
2306.399
 20
-9321.739
 30
-1516.680
 70
    32
  0
VERTEX
  8
W68LPLIFT
 62
8
 10
2306.359
 20
-9321.722
 30
-1516.680
 70
    32
  0
VERTEX
  8
W68LPLIFT
 62
8
 10
2306.317
 20
-9321.709
 30
-1516.680
 70
    32
  0
VERTEX
  8
W68LPLIFT
 62
8
 10
2306.275
 20
-9321.700
 30
-1516.680
 70
    32
  0
VERTEX
  8
W68LPLIFT
 62
8
 10
2306.232
 20
-9321.694
 30
-1516.680
 70
    32
  0
VERTEX
  8
W68LPLIFT
 62
8
 10
2306.188
 20
-9321.692
 30
-1516.680
 70
    32
  0
VERTEX
  8
W68LPLIFT
 62
8
 10
2306.144
 20
-9321.694
 30
-1516.680
 70
    32
  0
VERTEX
  8
W68LPLIFT
 62
8
 10
2306.101
 20
-9321.700
 30
-1516.680
 70
    32
  0
VERTEX
  8
W68LPLIFT
 62
8
 10
2306.059
 20
-9321.709
 30
-1516.680
 70
    32
  0
VERTEX
  8
W68LPLIFT
 62
8
 10
2306.017
 20
-9321.722
 30
-1516.680
 70
    32
  0
VERTEX
  8
W68LPLIFT
 62
8
 10
2305.977
 20
-9321.739
 30
-1516.680
 70
    32
  0
VERTEX
  8
W68LPLIFT
 62
8
 10
2305.938
 20
-9321.759
 30
-1516.680
 70
    32
  0
VERTEX
  8
W68LPLIFT
 62
8
 10
2305.901
 20
-9321.782
 30
-1516.680
 70
    32
  0
VERTEX
  8
W68LPLIFT
 62
8
 10
2305.867
 20
-9321.809
 30
-1516.680
 70
    32
  0
VERTEX
  8
W68LPLIFT
 62
8
 10
2305.834
 20
-9321.838
 30
-1516.680
 70
    32
  0
VERTEX
  8
W68LPLIFT
 62
8
 10
2305.805
 20
-9321.871
 30
-1516.680
 70
    32
  0
VERTEX
  8
W68LPLIFT
 62
8
 10
2305.778
 20
-9321.905
 30
-1516.680
 70
    32
  0
VERTEX
  8
W68LPLIFT
 62
8
 10
2305.755
 20
-9321.942
 30
-1516.680
 70
    32
  0
VERTEX
  8
W68LPLIFT
 62
8
 10
2305.735
 20
-9321.981
 30
-1516.680
 70
    32
  0
VERTEX
  8
W68LPLIFT
 62
8
 10
2305.718
 20
-9322.021
 30
-1516.680
 70
    32
  0
VERTEX
  8
W68LPLIFT
 62
8
 10
2305.705
 20
-9322.063
 30
-1516.680
 70
    32
  0
VERTEX
  8
W68LPLIFT
 62
8
 10
2305.696
 20
-9322.105
 30
-1516.680
 70
    32
  0
VERTEX
  8
W68LPLIFT
 62
8
 10
2305.690
 20
-9322.148
 30
-1516.680
 70
    32
  0
VERTEX
  8
W68LPLIFT
 62
8
 10
2305.688
 20
-9322.192
 30
-1516.680
 70
    32
  0
VERTEX
  8
W68LPLIFT
 62
8
 10
2305.690
 20
-9322.236
 30
-1516.680
 70
    32
  0
VERTEX
  8
W68LPLIFT
 62
8
 10
2305.696
 20
-9322.279
 30
-1516.680
 70
    32
  0
VERTEX
  8
W68LPLIFT
 62
8
 10
2305.705
 20
-9322.321
 30
-1516.680
 70
    32
  0
VERTEX
  8
W68LPLIFT
 62
8
 10
2305.718
 20
-9322.363
 30
-1516.680
 70
    32
  0
VERTEX
  8
W68LPLIFT
 62
8
 10
2305.735
 20
-9322.403
 30
-1516.680
 70
    32
  0
VERTEX
  8
W68LPLIFT
 62
8
 10
2305.755
 20
-9322.442
 30
-1516.680
 70
    32
  0
VERTEX
  8
W68LPLIFT
 62
8
 10
2305.778
 20
-9322.479
 30
-1516.680
 70
    32
  0
VERTEX
  8
W68LPLIFT
 62
8
 10
2305.805
 20
-9322.513
 30
-1516.680
 70
    32
  0
VERTEX
  8
W68LPLIFT
 62
8
 10
2305.834
 20
-9322.546
 30
-1516.680
 70
    32
  0
VERTEX
  8
W68LPLIFT
 62
8
 10
2305.867
 20
-9322.575
 30
-1516.680
 70
    32
  0
VERTEX
  8
W68LPLIFT
 62
8
 10
2305.901
 20
-9322.602
 30
-1516.680
 70
    32
  0
VERTEX
  8
W68LPLIFT
 62
8
 10
2305.938
 20
-9322.625
 30
-1516.680
 70
    32
  0
VERTEX
  8
W68LPLIFT
 62
8
 10
2305.977
 20
-9322.645
 30
-1516.680
 70
    32
  0
VERTEX
  8
W68LPLIFT
 62
8
 10
2306.017
 20
-9322.662
 30
-1516.680
 70
    32
  0
VERTEX
  8
W68LPLIFT
 62
8
 10
2306.059
 20
-9322.675
 30
-1516.680
 70
    32
  0
VERTEX
  8
W68LPLIFT
 62
8
 10
2306.101
 20
-9322.684
 30
-1516.680
 70
    32
  0
VERTEX
  8
W68LPLIFT
 62
8
 10
2306.144
 20
-9322.690
 30
-1516.680
 70
    32
  0
VERTEX
  8
W68LPLIFT
 62
8
 10
2306.188
 20
-9322.692
 30
-1516.680
 70
    32
  0
VERTEX
  8
W68LPLIFT
 62
8
 10
2306.232
 20
-9322.690
 30
-1516.680
 70
    32
  0
VERTEX
  8
W68LPLIFT
 62
8
 10
2306.275
 20
-9322.684
 30
-1516.680
 70
    32
  0
VERTEX
  8
W68LPLIFT
 62
8
 10
2306.317
 20
-9322.675
 30
-1516.680
 70
    32
  0
VERTEX
  8
W68LPLIFT
 62
8
 10
2306.359
 20
-9322.662
 30
-1516.680
 70
    32
  0
VERTEX
  8
W68LPLIFT
 62
8
 10
2306.399
 20
-9322.645
 30
-1516.680
 70
    32
  0
VERTEX
  8
W68LPLIFT
 62
8
 10
2306.438
 20
-9322.625
 30
-1516.680
 70
    32
  0
VERTEX
  8
W68LPLIFT
 62
8
 10
2306.475
 20
-9322.602
 30
-1516.680
 70
    32
  0
VERTEX
  8
W68LPLIFT
 62
8
 10
2306.509
 20
-9322.575
 30
-1516.680
 70
    32
  0
VERTEX
  8
W68LPLIFT
 62
8
 10
2306.542
 20
-9322.546
 30
-1516.680
 70
    32
  0
VERTEX
  8
W68LPLIFT
 62
8
 10
2306.571
 20
-9322.513
 30
-1516.680
 70
    32
  0
VERTEX
  8
W68LPLIFT
 62
8
 10
2306.598
 20
-9322.479
 30
-1516.680
 70
    32
  0
VERTEX
  8
W68LPLIFT
 62
8
 10
2306.621
 20
-9322.442
 30
-1516.680
 70
    32
  0
VERTEX
  8
W68LPLIFT
 62
8
 10
2306.641
 20
-9322.403
 30
-1516.680
 70
    32
  0
VERTEX
  8
W68LPLIFT
 62
8
 10
2306.658
 20
-9322.363
 30
-1516.680
 70
    32
  0
VERTEX
  8
W68LPLIFT
 62
8
 10
2306.671
 20
-9322.321
 30
-1516.680
 70
    32
  0
VERTEX
  8
W68LPLIFT
 62
8
 10
2306.680
 20
-9322.279
 30
-1516.680
 70
    32
  0
VERTEX
  8
W68LPLIFT
 62
8
 10
2306.686
 20
-9322.236
 30
-1516.680
 70
    32
  0
VERTEX
  8
W68LPLIFT
 62
8
 10
2306.688
 20
-9322.192
 30
-1516.680
 70
    32
  0
SEQEND
  8
W68LPLIFT
  0
TEXT
  8
W68LPLIFT
 62
1
 10
2283.346
 20
-9263.962
 30
-1519.900
 40
1.500
  1
ST-044S
 41
 1.0 
  0
TEXT
  8
W68LPLIFT
 62
1
 10
2282.892
 20
-9265.700
 30
-1519.900
 40
1.500
  1
-1519.900
 41
 1.0 
  0
TEXT
  8
W68LPLIFT
 62
1
 10
2272.004
 20
-9270.421
 30
-1517.542
 40
1.500
  1
ST-044T
 41
 1.0 
  0
TEXT
  8
W68LPLIFT
 62
1
 10
2269.988
 20
-9272.483
 30
-1517.542
 40
1.500
  1
-1517.542
 41
 1.0 
  0
TEXT
  8
W68LPLIFT
 62
1
 10
2275.645
 20
-9251.689
 30
-1520.841
 40
1.500
  1
BK -1520.841
 41
 1.0 
  0
POLYLINE
  8
W68LPLIFT
 62
1
 66
     1
 70
     8
  0
VERTEX
  8
W68LPLIFT
 62
1
 10
2276.423
 20
-9249.290
 30
-1521.809
 70
    32
  0
VERTEX
  8
W68LPLIFT
 62
1
 10
2276.421
 20
-9249.246
 30
-1521.809
 70
    32
  0
VERTEX
  8
W68LPLIFT
 62
1
 10
2276.415
 20
-9249.203
 30
-1521.809
 70
    32
  0
VERTEX
  8
W68LPLIFT
 62
1
 10
2276.406
 20
-9249.161
 30
-1521.809
 70
    32
  0
VERTEX
  8
W68LPLIFT
 62
1
 10
2276.393
 20
-9249.119
 30
-1521.809
 70
    32
  0
VERTEX
  8
W68LPLIFT
 62
1
 10
2276.376
 20
-9249.079
 30
-1521.809
 70
    32
  0
VERTEX
  8
W68LPLIFT
 62
1
 10
2276.356
 20
-9249.040
 30
-1521.809
 70
    32
  0
VERTEX
  8
W68LPLIFT
 62
1
 10
2276.333
 20
-9249.003
 30
-1521.809
 70
    32
  0
VERTEX
  8
W68LPLIFT
 62
1
 10
2276.306
 20
-9248.969
 30
-1521.809
 70
    32
  0
VERTEX
  8
W68LPLIFT
 62
1
 10
2276.277
 20
-9248.936
 30
-1521.809
 70
    32
  0
VERTEX
  8
W68LPLIFT
 62
1
 10
2276.244
 20
-9248.907
 30
-1521.809
 70
    32
  0
VERTEX
  8
W68LPLIFT
 62
1
 10
2276.210
 20
-9248.880
 30
-1521.809
 70
    32
  0
VERTEX
  8
W68LPLIFT
 62
1
 10
2276.173
 20
-9248.857
 30
-1521.809
 70
    32
  0
VERTEX
  8
W68LPLIFT
 62
1
 10
2276.134
 20
-9248.837
 30
-1521.809
 70
    32
  0
VERTEX
  8
W68LPLIFT
 62
1
 10
2276.094
 20
-9248.820
 30
-1521.809
 70
    32
  0
VERTEX
  8
W68LPLIFT
 62
1
 10
2276.052
 20
-9248.807
 30
-1521.809
 70
    32
  0
VERTEX
  8
W68LPLIFT
 62
1
 10
2276.010
 20
-9248.798
 30
-1521.809
 70
    32
  0
VERTEX
  8
W68LPLIFT
 62
1
 10
2275.967
 20
-9248.792
 30
-1521.809
 70
    32
  0
VERTEX
  8
W68LPLIFT
 62
1
 10
2275.923
 20
-9248.790
 30
-1521.809
 70
    32
  0
VERTEX
  8
W68LPLIFT
 62
1
 10
2275.879
 20
-9248.792
 30
-1521.809
 70
    32
  0
VERTEX
  8
W68LPLIFT
 62
1
 10
2275.836
 20
-9248.798
 30
-1521.809
 70
    32
  0
VERTEX
  8
W68LPLIFT
 62
1
 10
2275.794
 20
-9248.807
 30
-1521.809
 70
    32
  0
VERTEX
  8
W68LPLIFT
 62
1
 10
2275.752
 20
-9248.820
 30
-1521.809
 70
    32
  0
VERTEX
  8
W68LPLIFT
 62
1
 10
2275.712
 20
-9248.837
 30
-1521.809
 70
    32
  0
VERTEX
  8
W68LPLIFT
 62
1
 10
2275.673
 20
-9248.857
 30
-1521.809
 70
    32
  0
VERTEX
  8
W68LPLIFT
 62
1
 10
2275.636
 20
-9248.880
 30
-1521.809
 70
    32
  0
VERTEX
  8
W68LPLIFT
 62
1
 10
2275.602
 20
-9248.907
 30
-1521.809
 70
    32
  0
VERTEX
  8
W68LPLIFT
 62
1
 10
2275.569
 20
-9248.936
 30
-1521.809
 70
    32
  0
VERTEX
  8
W68LPLIFT
 62
1
 10
2275.540
 20
-9248.969
 30
-1521.809
 70
    32
  0
VERTEX
  8
W68LPLIFT
 62
1
 10
2275.513
 20
-9249.003
 30
-1521.809
 70
    32
  0
VERTEX
  8
W68LPLIFT
 62
1
 10
2275.490
 20
-9249.040
 30
-1521.809
 70
    32
  0
VERTEX
  8
W68LPLIFT
 62
1
 10
2275.470
 20
-9249.079
 30
-1521.809
 70
    32
  0
VERTEX
  8
W68LPLIFT
 62
1
 10
2275.453
 20
-9249.119
 30
-1521.809
 70
    32
  0
VERTEX
  8
W68LPLIFT
 62
1
 10
2275.440
 20
-9249.161
 30
-1521.809
 70
    32
  0
VERTEX
  8
W68LPLIFT
 62
1
 10
2275.431
 20
-9249.203
 30
-1521.809
 70
    32
  0
VERTEX
  8
W68LPLIFT
 62
1
 10
2275.425
 20
-9249.246
 30
-1521.809
 70
    32
  0
VERTEX
  8
W68LPLIFT
 62
1
 10
2275.423
 20
-9249.290
 30
-1521.809
 70
    32
  0
VERTEX
  8
W68LPLIFT
 62
1
 10
2275.425
 20
-9249.334
 30
-1521.809
 70
    32
  0
VERTEX
  8
W68LPLIFT
 62
1
 10
2275.431
 20
-9249.377
 30
-1521.809
 70
    32
  0
VERTEX
  8
W68LPLIFT
 62
1
 10
2275.440
 20
-9249.419
 30
-1521.809
 70
    32
  0
VERTEX
  8
W68LPLIFT
 62
1
 10
2275.453
 20
-9249.461
 30
-1521.809
 70
    32
  0
VERTEX
  8
W68LPLIFT
 62
1
 10
2275.470
 20
-9249.501
 30
-1521.809
 70
    32
  0
VERTEX
  8
W68LPLIFT
 62
1
 10
2275.490
 20
-9249.540
 30
-1521.809
 70
    32
  0
VERTEX
  8
W68LPLIFT
 62
1
 10
2275.513
 20
-9249.577
 30
-1521.809
 70
    32
  0
VERTEX
  8
W68LPLIFT
 62
1
 10
2275.540
 20
-9249.611
 30
-1521.809
 70
    32
  0
VERTEX
  8
W68LPLIFT
 62
1
 10
2275.569
 20
-9249.644
 30
-1521.809
 70
    32
  0
VERTEX
  8
W68LPLIFT
 62
1
 10
2275.602
 20
-9249.673
 30
-1521.809
 70
    32
  0
VERTEX
  8
W68LPLIFT
 62
1
 10
2275.636
 20
-9249.700
 30
-1521.809
 70
    32
  0
VERTEX
  8
W68LPLIFT
 62
1
 10
2275.673
 20
-9249.723
 30
-1521.809
 70
    32
  0
VERTEX
  8
W68LPLIFT
 62
1
 10
2275.712
 20
-9249.743
 30
-1521.809
 70
    32
  0
VERTEX
  8
W68LPLIFT
 62
1
 10
2275.752
 20
-9249.760
 30
-1521.809
 70
    32
  0
VERTEX
  8
W68LPLIFT
 62
1
 10
2275.794
 20
-9249.773
 30
-1521.809
 70
    32
  0
VERTEX
  8
W68LPLIFT
 62
1
 10
2275.836
 20
-9249.782
 30
-1521.809
 70
    32
  0
VERTEX
  8
W68LPLIFT
 62
1
 10
2275.879
 20
-9249.788
 30
-1521.809
 70
    32
  0
VERTEX
  8
W68LPLIFT
 62
1
 10
2275.923
 20
-9249.790
 30
-1521.809
 70
    32
  0
VERTEX
  8
W68LPLIFT
 62
1
 10
2275.967
 20
-9249.788
 30
-1521.809
 70
    32
  0
VERTEX
  8
W68LPLIFT
 62
1
 10
2276.010
 20
-9249.782
 30
-1521.809
 70
    32
  0
VERTEX
  8
W68LPLIFT
 62
1
 10
2276.052
 20
-9249.773
 30
-1521.809
 70
    32
  0
VERTEX
  8
W68LPLIFT
 62
1
 10
2276.094
 20
-9249.760
 30
-1521.809
 70
    32
  0
VERTEX
  8
W68LPLIFT
 62
1
 10
2276.134
 20
-9249.743
 30
-1521.809
 70
    32
  0
VERTEX
  8
W68LPLIFT
 62
1
 10
2276.173
 20
-9249.723
 30
-1521.809
 70
    32
  0
VERTEX
  8
W68LPLIFT
 62
1
 10
2276.210
 20
-9249.700
 30
-1521.809
 70
    32
  0
VERTEX
  8
W68LPLIFT
 62
1
 10
2276.244
 20
-9249.673
 30
-1521.809
 70
    32
  0
VERTEX
  8
W68LPLIFT
 62
1
 10
2276.277
 20
-9249.644
 30
-1521.809
 70
    32
  0
VERTEX
  8
W68LPLIFT
 62
1
 10
2276.306
 20
-9249.611
 30
-1521.809
 70
    32
  0
VERTEX
  8
W68LPLIFT
 62
1
 10
2276.333
 20
-9249.577
 30
-1521.809
 70
    32
  0
VERTEX
  8
W68LPLIFT
 62
1
 10
2276.356
 20
-9249.540
 30
-1521.809
 70
    32
  0
VERTEX
  8
W68LPLIFT
 62
1
 10
2276.376
 20
-9249.501
 30
-1521.809
 70
    32
  0
VERTEX
  8
W68LPLIFT
 62
1
 10
2276.393
 20
-9249.461
 30
-1521.809
 70
    32
  0
VERTEX
  8
W68LPLIFT
 62
1
 10
2276.406
 20
-9249.419
 30
-1521.809
 70
    32
  0
VERTEX
  8
W68LPLIFT
 62
1
 10
2276.415
 20
-9249.377
 30
-1521.809
 70
    32
  0
VERTEX
  8
W68LPLIFT
 62
1
 10
2276.421
 20
-9249.334
 30
-1521.809
 70
    32
  0
VERTEX
  8
W68LPLIFT
 62
1
 10
2276.423
 20
-9249.290
 30
-1521.809
 70
    32
  0
SEQEND
  8
W68LPLIFT
  0
TEXT
  8
W68LPLIFT
 62
1
 10
2291.794
 20
-9301.061
 30
-1516.950
 40
1.575
  1
BK -1516.95
 50
9.390
 41
 1.0 
  0
TEXT
  8
W68LPLIFT
 62
8
 10
2374.501
 20
-9482.256
 30
-1518.965
 40
1.575
  1
BK -1518.965
 41
 1.0 
  0
TEXT
  8
W68LPLIFT
 62
8
 10
2358.221
 20
-9447.621
 30
-1513.823
 40
1.575
  1
BK -1513.823
 41
 1.0 
  0
TEXT
  8
W68LPLIFT
 62
8
 10
2349.391
 20
-9428.628
 30
-1511.868
 40
1.575
  1
BK -1511.868
 41
 1.0 
  0
TEXT
  8
W68LPLIFT
 62
8
 10
2305.688
 20
-9320.892
 30
-1516.680
 40
1.500
  1
BK -1516.68
 41
 1.0 
  0
LINE
  8
W68LPLIFT
 62
1
 10
2313.534
 20
-9390.521
 30
-1517.639
 11
2339.349
 21
-9391.450
 31
-1517.639
  0
TEXT
  8
W68LPLIFT
 62
1
 10
2319.148
 20
-9390.751
 30
-1517.639
 40
3.937
  1
3/31/99
 50
-53.970
 41
 1.0 
  0
TEXT
  8
W68LPLIFT
 62
8
 10
2389.638
 20
-9531.159
 30
-1528.090
 40
1.969
  1
BK -1528.09
 41
 1.0 
  0
TEXT
  8
W68LPLIFT
 62
6
 10
1930.037
 20
-8365.255
 30
-1475.443
 40
1.575
  1
BK -1475.443
 41
 1.0 
  0
TEXT
  8
W68LPLIFT
 62
6
 10
1929.371
 20
-8367.221
 30
-1487.443
 40
1.575
  1
Fl -1487.443
 41
 1.0 
  0
TEXT
  8
W68LPLIFT
 62
6
 10
1936.005
 20
-8333.498
 30
-1489.270
 40
1.575
  1
Fl -1489.27
 41
 1.0 
  0
TEXT
  8
W68LPLIFT
 62
6
 10
1936.005
 20
-8331.120
 30
-1476.770
 40
1.575
  1
BK -1476.77
 41
 1.0 
  0
TEXT
  8
W68LPLIFT
 62
2
 10
1919.582
 20
-8316.059
 30
-1497.000
 40
1.969
  1
45'd Back
 50
81.212
 41
 1.0 
  0
TEXT
  8
W68LPLIFT
 62
2
 10
1922.500
 20
-8316.510
 30
-1497.000
 40
1.969
  1
July 1999
 50
81.212
 41
 1.0 
  0
TEXT
  8
W68LPLIFT
 62
2
 10
1926.430
 20
-8314.547
 30
-1497.000
 40
1.969
  1
-1467'
 50
80.852
 41
 1.0 
  0
TEXT
  8
W68LPLIFT
 62
24
 10
1954.968
 20
-8364.211
 30
-1497.000
 40
1.969
  1
Mined Bottom
 50
81.212
 41
 1.0 
  0
TEXT
  8
W68LPLIFT
 62
24
 10
1957.886
 20
-8364.662
 30
-1497.000
 40
1.969
  1
July 1999
 50
81.212
 41
 1.0 
  0
TEXT
  8
W68LPLIFT
 62
24
 10
1961.995
 20
-8362.342
 30
-1497.000
 40
1.969
  1
-1497'
 50
80.852
 41
 1.0 
  0
POINT
  8
W68LPLIFT
 62
3
 10
1716.017
 20
-6518.311
 30
-1409.642
  0
POLYLINE
  8
W68LPLIFT
 62
3
 66
     1
 70
     9
  0
VERTEX
  8
W68LPLIFT
 62
3
 10
1716.017
 20
-6516.101
 30
-1409.642
 70
    32
  0
VERTEX
  8
W68LPLIFT
 62
3
 10
1717.766
 20
-6519.281
 30
-1409.642
 70
    32
  0
VERTEX
  8
W68LPLIFT
 62
3
 10
1714.267
 20
-6519.279
 30
-1409.642
 70
    32
  0
SEQEND
  8
W68LPLIFT
  0
POINT
  8
W68LPLIFT
 62
3
 10
1719.196
 20
-6530.900
 30
-1409.956
  0
POLYLINE
  8
W68LPLIFT
 62
3
 66
     1
 70
     9
  0
VERTEX
  8
W68LPLIFT
 62
3
 10
1719.196
 20
-6528.690
 30
-1409.956
 70
    32
  0
VERTEX
  8
W68LPLIFT
 62
3
 10
1720.945
 20
-6531.870
 30
-1409.956
 70
    32
  0
VERTEX
  8
W68LPLIFT
 62
3
 10
1717.446
 20
-6531.868
 30
-1409.956
 70
    32
  0
SEQEND
  8
W68LPLIFT
  0
POINT
  8
W68LPLIFT
 62
3
 10
1901.189
 20
-7922.761
 30
-1398.749
  0
POLYLINE
  8
W68LPLIFT
 62
3
 66
     1
 70
     9
  0
VERTEX
  8
W68LPLIFT
 62
3
 10
1901.189
 20
-7920.551
 30
-1398.749
 70
    32
  0
VERTEX
  8
W68LPLIFT
 62
3
 10
1902.938
 20
-7923.731
 30
-1398.749
 70
    32
  0
VERTEX
  8
W68LPLIFT
 62
3
 10
1899.439
 20
-7923.729
 30
-1398.749
 70
    32
  0
SEQEND
  8
W68LPLIFT
  0
POINT
  8
W68LPLIFT
 62
3
 10
1906.431
 20
-7933.377
 30
-1399.209
  0
POLYLINE
  8
W68LPLIFT
 62
3
 66
     1
 70
     9
  0
VERTEX
  8
W68LPLIFT
 62
3
 10
1906.431
 20
-7931.167
 30
-1399.209
 70
    32
  0
VERTEX
  8
W68LPLIFT
 62
3
 10
1908.180
 20
-7934.347
 30
-1399.209
 70
    32
  0
VERTEX
  8
W68LPLIFT
 62
3
 10
1904.681
 20
-7934.345
 30
-1399.209
 70
    32
  0
SEQEND
  8
W68LPLIFT
  0
POINT
  8
W68LPLIFT
 62
3
 10
1921.798
 20
-8000.209
 30
-1395.806
  0
POLYLINE
  8
W68LPLIFT
 62
3
 66
     1
 70
     9
  0
VERTEX
  8
W68LPLIFT
 62
3
 10
1921.798
 20
-7997.999
 30
-1395.806
 70
    32
  0
VERTEX
  8
W68LPLIFT
 62
3
 10
1923.547
 20
-8001.179
 30
-1395.806
 70
    32
  0
VERTEX
  8
W68LPLIFT
 62
3
 10
1920.048
 20
-8001.177
 30
-1395.806
 70
    32
  0
SEQEND
  8
W68LPLIFT
  0
POINT
  8
W68LPLIFT
 62
3
 10
1916.068
 20
-8002.766
 30
-1395.981
  0
POLYLINE
  8
W68LPLIFT
 62
3
 66
     1
 70
     9
  0
VERTEX
  8
W68LPLIFT
 62
3
 10
1916.068
 20
-8000.556
 30
-1395.981
 70
    32
  0
VERTEX
  8
W68LPLIFT
 62
3
 10
1917.817
 20
-8003.736
 30
-1395.981
 70
    32
  0
VERTEX
  8
W68LPLIFT
 62
3
 10
1914.318
 20
-8003.734
 30
-1395.981
 70
    32
  0
SEQEND
  8
W68LPLIFT
  0
POINT
  8
W68LPLIFT
 62
3
 10
1879.593
 20
-8022.543
 30
-1396.668
  0
POLYLINE
  8
W68LPLIFT
 62
3
 66
     1
 70
     9
  0
VERTEX
  8
W68LPLIFT
 62
3
 10
1879.593
 20
-8020.333
 30
-1396.668
 70
    32
  0
VERTEX
  8
W68LPLIFT
 62
3
 10
1881.342
 20
-8023.513
 30
-1396.668
 70
    32
  0
VERTEX
  8
W68LPLIFT
 62
3
 10
1877.843
 20
-8023.511
 30
-1396.668
 70
    32
  0
SEQEND
  8
W68LPLIFT
  0
POINT
  8
W68LPLIFT
 62
3
 10
1877.982
 20
-8032.758
 30
-1397.703
  0
POLYLINE
  8
W68LPLIFT
 62
3
 66
     1
 70
     9
  0
VERTEX
  8
W68LPLIFT
 62
3
 10
1877.982
 20
-8030.548
 30
-1397.703
 70
    32
  0
VERTEX
  8
W68LPLIFT
 62
3
 10
1879.731
 20
-8033.728
 30
-1397.703
 70
    32
  0
VERTEX
  8
W68LPLIFT
 62
3
 10
1876.232
 20
-8033.726
 30
-1397.703
 70
    32
  0
SEQEND
  8
W68LPLIFT
  0
POLYLINE
  8
W68LPLIFT
 62
1
 66
     1
 70
     9
  0
VERTEX
  8
W68LPLIFT
 62
1
 10
2280.632
 20
-9261.889
 30
-1519.900
 70
    32
  0
VERTEX
  8
W68LPLIFT
 62
1
 10
2282.381
 20
-9265.069
 30
-1519.900
 70
    32
  0
VERTEX
  8
W68LPLIFT
 62
1
 10
2278.882
 20
-9265.067
 30
-1519.900
 70
    32
  0
SEQEND
  8
W68LPLIFT
  0
POINT
  8
W68LPLIFT
 62
1
 10
2280.632
 20
-9264.099
 30
-1519.900
  0
POLYLINE
  8
W68LPLIFT
 62
1
 66
     1
 70
     9
  0
VERTEX
  8
W68LPLIFT
 62
1
 10
2283.489
 20
-9268.978
 30
-1517.542
 70
    32
  0
VERTEX
  8
W68LPLIFT
 62
1
 10
2285.238
 20
-9272.158
 30
-1517.542
 70
    32
  0
VERTEX
  8
W68LPLIFT
 62
1
 10
2281.739
 20
-9272.156
 30
-1517.542
 70
    32
  0
SEQEND
  8
W68LPLIFT
  0
POINT
  8
W68LPLIFT
 62
1
 10
2283.489
 20
-9271.188
 30
-1517.542
  0
LINE
  8
W68LPLIFT
 62
1
 10
2280.632
 20
-9264.099
 30
-1519.900
 11
2336.107
 21
-9401.747
 31
-1519.900
  0
TEXT
  8
W68LPLIFT
 62
18
 10
2375.712
 20
-9503.351
 30
-1512.912
 40
1.575
  1
BK -1512.912
 50
1.574
 41
 1.0 
  0
TEXT
  8
W68LPLIFT
 62
18
 10
2366.162
 20
-9476.426
 30
-1514.212
 40
1.575
  1
BK -1514.212
 50
1.574
 41
 1.0 
  0
TEXT
  8
W68LPLIFT
 62
8
 10
2361.628
 20
-9463.213
 30
-1511.390
 40
1.969
  1
BK -1511.39
 41
 1.0 
  0
TEXT
  8
W68LPLIFT
 62
8
 10
2379.900
 20
-9493.023
 30
-1520.434
 40
1.969
  1
BK -1520.434
 41
 1.0 
  0
TEXT
  8
W68LPLIFT
 62
22
 10
2258.618
 20
-9189.170
 30
-1506.476
 40
3.000
  1
BK -1506.476
 50
-2.166
 41
 1.0 
  0
POINT
  8
W68LPLIFT
 62
6
 10
2265.311
 20
-9209.366
 30
-1507.677
  0
LINE
  8
W68LPLIFT
 62
6
 10
2265.311
 20
-9209.366
 30
-1507.677
 11
2290.040
 21
-9306.173
 31
-1507.677
  0
POLYLINE
  8
W68LPLIFT
 62
6
 66
     1
 70
     9
  0
VERTEX
  8
W68LPLIFT
 62
6
 10
2265.311
 20
-9207.156
 30
-1507.677
 70
    32
  0
VERTEX
  8
W68LPLIFT
 62
6
 10
2267.060
 20
-9210.336
 30
-1507.677
 70
    32
  0
VERTEX
  8
W68LPLIFT
 62
6
 10
2263.561
 20
-9210.334
 30
-1507.677
 70
    32
  0
SEQEND
  8
W68LPLIFT
  0
POINT
  8
W68LPLIFT
 62
6
 10
2267.058
 20
-9216.205
 30
-1507.298
  0
POLYLINE
  8
W68LPLIFT
 62
6
 66
     1
 70
     9
  0
VERTEX
  8
W68LPLIFT
 62
6
 10
2267.058
 20
-9213.995
 30
-1507.298
 70
    32
  0
VERTEX
  8
W68LPLIFT
 62
6
 10
2268.807
 20
-9217.175
 30
-1507.298
 70
    32
  0
VERTEX
  8
W68LPLIFT
 62
6
 10
2265.308
 20
-9217.173
 30
-1507.298
 70
    32
  0
SEQEND
  8
W68LPLIFT
  0
TEXT
  8
W68LPLIFT
 62
22
 10
2273.788
 20
-9226.227
 30
-1506.902
 40
3.000
  1
BK -1506.902
 50
-2.166
 41
 1.0 
  0
TEXT
  8
W68LPLIFT
 62
6
 10
2274.236
 20
-9248.074
 30
-1504.461
 40
3.000
  1
BK -1504.461
 41
 1.0 
  0
TEXT
  8
W68LPLIFT
 62
22
 10
2283.482
 20
-9255.696
 30
-1503.677
 40
3.000
  1
BK -1503.677
 50
-2.166
 41
 1.0 
  0
TEXT
  8
W68LPLIFT
 62
1
 10
2274.703
 20
-9241.463
 30
-1504.556
 40
3.000
  1
BK -1504.556
 50
-55.004
 41
 1.0 
  0
TEXT
  8
W68LPLIFT
 62
1
 10
2280.593
 20
-9270.894
 30
-1504.054
 40
3.000
  1
BK -1504.054
 50
-55.004
 41
 1.0 
  0
TEXT
  8
W68LPLIFT
 62
6
 10
2284.245
 20
-9291.324
 30
-1505.100
 40
3.000
  1
BK -1505.1
 41
 1.0 
  0
POLYLINE
  8
W68LPLIFT
 62
1
 66
     1
 70
     9
  0
VERTEX
  8
W68LPLIFT
 62
1
 10
2296.660
 20
-9306.807
 30
-1510.839
 70
    32
  0
VERTEX
  8
W68LPLIFT
 62
1
 10
2303.120
 20
-9318.994
 30
-1511.245
 70
    32
  0
VERTEX
  8
W68LPLIFT
 62
1
 10
2313.830
 20
-9347.788
 30
-1511.833
 70
    32
  0
VERTEX
  8
W68LPLIFT
 62
1
 10
2325.325
 20
-9366.119
 30
-1512.527
 70
    32
  0
VERTEX
  8
W68LPLIFT
 62
1
 10
2331.805
 20
-9384.213
 30
-1512.585
 70
    32
  0
VERTEX
  8
W68LPLIFT
 62
1
 10
2337.686
 20
-9405.464
 30
-1514.885
 70
    32
  0
VERTEX
  8
W68LPLIFT
 62
1
 10
2351.192
 20
-9419.882
 30
-1517.343
 70
    32
  0
VERTEX
  8
W68LPLIFT
 62
1
 10
2355.174
 20
-9436.256
 30
-1512.893
 70
    32
  0
VERTEX
  8
W68LPLIFT
 62
1
 10
2362.761
 20
-9455.457
 30
-1511.474
 70
    32
  0
VERTEX
  8
W68LPLIFT
 62
1
 10
2375.645
 20
-9483.002
 30
-1510.182
 70
    32
  0
VERTEX
  8
W68LPLIFT
 62
1
 10
2378.868
 20
-9504.502
 30
-1508.586
 70
    32
  0
VERTEX
  8
W68LPLIFT
 62
1
 10
2380.535
 20
-9517.949
 30
-1507.760
 70
    32
  0
VERTEX
  8
W68LPLIFT
 62
1
 10
2378.329
 20
-9521.844
 30
-1508.041
 70
    32
  0
VERTEX
  8
W68LPLIFT
 62
1
 10
2377.497
 20
-9523.943
 30
-1508.609
 70
    32
  0
VERTEX
  8
W68LPLIFT
 62
1
 10
2377.674
 20
-9532.485
 30
-1508.481
 70
    32
  0
VERTEX
  8
W68LPLIFT
 62
1
 10
2364.670
 20
-9537.671
 30
-1508.481
 70
    32
  0
VERTEX
  8
W68LPLIFT
 62
1
 10
2362.732
 20
-9514.232
 30
-1508.758
 70
    32
  0
VERTEX
  8
W68LPLIFT
 62
1
 10
2362.440
 20
-9487.482
 30
-1509.934
 70
    32
  0
VERTEX
  8
W68LPLIFT
 62
1
 10
2357.545
 20
-9477.462
 30
-1509.382
 70
    32
  0
VERTEX
  8
W68LPLIFT
 62
1
 10
2342.900
 20
-9444.741
 30
-1510.873
 70
    32
  0
VERTEX
  8
W68LPLIFT
 62
1
 10
2335.101
 20
-9437.206
 30
-1512.862
 70
    32
  0
VERTEX
  8
W68LPLIFT
 62
1
 10
2324.647
 20
-9435.654
 30
-1513.359
 70
    32
  0
VERTEX
  8
W68LPLIFT
 62
1
 10
2321.788
 20
-9419.330
 30
-1516.544
 70
    32
  0
VERTEX
  8
W68LPLIFT
 62
1
 10
2305.939
 20
-9378.657
 30
-1512.149
 70
    32
  0
VERTEX
  8
W68LPLIFT
 62
1
 10
2298.947
 20
-9354.703
 30
-1509.972
 70
    32
  0
VERTEX
  8
W68LPLIFT
 62
1
 10
2294.038
 20
-9349.721
 30
-1511.115
 70
    32
  0
VERTEX
  8
W68LPLIFT
 62
1
 10
2290.470
 20
-9332.083
 30
-1509.709
 70
    32
  0
VERTEX
  8
W68LPLIFT
 62
1
 10
2284.591
 20
-9324.216
 30
-1507.554
 70
    32
  0
VERTEX
  8
W68LPLIFT
 62
1
 10
2281.096
 20
-9309.175
 30
-1511.327
 70
    32
  0
SEQEND
  8
W68LPLIFT
  0
TEXT
  8
W68LPLIFT
 62
1
 10
2287.431
 20
-9307.360
 30
-1504.842
 40
3.000
  1
BK -1504.842
 50
-55.004
 41
 1.0 
  0
TEXT
  8
W68LPLIFT
 62
1
 10
2295.104
 20
-9320.981
 30
-1503.015
 40
3.000
  1
BK -1503.015
 50
-55.004
 41
 1.0 
  0
TEXT
  8
W68LPLIFT
 62
1
 10
2283.433
 20
-9286.548
 30
-1505.780
 40
3.000
  1
BK -1505.78
 50
-55.004
 41
 1.0 
  0
TEXT
  8
W68LPLIFT
 62
1
 10
2300.551
 20
-9339.054
 30
-1504.137
 40
3.000
  1
BK -1504.137
 50
-55.004
 41
 1.0 
  0
TEXT
  8
W68LPLIFT
 62
1
 10
2321.641
 20
-9386.631
 30
-1505.280
 40
3.000
  1
BK -1505.28
 50
-55.004
 41
 1.0 
  0
TEXT
  8
W68LPLIFT
 62
1
 10
2346.200
 20
-9440.363
 30
-1503.226
 40
3.000
  1
BK -1503.226
 50
-55.004
 41
 1.0 
  0
TEXT
  8
W68LPLIFT
 62
1
 10
2358.726
 20
-9470.938
 30
-1501.696
 40
3.000
  1
BK -1501.696
 50
-55.004
 41
 1.0 
  0
TEXT
  8
W68LPLIFT
 62
1
 10
2371.209
 20
-9505.518
 30
-1500.545
 40
3.000
  1
BK -1500.545
 50
-55.004
 41
 1.0 
  0
POLYLINE
  8
W68LPLIFT
 62
1
 66
     1
 70
     8
  0
VERTEX
  8
W68LPLIFT
 62
1
 10
2283.267
 20
-9255.851
 30
-1511.925
 70
    32
  0
VERTEX
  8
W68LPLIFT
 62
1
 10
2290.997
 20
-9286.592
 30
-1510.675
 70
    32
  0
VERTEX
  8
W68LPLIFT
 62
1
 10
2296.660
 20
-9306.807
 30
-1510.839
 70
    32
  0
SEQEND
  8
W68LPLIFT
  0
POLYLINE
  8
W68LPLIFT
 62
1
 66
     1
 70
     8
  0
VERTEX
  8
W68LPLIFT
 62
1
 10
2281.096
 20
-9309.175
 30
-1511.327
 70
    32
  0
VERTEX
  8
W68LPLIFT
 62
1
 10
2277.706
 20
-9290.669
 30
-1511.220
 70
    32
  0
VERTEX
  8
W68LPLIFT
 62
1
 10
2269.828
 20
-9256.623
 30
-1510.382
 70
    32
  0
VERTEX
  8
W68LPLIFT
 62
1
 10
2269.055
 20
-9247.861
 30
-1511.047
 70
    32
  0
VERTEX
  8
W68LPLIFT
 62
1
 10
2264.886
 20
-9225.864
 30
-1511.621
 70
    32
  0
SEQEND
  8
W68LPLIFT
  0
POLYLINE
  8
W68LPLIFT
 62
6
 66
     1
 70
     8
  0
VERTEX
  8
W68LPLIFT
 62
6
 10
2262.826
 20
-9186.843
 30
-1506.498
 70
    32
  0
VERTEX
  8
W68LPLIFT
 62
6
 10
2273.209
 20
-9218.816
 30
-1505.155
 70
    32
  0
VERTEX
  8
W68LPLIFT
 62
6
 10
2274.241
 20
-9220.864
 30
-1506.900
 70
    32
  0
VERTEX
  8
W68LPLIFT
 62
6
 10
2278.974
 20
-9235.031
 30
-1505.000
 70
    32
  0
VERTEX
  8
W68LPLIFT
 62
6
 10
2286.844
 20
-9270.078
 30
-1503.624
 70
    32
  0
SEQEND
  8
W68LPLIFT
  0
POLYLINE
  8
W68LPLIFT
 62
6
 66
     1
 70
     8
  0
VERTEX
  8
W68LPLIFT
 62
6
 10
2264.558
 20
-9224.941
 30
-1506.991
 70
    32
  0
VERTEX
  8
W68LPLIFT
 62
6
 10
2256.097
 20
-9198.922
 30
-1507.203
 70
    32
  0
VERTEX
  8
W68LPLIFT
 62
6
 10
2250.320
 20
-9191.498
 30
-1506.420
 70
    32
  0
SEQEND
  8
W68LPLIFT
  0
POLYLINE
  8
W68LPLIFT
 62
7
 66
     1
 70
     8
  0
VERTEX
  8
W68LPLIFT
 62
7
 10
2018.007
 20
-8522.178
 30
-1436.565
 70
    32
  0
VERTEX
  8
W68LPLIFT
 62
7
 10
2022.149
 20
-8532.129
 30
-1437.479
 70
    32
  0
VERTEX
  8
W68LPLIFT
 62
7
 10
2027.786
 20
-8539.680
 30
-1440.117
 70
    32
  0
VERTEX
  8
W68LPLIFT
 62
7
 10
2035.309
 20
-8557.254
 30
-1436.278
 70
    32
  0
VERTEX
  8
W68LPLIFT
 62
7
 10
2042.743
 20
-8583.191
 30
-1434.530
 70
    32
  0
VERTEX
  8
W68LPLIFT
 62
7
 10
2047.708
 20
-8590.839
 30
-1436.459
 70
    32
  0
VERTEX
  8
W68LPLIFT
 62
7
 10
2051.064
 20
-8601.228
 30
-1436.112
 70
    32
  0
VERTEX
  8
W68LPLIFT
 62
7
 10
2054.628
 20
-8606.194
 30
-1437.004
 70
    32
  0
VERTEX
  8
W68LPLIFT
 62
7
 10
2055.582
 20
-8611.717
 30
-1437.344
 70
    32
  0
VERTEX
  8
W68LPLIFT
 62
7
 10
2057.890
 20
-8621.296
 30
-1437.191
 70
    32
  0
VERTEX
  8
W68LPLIFT
 62
7
 10
2058.398
 20
-8627.325
 30
-1435.559
 70
    32
  0
VERTEX
  8
W68LPLIFT
 62
7
 10
2060.516
 20
-8642.903
 30
-1436.539
 70
    32
  0
VERTEX
  8
W68LPLIFT
 62
7
 10
2065.755
 20
-8660.382
 30
-1435.454
 70
    32
  0
VERTEX
  8
W68LPLIFT
 62
7
 10
2069.987
 20
-8663.143
 30
-1435.573
 70
    32
  0
VERTEX
  8
W68LPLIFT
 62
7
 10
2072.948
 20
-8673.382
 30
-1434.310
 70
    32
  0
VERTEX
  8
W68LPLIFT
 62
7
 10
2072.748
 20
-8675.709
 30
-1434.744
 70
    32
  0
VERTEX
  8
W68LPLIFT
 62
7
 10
2073.446
 20
-8680.688
 30
-1434.613
 70
    32
  0
VERTEX
  8
W68LPLIFT
 62
7
 10
2077.277
 20
-8686.036
 30
-1436.332
 70
    32
  0
VERTEX
  8
W68LPLIFT
 62
7
 10
2080.748
 20
-8698.986
 30
-1437.111
 70
    32
  0
VERTEX
  8
W68LPLIFT
 62
7
 10
2083.314
 20
-8707.891
 30
-1436.560
 70
    32
  0
VERTEX
  8
W68LPLIFT
 62
7
 10
2083.430
 20
-8716.626
 30
-1436.836
 70
    32
  0
VERTEX
  8
W68LPLIFT
 62
7
 10
2081.947
 20
-8734.200
 30
-1437.000
 70
    32
  0
VERTEX
  8
W68LPLIFT
 62
7
 10
2086.851
 20
-8734.870
 30
-1437.000
 70
    32
  0
VERTEX
  8
W68LPLIFT
 62
7
 10
2091.130
 20
-8738.300
 30
-1436.253
 70
    32
  0
VERTEX
  8
W68LPLIFT
 62
7
 10
2096.745
 20
-8739.306
 30
-1436.286
 70
    32
  0
VERTEX
  8
W68LPLIFT
 62
7
 10
2098.358
 20
-8740.518
 30
-1436.664
 70
    32
  0
VERTEX
  8
W68LPLIFT
 62
7
 10
2101.570
 20
-8738.401
 30
-1438.665
 70
    32
  0
VERTEX
  8
W68LPLIFT
 62
7
 10
2098.597
 20
-8723.249
 30
-1436.928
 70
    32
  0
VERTEX
  8
W68LPLIFT
 62
7
 10
2098.133
 20
-8712.396
 30
-1436.213
 70
    32
  0
VERTEX
  8
W68LPLIFT
 62
7
 10
2098.195
 20
-8695.713
 30
-1436.305
 70
    32
  0
VERTEX
  8
W68LPLIFT
 62
7
 10
2094.537
 20
-8680.170
 30
-1435.954
 70
    32
  0
VERTEX
  8
W68LPLIFT
 62
7
 10
2091.918
 20
-8668.200
 30
-1433.460
 70
    32
  0
VERTEX
  8
W68LPLIFT
 62
7
 10
2088.751
 20
-8656.127
 30
-1436.020
 70
    32
  0
VERTEX
  8
W68LPLIFT
 62
7
 10
2085.385
 20
-8647.349
 30
-1435.451
 70
    32
  0
VERTEX
  8
W68LPLIFT
 62
7
 10
2076.827
 20
-8635.091
 30
-1435.337
 70
    32
  0
VERTEX
  8
W68LPLIFT
 62
7
 10
2071.990
 20
-8624.221
 30
-1437.506
 70
    32
  0
VERTEX
  8
W68LPLIFT
 62
7
 10
2069.103
 20
-8617.665
 30
-1435.908
 70
    32
  0
VERTEX
  8
W68LPLIFT
 62
7
 10
2067.039
 20
-8605.954
 30
-1434.764
 70
    32
  0
VERTEX
  8
W68LPLIFT
 62
7
 10
2060.706
 20
-8592.446
 30
-1435.843
 70
    32
  0
VERTEX
  8
W68LPLIFT
 62
7
 10
2060.590
 20
-8592.271
 30
-1435.906
 70
    32
  0
VERTEX
  8
W68LPLIFT
 62
7
 10
2057.373
 20
-8577.088
 30
-1434.573
 70
    32
  0
VERTEX
  8
W68LPLIFT
 62
7
 10
2045.822
 20
-8559.293
 30
-1436.156
 70
    32
  0
VERTEX
  8
W68LPLIFT
 62
7
 10
2041.877
 20
-8547.554
 30
-1436.462
 70
    32
  0
VERTEX
  8
W68LPLIFT
 62
7
 10
2034.761
 20
-8530.902
 30
-1437.901
 70
    32
  0
VERTEX
  8
W68LPLIFT
 62
7
 10
2030.493
 20
-8521.136
 30
-1437.377
 70
    32
  0
VERTEX
  8
W68LPLIFT
 62
7
 10
2026.628
 20
-8512.423
 30
-1437.433
 70
    32
  0
VERTEX
  8
W68LPLIFT
 62
7
 10
2023.658
 20
-8504.115
 30
-1438.896
 70
    32
  0
SEQEND
  8
W68LPLIFT
  0
TEXT
  8
W68LPLIFT
 62
7
 10
2016.865
 20
-8565.644
 30
-1436.185
 40
1.969
  1
-1436.1851
 50
20.911
 41
 1.0 
  0
TEXT
  8
W68LPLIFT
 62
7
 10
2023.374
 20
-8566.394
 30
-1436.185
 40
1.969
  1
ST-760T
 50
20.911
 41
 1.0 
  0
TEXT
  8
W68LPLIFT
 62
7
 10
2025.519
 20
-8572.943
 30
-1436.101
 40
1.969
  1
ST-760S
 50
20.911
 41
 1.0 
  0
TEXT
  8
W68LPLIFT
 62
7
 10
2023.116
 20
-8576.919
 30
-1436.101
 40
1.969
  1
-1436.101
 50
20.911
 41
 1.0 
  0
TEXT
  8
W68LPLIFT
 62
7
 10
2023.583
 20
-8586.362
 30
-1435.878
 40
1.969
  1
ST-774T
 50
23.640
 41
 1.0 
  0
TEXT
  8
W68LPLIFT
 62
7
 10
2019.892
 20
-8591.376
 30
-1435.878
 40
1.969
  1
-1435.8782
 50
23.640
 41
 1.0 
  0
POLYLINE
  8
W68LPLIFT
 62
7
 66
     1
 70
     9
  0
VERTEX
  8
W68LPLIFT
 62
7
 10
2046.849
 20
-8574.439
 30
-1435.878
 70
    32
  0
VERTEX
  8
W68LPLIFT
 62
7
 10
2044.849
 20
-8577.905
 30
-1435.878
 70
    32
  0
VERTEX
  8
W68LPLIFT
 62
7
 10
2048.849
 20
-8577.905
 30
-1435.878
 70
    32
  0
SEQEND
  8
W68LPLIFT
  0
POINT
  8
W68LPLIFT
 62
7
 10
2046.849
 20
-8576.172
 30
-1435.878
  0
POLYLINE
  8
W68LPLIFT
 62
7
 66
     1
 70
     9
  0
VERTEX
  8
W68LPLIFT
 62
7
 10
2041.988
 20
-8562.432
 30
-1436.101
 70
    32
  0
VERTEX
  8
W68LPLIFT
 62
7
 10
2039.988
 20
-8565.898
 30
-1436.101
 70
    32
  0
VERTEX
  8
W68LPLIFT
 62
7
 10
2043.988
 20
-8565.898
 30
-1436.101
 70
    32
  0
SEQEND
  8
W68LPLIFT
  0
POINT
  8
W68LPLIFT
 62
7
 10
2041.988
 20
-8564.165
 30
-1436.101
  0
POLYLINE
  8
W68LPLIFT
 62
7
 66
     1
 70
     9
  0
VERTEX
  8
W68LPLIFT
 62
7
 10
2040.515
 20
-8555.958
 30
-1436.185
 70
    32
  0
VERTEX
  8
W68LPLIFT
 62
7
 10
2038.515
 20
-8559.425
 30
-1436.185
 70
    32
  0
VERTEX
  8
W68LPLIFT
 62
7
 10
2042.515
 20
-8559.425
 30
-1436.185
 70
    32
  0
SEQEND
  8
W68LPLIFT
  0
POINT
  8
W68LPLIFT
 62
7
 10
2040.515
 20
-8557.692
 30
-1436.185
  0
POLYLINE
  8
W68LPLIFT
 62
2
 66
     1
 70
     8
  0
VERTEX
  8
W68LPLIFT
 62
2
 10
1712.396
 20
-7158.862
 30
-1532.506
 70
    32
  0
VERTEX
  8
W68LPLIFT
 62
2
 10
1714.283
 20
-7163.207
 30
-1532.402
 70
    32
  0
VERTEX
  8
W68LPLIFT
 62
2
 10
1717.678
 20
-7174.008
 30
-1531.438
 70
    32
  0
VERTEX
  8
W68LPLIFT
 62
2
 10
1725.244
 20
-7178.166
 30
-1530.744
 70
    32
  0
VERTEX
  8
W68LPLIFT
 62
2
 10
1733.332
 20
-7180.308
 30
-1528.978
 70
    32
  0
VERTEX
  8
W68LPLIFT
 62
2
 10
1740.798
 20
-7184.289
 30
-1527.928
 70
    32
  0
VERTEX
  8
W68LPLIFT
 62
2
 10
1744.304
 20
-7182.070
 30
-1528.033
 70
    32
  0
VERTEX
  8
W68LPLIFT
 62
2
 10
1748.087
 20
-7180.981
 30
-1528.378
 70
    32
  0
VERTEX
  8
W68LPLIFT
 62
2
 10
1752.151
 20
-7179.463
 30
-1526.615
 70
    32
  0
VERTEX
  8
W68LPLIFT
 62
2
 10
1756.335
 20
-7175.072
 30
-1527.130
 70
    32
  0
VERTEX
  8
W68LPLIFT
 62
2
 10
1757.162
 20
-7172.236
 30
-1525.643
 70
    32
  0
VERTEX
  8
W68LPLIFT
 62
2
 10
1752.288
 20
-7165.163
 30
-1525.159
 70
    32
  0
VERTEX
  8
W68LPLIFT
 62
2
 10
1749.380
 20
-7162.711
 30
-1525.255
 70
    32
  0
VERTEX
  8
W68LPLIFT
 62
2
 10
1745.767
 20
-7158.374
 30
-1525.248
 70
    32
  0
VERTEX
  8
W68LPLIFT
 62
2
 10
1741.705
 20
-7153.373
 30
-1524.212
 70
    32
  0
VERTEX
  8
W68LPLIFT
 62
2
 10
1743.040
 20
-7144.991
 30
-1523.931
 70
    32
  0
VERTEX
  8
W68LPLIFT
 62
2
 10
1744.846
 20
-7142.886
 30
-1523.238
 70
    32
  0
VERTEX
  8
W68LPLIFT
 62
2
 10
1743.917
 20
-7135.020
 30
-1523.351
 70
    32
  0
VERTEX
  8
W68LPLIFT
 62
2
 10
1748.180
 20
-7131.003
 30
-1523.498
 70
    32
  0
VERTEX
  8
W68LPLIFT
 62
2
 10
1746.808
 20
-7122.293
 30
-1520.942
 70
    32
  0
VERTEX
  8
W68LPLIFT
 62
2
 10
1748.825
 20
-7119.856
 30
-1520.008
 70
    32
  0
VERTEX
  8
W68LPLIFT
 62
2
 10
1746.793
 20
-7110.503
 30
-1519.489
 70
    32
  0
VERTEX
  8
W68LPLIFT
 62
2
 10
1749.070
 20
-7106.424
 30
-1519.783
 70
    32
  0
VERTEX
  8
W68LPLIFT
 62
2
 10
1748.047
 20
-7099.913
 30
-1518.364
 70
    32
  0
VERTEX
  8
W68LPLIFT
 62
2
 10
1743.889
 20
-7088.296
 30
-1518.830
 70
    32
  0
VERTEX
  8
W68LPLIFT
 62
2
 10
1747.982
 20
-7084.715
 30
-1517.458
 70
    32
  0
VERTEX
  8
W68LPLIFT
 62
2
 10
1752.532
 20
-7080.391
 30
-1516.465
 70
    32
  0
VERTEX
  8
W68LPLIFT
 62
2
 10
1754.360
 20
-7082.271
 30
-1516.930
 70
    32
  0
VERTEX
  8
W68LPLIFT
 62
2
 10
1757.546
 20
-7089.486
 30
-1515.188
 70
    32
  0
VERTEX
  8
W68LPLIFT
 62
2
 10
1760.140
 20
-7096.423
 30
-1516.674
 70
    32
  0
VERTEX
  8
W68LPLIFT
 62
2
 10
1767.019
 20
-7111.376
 30
-1518.125
 70
    32
  0
VERTEX
  8
W68LPLIFT
 62
2
 10
1768.055
 20
-7117.995
 30
-1520.758
 70
    32
  0
VERTEX
  8
W68LPLIFT
 62
2
 10
1775.478
 20
-7126.120
 30
-1522.169
 70
    32
  0
VERTEX
  8
W68LPLIFT
 62
2
 10
1776.715
 20
-7139.919
 30
-1523.353
 70
    32
  0
VERTEX
  8
W68LPLIFT
 62
2
 10
1773.812
 20
-7150.559
 30
-1526.929
 70
    32
  0
VERTEX
  8
W68LPLIFT
 62
2
 10
1769.678
 20
-7154.249
 30
-1525.558
 70
    32
  0
VERTEX
  8
W68LPLIFT
 62
2
 10
1772.398
 20
-7165.295
 30
-1525.264
 70
    32
  0
VERTEX
  8
W68LPLIFT
 62
2
 10
1769.026
 20
-7175.985
 30
-1526.076
 70
    32
  0
VERTEX
  8
W68LPLIFT
 62
2
 10
1767.169
 20
-7184.808
 30
-1524.260
 70
    32
  0
VERTEX
  8
W68LPLIFT
 62
2
 10
1770.563
 20
-7194.001
 30
-1522.986
 70
    32
  0
VERTEX
  8
W68LPLIFT
 62
2
 10
1775.006
 20
-7199.092
 30
-1526.114
 70
    32
  0
VERTEX
  8
W68LPLIFT
 62
2
 10
1779.441
 20
-7201.322
 30
-1524.371
 70
    32
  0
VERTEX
  8
W68LPLIFT
 62
2
 10
1780.152
 20
-7213.062
 30
-1522.786
 70
    32
  0
VERTEX
  8
W68LPLIFT
 62
2
 10
1778.877
 20
-7220.394
 30
-1523.456
 70
    32
  0
VERTEX
  8
W68LPLIFT
 62
2
 10
1773.662
 20
-7223.231
 30
-1522.670
 70
    32
  0
VERTEX
  8
W68LPLIFT
 62
2
 10
1765.621
 20
-7225.044
 30
-1526.100
 70
    32
  0
VERTEX
  8
W68LPLIFT
 62
2
 10
1760.159
 20
-7225.641
 30
-1525.669
 70
    32
  0
VERTEX
  8
W68LPLIFT
 62
2
 10
1752.962
 20
-7220.835
 30
-1525.496
 70
    32
  0
VERTEX
  8
W68LPLIFT
 62
2
 10
1750.304
 20
-7217.685
 30
-1525.761
 70
    32
  0
VERTEX
  8
W68LPLIFT
 62
2
 10
1748.858
 20
-7212.694
 30
-1525.841
 70
    32
  0
VERTEX
  8
W68LPLIFT
 62
2
 10
1747.148
 20
-7206.124
 30
-1526.180
 70
    32
  0
VERTEX
  8
W68LPLIFT
 62
2
 10
1744.062
 20
-7197.267
 30
-1528.673
 70
    32
  0
VERTEX
  8
W68LPLIFT
 62
2
 10
1738.356
 20
-7194.568
 30
-1528.097
 70
    32
  0
VERTEX
  8
W68LPLIFT
 62
2
 10
1730.090
 20
-7192.254
 30
-1529.282
 70
    32
  0
VERTEX
  8
W68LPLIFT
 62
2
 10
1716.531
 20
-7197.170
 30
-1531.261
 70
    32
  0
VERTEX
  8
W68LPLIFT
 62
2
 10
1713.993
 20
-7185.530
 30
-1530.918
 70
    32
  0
VERTEX
  8
W68LPLIFT
 62
2
 10
1709.036
 20
-7177.121
 30
-1530.248
 70
    32
  0
VERTEX
  8
W68LPLIFT
 62
2
 10
1702.086
 20
-7159.952
 30
-1531.528
 70
    32
  0
SEQEND
  8
W68LPLIFT
  0
POINT
  8
W68LPLIFT
 62
2
 10
1763.431
 20
-7174.239
 30
-1526.106
  0
POLYLINE
  8
W68LPLIFT
 62
2
 66
     1
 70
     9
  0
VERTEX
  8
W68LPLIFT
 62
2
 10
1763.431
 20
-7172.505
 30
-1526.106
 70
    32
  0
VERTEX
  8
W68LPLIFT
 62
2
 10
1761.431
 20
-7175.972
 30
-1526.106
 70
    32
  0
VERTEX
  8
W68LPLIFT
 62
2
 10
1765.431
 20
-7175.972
 30
-1526.106
 70
    32
  0
SEQEND
  8
W68LPLIFT
  0
POINT
  8
W68LPLIFT
 62
2
 10
1764.659
 20
-7182.876
 30
-1523.977
  0
POLYLINE
  8
W68LPLIFT
 62
2
 66
     1
 70
     9
  0
VERTEX
  8
W68LPLIFT
 62
2
 10
1764.659
 20
-7181.143
 30
-1523.977
 70
    32
  0
VERTEX
  8
W68LPLIFT
 62
2
 10
1762.659
 20
-7184.609
 30
-1523.977
 70
    32
  0
VERTEX
  8
W68LPLIFT
 62
2
 10
1766.659
 20
-7184.609
 30
-1523.977
 70
    32
  0
SEQEND
  8
W68LPLIFT
  0
TEXT
  8
W68LPLIFT
 62
2
 10
1774.596
 20
-7168.966
 30
-1526.106
 40
1.969
  1
-1526.1059
 41
 1.0 
  0
TEXT
  8
W68LPLIFT
 62
2
 10
1771.681
 20
-7173.022
 30
-1526.106
 40
1.969
  1
ST-917T
 41
 1.0 
  0
TEXT
  8
W68LPLIFT
 62
2
 10
1772.303
 20
-7182.674
 30
-1523.977
 40
1.969
  1
ST-917S
 41
 1.0 
  0
TEXT
  8
W68LPLIFT
 62
2
 10
1773.004
 20
-7187.541
 30
-1523.977
 40
1.969
  1
-1523.9771
 41
 1.0 
  0
POINT
  8
W68LPLIFT
 62
2
 10
1755.558
 20
-7194.498
 30
-1526.673
  0
POINT
  8
W68LPLIFT
 62
2
 10
1756.352
 20
-7196.627
 30
-1526.286
  0
POLYLINE
  8
W68LPLIFT
 62
2
 66
     1
 70
     9
  0
VERTEX
  8
W68LPLIFT
 62
2
 10
1756.352
 20
-7194.894
 30
-1526.286
 70
    32
  0
VERTEX
  8
W68LPLIFT
 62
2
 10
1754.352
 20
-7198.360
 30
-1526.286
 70
    32
  0
VERTEX
  8
W68LPLIFT
 62
2
 10
1758.352
 20
-7198.360
 30
-1526.286
 70
    32
  0
SEQEND
  8
W68LPLIFT
  0
POLYLINE
  8
W68LPLIFT
 62
2
 66
     1
 70
     9
  0
VERTEX
  8
W68LPLIFT
 62
2
 10
1755.558
 20
-7192.765
 30
-1526.673
 70
    32
  0
VERTEX
  8
W68LPLIFT
 62
2
 10
1753.558
 20
-7196.231
 30
-1526.673
 70
    32
  0
VERTEX
  8
W68LPLIFT
 62
2
 10
1757.558
 20
-7196.231
 30
-1526.673
 70
    32
  0
SEQEND
  8
W68LPLIFT
  0
TEXT
  8
W68LPLIFT
 62
2
 10
1753.904
 20
-7202.760
 30
-1526.286
 40
1.969
  1
ST-901T
 50
18.717
 41
 1.0 
  0
TEXT
  8
W68LPLIFT
 62
2
 10
1751.785
 20
-7206.897
 30
-1526.286
 40
1.969
  1
-1526.2861
 50
18.717
 41
 1.0 
  0
TEXT
  8
W68LPLIFT
 62
2
 10
1742.411
 20
-7191.437
 30
-1526.673
 40
1.969
  1
-1526.6734
 50
18.717
 41
 1.0 
  0
TEXT
  8
W68LPLIFT
 62
2
 10
1747.899
 20
-7192.301
 30
-1526.673
 40
1.969
  1
ST-901S
 50
18.717
 41
 1.0 
  0
POINT
  8
W68LPLIFT
 62
2
 10
1716.792
 20
-7177.579
 30
-1531.991
  0
POLYLINE
  8
W68LPLIFT
 62
2
 66
     1
 70
     9
  0
VERTEX
  8
W68LPLIFT
 62
2
 10
1716.792
 20
-7175.846
 30
-1531.991
 70
    32
  0
VERTEX
  8
W68LPLIFT
 62
2
 10
1714.792
 20
-7179.312
 30
-1531.991
 70
    32
  0
VERTEX
  8
W68LPLIFT
 62
2
 10
1718.792
 20
-7179.312
 30
-1531.991
 70
    32
  0
SEQEND
  8
W68LPLIFT
  0
TEXT
  8
W68LPLIFT
 62
2
 10
1723.043
 20
-7177.232
 30
-1531.991
 40
1.969
  1
-1531.9908
 50
18.717
 41
 1.0 
  0
TEXT
  8
W68LPLIFT
 62
2
 10
1723.207
 20
-7173.762
 30
-1531.991
 40
1.969
  1
ST-777T
 50
18.717
 41
 1.0 
  0
TEXT
  8
W68LPLIFT
 62
2
 10
1721.659
 20
-7169.770
 30
1000.000
 40
1.969
  1
--1543.48 sol.
 50
18.260
 41
 1.0 
  0
POLYLINE
  8
W68LPLIFT
 62
8
 66
     1
 70
     8
  0
VERTEX
  8
W68LPLIFT
 62
8
 10
2280.015
 20
-9241.614
 30
-1520.977
 70
    32
  0
VERTEX
  8
W68LPLIFT
 62
8
 10
2288.612
 20
-9275.336
 30
-1520.977
 70
    32
  0
VERTEX
  8
W68LPLIFT
 62
8
 10
2296.168
 20
-9292.408
 30
-1520.977
 70
    32
  0
VERTEX
  8
W68LPLIFT
 62
8
 10
2307.582
 20
-9311.392
 30
-1520.977
 70
    32
  0
VERTEX
  8
W68LPLIFT
 62
8
 10
2314.755
 20
-9328.450
 30
-1520.977
 70
    32
  0
VERTEX
  8
W68LPLIFT
 62
8
 10
2322.073
 20
-9352.822
 30
-1520.977
 70
    32
  0
VERTEX
  8
W68LPLIFT
 62
8
 10
2328.964
 20
-9373.321
 30
-1520.977
 70
    32
  0
VERTEX
  8
W68LPLIFT
 62
8
 10
2329.751
 20
-9373.851
 30
-1520.977
 70
    32
  0
VERTEX
  8
W68LPLIFT
 62
8
 10
2335.916
 20
-9383.614
 30
-1520.977
 70
    32
  0
VERTEX
  8
W68LPLIFT
 62
8
 10
2338.635
 20
-9396.075
 30
-1520.977
 70
    32
  0
VERTEX
  8
W68LPLIFT
 62
8
 10
2345.577
 20
-9412.089
 30
-1520.977
 70
    32
  0
VERTEX
  8
W68LPLIFT
 62
8
 10
2352.471
 20
-9423.821
 30
-1520.977
 70
    32
  0
VERTEX
  8
W68LPLIFT
 62
8
 10
2358.424
 20
-9440.482
 30
-1520.977
 70
    32
  0
VERTEX
  8
W68LPLIFT
 62
8
 10
2366.307
 20
-9456.833
 30
-1520.977
 70
    32
  0
VERTEX
  8
W68LPLIFT
 62
8
 10
2372.796
 20
-9472.269
 30
-1520.977
 70
    32
  0
VERTEX
  8
W68LPLIFT
 62
8
 10
2380.005
 20
-9479.088
 30
-1520.977
 70
    32
  0
VERTEX
  8
W68LPLIFT
 62
8
 10
2383.936
 20
-9490.519
 30
-1520.977
 70
    32
  0
VERTEX
  8
W68LPLIFT
 62
8
 10
2389.209
 20
-9516.316
 30
-1520.977
 70
    32
  0
VERTEX
  8
W68LPLIFT
 62
8
 10
2392.348
 20
-9529.411
 30
-1520.977
 70
    32
  0
VERTEX
  8
W68LPLIFT
 62
8
 10
2394.271
 20
-9539.346
 30
-1520.977
 70
    32
  0
VERTEX
  8
W68LPLIFT
 62
8
 10
2382.436
 20
-9541.951
 30
-1520.977
 70
    32
  0
VERTEX
  8
W68LPLIFT
 62
8
 10
2379.546
 20
-9532.473
 30
-1520.977
 70
    32
  0
VERTEX
  8
W68LPLIFT
 62
8
 10
2375.103
 20
-9519.226
 30
-1520.977
 70
    32
  0
VERTEX
  8
W68LPLIFT
 62
8
 10
2371.765
 20
-9500.673
 30
-1520.977
 70
    32
  0
VERTEX
  8
W68LPLIFT
 62
8
 10
2368.356
 20
-9485.213
 30
-1520.977
 70
    32
  0
VERTEX
  8
W68LPLIFT
 62
8
 10
2363.670
 20
-9479.006
 30
-1520.977
 70
    32
  0
VERTEX
  8
W68LPLIFT
 62
8
 10
2359.716
 20
-9477.163
 30
-1520.977
 70
    32
  0
VERTEX
  8
W68LPLIFT
 62
8
 10
2353.369
 20
-9459.369
 30
-1520.977
 70
    32
  0
VERTEX
  8
W68LPLIFT
 62
8
 10
2346.841
 20
-9441.650
 30
-1520.977
 70
    32
  0
VERTEX
  8
W68LPLIFT
 62
8
 10
2343.681
 20
-9439.687
 30
-1520.977
 70
    32
  0
VERTEX
  8
W68LPLIFT
 62
8
 10
2332.544
 20
-9439.556
 30
-1520.977
 70
    32
  0
VERTEX
  8
W68LPLIFT
 62
8
 10
2330.650
 20
-9431.191
 30
-1520.977
 70
    32
  0
VERTEX
  8
W68LPLIFT
 62
8
 10
2326.309
 20
-9417.628
 30
-1520.977
 70
    32
  0
VERTEX
  8
W68LPLIFT
 62
8
 10
2317.288
 20
-9396.214
 30
-1520.977
 70
    32
  0
VERTEX
  8
W68LPLIFT
 62
8
 10
2316.381
 20
-9393.896
 30
-1520.977
 70
    32
  0
VERTEX
  8
W68LPLIFT
 62
8
 10
2303.900
 20
-9348.901
 30
-1520.977
 70
    32
  0
VERTEX
  8
W68LPLIFT
 62
8
 10
2301.127
 20
-9332.603
 30
-1520.977
 70
    32
  0
VERTEX
  8
W68LPLIFT
 62
8
 10
2292.612
 20
-9315.452
 30
-1520.977
 70
    32
  0
VERTEX
  8
W68LPLIFT
 62
8
 10
2281.211
 20
-9293.256
 30
-1520.977
 70
    32
  0
VERTEX
  8
W68LPLIFT
 62
8
 10
2270.002
 20
-9243.898
 30
-1520.977
 70
    32
  0
SEQEND
  8
W68LPLIFT
  0
POLYLINE
  8
W68LPLIFT
 62
18
 66
     1
 70
     8
  0
VERTEX
  8
W68LPLIFT
 62
18
 10
2366.636
 20
-9455.566
 30
-1513.103
 70
    32
  0
VERTEX
  8
W68LPLIFT
 62
18
 10
2377.047
 20
-9480.028
 30
-1513.103
 70
    32
  0
VERTEX
  8
W68LPLIFT
 62
18
 10
2389.620
 20
-9539.377
 30
-1513.103
 70
    32
  0
VERTEX
  8
W68LPLIFT
 62
18
 10
2376.017
 20
-9542.675
 30
-1513.103
 70
    32
  0
VERTEX
  8
W68LPLIFT
 62
18
 10
2368.140
 20
-9497.936
 30
-1513.103
 70
    32
  0
VERTEX
  8
W68LPLIFT
 62
18
 10
2365.296
 20
-9485.488
 30
-1513.103
 70
    32
  0
VERTEX
  8
W68LPLIFT
 62
18
 10
2357.214
 20
-9474.925
 30
-1513.103
 70
    32
  0
VERTEX
  8
W68LPLIFT
 62
18
 10
2351.891
 20
-9458.175
 30
-1513.103
 70
    32
  0
SEQEND
  8
W68LPLIFT
  0
TEXT
  8
W68LPLIFT
 62
18
 10
2295.480
 20
-9498.998
 30
-1513.103
 40
1.969
  1
Levelling cut @~-1513 BK
 50
0.593
 41
 1.0 
  0
TEXT
  8
W68LPLIFT
 62
24
 10
2415.488
 20
-9505.659
 30
-1520.977
 40
1.969
  1
Took up bottom @~-1525' BK
 50
0.200
 41
 1.0 
  0
ENDSEC
  0
EOF
