999
********************************
999
*   DXF File - Entities Only   *
999
*        3D Data Format        *
999
*     Output from ENVISAGE     *
999
*     02-Jan-2008 11:21:20     *
999
********************************
  0
SECTION 
  2
HEADER
  9
$ACADVER
  1
AC1009
  9
$EXTMIN
 10
-290000.000
 20
-250000.000
 30
-4000.000
  9
$EXTMAX
 10
320000.000
 20
160000.000
 30
6000.000
  0
ENDSEC
  0
SECTION
  2
ENTITIES
  0
POLYLINE
  8
XOLDLIFT
 62
6
 66
     1
 70
     8
  0
VERTEX
  8
XOLDLIFT
 62
6
 10
1355.829
 20
-5527.896
 30
-1651.000
 70
    32
  0
VERTEX
  8
XOLDLIFT
 62
6
 10
1337.797
 20
-5519.868
 30
-1651.000
 70
    32
  0
VERTEX
  8
XOLDLIFT
 62
6
 10
1333.901
 20
-5517.990
 30
-1651.000
 70
    32
  0
VERTEX
  8
XOLDLIFT
 62
6
 10
1321.943
 20
-5512.855
 30
-1651.000
 70
    32
  0
VERTEX
  8
XOLDLIFT
 62
6
 10
1279.922
 20
-5487.727
 30
-1651.000
 70
    32
  0
VERTEX
  8
XOLDLIFT
 62
6
 10
1259.551
 20
-5483.650
 30
-1651.000
 70
    32
  0
VERTEX
  8
XOLDLIFT
 62
6
 10
1244.292
 20
-5481.508
 30
-1651.000
 70
    32
  0
VERTEX
  8
XOLDLIFT
 62
6
 10
1233.052
 20
-5483.188
 30
-1651.000
 70
    32
  0
VERTEX
  8
XOLDLIFT
 62
6
 10
1224.064
 20
-5481.336
 30
-1651.000
 70
    32
  0
VERTEX
  8
XOLDLIFT
 62
6
 10
1221.277
 20
-5479.993
 30
-1651.000
 70
    32
  0
VERTEX
  8
XOLDLIFT
 62
6
 10
1221.277
 20
-5479.993
 30
-1651.000
 70
    32
  0
VERTEX
  8
XOLDLIFT
 62
6
 10
1219.049
 20
-5474.703
 30
-1651.000
 70
    32
  0
VERTEX
  8
XOLDLIFT
 62
6
 10
1211.285
 20
-5474.861
 30
-1651.000
 70
    32
  0
VERTEX
  8
XOLDLIFT
 62
6
 10
1199.059
 20
-5482.382
 30
-1651.000
 70
    32
  0
VERTEX
  8
XOLDLIFT
 62
6
 10
1202.906
 20
-5491.741
 30
-1651.000
 70
    32
  0
VERTEX
  8
XOLDLIFT
 62
6
 10
1208.524
 20
-5506.268
 30
-1651.000
 70
    32
  0
VERTEX
  8
XOLDLIFT
 62
6
 10
1219.938
 20
-5521.290
 30
-1651.000
 70
    32
  0
VERTEX
  8
XOLDLIFT
 62
6
 10
1209.061
 20
-5523.975
 30
-1651.000
 70
    32
  0
VERTEX
  8
XOLDLIFT
 62
6
 10
1205.595
 20
-5519.205
 30
-1651.000
 70
    32
  0
VERTEX
  8
XOLDLIFT
 62
6
 10
1193.735
 20
-5524.125
 30
-1651.000
 70
    32
  0
VERTEX
  8
XOLDLIFT
 62
6
 10
1194.027
 20
-5531.822
 30
-1651.000
 70
    32
  0
VERTEX
  8
XOLDLIFT
 62
6
 10
1199.443
 20
-5548.554
 30
-1651.000
 70
    32
  0
VERTEX
  8
XOLDLIFT
 62
6
 10
1201.236
 20
-5553.679
 30
-1651.000
 70
    32
  0
VERTEX
  8
XOLDLIFT
 62
6
 10
1210.192
 20
-5576.184
 30
-1651.000
 70
    32
  0
VERTEX
  8
XOLDLIFT
 62
6
 10
1222.474
 20
-5585.240
 30
-1651.000
 70
    32
  0
VERTEX
  8
XOLDLIFT
 62
6
 10
1224.849
 20
-5583.708
 30
-1651.000
 70
    32
  0
VERTEX
  8
XOLDLIFT
 62
6
 10
1232.431
 20
-5588.955
 30
-1651.000
 70
    32
  0
VERTEX
  8
XOLDLIFT
 62
6
 10
1237.963
 20
-5584.702
 30
-1651.000
 70
    32
  0
VERTEX
  8
XOLDLIFT
 62
6
 10
1242.276
 20
-5584.673
 30
-1651.000
 70
    32
  0
VERTEX
  8
XOLDLIFT
 62
6
 10
1253.263
 20
-5587.798
 30
-1651.000
 70
    32
  0
VERTEX
  8
XOLDLIFT
 62
6
 10
1259.324
 20
-5591.012
 30
-1651.000
 70
    32
  0
VERTEX
  8
XOLDLIFT
 62
6
 10
1270.280
 20
-5596.229
 30
-1651.000
 70
    32
  0
VERTEX
  8
XOLDLIFT
 62
6
 10
1279.476
 20
-5585.197
 30
-1651.000
 70
    32
  0
VERTEX
  8
XOLDLIFT
 62
6
 10
1272.576
 20
-5574.948
 30
-1651.000
 70
    32
  0
VERTEX
  8
XOLDLIFT
 62
6
 10
1269.884
 20
-5567.346
 30
-1651.000
 70
    32
  0
VERTEX
  8
XOLDLIFT
 62
6
 10
1261.735
 20
-5559.525
 30
-1651.000
 70
    32
  0
VERTEX
  8
XOLDLIFT
 62
6
 10
1251.702
 20
-5549.790
 30
-1651.000
 70
    32
  0
VERTEX
  8
XOLDLIFT
 62
6
 10
1251.705
 20
-5546.361
 30
-1651.000
 70
    32
  0
VERTEX
  8
XOLDLIFT
 62
6
 10
1253.972
 20
-5542.778
 30
-1651.000
 70
    32
  0
VERTEX
  8
XOLDLIFT
 62
6
 10
1276.170
 20
-5532.942
 30
-1651.000
 70
    32
  0
VERTEX
  8
XOLDLIFT
 62
6
 10
1299.682
 20
-5524.202
 30
-1651.000
 70
    32
  0
VERTEX
  8
XOLDLIFT
 62
6
 10
1312.709
 20
-5524.525
 30
-1651.000
 70
    32
  0
VERTEX
  8
XOLDLIFT
 62
6
 10
1326.528
 20
-5525.880
 30
-1651.000
 70
    32
  0
VERTEX
  8
XOLDLIFT
 62
6
 10
1333.617
 20
-5528.953
 30
-1651.000
 70
    32
  0
VERTEX
  8
XOLDLIFT
 62
6
 10
1352.061
 20
-5536.608
 30
-1651.000
 70
    32
  0
SEQEND
  8
XOLDLIFT
  0
POLYLINE
  8
XOLDLIFT
 62
6
 66
     1
 70
     9
  0
VERTEX
  8
XOLDLIFT
 62
6
 10
1276.814
 20
-5498.022
 30
-1651.000
 70
    32
  0
VERTEX
  8
XOLDLIFT
 62
6
 10
1297.137
 20
-5510.142
 30
-1651.000
 70
    32
  0
VERTEX
  8
XOLDLIFT
 62
6
 10
1293.634
 20
-5516.377
 30
-1651.000
 70
    32
  0
VERTEX
  8
XOLDLIFT
 62
6
 10
1293.634
 20
-5516.377
 30
-1651.000
 70
    32
  0
VERTEX
  8
XOLDLIFT
 62
6
 10
1258.728
 20
-5528.784
 30
-1651.000
 70
    32
  0
VERTEX
  8
XOLDLIFT
 62
6
 10
1252.932
 20
-5531.673
 30
-1651.000
 70
    32
  0
VERTEX
  8
XOLDLIFT
 62
6
 10
1251.740
 20
-5532.053
 30
-1651.000
 70
    32
  0
VERTEX
  8
XOLDLIFT
 62
6
 10
1248.787
 20
-5530.671
 30
-1651.000
 70
    32
  0
VERTEX
  8
XOLDLIFT
 62
6
 10
1245.955
 20
-5524.851
 30
-1651.000
 70
    32
  0
VERTEX
  8
XOLDLIFT
 62
6
 10
1244.512
 20
-5518.885
 30
-1651.000
 70
    32
  0
VERTEX
  8
XOLDLIFT
 62
6
 10
1242.667
 20
-5514.569
 30
-1651.000
 70
    32
  0
VERTEX
  8
XOLDLIFT
 62
6
 10
1240.900
 20
-5508.362
 30
-1651.000
 70
    32
  0
VERTEX
  8
XOLDLIFT
 62
6
 10
1236.196
 20
-5506.011
 30
-1651.000
 70
    32
  0
VERTEX
  8
XOLDLIFT
 62
6
 10
1234.396
 20
-5503.922
 30
-1651.000
 70
    32
  0
VERTEX
  8
XOLDLIFT
 62
6
 10
1234.513
 20
-5500.342
 30
-1651.000
 70
    32
  0
VERTEX
  8
XOLDLIFT
 62
6
 10
1242.965
 20
-5492.999
 30
-1651.000
 70
    32
  0
VERTEX
  8
XOLDLIFT
 62
6
 10
1257.316
 20
-5493.876
 30
-1651.000
 70
    32
  0
VERTEX
  8
XOLDLIFT
 62
6
 10
1267.692
 20
-5496.328
 30
-1651.000
 70
    32
  0
SEQEND
  8
XOLDLIFT
  0
POLYLINE
  8
XOLDLIFT
 62
6
 66
     1
 70
     9
  0
VERTEX
  8
XOLDLIFT
 62
6
 10
1276.995
 20
-5565.294
 30
-1651.000
 70
    32
  0
VERTEX
  8
XOLDLIFT
 62
6
 10
1276.981
 20
-5564.989
 30
-1651.000
 70
    32
  0
VERTEX
  8
XOLDLIFT
 62
6
 10
1276.941
 20
-5564.687
 30
-1651.000
 70
    32
  0
VERTEX
  8
XOLDLIFT
 62
6
 10
1276.875
 20
-5564.388
 30
-1651.000
 70
    32
  0
VERTEX
  8
XOLDLIFT
 62
6
 10
1276.784
 20
-5564.097
 30
-1651.000
 70
    32
  0
VERTEX
  8
XOLDLIFT
 62
6
 10
1276.667
 20
-5563.815
 30
-1651.000
 70
    32
  0
VERTEX
  8
XOLDLIFT
 62
6
 10
1276.526
 20
-5563.544
 30
-1651.000
 70
    32
  0
VERTEX
  8
XOLDLIFT
 62
6
 10
1276.362
 20
-5563.287
 30
-1651.000
 70
    32
  0
VERTEX
  8
XOLDLIFT
 62
6
 10
1276.176
 20
-5563.044
 30
-1651.000
 70
    32
  0
VERTEX
  8
XOLDLIFT
 62
6
 10
1275.969
 20
-5562.819
 30
-1651.000
 70
    32
  0
VERTEX
  8
XOLDLIFT
 62
6
 10
1275.744
 20
-5562.613
 30
-1651.000
 70
    32
  0
VERTEX
  8
XOLDLIFT
 62
6
 10
1275.502
 20
-5562.427
 30
-1651.000
 70
    32
  0
VERTEX
  8
XOLDLIFT
 62
6
 10
1275.245
 20
-5562.263
 30
-1651.000
 70
    32
  0
VERTEX
  8
XOLDLIFT
 62
6
 10
1274.974
 20
-5562.122
 30
-1651.000
 70
    32
  0
VERTEX
  8
XOLDLIFT
 62
6
 10
1274.692
 20
-5562.005
 30
-1651.000
 70
    32
  0
VERTEX
  8
XOLDLIFT
 62
6
 10
1274.400
 20
-5561.914
 30
-1651.000
 70
    32
  0
VERTEX
  8
XOLDLIFT
 62
6
 10
1274.102
 20
-5561.847
 30
-1651.000
 70
    32
  0
VERTEX
  8
XOLDLIFT
 62
6
 10
1273.799
 20
-5561.808
 30
-1651.000
 70
    32
  0
VERTEX
  8
XOLDLIFT
 62
6
 10
1273.494
 20
-5561.794
 30
-1651.000
 70
    32
  0
VERTEX
  8
XOLDLIFT
 62
6
 10
1273.189
 20
-5561.808
 30
-1651.000
 70
    32
  0
VERTEX
  8
XOLDLIFT
 62
6
 10
1272.887
 20
-5561.848
 30
-1651.000
 70
    32
  0
VERTEX
  8
XOLDLIFT
 62
6
 10
1272.589
 20
-5561.914
 30
-1651.000
 70
    32
  0
VERTEX
  8
XOLDLIFT
 62
6
 10
1272.297
 20
-5562.005
 30
-1651.000
 70
    32
  0
VERTEX
  8
XOLDLIFT
 62
6
 10
1272.015
 20
-5562.122
 30
-1651.000
 70
    32
  0
VERTEX
  8
XOLDLIFT
 62
6
 10
1271.744
 20
-5562.263
 30
-1651.000
 70
    32
  0
VERTEX
  8
XOLDLIFT
 62
6
 10
1271.487
 20
-5562.427
 30
-1651.000
 70
    32
  0
VERTEX
  8
XOLDLIFT
 62
6
 10
1271.245
 20
-5562.613
 30
-1651.000
 70
    32
  0
VERTEX
  8
XOLDLIFT
 62
6
 10
1271.020
 20
-5562.820
 30
-1651.000
 70
    32
  0
VERTEX
  8
XOLDLIFT
 62
6
 10
1270.813
 20
-5563.045
 30
-1651.000
 70
    32
  0
VERTEX
  8
XOLDLIFT
 62
6
 10
1270.627
 20
-5563.287
 30
-1651.000
 70
    32
  0
VERTEX
  8
XOLDLIFT
 62
6
 10
1270.463
 20
-5563.545
 30
-1651.000
 70
    32
  0
VERTEX
  8
XOLDLIFT
 62
6
 10
1270.322
 20
-5563.816
 30
-1651.000
 70
    32
  0
VERTEX
  8
XOLDLIFT
 62
6
 10
1270.206
 20
-5564.098
 30
-1651.000
 70
    32
  0
VERTEX
  8
XOLDLIFT
 62
6
 10
1270.114
 20
-5564.389
 30
-1651.000
 70
    32
  0
VERTEX
  8
XOLDLIFT
 62
6
 10
1270.048
 20
-5564.687
 30
-1651.000
 70
    32
  0
VERTEX
  8
XOLDLIFT
 62
6
 10
1270.008
 20
-5564.990
 30
-1651.000
 70
    32
  0
VERTEX
  8
XOLDLIFT
 62
6
 10
1269.995
 20
-5565.295
 30
-1651.000
 70
    32
  0
VERTEX
  8
XOLDLIFT
 62
6
 10
1270.008
 20
-5565.600
 30
-1651.000
 70
    32
  0
VERTEX
  8
XOLDLIFT
 62
6
 10
1270.048
 20
-5565.903
 30
-1651.000
 70
    32
  0
VERTEX
  8
XOLDLIFT
 62
6
 10
1270.114
 20
-5566.201
 30
-1651.000
 70
    32
  0
VERTEX
  8
XOLDLIFT
 62
6
 10
1270.206
 20
-5566.492
 30
-1651.000
 70
    32
  0
VERTEX
  8
XOLDLIFT
 62
6
 10
1270.323
 20
-5566.774
 30
-1651.000
 70
    32
  0
VERTEX
  8
XOLDLIFT
 62
6
 10
1270.464
 20
-5567.045
 30
-1651.000
 70
    32
  0
VERTEX
  8
XOLDLIFT
 62
6
 10
1270.628
 20
-5567.302
 30
-1651.000
 70
    32
  0
VERTEX
  8
XOLDLIFT
 62
6
 10
1270.814
 20
-5567.544
 30
-1651.000
 70
    32
  0
VERTEX
  8
XOLDLIFT
 62
6
 10
1271.020
 20
-5567.770
 30
-1651.000
 70
    32
  0
VERTEX
  8
XOLDLIFT
 62
6
 10
1271.245
 20
-5567.976
 30
-1651.000
 70
    32
  0
VERTEX
  8
XOLDLIFT
 62
6
 10
1271.488
 20
-5568.162
 30
-1651.000
 70
    32
  0
VERTEX
  8
XOLDLIFT
 62
6
 10
1271.745
 20
-5568.326
 30
-1651.000
 70
    32
  0
VERTEX
  8
XOLDLIFT
 62
6
 10
1272.016
 20
-5568.467
 30
-1651.000
 70
    32
  0
VERTEX
  8
XOLDLIFT
 62
6
 10
1272.298
 20
-5568.583
 30
-1651.000
 70
    32
  0
VERTEX
  8
XOLDLIFT
 62
6
 10
1272.589
 20
-5568.675
 30
-1651.000
 70
    32
  0
VERTEX
  8
XOLDLIFT
 62
6
 10
1272.888
 20
-5568.741
 30
-1651.000
 70
    32
  0
VERTEX
  8
XOLDLIFT
 62
6
 10
1273.190
 20
-5568.781
 30
-1651.000
 70
    32
  0
VERTEX
  8
XOLDLIFT
 62
6
 10
1273.495
 20
-5568.794
 30
-1651.000
 70
    32
  0
VERTEX
  8
XOLDLIFT
 62
6
 10
1273.800
 20
-5568.781
 30
-1651.000
 70
    32
  0
VERTEX
  8
XOLDLIFT
 62
6
 10
1274.103
 20
-5568.741
 30
-1651.000
 70
    32
  0
VERTEX
  8
XOLDLIFT
 62
6
 10
1274.401
 20
-5568.675
 30
-1651.000
 70
    32
  0
VERTEX
  8
XOLDLIFT
 62
6
 10
1274.692
 20
-5568.583
 30
-1651.000
 70
    32
  0
VERTEX
  8
XOLDLIFT
 62
6
 10
1274.974
 20
-5568.466
 30
-1651.000
 70
    32
  0
VERTEX
  8
XOLDLIFT
 62
6
 10
1275.245
 20
-5568.325
 30
-1651.000
 70
    32
  0
VERTEX
  8
XOLDLIFT
 62
6
 10
1275.503
 20
-5568.161
 30
-1651.000
 70
    32
  0
VERTEX
  8
XOLDLIFT
 62
6
 10
1275.745
 20
-5567.975
 30
-1651.000
 70
    32
  0
VERTEX
  8
XOLDLIFT
 62
6
 10
1275.970
 20
-5567.769
 30
-1651.000
 70
    32
  0
VERTEX
  8
XOLDLIFT
 62
6
 10
1276.176
 20
-5567.543
 30
-1651.000
 70
    32
  0
VERTEX
  8
XOLDLIFT
 62
6
 10
1276.362
 20
-5567.301
 30
-1651.000
 70
    32
  0
VERTEX
  8
XOLDLIFT
 62
6
 10
1276.526
 20
-5567.044
 30
-1651.000
 70
    32
  0
VERTEX
  8
XOLDLIFT
 62
6
 10
1276.667
 20
-5566.773
 30
-1651.000
 70
    32
  0
VERTEX
  8
XOLDLIFT
 62
6
 10
1276.784
 20
-5566.491
 30
-1651.000
 70
    32
  0
VERTEX
  8
XOLDLIFT
 62
6
 10
1276.876
 20
-5566.199
 30
-1651.000
 70
    32
  0
VERTEX
  8
XOLDLIFT
 62
6
 10
1276.942
 20
-5565.901
 30
-1651.000
 70
    32
  0
VERTEX
  8
XOLDLIFT
 62
6
 10
1276.981
 20
-5565.598
 30
-1651.000
 70
    32
  0
SEQEND
  8
XOLDLIFT
  0
POLYLINE
  8
XOLDLIFT
 62
6
 66
     1
 70
     8
  0
VERTEX
  8
XOLDLIFT
 62
6
 10
1902.337
 20
-8152.035
 30
-1590.000
 70
    32
  0
VERTEX
  8
XOLDLIFT
 62
6
 10
1928.706
 20
-8132.953
 30
-1590.000
 70
    32
  0
VERTEX
  8
XOLDLIFT
 62
6
 10
1934.616
 20
-8131.136
 30
-1590.000
 70
    32
  0
VERTEX
  8
XOLDLIFT
 62
6
 10
1954.986
 20
-8123.565
 30
-1590.000
 70
    32
  0
VERTEX
  8
XOLDLIFT
 62
6
 10
1978.203
 20
-8112.315
 30
-1590.000
 70
    32
  0
VERTEX
  8
XOLDLIFT
 62
6
 10
1984.408
 20
-8106.424
 30
-1590.000
 70
    32
  0
VERTEX
  8
XOLDLIFT
 62
6
 10
2014.573
 20
-8080.014
 30
-1590.000
 70
    32
  0
VERTEX
  8
XOLDLIFT
 62
6
 10
2031.127
 20
-8067.686
 30
-1590.000
 70
    32
  0
VERTEX
  8
XOLDLIFT
 62
6
 10
2036.202
 20
-8063.051
 30
-1590.000
 70
    32
  0
VERTEX
  8
XOLDLIFT
 62
6
 10
2041.238
 20
-8052.490
 30
-1590.000
 70
    32
  0
VERTEX
  8
XOLDLIFT
 62
6
 10
2046.776
 20
-8051.412
 30
-1590.000
 70
    32
  0
VERTEX
  8
XOLDLIFT
 62
6
 10
2053.558
 20
-8047.677
 30
-1590.000
 70
    32
  0
VERTEX
  8
XOLDLIFT
 62
6
 10
2061.322
 20
-8052.218
 30
-1590.000
 70
    32
  0
VERTEX
  8
XOLDLIFT
 62
6
 10
2061.848
 20
-8051.921
 30
-1590.000
 70
    32
  0
VERTEX
  8
XOLDLIFT
 62
6
 10
2084.164
 20
-8043.996
 30
-1590.000
 70
    32
  0
VERTEX
  8
XOLDLIFT
 62
6
 10
2089.946
 20
-8049.244
 30
-1590.000
 70
    32
  0
VERTEX
  8
XOLDLIFT
 62
6
 10
2089.230
 20
-8062.446
 30
-1590.000
 70
    32
  0
VERTEX
  8
XOLDLIFT
 62
6
 10
2080.983
 20
-8070.869
 30
-1590.000
 70
    32
  0
VERTEX
  8
XOLDLIFT
 62
6
 10
2071.213
 20
-8075.142
 30
-1590.000
 70
    32
  0
VERTEX
  8
XOLDLIFT
 62
6
 10
2068.344
 20
-8081.747
 30
-1590.000
 70
    32
  0
VERTEX
  8
XOLDLIFT
 62
6
 10
2067.480
 20
-8090.540
 30
-1590.000
 70
    32
  0
VERTEX
  8
XOLDLIFT
 62
6
 10
2059.769
 20
-8089.881
 30
-1590.000
 70
    32
  0
VERTEX
  8
XOLDLIFT
 62
6
 10
2052.137
 20
-8087.305
 30
-1590.000
 70
    32
  0
VERTEX
  8
XOLDLIFT
 62
6
 10
2055.369
 20
-8070.811
 30
-1590.000
 70
    32
  0
VERTEX
  8
XOLDLIFT
 62
6
 10
2052.197
 20
-8065.656
 30
-1590.000
 70
    32
  0
VERTEX
  8
XOLDLIFT
 62
6
 10
2048.519
 20
-8066.024
 30
-1590.000
 70
    32
  0
VERTEX
  8
XOLDLIFT
 62
6
 10
2045.284
 20
-8068.377
 30
-1590.000
 70
    32
  0
VERTEX
  8
XOLDLIFT
 62
6
 10
2029.741
 20
-8081.865
 30
-1590.000
 70
    32
  0
VERTEX
  8
XOLDLIFT
 62
6
 10
2010.420
 20
-8098.050
 30
-1590.000
 70
    32
  0
VERTEX
  8
XOLDLIFT
 62
6
 10
1994.292
 20
-8112.709
 30
-1590.000
 70
    32
  0
VERTEX
  8
XOLDLIFT
 62
6
 10
1987.790
 20
-8119.368
 30
-1590.000
 70
    32
  0
VERTEX
  8
XOLDLIFT
 62
6
 10
1981.028
 20
-8124.332
 30
-1590.000
 70
    32
  0
VERTEX
  8
XOLDLIFT
 62
6
 10
1966.139
 20
-8130.989
 30
-1590.000
 70
    32
  0
VERTEX
  8
XOLDLIFT
 62
6
 10
1932.343
 20
-8142.949
 30
-1590.000
 70
    32
  0
VERTEX
  8
XOLDLIFT
 62
6
 10
1909.611
 20
-8161.576
 30
-1590.000
 70
    32
  0
SEQEND
  8
XOLDLIFT
  0
POLYLINE
  8
XOLDLIFT
 62
6
 66
     1
 70
     8
  0
VERTEX
  8
XOLDLIFT
 62
6
 10
2009.052
 20
-7813.161
 30
-1666.000
 70
    32
  0
VERTEX
  8
XOLDLIFT
 62
6
 10
2011.235
 20
-7810.641
 30
-1666.000
 70
    32
  0
VERTEX
  8
XOLDLIFT
 62
6
 10
2011.235
 20
-7810.641
 30
-1666.000
 70
    32
  0
VERTEX
  8
XOLDLIFT
 62
6
 10
2033.496
 20
-7804.193
 30
-1666.000
 70
    32
  0
VERTEX
  8
XOLDLIFT
 62
6
 10
2060.938
 20
-7799.024
 30
-1666.000
 70
    32
  0
VERTEX
  8
XOLDLIFT
 62
6
 10
2078.284
 20
-7794.744
 30
-1666.000
 70
    32
  0
VERTEX
  8
XOLDLIFT
 62
6
 10
2078.585
 20
-7794.709
 30
-1666.000
 70
    32
  0
VERTEX
  8
XOLDLIFT
 62
6
 10
2087.383
 20
-7796.522
 30
-1666.000
 70
    32
  0
VERTEX
  8
XOLDLIFT
 62
6
 10
2094.692
 20
-7800.059
 30
-1666.000
 70
    32
  0
VERTEX
  8
XOLDLIFT
 62
6
 10
2099.076
 20
-7806.668
 30
-1666.000
 70
    32
  0
VERTEX
  8
XOLDLIFT
 62
6
 10
2102.800
 20
-7813.466
 30
-1666.000
 70
    32
  0
VERTEX
  8
XOLDLIFT
 62
6
 10
2110.138
 20
-7826.132
 30
-1666.000
 70
    32
  0
VERTEX
  8
XOLDLIFT
 62
6
 10
2118.118
 20
-7837.201
 30
-1666.000
 70
    32
  0
VERTEX
  8
XOLDLIFT
 62
6
 10
2123.195
 20
-7851.455
 30
-1666.000
 70
    32
  0
VERTEX
  8
XOLDLIFT
 62
6
 10
2126.445
 20
-7863.446
 30
-1666.000
 70
    32
  0
VERTEX
  8
XOLDLIFT
 62
6
 10
2129.875
 20
-7880.545
 30
-1666.000
 70
    32
  0
VERTEX
  8
XOLDLIFT
 62
6
 10
2148.457
 20
-7871.889
 30
-1666.000
 70
    32
  0
VERTEX
  8
XOLDLIFT
 62
6
 10
2141.593
 20
-7856.122
 30
-1666.000
 70
    32
  0
VERTEX
  8
XOLDLIFT
 62
6
 10
2142.757
 20
-7849.674
 30
-1666.000
 70
    32
  0
VERTEX
  8
XOLDLIFT
 62
6
 10
2137.369
 20
-7839.717
 30
-1666.000
 70
    32
  0
VERTEX
  8
XOLDLIFT
 62
6
 10
2137.490
 20
-7836.891
 30
-1666.000
 70
    32
  0
VERTEX
  8
XOLDLIFT
 62
6
 10
2120.243
 20
-7812.033
 30
-1666.000
 70
    32
  0
VERTEX
  8
XOLDLIFT
 62
6
 10
2119.918
 20
-7806.301
 30
-1666.000
 70
    32
  0
VERTEX
  8
XOLDLIFT
 62
6
 10
2107.686
 20
-7799.574
 30
-1666.000
 70
    32
  0
VERTEX
  8
XOLDLIFT
 62
6
 10
2101.846
 20
-7787.055
 30
-1666.000
 70
    32
  0
VERTEX
  8
XOLDLIFT
 62
6
 10
2089.800
 20
-7782.705
 30
-1666.000
 70
    32
  0
VERTEX
  8
XOLDLIFT
 62
6
 10
2081.017
 20
-7781.174
 30
-1666.000
 70
    32
  0
VERTEX
  8
XOLDLIFT
 62
6
 10
2074.891
 20
-7783.736
 30
-1666.000
 70
    32
  0
VERTEX
  8
XOLDLIFT
 62
6
 10
2058.526
 20
-7788.812
 30
-1666.000
 70
    32
  0
VERTEX
  8
XOLDLIFT
 62
6
 10
2028.520
 20
-7794.996
 30
-1666.000
 70
    32
  0
VERTEX
  8
XOLDLIFT
 62
6
 10
2020.435
 20
-7794.768
 30
-1666.000
 70
    32
  0
VERTEX
  8
XOLDLIFT
 62
6
 10
2007.398
 20
-7800.246
 30
-1666.000
 70
    32
  0
SEQEND
  8
XOLDLIFT
  0
TEXT
  8
XOLDLIFT
 62
6
 10
1270.645
 20
-5563.978
 30
-1651.000
 40
3.000
  1
BH
 50
305.667
 41
 1.0 
  0
TEXT
  8
XOLDLIFT
 62
6
 10
1616.334
 20
-6430.085
 30
-1636.000
 40
3.000
  1
-1636.534
 41
 1.0 
  0
TEXT
  8
XOLDLIFT
 62
6
 10
1618.379
 20
-6425.361
 30
-1636.000
 40
3.000
  1
ST-913M
 41
 1.0 
  0
POLYLINE
  8
XOLDLIFT
 62
6
 66
     1
 70
     9
  0
VERTEX
  8
XOLDLIFT
 62
6
 10
1276.995
 20
-5565.294
 30
-1651.000
 70
    32
  0
VERTEX
  8
XOLDLIFT
 62
6
 10
1276.981
 20
-5564.989
 30
-1651.000
 70
    32
  0
VERTEX
  8
XOLDLIFT
 62
6
 10
1276.941
 20
-5564.687
 30
-1651.000
 70
    32
  0
VERTEX
  8
XOLDLIFT
 62
6
 10
1276.875
 20
-5564.388
 30
-1651.000
 70
    32
  0
VERTEX
  8
XOLDLIFT
 62
6
 10
1276.784
 20
-5564.097
 30
-1651.000
 70
    32
  0
VERTEX
  8
XOLDLIFT
 62
6
 10
1276.667
 20
-5563.815
 30
-1651.000
 70
    32
  0
VERTEX
  8
XOLDLIFT
 62
6
 10
1276.526
 20
-5563.544
 30
-1651.000
 70
    32
  0
VERTEX
  8
XOLDLIFT
 62
6
 10
1276.362
 20
-5563.287
 30
-1651.000
 70
    32
  0
VERTEX
  8
XOLDLIFT
 62
6
 10
1276.176
 20
-5563.044
 30
-1651.000
 70
    32
  0
VERTEX
  8
XOLDLIFT
 62
6
 10
1275.969
 20
-5562.819
 30
-1651.000
 70
    32
  0
VERTEX
  8
XOLDLIFT
 62
6
 10
1275.744
 20
-5562.613
 30
-1651.000
 70
    32
  0
VERTEX
  8
XOLDLIFT
 62
6
 10
1275.502
 20
-5562.427
 30
-1651.000
 70
    32
  0
VERTEX
  8
XOLDLIFT
 62
6
 10
1275.245
 20
-5562.263
 30
-1651.000
 70
    32
  0
VERTEX
  8
XOLDLIFT
 62
6
 10
1274.974
 20
-5562.122
 30
-1651.000
 70
    32
  0
VERTEX
  8
XOLDLIFT
 62
6
 10
1274.692
 20
-5562.005
 30
-1651.000
 70
    32
  0
VERTEX
  8
XOLDLIFT
 62
6
 10
1274.400
 20
-5561.914
 30
-1651.000
 70
    32
  0
VERTEX
  8
XOLDLIFT
 62
6
 10
1274.102
 20
-5561.847
 30
-1651.000
 70
    32
  0
VERTEX
  8
XOLDLIFT
 62
6
 10
1273.799
 20
-5561.808
 30
-1651.000
 70
    32
  0
VERTEX
  8
XOLDLIFT
 62
6
 10
1273.494
 20
-5561.794
 30
-1651.000
 70
    32
  0
VERTEX
  8
XOLDLIFT
 62
6
 10
1273.189
 20
-5561.808
 30
-1651.000
 70
    32
  0
VERTEX
  8
XOLDLIFT
 62
6
 10
1272.887
 20
-5561.848
 30
-1651.000
 70
    32
  0
VERTEX
  8
XOLDLIFT
 62
6
 10
1272.589
 20
-5561.914
 30
-1651.000
 70
    32
  0
VERTEX
  8
XOLDLIFT
 62
6
 10
1272.297
 20
-5562.005
 30
-1651.000
 70
    32
  0
VERTEX
  8
XOLDLIFT
 62
6
 10
1272.015
 20
-5562.122
 30
-1651.000
 70
    32
  0
VERTEX
  8
XOLDLIFT
 62
6
 10
1271.744
 20
-5562.263
 30
-1651.000
 70
    32
  0
VERTEX
  8
XOLDLIFT
 62
6
 10
1271.487
 20
-5562.427
 30
-1651.000
 70
    32
  0
VERTEX
  8
XOLDLIFT
 62
6
 10
1271.245
 20
-5562.613
 30
-1651.000
 70
    32
  0
VERTEX
  8
XOLDLIFT
 62
6
 10
1271.020
 20
-5562.820
 30
-1651.000
 70
    32
  0
VERTEX
  8
XOLDLIFT
 62
6
 10
1270.813
 20
-5563.045
 30
-1651.000
 70
    32
  0
VERTEX
  8
XOLDLIFT
 62
6
 10
1270.627
 20
-5563.287
 30
-1651.000
 70
    32
  0
VERTEX
  8
XOLDLIFT
 62
6
 10
1270.463
 20
-5563.545
 30
-1651.000
 70
    32
  0
VERTEX
  8
XOLDLIFT
 62
6
 10
1270.322
 20
-5563.816
 30
-1651.000
 70
    32
  0
VERTEX
  8
XOLDLIFT
 62
6
 10
1270.206
 20
-5564.098
 30
-1651.000
 70
    32
  0
VERTEX
  8
XOLDLIFT
 62
6
 10
1270.114
 20
-5564.389
 30
-1651.000
 70
    32
  0
VERTEX
  8
XOLDLIFT
 62
6
 10
1270.048
 20
-5564.687
 30
-1651.000
 70
    32
  0
VERTEX
  8
XOLDLIFT
 62
6
 10
1270.008
 20
-5564.990
 30
-1651.000
 70
    32
  0
VERTEX
  8
XOLDLIFT
 62
6
 10
1269.995
 20
-5565.295
 30
-1651.000
 70
    32
  0
VERTEX
  8
XOLDLIFT
 62
6
 10
1270.008
 20
-5565.600
 30
-1651.000
 70
    32
  0
VERTEX
  8
XOLDLIFT
 62
6
 10
1270.048
 20
-5565.903
 30
-1651.000
 70
    32
  0
VERTEX
  8
XOLDLIFT
 62
6
 10
1270.114
 20
-5566.201
 30
-1651.000
 70
    32
  0
VERTEX
  8
XOLDLIFT
 62
6
 10
1270.206
 20
-5566.492
 30
-1651.000
 70
    32
  0
VERTEX
  8
XOLDLIFT
 62
6
 10
1270.323
 20
-5566.774
 30
-1651.000
 70
    32
  0
VERTEX
  8
XOLDLIFT
 62
6
 10
1270.464
 20
-5567.045
 30
-1651.000
 70
    32
  0
VERTEX
  8
XOLDLIFT
 62
6
 10
1270.628
 20
-5567.302
 30
-1651.000
 70
    32
  0
VERTEX
  8
XOLDLIFT
 62
6
 10
1270.814
 20
-5567.544
 30
-1651.000
 70
    32
  0
VERTEX
  8
XOLDLIFT
 62
6
 10
1271.020
 20
-5567.770
 30
-1651.000
 70
    32
  0
VERTEX
  8
XOLDLIFT
 62
6
 10
1271.245
 20
-5567.976
 30
-1651.000
 70
    32
  0
VERTEX
  8
XOLDLIFT
 62
6
 10
1271.488
 20
-5568.162
 30
-1651.000
 70
    32
  0
VERTEX
  8
XOLDLIFT
 62
6
 10
1271.745
 20
-5568.326
 30
-1651.000
 70
    32
  0
VERTEX
  8
XOLDLIFT
 62
6
 10
1272.016
 20
-5568.467
 30
-1651.000
 70
    32
  0
VERTEX
  8
XOLDLIFT
 62
6
 10
1272.298
 20
-5568.583
 30
-1651.000
 70
    32
  0
VERTEX
  8
XOLDLIFT
 62
6
 10
1272.589
 20
-5568.675
 30
-1651.000
 70
    32
  0
VERTEX
  8
XOLDLIFT
 62
6
 10
1272.888
 20
-5568.741
 30
-1651.000
 70
    32
  0
VERTEX
  8
XOLDLIFT
 62
6
 10
1273.190
 20
-5568.781
 30
-1651.000
 70
    32
  0
VERTEX
  8
XOLDLIFT
 62
6
 10
1273.495
 20
-5568.794
 30
-1651.000
 70
    32
  0
VERTEX
  8
XOLDLIFT
 62
6
 10
1273.800
 20
-5568.781
 30
-1651.000
 70
    32
  0
VERTEX
  8
XOLDLIFT
 62
6
 10
1274.103
 20
-5568.741
 30
-1651.000
 70
    32
  0
VERTEX
  8
XOLDLIFT
 62
6
 10
1274.401
 20
-5568.675
 30
-1651.000
 70
    32
  0
VERTEX
  8
XOLDLIFT
 62
6
 10
1274.692
 20
-5568.583
 30
-1651.000
 70
    32
  0
VERTEX
  8
XOLDLIFT
 62
6
 10
1274.974
 20
-5568.466
 30
-1651.000
 70
    32
  0
VERTEX
  8
XOLDLIFT
 62
6
 10
1275.245
 20
-5568.325
 30
-1651.000
 70
    32
  0
VERTEX
  8
XOLDLIFT
 62
6
 10
1275.503
 20
-5568.161
 30
-1651.000
 70
    32
  0
VERTEX
  8
XOLDLIFT
 62
6
 10
1275.745
 20
-5567.975
 30
-1651.000
 70
    32
  0
VERTEX
  8
XOLDLIFT
 62
6
 10
1275.970
 20
-5567.769
 30
-1651.000
 70
    32
  0
VERTEX
  8
XOLDLIFT
 62
6
 10
1276.176
 20
-5567.543
 30
-1651.000
 70
    32
  0
VERTEX
  8
XOLDLIFT
 62
6
 10
1276.362
 20
-5567.301
 30
-1651.000
 70
    32
  0
VERTEX
  8
XOLDLIFT
 62
6
 10
1276.526
 20
-5567.044
 30
-1651.000
 70
    32
  0
VERTEX
  8
XOLDLIFT
 62
6
 10
1276.667
 20
-5566.773
 30
-1651.000
 70
    32
  0
VERTEX
  8
XOLDLIFT
 62
6
 10
1276.784
 20
-5566.491
 30
-1651.000
 70
    32
  0
VERTEX
  8
XOLDLIFT
 62
6
 10
1276.876
 20
-5566.199
 30
-1651.000
 70
    32
  0
VERTEX
  8
XOLDLIFT
 62
6
 10
1276.942
 20
-5565.901
 30
-1651.000
 70
    32
  0
VERTEX
  8
XOLDLIFT
 62
6
 10
1276.981
 20
-5565.598
 30
-1651.000
 70
    32
  0
SEQEND
  8
XOLDLIFT
  0
POLYLINE
  8
XOLDLIFT
 62
6
 66
     1
 70
     9
  0
VERTEX
  8
XOLDLIFT
 62
6
 10
1447.141
 20
-6368.750
 30
-1660.000
 70
    32
  0
VERTEX
  8
XOLDLIFT
 62
6
 10
1453.966
 20
-6366.962
 30
-1660.000
 70
    32
  0
VERTEX
  8
XOLDLIFT
 62
6
 10
1451.991
 20
-6353.443
 30
-1660.000
 70
    32
  0
VERTEX
  8
XOLDLIFT
 62
6
 10
1448.276
 20
-6341.551
 30
-1660.000
 70
    32
  0
VERTEX
  8
XOLDLIFT
 62
6
 10
1453.007
 20
-6338.981
 30
-1660.000
 70
    32
  0
VERTEX
  8
XOLDLIFT
 62
6
 10
1454.452
 20
-6334.656
 30
-1660.000
 70
    32
  0
VERTEX
  8
XOLDLIFT
 62
6
 10
1453.002
 20
-6327.424
 30
-1660.000
 70
    32
  0
VERTEX
  8
XOLDLIFT
 62
6
 10
1446.087
 20
-6319.389
 30
-1660.000
 70
    32
  0
VERTEX
  8
XOLDLIFT
 62
6
 10
1442.581
 20
-6304.664
 30
-1660.000
 70
    32
  0
VERTEX
  8
XOLDLIFT
 62
6
 10
1437.274
 20
-6288.636
 30
-1660.000
 70
    32
  0
VERTEX
  8
XOLDLIFT
 62
6
 10
1428.736
 20
-6269.863
 30
-1660.000
 70
    32
  0
VERTEX
  8
XOLDLIFT
 62
6
 10
1420.657
 20
-6254.439
 30
-1660.000
 70
    32
  0
VERTEX
  8
XOLDLIFT
 62
6
 10
1415.898
 20
-6246.599
 30
-1660.000
 70
    32
  0
VERTEX
  8
XOLDLIFT
 62
6
 10
1429.493
 20
-6240.259
 30
-1660.000
 70
    32
  0
VERTEX
  8
XOLDLIFT
 62
6
 10
1437.120
 20
-6249.220
 30
-1660.000
 70
    32
  0
VERTEX
  8
XOLDLIFT
 62
6
 10
1439.042
 20
-6252.183
 30
-1660.000
 70
    32
  0
VERTEX
  8
XOLDLIFT
 62
6
 10
1444.450
 20
-6254.677
 30
-1660.000
 70
    32
  0
VERTEX
  8
XOLDLIFT
 62
6
 10
1452.106
 20
-6254.571
 30
-1660.000
 70
    32
  0
VERTEX
  8
XOLDLIFT
 62
6
 10
1456.699
 20
-6262.298
 30
-1660.000
 70
    32
  0
VERTEX
  8
XOLDLIFT
 62
6
 10
1463.845
 20
-6263.392
 30
-1660.000
 70
    32
  0
VERTEX
  8
XOLDLIFT
 62
6
 10
1466.048
 20
-6277.521
 30
-1660.000
 70
    32
  0
VERTEX
  8
XOLDLIFT
 62
6
 10
1472.195
 20
-6303.833
 30
-1660.000
 70
    32
  0
VERTEX
  8
XOLDLIFT
 62
6
 10
1476.703
 20
-6316.189
 30
-1660.000
 70
    32
  0
VERTEX
  8
XOLDLIFT
 62
6
 10
1477.685
 20
-6337.102
 30
-1660.000
 70
    32
  0
VERTEX
  8
XOLDLIFT
 62
6
 10
1479.368
 20
-6340.055
 30
-1660.000
 70
    32
  0
VERTEX
  8
XOLDLIFT
 62
6
 10
1479.371
 20
-6340.290
 30
-1660.000
 70
    32
  0
VERTEX
  8
XOLDLIFT
 62
6
 10
1480.309
 20
-6340.952
 30
-1660.000
 70
    32
  0
VERTEX
  8
XOLDLIFT
 62
6
 10
1479.581
 20
-6349.099
 30
-1660.000
 70
    32
  0
VERTEX
  8
XOLDLIFT
 62
6
 10
1480.319
 20
-6353.263
 30
-1660.000
 70
    32
  0
VERTEX
  8
XOLDLIFT
 62
6
 10
1484.931
 20
-6362.235
 30
-1660.000
 70
    32
  0
VERTEX
  8
XOLDLIFT
 62
6
 10
1489.926
 20
-6362.478
 30
-1660.000
 70
    32
  0
VERTEX
  8
XOLDLIFT
 62
6
 10
1489.342
 20
-6374.464
 30
-1660.000
 70
    32
  0
VERTEX
  8
XOLDLIFT
 62
6
 10
1481.246
 20
-6376.567
 30
-1660.000
 70
    32
  0
VERTEX
  8
XOLDLIFT
 62
6
 10
1476.940
 20
-6380.136
 30
-1660.000
 70
    32
  0
VERTEX
  8
XOLDLIFT
 62
6
 10
1467.379
 20
-6384.610
 30
-1660.000
 70
    32
  0
VERTEX
  8
XOLDLIFT
 62
6
 10
1451.990
 20
-6379.434
 30
-1660.000
 70
    32
  0
VERTEX
  8
XOLDLIFT
 62
6
 10
1450.328
 20
-6379.670
 30
-1660.000
 70
    32
  0
VERTEX
  8
XOLDLIFT
 62
6
 10
1447.141
 20
-6368.750
 30
-1660.000
 70
    32
  0
SEQEND
  8
XOLDLIFT
  0
POLYLINE
  8
XOLDLIFT
 62
3
 66
     1
 70
     9
  0
VERTEX
  8
XOLDLIFT
 62
3
 10
1650.056
 20
-6622.462
 30
-1636.000
 70
    32
  0
VERTEX
  8
XOLDLIFT
 62
3
 10
1641.668
 20
-6621.057
 30
-1636.000
 70
    32
  0
VERTEX
  8
XOLDLIFT
 62
3
 10
1639.272
 20
-6619.214
 30
-1636.000
 70
    32
  0
VERTEX
  8
XOLDLIFT
 62
3
 10
1631.342
 20
-6616.296
 30
-1636.000
 70
    32
  0
VERTEX
  8
XOLDLIFT
 62
3
 10
1617.266
 20
-6603.957
 30
-1636.000
 70
    32
  0
VERTEX
  8
XOLDLIFT
 62
3
 10
1611.831
 20
-6594.908
 30
-1636.000
 70
    32
  0
VERTEX
  8
XOLDLIFT
 62
3
 10
1612.931
 20
-6582.388
 30
-1636.000
 70
    32
  0
VERTEX
  8
XOLDLIFT
 62
3
 10
1597.896
 20
-6566.211
 30
-1636.000
 70
    32
  0
VERTEX
  8
XOLDLIFT
 62
3
 10
1587.300
 20
-6547.413
 30
-1636.000
 70
    32
  0
VERTEX
  8
XOLDLIFT
 62
3
 10
1588.129
 20
-6546.306
 30
-1636.000
 70
    32
  0
VERTEX
  8
XOLDLIFT
 62
3
 10
1587.845
 20
-6543.354
 30
-1636.000
 70
    32
  0
VERTEX
  8
XOLDLIFT
 62
3
 10
1583.433
 20
-6541.661
 30
-1636.000
 70
    32
  0
VERTEX
  8
XOLDLIFT
 62
3
 10
1577.287
 20
-6533.845
 30
-1636.000
 70
    32
  0
VERTEX
  8
XOLDLIFT
 62
3
 10
1573.735
 20
-6520.454
 30
-1636.000
 70
    32
  0
VERTEX
  8
XOLDLIFT
 62
3
 10
1562.708
 20
-6505.622
 30
-1636.000
 70
    32
  0
VERTEX
  8
XOLDLIFT
 62
3
 10
1551.696
 20
-6491.090
 30
-1636.000
 70
    32
  0
VERTEX
  8
XOLDLIFT
 62
3
 10
1558.840
 20
-6485.221
 30
-1636.000
 70
    32
  0
VERTEX
  8
XOLDLIFT
 62
3
 10
1559.715
 20
-6482.924
 30
-1636.000
 70
    32
  0
VERTEX
  8
XOLDLIFT
 62
3
 10
1561.438
 20
-6473.456
 30
-1636.000
 70
    32
  0
VERTEX
  8
XOLDLIFT
 62
3
 10
1561.783
 20
-6467.775
 30
-1636.000
 70
    32
  0
VERTEX
  8
XOLDLIFT
 62
3
 10
1564.711
 20
-6458.478
 30
-1636.000
 70
    32
  0
VERTEX
  8
XOLDLIFT
 62
3
 10
1568.481
 20
-6452.955
 30
-1636.000
 70
    32
  0
VERTEX
  8
XOLDLIFT
 62
3
 10
1566.095
 20
-6438.167
 30
-1636.000
 70
    32
  0
VERTEX
  8
XOLDLIFT
 62
3
 10
1560.744
 20
-6423.932
 30
-1636.000
 70
    32
  0
VERTEX
  8
XOLDLIFT
 62
3
 10
1570.716
 20
-6417.922
 30
-1636.000
 70
    32
  0
VERTEX
  8
XOLDLIFT
 62
3
 10
1584.474
 20
-6417.287
 30
-1636.000
 70
    32
  0
VERTEX
  8
XOLDLIFT
 62
3
 10
1596.380
 20
-6424.100
 30
-1636.000
 70
    32
  0
VERTEX
  8
XOLDLIFT
 62
3
 10
1594.654
 20
-6433.453
 30
-1636.000
 70
    32
  0
VERTEX
  8
XOLDLIFT
 62
3
 10
1597.185
 20
-6451.915
 30
-1636.000
 70
    32
  0
VERTEX
  8
XOLDLIFT
 62
3
 10
1602.271
 20
-6463.952
 30
-1636.000
 70
    32
  0
VERTEX
  8
XOLDLIFT
 62
3
 10
1593.291
 20
-6467.899
 30
-1636.000
 70
    32
  0
VERTEX
  8
XOLDLIFT
 62
3
 10
1583.219
 20
-6453.780
 30
-1636.000
 70
    32
  0
VERTEX
  8
XOLDLIFT
 62
3
 10
1579.035
 20
-6454.214
 30
-1636.000
 70
    32
  0
VERTEX
  8
XOLDLIFT
 62
3
 10
1574.530
 20
-6460.889
 30
-1636.000
 70
    32
  0
VERTEX
  8
XOLDLIFT
 62
3
 10
1572.463
 20
-6470.529
 30
-1636.000
 70
    32
  0
VERTEX
  8
XOLDLIFT
 62
3
 10
1572.119
 20
-6475.866
 30
-1636.000
 70
    32
  0
VERTEX
  8
XOLDLIFT
 62
3
 10
1575.220
 20
-6486.711
 30
-1636.000
 70
    32
  0
VERTEX
  8
XOLDLIFT
 62
3
 10
1576.183
 20
-6494.629
 30
-1636.000
 70
    32
  0
VERTEX
  8
XOLDLIFT
 62
3
 10
1583.202
 20
-6495.316
 30
-1636.000
 70
    32
  0
VERTEX
  8
XOLDLIFT
 62
3
 10
1585.970
 20
-6504.891
 30
-1636.000
 70
    32
  0
VERTEX
  8
XOLDLIFT
 62
3
 10
1588.116
 20
-6503.609
 30
-1636.000
 70
    32
  0
VERTEX
  8
XOLDLIFT
 62
3
 10
1592.151
 20
-6513.917
 30
-1636.000
 70
    32
  0
VERTEX
  8
XOLDLIFT
 62
3
 10
1598.802
 20
-6515.030
 30
-1636.000
 70
    32
  0
VERTEX
  8
XOLDLIFT
 62
3
 10
1601.483
 20
-6522.499
 30
-1636.000
 70
    32
  0
VERTEX
  8
XOLDLIFT
 62
3
 10
1606.447
 20
-6523.256
 30
-1636.000
 70
    32
  0
VERTEX
  8
XOLDLIFT
 62
3
 10
1608.414
 20
-6528.901
 30
-1636.000
 70
    32
  0
VERTEX
  8
XOLDLIFT
 62
3
 10
1622.210
 20
-6530.987
 30
-1636.000
 70
    32
  0
VERTEX
  8
XOLDLIFT
 62
3
 10
1626.255
 20
-6536.867
 30
-1636.000
 70
    32
  0
VERTEX
  8
XOLDLIFT
 62
3
 10
1631.076
 20
-6536.958
 30
-1636.000
 70
    32
  0
VERTEX
  8
XOLDLIFT
 62
3
 10
1634.916
 20
-6544.421
 30
-1636.000
 70
    32
  0
VERTEX
  8
XOLDLIFT
 62
3
 10
1643.632
 20
-6566.091
 30
-1636.000
 70
    32
  0
VERTEX
  8
XOLDLIFT
 62
3
 10
1638.275
 20
-6574.625
 30
-1636.000
 70
    32
  0
VERTEX
  8
XOLDLIFT
 62
3
 10
1641.756
 20
-6582.234
 30
-1636.000
 70
    32
  0
VERTEX
  8
XOLDLIFT
 62
3
 10
1655.420
 20
-6603.046
 30
-1636.000
 70
    32
  0
VERTEX
  8
XOLDLIFT
 62
3
 10
1665.155
 20
-6613.980
 30
-1636.000
 70
    32
  0
VERTEX
  8
XOLDLIFT
 62
3
 10
1650.056
 20
-6622.462
 30
-1636.000
 70
    32
  0
SEQEND
  8
XOLDLIFT
  0
POLYLINE
  8
XOLDLIFT
 62
2
 66
     1
 70
     9
  0
VERTEX
  8
XOLDLIFT
 62
2
 10
1663.134
 20
-6619.210
 30
-1614.000
 70
    32
  0
VERTEX
  8
XOLDLIFT
 62
2
 10
1647.503
 20
-6608.208
 30
-1614.000
 70
    32
  0
VERTEX
  8
XOLDLIFT
 62
2
 10
1631.390
 20
-6593.446
 30
-1614.000
 70
    32
  0
VERTEX
  8
XOLDLIFT
 62
2
 10
1625.122
 20
-6590.680
 30
-1614.000
 70
    32
  0
VERTEX
  8
XOLDLIFT
 62
2
 10
1612.006
 20
-6582.639
 30
-1614.000
 70
    32
  0
VERTEX
  8
XOLDLIFT
 62
2
 10
1600.954
 20
-6567.514
 30
-1614.000
 70
    32
  0
VERTEX
  8
XOLDLIFT
 62
2
 10
1591.743
 20
-6555.241
 30
-1614.000
 70
    32
  0
VERTEX
  8
XOLDLIFT
 62
2
 10
1588.418
 20
-6549.189
 30
-1614.000
 70
    32
  0
VERTEX
  8
XOLDLIFT
 62
2
 10
1589.054
 20
-6545.555
 30
-1614.000
 70
    32
  0
VERTEX
  8
XOLDLIFT
 62
2
 10
1584.742
 20
-6539.117
 30
-1614.000
 70
    32
  0
VERTEX
  8
XOLDLIFT
 62
2
 10
1588.030
 20
-6534.959
 30
-1614.000
 70
    32
  0
VERTEX
  8
XOLDLIFT
 62
2
 10
1578.074
 20
-6513.536
 30
-1614.000
 70
    32
  0
VERTEX
  8
XOLDLIFT
 62
2
 10
1567.627
 20
-6496.806
 30
-1614.000
 70
    32
  0
VERTEX
  8
XOLDLIFT
 62
2
 10
1559.411
 20
-6488.701
 30
-1614.000
 70
    32
  0
VERTEX
  8
XOLDLIFT
 62
2
 10
1537.320
 20
-6472.903
 30
-1614.000
 70
    32
  0
VERTEX
  8
XOLDLIFT
 62
2
 10
1529.752
 20
-6470.732
 30
-1614.000
 70
    32
  0
VERTEX
  8
XOLDLIFT
 62
2
 10
1527.721
 20
-6457.225
 30
-1614.000
 70
    32
  0
VERTEX
  8
XOLDLIFT
 62
2
 10
1523.448
 20
-6454.718
 30
-1614.000
 70
    32
  0
VERTEX
  8
XOLDLIFT
 62
2
 10
1506.190
 20
-6442.869
 30
-1614.000
 70
    32
  0
VERTEX
  8
XOLDLIFT
 62
2
 10
1493.519
 20
-6430.594
 30
-1614.000
 70
    32
  0
VERTEX
  8
XOLDLIFT
 62
2
 10
1496.142
 20
-6421.501
 30
-1614.000
 70
    32
  0
VERTEX
  8
XOLDLIFT
 62
2
 10
1505.725
 20
-6415.789
 30
-1614.000
 70
    32
  0
VERTEX
  8
XOLDLIFT
 62
2
 10
1525.776
 20
-6434.923
 30
-1614.000
 70
    32
  0
VERTEX
  8
XOLDLIFT
 62
2
 10
1545.907
 20
-6423.653
 30
-1614.000
 70
    32
  0
VERTEX
  8
XOLDLIFT
 62
2
 10
1553.449
 20
-6419.349
 30
-1614.000
 70
    32
  0
VERTEX
  8
XOLDLIFT
 62
2
 10
1565.199
 20
-6418.496
 30
-1614.000
 70
    32
  0
VERTEX
  8
XOLDLIFT
 62
2
 10
1560.130
 20
-6398.320
 30
-1614.000
 70
    32
  0
VERTEX
  8
XOLDLIFT
 62
2
 10
1546.952
 20
-6374.072
 30
-1614.000
 70
    32
  0
VERTEX
  8
XOLDLIFT
 62
2
 10
1541.498
 20
-6364.432
 30
-1614.000
 70
    32
  0
VERTEX
  8
XOLDLIFT
 62
2
 10
1537.510
 20
-6352.777
 30
-1614.000
 70
    32
  0
VERTEX
  8
XOLDLIFT
 62
2
 10
1546.351
 20
-6348.982
 30
-1614.000
 70
    32
  0
VERTEX
  8
XOLDLIFT
 62
2
 10
1550.199
 20
-6357.203
 30
-1614.000
 70
    32
  0
VERTEX
  8
XOLDLIFT
 62
2
 10
1561.311
 20
-6354.867
 30
-1614.000
 70
    32
  0
VERTEX
  8
XOLDLIFT
 62
2
 10
1563.994
 20
-6361.407
 30
-1614.000
 70
    32
  0
VERTEX
  8
XOLDLIFT
 62
2
 10
1574.150
 20
-6362.931
 30
-1614.000
 70
    32
  0
VERTEX
  8
XOLDLIFT
 62
2
 10
1576.175
 20
-6378.876
 30
-1614.000
 70
    32
  0
VERTEX
  8
XOLDLIFT
 62
2
 10
1585.174
 20
-6379.035
 30
-1614.000
 70
    32
  0
VERTEX
  8
XOLDLIFT
 62
2
 10
1583.651
 20
-6389.674
 30
-1614.000
 70
    32
  0
VERTEX
  8
XOLDLIFT
 62
2
 10
1586.465
 20
-6390.714
 30
-1614.000
 70
    32
  0
VERTEX
  8
XOLDLIFT
 62
2
 10
1588.042
 20
-6401.434
 30
-1614.000
 70
    32
  0
VERTEX
  8
XOLDLIFT
 62
2
 10
1596.004
 20
-6405.483
 30
-1614.000
 70
    32
  0
VERTEX
  8
XOLDLIFT
 62
2
 10
1592.576
 20
-6425.277
 30
-1614.000
 70
    32
  0
VERTEX
  8
XOLDLIFT
 62
2
 10
1605.645
 20
-6447.226
 30
-1614.000
 70
    32
  0
VERTEX
  8
XOLDLIFT
 62
2
 10
1600.459
 20
-6458.063
 30
-1614.000
 70
    32
  0
VERTEX
  8
XOLDLIFT
 62
2
 10
1593.235
 20
-6466.402
 30
-1614.000
 70
    32
  0
VERTEX
  8
XOLDLIFT
 62
2
 10
1590.778
 20
-6471.245
 30
-1614.000
 70
    32
  0
VERTEX
  8
XOLDLIFT
 62
2
 10
1589.133
 20
-6477.471
 30
-1614.000
 70
    32
  0
VERTEX
  8
XOLDLIFT
 62
2
 10
1593.011
 20
-6483.335
 30
-1614.000
 70
    32
  0
VERTEX
  8
XOLDLIFT
 62
2
 10
1593.613
 20
-6491.057
 30
-1614.000
 70
    32
  0
VERTEX
  8
XOLDLIFT
 62
2
 10
1598.946
 20
-6498.112
 30
-1614.000
 70
    32
  0
VERTEX
  8
XOLDLIFT
 62
2
 10
1603.320
 20
-6516.165
 30
-1614.000
 70
    32
  0
VERTEX
  8
XOLDLIFT
 62
2
 10
1603.824
 20
-6525.780
 30
-1614.000
 70
    32
  0
VERTEX
  8
XOLDLIFT
 62
2
 10
1614.297
 20
-6544.068
 30
-1614.000
 70
    32
  0
VERTEX
  8
XOLDLIFT
 62
2
 10
1620.544
 20
-6556.856
 30
-1614.000
 70
    32
  0
VERTEX
  8
XOLDLIFT
 62
2
 10
1630.683
 20
-6575.537
 30
-1614.000
 70
    32
  0
VERTEX
  8
XOLDLIFT
 62
2
 10
1650.345
 20
-6595.498
 30
-1614.000
 70
    32
  0
VERTEX
  8
XOLDLIFT
 62
2
 10
1659.059
 20
-6605.411
 30
-1614.000
 70
    32
  0
VERTEX
  8
XOLDLIFT
 62
2
 10
1663.134
 20
-6619.210
 30
-1614.000
 70
    32
  0
SEQEND
  8
XOLDLIFT
  0
POLYLINE
  8
XOLDLIFT
 62
7
 66
     1
 70
     9
  0
VERTEX
  8
XOLDLIFT
 62
7
 10
1490.831
 20
-6412.873
 30
-1626.000
 70
    32
  0
VERTEX
  8
XOLDLIFT
 62
7
 10
1481.083
 20
-6396.051
 30
-1626.000
 70
    32
  0
VERTEX
  8
XOLDLIFT
 62
7
 10
1474.734
 20
-6382.819
 30
-1626.000
 70
    32
  0
VERTEX
  8
XOLDLIFT
 62
7
 10
1474.975
 20
-6380.054
 30
-1626.000
 70
    32
  0
VERTEX
  8
XOLDLIFT
 62
7
 10
1466.249
 20
-6357.311
 30
-1626.000
 70
    32
  0
VERTEX
  8
XOLDLIFT
 62
7
 10
1466.337
 20
-6357.587
 30
-1626.000
 70
    32
  0
VERTEX
  8
XOLDLIFT
 62
7
 10
1459.325
 20
-6353.769
 30
-1626.000
 70
    32
  0
VERTEX
  8
XOLDLIFT
 62
7
 10
1455.972
 20
-6354.572
 30
-1626.000
 70
    32
  0
VERTEX
  8
XOLDLIFT
 62
7
 10
1452.398
 20
-6351.240
 30
-1626.000
 70
    32
  0
VERTEX
  8
XOLDLIFT
 62
7
 10
1449.516
 20
-6345.952
 30
-1626.000
 70
    32
  0
VERTEX
  8
XOLDLIFT
 62
7
 10
1439.753
 20
-6339.760
 30
-1626.000
 70
    32
  0
VERTEX
  8
XOLDLIFT
 62
7
 10
1436.037
 20
-6328.567
 30
-1626.000
 70
    32
  0
VERTEX
  8
XOLDLIFT
 62
7
 10
1432.197
 20
-6325.338
 30
-1626.000
 70
    32
  0
VERTEX
  8
XOLDLIFT
 62
7
 10
1437.425
 20
-6315.830
 30
-1626.000
 70
    32
  0
VERTEX
  8
XOLDLIFT
 62
7
 10
1439.817
 20
-6310.518
 30
-1626.000
 70
    32
  0
VERTEX
  8
XOLDLIFT
 62
7
 10
1448.541
 20
-6303.654
 30
-1626.000
 70
    32
  0
VERTEX
  8
XOLDLIFT
 62
7
 10
1448.493
 20
-6303.474
 30
-1626.000
 70
    32
  0
VERTEX
  8
XOLDLIFT
 62
7
 10
1446.001
 20
-6297.757
 30
-1626.000
 70
    32
  0
VERTEX
  8
XOLDLIFT
 62
7
 10
1429.654
 20
-6266.116
 30
-1626.000
 70
    32
  0
VERTEX
  8
XOLDLIFT
 62
7
 10
1430.797
 20
-6264.026
 30
-1626.000
 70
    32
  0
VERTEX
  8
XOLDLIFT
 62
7
 10
1426.515
 20
-6255.983
 30
-1626.000
 70
    32
  0
VERTEX
  8
XOLDLIFT
 62
7
 10
1419.671
 20
-6240.165
 30
-1626.000
 70
    32
  0
VERTEX
  8
XOLDLIFT
 62
7
 10
1439.676
 20
-6233.894
 30
-1626.000
 70
    32
  0
VERTEX
  8
XOLDLIFT
 62
7
 10
1443.557
 20
-6247.290
 30
-1626.000
 70
    32
  0
VERTEX
  8
XOLDLIFT
 62
7
 10
1446.180
 20
-6253.759
 30
-1626.000
 70
    32
  0
VERTEX
  8
XOLDLIFT
 62
7
 10
1446.258
 20
-6258.241
 30
-1626.000
 70
    32
  0
VERTEX
  8
XOLDLIFT
 62
7
 10
1457.366
 20
-6289.185
 30
-1626.000
 70
    32
  0
VERTEX
  8
XOLDLIFT
 62
7
 10
1461.774
 20
-6304.495
 30
-1626.000
 70
    32
  0
VERTEX
  8
XOLDLIFT
 62
7
 10
1468.172
 20
-6317.119
 30
-1626.000
 70
    32
  0
VERTEX
  8
XOLDLIFT
 62
7
 10
1473.761
 20
-6341.740
 30
-1626.000
 70
    32
  0
VERTEX
  8
XOLDLIFT
 62
7
 10
1476.993
 20
-6347.226
 30
-1626.000
 70
    32
  0
VERTEX
  8
XOLDLIFT
 62
7
 10
1479.050
 20
-6357.000
 30
-1626.000
 70
    32
  0
VERTEX
  8
XOLDLIFT
 62
7
 10
1485.417
 20
-6374.278
 30
-1626.000
 70
    32
  0
VERTEX
  8
XOLDLIFT
 62
7
 10
1489.066
 20
-6378.854
 30
-1626.000
 70
    32
  0
VERTEX
  8
XOLDLIFT
 62
7
 10
1492.584
 20
-6395.096
 30
-1626.000
 70
    32
  0
VERTEX
  8
XOLDLIFT
 62
7
 10
1492.756
 20
-6397.158
 30
-1626.000
 70
    32
  0
VERTEX
  8
XOLDLIFT
 62
7
 10
1500.338
 20
-6408.522
 30
-1626.000
 70
    32
  0
VERTEX
  8
XOLDLIFT
 62
7
 10
1530.346
 20
-6440.876
 30
-1626.000
 70
    32
  0
VERTEX
  8
XOLDLIFT
 62
7
 10
1538.953
 20
-6441.166
 30
-1626.000
 70
    32
  0
VERTEX
  8
XOLDLIFT
 62
7
 10
1542.515
 20
-6433.618
 30
-1626.000
 70
    32
  0
VERTEX
  8
XOLDLIFT
 62
7
 10
1547.360
 20
-6429.478
 30
-1626.000
 70
    32
  0
VERTEX
  8
XOLDLIFT
 62
7
 10
1551.064
 20
-6420.284
 30
-1626.000
 70
    32
  0
VERTEX
  8
XOLDLIFT
 62
7
 10
1558.296
 20
-6418.568
 30
-1626.000
 70
    32
  0
VERTEX
  8
XOLDLIFT
 62
7
 10
1565.482
 20
-6419.808
 30
-1626.000
 70
    32
  0
VERTEX
  8
XOLDLIFT
 62
7
 10
1572.697
 20
-6419.867
 30
-1626.000
 70
    32
  0
VERTEX
  8
XOLDLIFT
 62
7
 10
1582.191
 20
-6415.279
 30
-1626.000
 70
    32
  0
VERTEX
  8
XOLDLIFT
 62
7
 10
1591.043
 20
-6423.716
 30
-1626.000
 70
    32
  0
VERTEX
  8
XOLDLIFT
 62
7
 10
1596.149
 20
-6434.423
 30
-1626.000
 70
    32
  0
VERTEX
  8
XOLDLIFT
 62
7
 10
1606.725
 20
-6436.417
 30
-1626.000
 70
    32
  0
VERTEX
  8
XOLDLIFT
 62
7
 10
1608.212
 20
-6449.686
 30
-1626.000
 70
    32
  0
VERTEX
  8
XOLDLIFT
 62
7
 10
1613.046
 20
-6453.929
 30
-1626.000
 70
    32
  0
VERTEX
  8
XOLDLIFT
 62
7
 10
1609.751
 20
-6459.631
 30
-1626.000
 70
    32
  0
VERTEX
  8
XOLDLIFT
 62
7
 10
1605.849
 20
-6464.957
 30
-1626.000
 70
    32
  0
VERTEX
  8
XOLDLIFT
 62
7
 10
1598.108
 20
-6469.205
 30
-1626.000
 70
    32
  0
VERTEX
  8
XOLDLIFT
 62
7
 10
1584.503
 20
-6457.310
 30
-1626.000
 70
    32
  0
VERTEX
  8
XOLDLIFT
 62
7
 10
1570.393
 20
-6460.857
 30
-1626.000
 70
    32
  0
VERTEX
  8
XOLDLIFT
 62
7
 10
1565.948
 20
-6455.029
 30
-1626.000
 70
    32
  0
VERTEX
  8
XOLDLIFT
 62
7
 10
1561.862
 20
-6461.900
 30
-1626.000
 70
    32
  0
VERTEX
  8
XOLDLIFT
 62
7
 10
1562.944
 20
-6471.978
 30
-1626.000
 70
    32
  0
VERTEX
  8
XOLDLIFT
 62
7
 10
1567.085
 20
-6477.325
 30
-1626.000
 70
    32
  0
VERTEX
  8
XOLDLIFT
 62
7
 10
1572.975
 20
-6485.327
 30
-1626.000
 70
    32
  0
VERTEX
  8
XOLDLIFT
 62
7
 10
1577.518
 20
-6489.218
 30
-1626.000
 70
    32
  0
VERTEX
  8
XOLDLIFT
 62
7
 10
1580.321
 20
-6489.298
 30
-1626.000
 70
    32
  0
VERTEX
  8
XOLDLIFT
 62
7
 10
1586.720
 20
-6495.996
 30
-1626.000
 70
    32
  0
VERTEX
  8
XOLDLIFT
 62
7
 10
1595.712
 20
-6499.942
 30
-1626.000
 70
    32
  0
VERTEX
  8
XOLDLIFT
 62
7
 10
1603.215
 20
-6497.526
 30
-1626.000
 70
    32
  0
VERTEX
  8
XOLDLIFT
 62
7
 10
1620.928
 20
-6528.714
 30
-1626.000
 70
    32
  0
VERTEX
  8
XOLDLIFT
 62
7
 10
1625.361
 20
-6529.147
 30
-1626.000
 70
    32
  0
VERTEX
  8
XOLDLIFT
 62
7
 10
1630.366
 20
-6537.609
 30
-1626.000
 70
    32
  0
VERTEX
  8
XOLDLIFT
 62
7
 10
1639.217
 20
-6576.314
 30
-1626.000
 70
    32
  0
VERTEX
  8
XOLDLIFT
 62
7
 10
1647.759
 20
-6588.525
 30
-1626.000
 70
    32
  0
VERTEX
  8
XOLDLIFT
 62
7
 10
1654.096
 20
-6594.593
 30
-1626.000
 70
    32
  0
VERTEX
  8
XOLDLIFT
 62
7
 10
1679.080
 20
-6612.548
 30
-1614.000
 70
    32
  0
VERTEX
  8
XOLDLIFT
 62
7
 10
1679.468
 20
-6624.248
 30
-1626.000
 70
    32
  0
VERTEX
  8
XOLDLIFT
 62
7
 10
1665.230
 20
-6620.732
 30
-1626.000
 70
    32
  0
VERTEX
  8
XOLDLIFT
 62
7
 10
1655.721
 20
-6617.875
 30
-1626.000
 70
    32
  0
VERTEX
  8
XOLDLIFT
 62
7
 10
1650.946
 20
-6614.549
 30
-1626.000
 70
    32
  0
VERTEX
  8
XOLDLIFT
 62
7
 10
1637.319
 20
-6604.366
 30
-1626.000
 70
    32
  0
VERTEX
  8
XOLDLIFT
 62
7
 10
1634.427
 20
-6600.693
 30
-1626.000
 70
    32
  0
VERTEX
  8
XOLDLIFT
 62
7
 10
1618.806
 20
-6601.966
 30
-1626.000
 70
    32
  0
VERTEX
  8
XOLDLIFT
 62
7
 10
1615.765
 20
-6596.110
 30
-1626.000
 70
    32
  0
VERTEX
  8
XOLDLIFT
 62
7
 10
1610.099
 20
-6594.135
 30
-1626.000
 70
    32
  0
VERTEX
  8
XOLDLIFT
 62
7
 10
1606.497
 20
-6577.888
 30
-1626.000
 70
    32
  0
VERTEX
  8
XOLDLIFT
 62
7
 10
1593.075
 20
-6556.836
 30
-1626.000
 70
    32
  0
VERTEX
  8
XOLDLIFT
 62
7
 10
1588.013
 20
-6554.999
 30
-1626.000
 70
    32
  0
VERTEX
  8
XOLDLIFT
 62
7
 10
1585.727
 20
-6548.064
 30
-1626.000
 70
    32
  0
VERTEX
  8
XOLDLIFT
 62
7
 10
1579.871
 20
-6542.804
 30
-1626.000
 70
    32
  0
VERTEX
  8
XOLDLIFT
 62
7
 10
1579.272
 20
-6530.389
 30
-1626.000
 70
    32
  0
VERTEX
  8
XOLDLIFT
 62
7
 10
1576.433
 20
-6522.910
 30
-1626.000
 70
    32
  0
VERTEX
  8
XOLDLIFT
 62
7
 10
1572.672
 20
-6509.971
 30
-1626.000
 70
    32
  0
VERTEX
  8
XOLDLIFT
 62
7
 10
1555.661
 20
-6501.850
 30
-1626.000
 70
    32
  0
VERTEX
  8
XOLDLIFT
 62
7
 10
1534.446
 20
-6475.852
 30
-1626.000
 70
    32
  0
VERTEX
  8
XOLDLIFT
 62
7
 10
1528.406
 20
-6469.379
 30
-1626.000
 70
    32
  0
VERTEX
  8
XOLDLIFT
 62
7
 10
1519.672
 20
-6459.664
 30
-1626.000
 70
    32
  0
VERTEX
  8
XOLDLIFT
 62
7
 10
1524.426
 20
-6449.577
 30
-1626.000
 70
    32
  0
VERTEX
  8
XOLDLIFT
 62
7
 10
1490.831
 20
-6412.873
 30
-1626.000
 70
    32
  0
SEQEND
  8
XOLDLIFT
  0
POLYLINE
  8
XOLDLIFT
 62
6
 66
     1
 70
     9
  0
VERTEX
  8
XOLDLIFT
 62
6
 10
1944.900
 20
-7025.000
 30
-1663.000
 70
    32
  0
VERTEX
  8
XOLDLIFT
 62
6
 10
1950.200
 20
-7033.200
 30
-1663.000
 70
    32
  0
VERTEX
  8
XOLDLIFT
 62
6
 10
1948.100
 20
-7039.200
 30
-1663.000
 70
    32
  0
VERTEX
  8
XOLDLIFT
 62
6
 10
1952.600
 20
-7052.700
 30
-1663.000
 70
    32
  0
VERTEX
  8
XOLDLIFT
 62
6
 10
1960.300
 20
-7069.200
 30
-1663.000
 70
    32
  0
VERTEX
  8
XOLDLIFT
 62
6
 10
1971.000
 20
-7090.700
 30
-1663.000
 70
    32
  0
VERTEX
  8
XOLDLIFT
 62
6
 10
1978.400
 20
-7112.200
 30
-1663.000
 70
    32
  0
VERTEX
  8
XOLDLIFT
 62
6
 10
1982.800
 20
-7127.000
 30
-1663.000
 70
    32
  0
VERTEX
  8
XOLDLIFT
 62
6
 10
1983.200
 20
-7139.100
 30
-1663.000
 70
    32
  0
VERTEX
  8
XOLDLIFT
 62
6
 10
1967.300
 20
-7144.700
 30
-1663.000
 70
    32
  0
VERTEX
  8
XOLDLIFT
 62
6
 10
1963.200
 20
-7119.500
 30
-1663.000
 70
    32
  0
VERTEX
  8
XOLDLIFT
 62
6
 10
1955.900
 20
-7098.700
 30
-1663.000
 70
    32
  0
VERTEX
  8
XOLDLIFT
 62
6
 10
1947.200
 20
-7080.600
 30
-1663.000
 70
    32
  0
VERTEX
  8
XOLDLIFT
 62
6
 10
1936.800
 20
-7059.600
 30
-1663.000
 70
    32
  0
VERTEX
  8
XOLDLIFT
 62
6
 10
1924.100
 20
-7058.200
 30
-1663.000
 70
    32
  0
VERTEX
  8
XOLDLIFT
 62
6
 10
1924.900
 20
-7043.300
 30
-1663.000
 70
    32
  0
VERTEX
  8
XOLDLIFT
 62
6
 10
1920.500
 20
-7030.700
 30
-1663.000
 70
    32
  0
VERTEX
  8
XOLDLIFT
 62
6
 10
1927.700
 20
-7021.700
 30
-1663.000
 70
    32
  0
VERTEX
  8
XOLDLIFT
 62
6
 10
1944.900
 20
-7025.000
 30
-1663.000
 70
    32
  0
SEQEND
  8
XOLDLIFT
  0
POLYLINE
  8
XOLDLIFT
 62
6
 66
     1
 70
     9
  0
VERTEX
  8
XOLDLIFT
 62
6
 10
1572.792
 20
-6912.799
 30
-1630.000
 70
    32
  0
VERTEX
  8
XOLDLIFT
 62
6
 10
1575.899
 20
-6900.866
 30
-1630.000
 70
    32
  0
VERTEX
  8
XOLDLIFT
 62
6
 10
1573.695
 20
-6894.289
 30
-1630.000
 70
    32
  0
VERTEX
  8
XOLDLIFT
 62
6
 10
1565.192
 20
-6889.947
 30
-1630.000
 70
    32
  0
VERTEX
  8
XOLDLIFT
 62
6
 10
1563.069
 20
-6874.060
 30
-1630.000
 70
    32
  0
VERTEX
  8
XOLDLIFT
 62
6
 10
1560.056
 20
-6863.419
 30
-1630.000
 70
    32
  0
VERTEX
  8
XOLDLIFT
 62
6
 10
1562.401
 20
-6857.064
 30
-1630.000
 70
    32
  0
VERTEX
  8
XOLDLIFT
 62
6
 10
1566.300
 20
-6847.661
 30
-1630.000
 70
    32
  0
VERTEX
  8
XOLDLIFT
 62
6
 10
1572.373
 20
-6844.817
 30
-1630.000
 70
    32
  0
VERTEX
  8
XOLDLIFT
 62
6
 10
1582.246
 20
-6825.123
 30
-1630.000
 70
    32
  0
VERTEX
  8
XOLDLIFT
 62
6
 10
1582.349
 20
-6812.971
 30
-1630.000
 70
    32
  0
VERTEX
  8
XOLDLIFT
 62
6
 10
1581.764
 20
-6806.354
 30
-1630.000
 70
    32
  0
VERTEX
  8
XOLDLIFT
 62
6
 10
1577.809
 20
-6802.304
 30
-1630.000
 70
    32
  0
VERTEX
  8
XOLDLIFT
 62
6
 10
1572.781
 20
-6797.839
 30
-1630.000
 70
    32
  0
VERTEX
  8
XOLDLIFT
 62
6
 10
1569.573
 20
-6789.615
 30
-1630.000
 70
    32
  0
VERTEX
  8
XOLDLIFT
 62
6
 10
1561.853
 20
-6787.409
 30
-1630.000
 70
    32
  0
VERTEX
  8
XOLDLIFT
 62
6
 10
1550.493
 20
-6780.793
 30
-1630.000
 70
    32
  0
VERTEX
  8
XOLDLIFT
 62
6
 10
1545.490
 20
-6776.943
 30
-1630.000
 70
    32
  0
VERTEX
  8
XOLDLIFT
 62
6
 10
1549.273
 20
-6772.286
 30
-1630.000
 70
    32
  0
VERTEX
  8
XOLDLIFT
 62
6
 10
1557.468
 20
-6763.025
 30
-1630.000
 70
    32
  0
VERTEX
  8
XOLDLIFT
 62
6
 10
1563.945
 20
-6766.877
 30
-1630.000
 70
    32
  0
VERTEX
  8
XOLDLIFT
 62
6
 10
1572.179
 20
-6773.951
 30
-1630.000
 70
    32
  0
VERTEX
  8
XOLDLIFT
 62
6
 10
1577.470
 20
-6776.497
 30
-1630.000
 70
    32
  0
VERTEX
  8
XOLDLIFT
 62
6
 10
1580.799
 20
-6785.154
 30
-1630.000
 70
    32
  0
VERTEX
  8
XOLDLIFT
 62
6
 10
1585.846
 20
-6793.343
 30
-1630.000
 70
    32
  0
VERTEX
  8
XOLDLIFT
 62
6
 10
1589.166
 20
-6795.226
 30
-1630.000
 70
    32
  0
VERTEX
  8
XOLDLIFT
 62
6
 10
1593.631
 20
-6804.029
 30
-1630.000
 70
    32
  0
VERTEX
  8
XOLDLIFT
 62
6
 10
1597.830
 20
-6804.585
 30
-1630.000
 70
    32
  0
VERTEX
  8
XOLDLIFT
 62
6
 10
1601.838
 20
-6805.639
 30
-1630.000
 70
    32
  0
VERTEX
  8
XOLDLIFT
 62
6
 10
1614.580
 20
-6794.698
 30
-1630.000
 70
    32
  0
VERTEX
  8
XOLDLIFT
 62
6
 10
1625.526
 20
-6806.206
 30
-1630.000
 70
    32
  0
VERTEX
  8
XOLDLIFT
 62
6
 10
1627.530
 20
-6814.992
 30
-1630.000
 70
    32
  0
VERTEX
  8
XOLDLIFT
 62
6
 10
1635.843
 20
-6817.399
 30
-1630.000
 70
    32
  0
VERTEX
  8
XOLDLIFT
 62
6
 10
1631.290
 20
-6828.099
 30
-1630.000
 70
    32
  0
VERTEX
  8
XOLDLIFT
 62
6
 10
1617.936
 20
-6822.842
 30
-1630.000
 70
    32
  0
VERTEX
  8
XOLDLIFT
 62
6
 10
1615.626
 20
-6822.612
 30
-1630.000
 70
    32
  0
VERTEX
  8
XOLDLIFT
 62
6
 10
1609.227
 20
-6821.261
 30
-1630.000
 70
    32
  0
VERTEX
  8
XOLDLIFT
 62
6
 10
1607.153
 20
-6825.328
 30
-1630.000
 70
    32
  0
VERTEX
  8
XOLDLIFT
 62
6
 10
1608.145
 20
-6828.021
 30
-1630.000
 70
    32
  0
VERTEX
  8
XOLDLIFT
 62
6
 10
1612.693
 20
-6832.272
 30
-1630.000
 70
    32
  0
VERTEX
  8
XOLDLIFT
 62
6
 10
1623.348
 20
-6842.605
 30
-1630.000
 70
    32
  0
VERTEX
  8
XOLDLIFT
 62
6
 10
1627.906
 20
-6851.752
 30
-1630.000
 70
    32
  0
VERTEX
  8
XOLDLIFT
 62
6
 10
1638.806
 20
-6863.236
 30
-1630.000
 70
    32
  0
VERTEX
  8
XOLDLIFT
 62
6
 10
1626.289
 20
-6871.503
 30
-1630.000
 70
    32
  0
VERTEX
  8
XOLDLIFT
 62
6
 10
1619.533
 20
-6864.278
 30
-1630.000
 70
    32
  0
VERTEX
  8
XOLDLIFT
 62
6
 10
1609.339
 20
-6854.120
 30
-1630.000
 70
    32
  0
VERTEX
  8
XOLDLIFT
 62
6
 10
1604.020
 20
-6846.326
 30
-1630.000
 70
    32
  0
VERTEX
  8
XOLDLIFT
 62
6
 10
1595.994
 20
-6839.933
 30
-1630.000
 70
    32
  0
VERTEX
  8
XOLDLIFT
 62
6
 10
1588.920
 20
-6835.743
 30
-1630.000
 70
    32
  0
VERTEX
  8
XOLDLIFT
 62
6
 10
1579.026
 20
-6854.565
 30
-1630.000
 70
    32
  0
VERTEX
  8
XOLDLIFT
 62
6
 10
1581.120
 20
-6869.015
 30
-1630.000
 70
    32
  0
VERTEX
  8
XOLDLIFT
 62
6
 10
1591.894
 20
-6866.872
 30
-1630.000
 70
    32
  0
VERTEX
  8
XOLDLIFT
 62
6
 10
1597.823
 20
-6867.267
 30
-1630.000
 70
    32
  0
VERTEX
  8
XOLDLIFT
 62
6
 10
1601.380
 20
-6869.637
 30
-1630.000
 70
    32
  0
VERTEX
  8
XOLDLIFT
 62
6
 10
1601.518
 20
-6890.311
 30
-1630.000
 70
    32
  0
VERTEX
  8
XOLDLIFT
 62
6
 10
1607.667
 20
-6894.221
 30
-1630.000
 70
    32
  0
VERTEX
  8
XOLDLIFT
 62
6
 10
1612.015
 20
-6902.142
 30
-1630.000
 70
    32
  0
VERTEX
  8
XOLDLIFT
 62
6
 10
1628.249
 20
-6913.989
 30
-1630.000
 70
    32
  0
VERTEX
  8
XOLDLIFT
 62
6
 10
1640.978
 20
-6920.550
 30
-1630.000
 70
    32
  0
VERTEX
  8
XOLDLIFT
 62
6
 10
1644.307
 20
-6936.593
 30
-1630.000
 70
    32
  0
VERTEX
  8
XOLDLIFT
 62
6
 10
1640.572
 20
-6949.351
 30
-1630.000
 70
    32
  0
VERTEX
  8
XOLDLIFT
 62
6
 10
1638.956
 20
-6956.486
 30
-1630.000
 70
    32
  0
VERTEX
  8
XOLDLIFT
 62
6
 10
1642.149
 20
-6963.111
 30
-1630.000
 70
    32
  0
VERTEX
  8
XOLDLIFT
 62
6
 10
1634.986
 20
-6968.794
 30
-1630.000
 70
    32
  0
VERTEX
  8
XOLDLIFT
 62
6
 10
1625.549
 20
-6976.207
 30
-1630.000
 70
    32
  0
VERTEX
  8
XOLDLIFT
 62
6
 10
1616.808
 20
-6957.880
 30
-1630.000
 70
    32
  0
VERTEX
  8
XOLDLIFT
 62
6
 10
1611.355
 20
-6945.397
 30
-1630.000
 70
    32
  0
VERTEX
  8
XOLDLIFT
 62
6
 10
1602.470
 20
-6929.817
 30
-1630.000
 70
    32
  0
VERTEX
  8
XOLDLIFT
 62
6
 10
1592.219
 20
-6926.801
 30
-1630.000
 70
    32
  0
VERTEX
  8
XOLDLIFT
 62
6
 10
1585.398
 20
-6926.354
 30
-1630.000
 70
    32
  0
VERTEX
  8
XOLDLIFT
 62
6
 10
1572.792
 20
-6912.799
 30
-1630.000
 70
    32
  0
SEQEND
  8
XOLDLIFT
  0
LINE
  8
XOLDLIFT
 62
6
 10
1572.792
 20
-6912.799
 30
-1630.000
 11
1585.398
 21
-6926.354
 31
-1630.000
  0
POLYLINE
  8
XOLDLIFT
 62
6
 66
     1
 70
     8
  0
VERTEX
  8
XOLDLIFT
 62
6
 10
1523.419
 20
-6792.318
 30
-1606.806
 70
    32
  0
VERTEX
  8
XOLDLIFT
 62
6
 10
1523.419
 20
-6792.318
 30
-1610.000
 70
    32
  0
VERTEX
  8
XOLDLIFT
 62
6
 10
1527.278
 20
-6794.031
 30
-1610.000
 70
    32
  0
VERTEX
  8
XOLDLIFT
 62
6
 10
1526.371
 20
-6799.854
 30
-1610.000
 70
    32
  0
VERTEX
  8
XOLDLIFT
 62
6
 10
1527.328
 20
-6809.037
 30
-1610.000
 70
    32
  0
VERTEX
  8
XOLDLIFT
 62
6
 10
1527.328
 20
-6809.037
 30
-1610.000
 70
    32
  0
VERTEX
  8
XOLDLIFT
 62
6
 10
1532.862
 20
-6826.964
 30
-1610.000
 70
    32
  0
VERTEX
  8
XOLDLIFT
 62
6
 10
1539.881
 20
-6828.953
 30
-1610.000
 70
    32
  0
VERTEX
  8
XOLDLIFT
 62
6
 10
1548.966
 20
-6837.394
 30
-1610.000
 70
    32
  0
VERTEX
  8
XOLDLIFT
 62
6
 10
1558.217
 20
-6846.873
 30
-1610.000
 70
    32
  0
VERTEX
  8
XOLDLIFT
 62
6
 10
1549.535
 20
-6852.234
 30
-1610.000
 70
    32
  0
VERTEX
  8
XOLDLIFT
 62
6
 10
1535.132
 20
-6844.888
 30
-1610.000
 70
    32
  0
VERTEX
  8
XOLDLIFT
 62
6
 10
1528.665
 20
-6852.957
 30
-1610.000
 70
    32
  0
VERTEX
  8
XOLDLIFT
 62
6
 10
1526.587
 20
-6861.097
 30
-1610.000
 70
    32
  0
VERTEX
  8
XOLDLIFT
 62
6
 10
1535.357
 20
-6865.361
 30
-1610.000
 70
    32
  0
VERTEX
  8
XOLDLIFT
 62
6
 10
1537.779
 20
-6869.958
 30
-1610.000
 70
    32
  0
VERTEX
  8
XOLDLIFT
 62
6
 10
1539.942
 20
-6877.362
 30
-1610.000
 70
    32
  0
VERTEX
  8
XOLDLIFT
 62
6
 10
1545.742
 20
-6878.726
 30
-1610.000
 70
    32
  0
VERTEX
  8
XOLDLIFT
 62
6
 10
1559.065
 20
-6890.174
 30
-1610.000
 70
    32
  0
VERTEX
  8
XOLDLIFT
 62
6
 10
1559.293
 20
-6906.745
 30
-1610.000
 70
    32
  0
VERTEX
  8
XOLDLIFT
 62
6
 10
1577.245
 20
-6914.519
 30
-1610.000
 70
    32
  0
VERTEX
  8
XOLDLIFT
 62
6
 10
1581.687
 20
-6924.580
 30
-1610.000
 70
    32
  0
VERTEX
  8
XOLDLIFT
 62
6
 10
1598.358
 20
-6922.059
 30
-1610.000
 70
    32
  0
VERTEX
  8
XOLDLIFT
 62
6
 10
1607.992
 20
-6928.753
 30
-1610.000
 70
    32
  0
VERTEX
  8
XOLDLIFT
 62
6
 10
1613.319
 20
-6934.496
 30
-1610.000
 70
    32
  0
VERTEX
  8
XOLDLIFT
 62
6
 10
1612.525
 20
-6941.304
 30
-1610.000
 70
    32
  0
VERTEX
  8
XOLDLIFT
 62
6
 10
1606.570
 20
-6952.849
 30
-1610.000
 70
    32
  0
VERTEX
  8
XOLDLIFT
 62
6
 10
1613.757
 20
-6959.807
 30
-1610.000
 70
    32
  0
VERTEX
  8
XOLDLIFT
 62
6
 10
1621.952
 20
-6963.308
 30
-1610.000
 70
    32
  0
VERTEX
  8
XOLDLIFT
 62
6
 10
1630.666
 20
-6968.975
 30
-1610.000
 70
    32
  0
VERTEX
  8
XOLDLIFT
 62
6
 10
1639.833
 20
-6961.231
 30
-1610.000
 70
    32
  0
VERTEX
  8
XOLDLIFT
 62
6
 10
1637.993
 20
-6949.756
 30
-1610.000
 70
    32
  0
VERTEX
  8
XOLDLIFT
 62
6
 10
1635.910
 20
-6941.092
 30
-1610.000
 70
    32
  0
VERTEX
  8
XOLDLIFT
 62
6
 10
1635.997
 20
-6931.898
 30
-1610.000
 70
    32
  0
VERTEX
  8
XOLDLIFT
 62
6
 10
1629.175
 20
-6920.723
 30
-1610.000
 70
    32
  0
VERTEX
  8
XOLDLIFT
 62
6
 10
1628.340
 20
-6912.929
 30
-1610.000
 70
    32
  0
VERTEX
  8
XOLDLIFT
 62
6
 10
1621.564
 20
-6904.320
 30
-1610.000
 70
    32
  0
VERTEX
  8
XOLDLIFT
 62
6
 10
1620.423
 20
-6894.762
 30
-1610.000
 70
    32
  0
VERTEX
  8
XOLDLIFT
 62
6
 10
1617.180
 20
-6885.187
 30
-1610.000
 70
    32
  0
VERTEX
  8
XOLDLIFT
 62
6
 10
1606.672
 20
-6877.172
 30
-1610.000
 70
    32
  0
VERTEX
  8
XOLDLIFT
 62
6
 10
1595.319
 20
-6866.112
 30
-1610.000
 70
    32
  0
VERTEX
  8
XOLDLIFT
 62
6
 10
1585.846
 20
-6872.934
 30
-1610.000
 70
    32
  0
VERTEX
  8
XOLDLIFT
 62
6
 10
1585.251
 20
-6871.420
 30
-1610.000
 70
    32
  0
VERTEX
  8
XOLDLIFT
 62
6
 10
1578.132
 20
-6862.556
 30
-1610.000
 70
    32
  0
VERTEX
  8
XOLDLIFT
 62
6
 10
1578.503
 20
-6858.302
 30
-1610.000
 70
    32
  0
VERTEX
  8
XOLDLIFT
 62
6
 10
1578.299
 20
-6846.003
 30
-1610.000
 70
    32
  0
VERTEX
  8
XOLDLIFT
 62
6
 10
1565.191
 20
-6836.072
 30
-1610.000
 70
    32
  0
VERTEX
  8
XOLDLIFT
 62
6
 10
1562.882
 20
-6834.375
 30
-1610.000
 70
    32
  0
VERTEX
  8
XOLDLIFT
 62
6
 10
1541.478
 20
-6815.992
 30
-1610.000
 70
    32
  0
VERTEX
  8
XOLDLIFT
 62
6
 10
1539.323
 20
-6806.723
 30
-1610.000
 70
    32
  0
VERTEX
  8
XOLDLIFT
 62
6
 10
1539.323
 20
-6806.723
 30
-1610.000
 70
    32
  0
VERTEX
  8
XOLDLIFT
 62
6
 10
1538.044
 20
-6798.690
 30
-1610.000
 70
    32
  0
VERTEX
  8
XOLDLIFT
 62
6
 10
1539.026
 20
-6789.574
 30
-1610.000
 70
    32
  0
VERTEX
  8
XOLDLIFT
 62
6
 10
1542.510
 20
-6781.134
 30
-1603.893
 70
    32
  0
SEQEND
  8
XOLDLIFT
  0
ENDSEC
  0
EOF
