999
********************************
999
*   DXF File - Entities Only   *
999
*        3D Data Format        *
999
*     Output from ENVISAGE     *
999
*     02-Jan-2008 11:19:29     *
999
********************************
  0
SECTION 
  2
HEADER
  9
$ACADVER
  1
AC1009
  9
$EXTMIN
 10
-290000.000
 20
-250000.000
 30
-4000.000
  9
$EXTMAX
 10
320000.000
 20
160000.000
 30
6000.000
  0
ENDSEC
  0
SECTION
  2
ENTITIES
  0
POLYLINE
  8
W69LPLIFT
 62
1
 66
     1
 70
     9
  0
VERTEX
  8
W69LPLIFT
 62
1
 10
2169.096
 20
-8590.394
 30
-1631.096
 70
    32
  0
VERTEX
  8
W69LPLIFT
 62
1
 10
2171.180
 20
-8592.121
 30
-1631.184
 70
    32
  0
VERTEX
  8
W69LPLIFT
 62
1
 10
2176.427
 20
-8597.071
 30
-1631.427
 70
    32
  0
VERTEX
  8
W69LPLIFT
 62
1
 10
2183.853
 20
-8621.868
 30
-1632.686
 70
    32
  0
VERTEX
  8
W69LPLIFT
 62
1
 10
2184.393
 20
-8635.961
 30
-1633.362
 70
    32
  0
VERTEX
  8
W69LPLIFT
 62
1
 10
2194.372
 20
-8639.259
 30
-1632.586
 70
    32
  0
VERTEX
  8
W69LPLIFT
 62
1
 10
2205.481
 20
-8653.134
 30
-1631.406
 70
    32
  0
VERTEX
  8
W69LPLIFT
 62
1
 10
2216.246
 20
-8649.644
 30
-1630.854
 70
    32
  0
VERTEX
  8
W69LPLIFT
 62
1
 10
2211.605
 20
-8636.403
 30
-1631.608
 70
    32
  0
VERTEX
  8
W69LPLIFT
 62
1
 10
2207.800
 20
-8619.663
 30
-1632.843
 70
    32
  0
VERTEX
  8
W69LPLIFT
 62
1
 10
2193.747
 20
-8599.092
 30
-1631.711
 70
    32
  0
VERTEX
  8
W69LPLIFT
 62
1
 10
2196.458
 20
-8590.839
 30
-1631.446
 70
    32
  0
VERTEX
  8
W69LPLIFT
 62
1
 10
2190.525
 20
-8572.736
 30
-1630.719
 70
    32
  0
VERTEX
  8
W69LPLIFT
 62
1
 10
2182.665
 20
-8564.434
 30
-1630.323
 70
    32
  0
VERTEX
  8
W69LPLIFT
 62
1
 10
2172.622
 20
-8550.636
 30
-1629.966
 70
    32
  0
VERTEX
  8
W69LPLIFT
 62
1
 10
2162.221
 20
-8535.267
 30
-1630.439
 70
    32
  0
VERTEX
  8
W69LPLIFT
 62
1
 10
2138.865
 20
-8502.052
 30
-1631.473
 70
    32
  0
VERTEX
  8
W69LPLIFT
 62
1
 10
2128.015
 20
-8509.839
 30
-1631.442
 70
    32
  0
VERTEX
  8
W69LPLIFT
 62
1
 10
2146.997
 20
-8536.123
 30
-1630.699
 70
    32
  0
VERTEX
  8
W69LPLIFT
 62
1
 10
2147.634
 20
-8541.475
 30
-1630.562
 70
    32
  0
VERTEX
  8
W69LPLIFT
 62
1
 10
2159.498
 20
-8555.979
 30
-1630.018
 70
    32
  0
VERTEX
  8
W69LPLIFT
 62
1
 10
2165.969
 20
-8565.025
 30
-1630.141
 70
    32
  0
VERTEX
  8
W69LPLIFT
 62
1
 10
2168.863
 20
-8578.785
 30
-1630.674
 70
    32
  0
SEQEND
  8
W69LPLIFT
  0
LINE
  8
W69LPLIFT
 62
1
 10
2138.676
 20
-8502.888
 30
0.000
 11
2116.497
 21
-8517.527
 31
0.000
  0
TEXT
  8
W69LPLIFT
 62
1
 10
2115.230
 20
-8513.757
 30
0.000
 40
2.362
  1
12-1-98
 50
34.200
 41
 1.0 
  0
LINE
  8
W69LPLIFT
 62
1
 10
2216.613
 20
-8649.348
 30
0.000
 11
2195.459
 21
-8656.446
 31
0.000
  0
TEXT
  8
W69LPLIFT
 62
1
 10
2206.127
 20
-8657.242
 30
0.000
 40
2.362
  1
12-1-98
 50
34.200
 41
 1.0 
  0
TEXT
  8
W69LPLIFT
 62
1
 10
2207.791
 20
-8639.042
 30
-1631.754
 40
2.362
  1
BK -1631.754
 41
 1.0 
  0
TEXT
  8
W69LPLIFT
 62
1
 10
2196.584
 20
-8578.313
 30
-1628.709
 40
1.969
  1
ST-924R
 50
26.589
 41
 1.0 
  0
TEXT
  8
W69LPLIFT
 62
1
 10
2196.328
 20
-8580.788
 30
-1628.709
 40
1.969
  1
-1628.709
 50
26.589
 41
 1.0 
  0
TEXT
  8
W69LPLIFT
 62
1
 10
2190.841
 20
-8572.382
 30
-1629.087
 40
1.969
  1
-1629.087
 50
26.589
 41
 1.0 
  0
TEXT
  8
W69LPLIFT
 62
1
 10
2189.724
 20
-8570.472
 30
-1629.087
 40
1.969
  1
ST-924Q
 50
26.589
 41
 1.0 
  0
POINT
  8
W69LPLIFT
 62
1
 10
2180.519
 20
-8584.468
 30
-1628.709
  0
POLYLINE
  8
W69LPLIFT
 62
1
 66
     1
 70
     9
  0
VERTEX
  8
W69LPLIFT
 62
1
 10
2180.519
 20
-8582.258
 30
-1628.709
 70
    32
  0
VERTEX
  8
W69LPLIFT
 62
1
 10
2182.268
 20
-8585.438
 30
-1628.709
 70
    32
  0
VERTEX
  8
W69LPLIFT
 62
1
 10
2178.769
 20
-8585.436
 30
-1628.709
 70
    32
  0
SEQEND
  8
W69LPLIFT
  0
POINT
  8
W69LPLIFT
 62
1
 10
2177.760
 20
-8577.806
 30
-1629.087
  0
POLYLINE
  8
W69LPLIFT
 62
1
 66
     1
 70
     9
  0
VERTEX
  8
W69LPLIFT
 62
1
 10
2177.760
 20
-8575.596
 30
-1629.087
 70
    32
  0
VERTEX
  8
W69LPLIFT
 62
1
 10
2179.509
 20
-8578.776
 30
-1629.087
 70
    32
  0
VERTEX
  8
W69LPLIFT
 62
1
 10
2176.010
 20
-8578.774
 30
-1629.087
 70
    32
  0
SEQEND
  8
W69LPLIFT
  0
POLYLINE
  8
W69LPLIFT
 62
8
 66
     1
 70
     8
  0
VERTEX
  8
W69LPLIFT
 62
8
 10
1275.568
 20
-6305.595
 30
-1559.200
 70
    32
  0
VERTEX
  8
W69LPLIFT
 62
8
 10
1280.728
 20
-6291.462
 30
-1558.000
 70
    32
  0
VERTEX
  8
W69LPLIFT
 62
8
 10
1308.785
 20
-6266.175
 30
-1553.879
 70
    32
  0
VERTEX
  8
W69LPLIFT
 62
8
 10
1314.076
 20
-6266.984
 30
-1554.471
 70
    32
  0
VERTEX
  8
W69LPLIFT
 62
8
 10
1322.708
 20
-6261.935
 30
-1552.206
 70
    32
  0
VERTEX
  8
W69LPLIFT
 62
8
 10
1337.428
 20
-6257.795
 30
-1552.172
 70
    32
  0
VERTEX
  8
W69LPLIFT
 62
8
 10
1341.657
 20
-6246.132
 30
-1552.189
 70
    32
  0
VERTEX
  8
W69LPLIFT
 62
8
 10
1352.448
 20
-6238.552
 30
-1552.303
 70
    32
  0
VERTEX
  8
W69LPLIFT
 62
8
 10
1360.779
 20
-6229.156
 30
-1552.276
 70
    32
  0
VERTEX
  8
W69LPLIFT
 62
8
 10
1347.562
 20
-6210.333
 30
-1552.362
 70
    32
  0
VERTEX
  8
W69LPLIFT
 62
8
 10
1333.917
 20
-6217.719
 30
-1552.428
 70
    32
  0
VERTEX
  8
W69LPLIFT
 62
8
 10
1324.680
 20
-6224.400
 30
-1552.386
 70
    32
  0
VERTEX
  8
W69LPLIFT
 62
8
 10
1316.493
 20
-6233.268
 30
-1552.306
 70
    32
  0
VERTEX
  8
W69LPLIFT
 62
8
 10
1315.594
 20
-6244.303
 30
-1554.046
 70
    32
  0
VERTEX
  8
W69LPLIFT
 62
8
 10
1309.916
 20
-6250.668
 30
-1554.912
 70
    32
  0
VERTEX
  8
W69LPLIFT
 62
8
 10
1300.819
 20
-6257.199
 30
-1553.436
 70
    32
  0
VERTEX
  8
W69LPLIFT
 62
8
 10
1287.253
 20
-6274.043
 30
-1556.000
 70
    32
  0
VERTEX
  8
W69LPLIFT
 62
8
 10
1278.725
 20
-6280.691
 30
-1558.000
 70
    32
  0
VERTEX
  8
W69LPLIFT
 62
8
 10
1270.397
 20
-6277.325
 30
-1559.000
 70
    32
  0
SEQEND
  8
W69LPLIFT
  0
POLYLINE
  8
W69LPLIFT
 62
1
 66
     1
 70
     9
  0
VERTEX
  8
W69LPLIFT
 62
1
 10
2332.764
 20
-9258.654
 30
-1645.280
 70
    32
  0
VERTEX
  8
W69LPLIFT
 62
1
 10
2347.377
 20
-9273.075
 30
-1641.281
 70
    32
  0
VERTEX
  8
W69LPLIFT
 62
1
 10
2354.791
 20
-9281.331
 30
-1640.141
 70
    32
  0
VERTEX
  8
W69LPLIFT
 62
1
 10
2354.965
 20
-9284.081
 30
-1640.003
 70
    32
  0
VERTEX
  8
W69LPLIFT
 62
1
 10
2360.759
 20
-9293.826
 30
-1639.313
 70
    32
  0
VERTEX
  8
W69LPLIFT
 62
1
 10
2364.666
 20
-9307.269
 30
-1640.274
 70
    32
  0
VERTEX
  8
W69LPLIFT
 62
1
 10
2373.415
 20
-9320.361
 30
-1641.040
 70
    32
  0
VERTEX
  8
W69LPLIFT
 62
1
 10
2387.107
 20
-9335.539
 30
-1641.754
 70
    32
  0
VERTEX
  8
W69LPLIFT
 62
1
 10
2391.274
 20
-9344.921
 30
-1642.751
 70
    32
  0
VERTEX
  8
W69LPLIFT
 62
1
 10
2395.133
 20
-9347.049
 30
-1642.925
 70
    32
  0
VERTEX
  8
W69LPLIFT
 62
1
 10
2396.781
 20
-9351.331
 30
-1643.126
 70
    32
  0
VERTEX
  8
W69LPLIFT
 62
1
 10
2400.299
 20
-9359.514
 30
-1643.520
 70
    32
  0
VERTEX
  8
W69LPLIFT
 62
1
 10
2402.273
 20
-9370.807
 30
-1643.995
 70
    32
  0
VERTEX
  8
W69LPLIFT
 62
1
 10
2395.649
 20
-9374.956
 30
-1645.130
 70
    32
  0
VERTEX
  8
W69LPLIFT
 62
1
 10
2400.791
 20
-9388.448
 30
-1646.278
 70
    32
  0
VERTEX
  8
W69LPLIFT
 62
1
 10
2407.107
 20
-9398.902
 30
-1648.897
 70
    32
  0
VERTEX
  8
W69LPLIFT
 62
1
 10
2422.980
 20
-9418.837
 30
-1648.861
 70
    32
  0
VERTEX
  8
W69LPLIFT
 62
1
 10
2409.468
 20
-9425.187
 30
-1648.725
 70
    32
  0
VERTEX
  8
W69LPLIFT
 62
1
 10
2396.033
 20
-9408.304
 30
-1648.890
 70
    32
  0
VERTEX
  8
W69LPLIFT
 62
1
 10
2389.720
 20
-9408.569
 30
-1648.357
 70
    32
  0
VERTEX
  8
W69LPLIFT
 62
1
 10
2381.810
 20
-9387.487
 30
-1645.556
 70
    32
  0
VERTEX
  8
W69LPLIFT
 62
1
 10
2375.749
 20
-9375.352
 30
-1643.526
 70
    32
  0
VERTEX
  8
W69LPLIFT
 62
1
 10
2368.849
 20
-9361.618
 30
-1642.840
 70
    32
  0
VERTEX
  8
W69LPLIFT
 62
1
 10
2365.642
 20
-9352.306
 30
-1642.331
 70
    32
  0
VERTEX
  8
W69LPLIFT
 62
1
 10
2360.741
 20
-9347.596
 30
-1641.743
 70
    32
  0
VERTEX
  8
W69LPLIFT
 62
1
 10
2353.188
 20
-9326.324
 30
-1641.081
 70
    32
  0
VERTEX
  8
W69LPLIFT
 62
1
 10
2347.469
 20
-9303.768
 30
-1639.348
 70
    32
  0
VERTEX
  8
W69LPLIFT
 62
1
 10
2341.434
 20
-9285.193
 30
-1640.470
 70
    32
  0
VERTEX
  8
W69LPLIFT
 62
1
 10
2335.948
 20
-9283.173
 30
-1640.778
 70
    32
  0
VERTEX
  8
W69LPLIFT
 62
1
 10
2329.760
 20
-9274.458
 30
-1646.770
 70
    32
  0
VERTEX
  8
W69LPLIFT
 62
1
 10
2323.177
 20
-9266.408
 30
-1644.792
 70
    32
  0
SEQEND
  8
W69LPLIFT
  0
POLYLINE
  8
W69LPLIFT
 62
2
 66
     1
 70
     8
  0
VERTEX
  8
W69LPLIFT
 62
2
 10
2322.803
 20
-9201.274
 30
-1661.721
 70
    32
  0
VERTEX
  8
W69LPLIFT
 62
2
 10
2317.519
 20
-9224.713
 30
-1657.486
 70
    32
  0
VERTEX
  8
W69LPLIFT
 62
2
 10
2319.910
 20
-9239.198
 30
-1653.416
 70
    32
  0
VERTEX
  8
W69LPLIFT
 62
2
 10
2333.365
 20
-9258.288
 30
-1647.209
 70
    32
  0
VERTEX
  8
W69LPLIFT
 62
2
 10
2347.344
 20
-9271.553
 30
-1647.369
 70
    32
  0
VERTEX
  8
W69LPLIFT
 62
2
 10
2357.177
 20
-9284.902
 30
-1647.008
 70
    32
  0
VERTEX
  8
W69LPLIFT
 62
2
 10
2366.069
 20
-9295.408
 30
-1646.708
 70
    32
  0
VERTEX
  8
W69LPLIFT
 62
2
 10
2370.843
 20
-9304.703
 30
-1646.485
 70
    32
  0
VERTEX
  8
W69LPLIFT
 62
2
 10
2374.278
 20
-9310.446
 30
-1646.340
 70
    32
  0
VERTEX
  8
W69LPLIFT
 62
2
 10
2376.442
 20
-9315.018
 30
-1646.232
 70
    32
  0
VERTEX
  8
W69LPLIFT
 62
2
 10
2379.395
 20
-9319.357
 30
-1646.118
 70
    32
  0
VERTEX
  8
W69LPLIFT
 62
2
 10
2393.955
 20
-9340.750
 30
-1646.200
 70
    32
  0
VERTEX
  8
W69LPLIFT
 62
2
 10
2380.830
 20
-9350.170
 30
-1646.200
 70
    32
  0
VERTEX
  8
W69LPLIFT
 62
2
 10
2367.938
 20
-9327.020
 30
-1646.200
 70
    32
  0
VERTEX
  8
W69LPLIFT
 62
2
 10
2364.396
 20
-9320.660
 30
-1646.297
 70
    32
  0
VERTEX
  8
W69LPLIFT
 62
2
 10
2359.497
 20
-9311.439
 30
-1646.521
 70
    32
  0
VERTEX
  8
W69LPLIFT
 62
2
 10
2342.321
 20
-9285.617
 30
-1647.195
 70
    32
  0
VERTEX
  8
W69LPLIFT
 62
2
 10
2340.095
 20
-9283.884
 30
-1647.254
 70
    32
  0
VERTEX
  8
W69LPLIFT
 62
2
 10
2336.968
 20
-9283.934
 30
-1647.295
 70
    32
  0
VERTEX
  8
W69LPLIFT
 62
2
 10
2320.427
 20
-9262.678
 30
-1647.345
 70
    32
  0
VERTEX
  8
W69LPLIFT
 62
2
 10
2310.819
 20
-9254.322
 30
-1650.205
 70
    32
  0
VERTEX
  8
W69LPLIFT
 62
2
 10
2306.976
 20
-9230.986
 30
-1655.950
 70
    32
  0
VERTEX
  8
W69LPLIFT
 62
2
 10
2312.443
 20
-9198.854
 30
-1662.966
 70
    32
  0
SEQEND
  8
W69LPLIFT
  0
TEXT
  8
W69LPLIFT
 62
1
 10
2280.433
 20
-9233.835
 30
-1654.669
 40
2.362
  1
ST-914Q
 41
 1.0 
  0
TEXT
  8
W69LPLIFT
 62
1
 10
2275.289
 20
-9239.675
 30
-1654.669
 40
2.362
  1
-1654.669
 41
 1.0 
  0
TEXT
  8
W69LPLIFT
 62
1
 10
2284.906
 20
-9250.294
 30
-1649.157
 40
2.362
  1
ST-915Q
 41
 1.0 
  0
TEXT
  8
W69LPLIFT
 62
1
 10
2280.363
 20
-9254.931
 30
-1649.157
 40
2.362
  1
-1649.157
 41
 1.0 
  0
TEXT
  8
W69LPLIFT
 62
1
 10
2285.426
 20
-9261.059
 30
-1647.116
 40
2.362
  1
ST-915R
 41
 1.0 
  0
TEXT
  8
W69LPLIFT
 62
1
 10
2278.835
 20
-9265.083
 30
-1647.116
 40
2.362
  1
-1647.116
 41
 1.0 
  0
TEXT
  8
W69LPLIFT
 62
1
 10
2330.001
 20
-9346.170
 30
-1642.862
 40
2.362
  1
BK -1642.862
 41
 1.0 
  0
TEXT
  8
W69LPLIFT
 62
1
 10
2343.246
 20
-9370.776
 30
-1644.053
 40
2.362
  1
BK -1644.053
 41
 1.0 
  0
TEXT
  8
W69LPLIFT
 62
1
 10
2413.374
 20
-9402.491
 30
-1648.889
 40
2.362
  1
BK -1648.889
 41
 1.0 
  0
TEXT
  8
W69LPLIFT
 62
1
 10
2402.966
 20
-9354.253
 30
-1643.386
 40
2.362
  1
BK -1643.386
 41
 1.0 
  0
TEXT
  8
W69LPLIFT
 62
1
 10
2397.789
 20
-9342.099
 30
-1642.637
 40
2.362
  1
BK -1642.637
 41
 1.0 
  0
TEXT
  8
W69LPLIFT
 62
1
 10
2384.563
 20
-9324.881
 30
-1640.907
 40
2.362
  1
BK -1640.907
 41
 1.0 
  0
TEXT
  8
W69LPLIFT
 62
2
 10
2381.410
 20
-9318.556
 30
-1646.202
 40
2.362
  1
BK -1646.202
 41
 1.0 
  0
TEXT
  8
W69LPLIFT
 62
1
 10
2377.547
 20
-9312.489
 30
-1641.146
 40
2.362
  1
BK -1641.146
 41
 1.0 
  0
TEXT
  8
W69LPLIFT
 62
1
 10
2370.924
 20
-9299.302
 30
-1639.171
 40
2.362
  1
BK -1639.171
 41
 1.0 
  0
TEXT
  8
W69LPLIFT
 62
1
 10
2354.893
 20
-9278.073
 30
-1640.994
 40
2.362
  1
BK -1640.994
 41
 1.0 
  0
TEXT
  8
W69LPLIFT
 62
2
 10
2347.780
 20
-9271.001
 30
-1647.506
 40
2.362
  1
BK -1647.506
 41
 1.0 
  0
TEXT
  8
W69LPLIFT
 62
1
 10
2341.253
 20
-9263.066
 30
-1644.967
 40
2.362
  1
BK -1644.967
 41
 1.0 
  0
TEXT
  8
W69LPLIFT
 62
1
 10
2336.405
 20
-9253.423
 30
1000.000
 40
2.362
  1
Elev. Plug -1655
 41
 1.0 
  0
POLYLINE
  8
W69LPLIFT
 62
1
 66
     1
 70
     9
  0
VERTEX
  8
W69LPLIFT
 62
1
 10
2321.254
 20
-9250.966
 30
-1649.157
 70
    32
  0
VERTEX
  8
W69LPLIFT
 62
1
 10
2323.003
 20
-9254.146
 30
-1649.157
 70
    32
  0
VERTEX
  8
W69LPLIFT
 62
1
 10
2319.504
 20
-9254.144
 30
-1649.157
 70
    32
  0
SEQEND
  8
W69LPLIFT
  0
POINT
  8
W69LPLIFT
 62
1
 10
2321.254
 20
-9253.176
 30
-1649.157
  0
POINT
  8
W69LPLIFT
 62
1
 10
2314.151
 20
-9237.520
 30
-1654.669
  0
POLYLINE
  8
W69LPLIFT
 62
1
 66
     1
 70
     9
  0
VERTEX
  8
W69LPLIFT
 62
1
 10
2314.151
 20
-9235.310
 30
-1654.669
 70
    32
  0
VERTEX
  8
W69LPLIFT
 62
1
 10
2315.900
 20
-9238.490
 30
-1654.669
 70
    32
  0
VERTEX
  8
W69LPLIFT
 62
1
 10
2312.401
 20
-9238.488
 30
-1654.669
 70
    32
  0
SEQEND
  8
W69LPLIFT
  0
POINT
  8
W69LPLIFT
 62
1
 10
2332.949
 20
-9257.601
 30
0.000
  0
POLYLINE
  8
W69LPLIFT
 62
1
 66
     1
 70
     9
  0
VERTEX
  8
W69LPLIFT
 62
1
 10
2332.949
 20
-9255.391
 30
0.000
 70
    32
  0
VERTEX
  8
W69LPLIFT
 62
1
 10
2334.698
 20
-9258.571
 30
0.000
 70
    32
  0
VERTEX
  8
W69LPLIFT
 62
1
 10
2331.199
 20
-9258.570
 30
0.000
 70
    32
  0
SEQEND
  8
W69LPLIFT
  0
POINT
  8
W69LPLIFT
 62
1
 10
2325.986
 20
-9259.889
 30
-1647.116
  0
POLYLINE
  8
W69LPLIFT
 62
1
 66
     1
 70
     9
  0
VERTEX
  8
W69LPLIFT
 62
1
 10
2325.986
 20
-9257.679
 30
-1647.116
 70
    32
  0
VERTEX
  8
W69LPLIFT
 62
1
 10
2327.735
 20
-9260.859
 30
-1647.116
 70
    32
  0
VERTEX
  8
W69LPLIFT
 62
1
 10
2324.236
 20
-9260.857
 30
-1647.116
 70
    32
  0
SEQEND
  8
W69LPLIFT
  0
POLYLINE
  8
W69LPLIFT
 62
1
 66
     1
 70
     8
  0
VERTEX
  8
W69LPLIFT
 62
1
 10
2327.291
 20
-9263.409
 30
-1644.967
 70
    32
  0
VERTEX
  8
W69LPLIFT
 62
1
 10
2327.289
 20
-9263.365
 30
-1644.967
 70
    32
  0
VERTEX
  8
W69LPLIFT
 62
1
 10
2327.283
 20
-9263.322
 30
-1644.967
 70
    32
  0
VERTEX
  8
W69LPLIFT
 62
1
 10
2327.274
 20
-9263.280
 30
-1644.967
 70
    32
  0
VERTEX
  8
W69LPLIFT
 62
1
 10
2327.261
 20
-9263.238
 30
-1644.967
 70
    32
  0
VERTEX
  8
W69LPLIFT
 62
1
 10
2327.244
 20
-9263.198
 30
-1644.967
 70
    32
  0
VERTEX
  8
W69LPLIFT
 62
1
 10
2327.224
 20
-9263.159
 30
-1644.967
 70
    32
  0
VERTEX
  8
W69LPLIFT
 62
1
 10
2327.201
 20
-9263.122
 30
-1644.967
 70
    32
  0
VERTEX
  8
W69LPLIFT
 62
1
 10
2327.174
 20
-9263.088
 30
-1644.967
 70
    32
  0
VERTEX
  8
W69LPLIFT
 62
1
 10
2327.145
 20
-9263.055
 30
-1644.967
 70
    32
  0
VERTEX
  8
W69LPLIFT
 62
1
 10
2327.112
 20
-9263.026
 30
-1644.967
 70
    32
  0
VERTEX
  8
W69LPLIFT
 62
1
 10
2327.078
 20
-9262.999
 30
-1644.967
 70
    32
  0
VERTEX
  8
W69LPLIFT
 62
1
 10
2327.041
 20
-9262.976
 30
-1644.967
 70
    32
  0
VERTEX
  8
W69LPLIFT
 62
1
 10
2327.002
 20
-9262.956
 30
-1644.967
 70
    32
  0
VERTEX
  8
W69LPLIFT
 62
1
 10
2326.962
 20
-9262.939
 30
-1644.967
 70
    32
  0
VERTEX
  8
W69LPLIFT
 62
1
 10
2326.920
 20
-9262.926
 30
-1644.967
 70
    32
  0
VERTEX
  8
W69LPLIFT
 62
1
 10
2326.878
 20
-9262.917
 30
-1644.967
 70
    32
  0
VERTEX
  8
W69LPLIFT
 62
1
 10
2326.835
 20
-9262.911
 30
-1644.967
 70
    32
  0
VERTEX
  8
W69LPLIFT
 62
1
 10
2326.791
 20
-9262.909
 30
-1644.967
 70
    32
  0
VERTEX
  8
W69LPLIFT
 62
1
 10
2326.747
 20
-9262.911
 30
-1644.967
 70
    32
  0
VERTEX
  8
W69LPLIFT
 62
1
 10
2326.704
 20
-9262.917
 30
-1644.967
 70
    32
  0
VERTEX
  8
W69LPLIFT
 62
1
 10
2326.662
 20
-9262.926
 30
-1644.967
 70
    32
  0
VERTEX
  8
W69LPLIFT
 62
1
 10
2326.620
 20
-9262.939
 30
-1644.967
 70
    32
  0
VERTEX
  8
W69LPLIFT
 62
1
 10
2326.580
 20
-9262.956
 30
-1644.967
 70
    32
  0
VERTEX
  8
W69LPLIFT
 62
1
 10
2326.541
 20
-9262.976
 30
-1644.967
 70
    32
  0
VERTEX
  8
W69LPLIFT
 62
1
 10
2326.504
 20
-9262.999
 30
-1644.967
 70
    32
  0
VERTEX
  8
W69LPLIFT
 62
1
 10
2326.470
 20
-9263.026
 30
-1644.967
 70
    32
  0
VERTEX
  8
W69LPLIFT
 62
1
 10
2326.437
 20
-9263.055
 30
-1644.967
 70
    32
  0
VERTEX
  8
W69LPLIFT
 62
1
 10
2326.408
 20
-9263.088
 30
-1644.967
 70
    32
  0
VERTEX
  8
W69LPLIFT
 62
1
 10
2326.381
 20
-9263.122
 30
-1644.967
 70
    32
  0
VERTEX
  8
W69LPLIFT
 62
1
 10
2326.358
 20
-9263.159
 30
-1644.967
 70
    32
  0
VERTEX
  8
W69LPLIFT
 62
1
 10
2326.338
 20
-9263.198
 30
-1644.967
 70
    32
  0
VERTEX
  8
W69LPLIFT
 62
1
 10
2326.321
 20
-9263.238
 30
-1644.967
 70
    32
  0
VERTEX
  8
W69LPLIFT
 62
1
 10
2326.308
 20
-9263.280
 30
-1644.967
 70
    32
  0
VERTEX
  8
W69LPLIFT
 62
1
 10
2326.299
 20
-9263.322
 30
-1644.967
 70
    32
  0
VERTEX
  8
W69LPLIFT
 62
1
 10
2326.293
 20
-9263.365
 30
-1644.967
 70
    32
  0
VERTEX
  8
W69LPLIFT
 62
1
 10
2326.291
 20
-9263.409
 30
-1644.967
 70
    32
  0
VERTEX
  8
W69LPLIFT
 62
1
 10
2326.293
 20
-9263.453
 30
-1644.967
 70
    32
  0
VERTEX
  8
W69LPLIFT
 62
1
 10
2326.299
 20
-9263.496
 30
-1644.967
 70
    32
  0
VERTEX
  8
W69LPLIFT
 62
1
 10
2326.308
 20
-9263.538
 30
-1644.967
 70
    32
  0
VERTEX
  8
W69LPLIFT
 62
1
 10
2326.321
 20
-9263.580
 30
-1644.967
 70
    32
  0
VERTEX
  8
W69LPLIFT
 62
1
 10
2326.338
 20
-9263.620
 30
-1644.967
 70
    32
  0
VERTEX
  8
W69LPLIFT
 62
1
 10
2326.358
 20
-9263.659
 30
-1644.967
 70
    32
  0
VERTEX
  8
W69LPLIFT
 62
1
 10
2326.381
 20
-9263.696
 30
-1644.967
 70
    32
  0
VERTEX
  8
W69LPLIFT
 62
1
 10
2326.408
 20
-9263.730
 30
-1644.967
 70
    32
  0
VERTEX
  8
W69LPLIFT
 62
1
 10
2326.437
 20
-9263.763
 30
-1644.967
 70
    32
  0
VERTEX
  8
W69LPLIFT
 62
1
 10
2326.470
 20
-9263.792
 30
-1644.967
 70
    32
  0
VERTEX
  8
W69LPLIFT
 62
1
 10
2326.504
 20
-9263.819
 30
-1644.967
 70
    32
  0
VERTEX
  8
W69LPLIFT
 62
1
 10
2326.541
 20
-9263.842
 30
-1644.967
 70
    32
  0
VERTEX
  8
W69LPLIFT
 62
1
 10
2326.580
 20
-9263.862
 30
-1644.967
 70
    32
  0
VERTEX
  8
W69LPLIFT
 62
1
 10
2326.620
 20
-9263.879
 30
-1644.967
 70
    32
  0
VERTEX
  8
W69LPLIFT
 62
1
 10
2326.662
 20
-9263.892
 30
-1644.967
 70
    32
  0
VERTEX
  8
W69LPLIFT
 62
1
 10
2326.704
 20
-9263.901
 30
-1644.967
 70
    32
  0
VERTEX
  8
W69LPLIFT
 62
1
 10
2326.747
 20
-9263.907
 30
-1644.967
 70
    32
  0
VERTEX
  8
W69LPLIFT
 62
1
 10
2326.791
 20
-9263.909
 30
-1644.967
 70
    32
  0
VERTEX
  8
W69LPLIFT
 62
1
 10
2326.835
 20
-9263.907
 30
-1644.967
 70
    32
  0
VERTEX
  8
W69LPLIFT
 62
1
 10
2326.878
 20
-9263.901
 30
-1644.967
 70
    32
  0
VERTEX
  8
W69LPLIFT
 62
1
 10
2326.920
 20
-9263.892
 30
-1644.967
 70
    32
  0
VERTEX
  8
W69LPLIFT
 62
1
 10
2326.962
 20
-9263.879
 30
-1644.967
 70
    32
  0
VERTEX
  8
W69LPLIFT
 62
1
 10
2327.002
 20
-9263.862
 30
-1644.967
 70
    32
  0
VERTEX
  8
W69LPLIFT
 62
1
 10
2327.041
 20
-9263.842
 30
-1644.967
 70
    32
  0
VERTEX
  8
W69LPLIFT
 62
1
 10
2327.078
 20
-9263.819
 30
-1644.967
 70
    32
  0
VERTEX
  8
W69LPLIFT
 62
1
 10
2327.112
 20
-9263.792
 30
-1644.967
 70
    32
  0
VERTEX
  8
W69LPLIFT
 62
1
 10
2327.145
 20
-9263.763
 30
-1644.967
 70
    32
  0
VERTEX
  8
W69LPLIFT
 62
1
 10
2327.174
 20
-9263.730
 30
-1644.967
 70
    32
  0
VERTEX
  8
W69LPLIFT
 62
1
 10
2327.201
 20
-9263.696
 30
-1644.967
 70
    32
  0
VERTEX
  8
W69LPLIFT
 62
1
 10
2327.224
 20
-9263.659
 30
-1644.967
 70
    32
  0
VERTEX
  8
W69LPLIFT
 62
1
 10
2327.244
 20
-9263.620
 30
-1644.967
 70
    32
  0
VERTEX
  8
W69LPLIFT
 62
1
 10
2327.261
 20
-9263.580
 30
-1644.967
 70
    32
  0
VERTEX
  8
W69LPLIFT
 62
1
 10
2327.274
 20
-9263.538
 30
-1644.967
 70
    32
  0
VERTEX
  8
W69LPLIFT
 62
1
 10
2327.283
 20
-9263.496
 30
-1644.967
 70
    32
  0
VERTEX
  8
W69LPLIFT
 62
1
 10
2327.289
 20
-9263.453
 30
-1644.967
 70
    32
  0
VERTEX
  8
W69LPLIFT
 62
1
 10
2327.291
 20
-9263.409
 30
-1644.967
 70
    32
  0
SEQEND
  8
W69LPLIFT
  0
POLYLINE
  8
W69LPLIFT
 62
2
 66
     1
 70
     8
  0
VERTEX
  8
W69LPLIFT
 62
2
 10
2337.919
 20
-9272.991
 30
-1647.506
 70
    32
  0
VERTEX
  8
W69LPLIFT
 62
2
 10
2337.917
 20
-9272.947
 30
-1647.506
 70
    32
  0
VERTEX
  8
W69LPLIFT
 62
2
 10
2337.911
 20
-9272.904
 30
-1647.506
 70
    32
  0
VERTEX
  8
W69LPLIFT
 62
2
 10
2337.902
 20
-9272.862
 30
-1647.506
 70
    32
  0
VERTEX
  8
W69LPLIFT
 62
2
 10
2337.889
 20
-9272.820
 30
-1647.506
 70
    32
  0
VERTEX
  8
W69LPLIFT
 62
2
 10
2337.872
 20
-9272.780
 30
-1647.506
 70
    32
  0
VERTEX
  8
W69LPLIFT
 62
2
 10
2337.852
 20
-9272.741
 30
-1647.506
 70
    32
  0
VERTEX
  8
W69LPLIFT
 62
2
 10
2337.829
 20
-9272.704
 30
-1647.506
 70
    32
  0
VERTEX
  8
W69LPLIFT
 62
2
 10
2337.802
 20
-9272.670
 30
-1647.506
 70
    32
  0
VERTEX
  8
W69LPLIFT
 62
2
 10
2337.773
 20
-9272.637
 30
-1647.506
 70
    32
  0
VERTEX
  8
W69LPLIFT
 62
2
 10
2337.740
 20
-9272.608
 30
-1647.506
 70
    32
  0
VERTEX
  8
W69LPLIFT
 62
2
 10
2337.706
 20
-9272.581
 30
-1647.506
 70
    32
  0
VERTEX
  8
W69LPLIFT
 62
2
 10
2337.669
 20
-9272.558
 30
-1647.506
 70
    32
  0
VERTEX
  8
W69LPLIFT
 62
2
 10
2337.630
 20
-9272.538
 30
-1647.506
 70
    32
  0
VERTEX
  8
W69LPLIFT
 62
2
 10
2337.590
 20
-9272.521
 30
-1647.506
 70
    32
  0
VERTEX
  8
W69LPLIFT
 62
2
 10
2337.548
 20
-9272.508
 30
-1647.506
 70
    32
  0
VERTEX
  8
W69LPLIFT
 62
2
 10
2337.506
 20
-9272.499
 30
-1647.506
 70
    32
  0
VERTEX
  8
W69LPLIFT
 62
2
 10
2337.463
 20
-9272.493
 30
-1647.506
 70
    32
  0
VERTEX
  8
W69LPLIFT
 62
2
 10
2337.419
 20
-9272.491
 30
-1647.506
 70
    32
  0
VERTEX
  8
W69LPLIFT
 62
2
 10
2337.375
 20
-9272.493
 30
-1647.506
 70
    32
  0
VERTEX
  8
W69LPLIFT
 62
2
 10
2337.332
 20
-9272.499
 30
-1647.506
 70
    32
  0
VERTEX
  8
W69LPLIFT
 62
2
 10
2337.290
 20
-9272.508
 30
-1647.506
 70
    32
  0
VERTEX
  8
W69LPLIFT
 62
2
 10
2337.248
 20
-9272.521
 30
-1647.506
 70
    32
  0
VERTEX
  8
W69LPLIFT
 62
2
 10
2337.208
 20
-9272.538
 30
-1647.506
 70
    32
  0
VERTEX
  8
W69LPLIFT
 62
2
 10
2337.169
 20
-9272.558
 30
-1647.506
 70
    32
  0
VERTEX
  8
W69LPLIFT
 62
2
 10
2337.132
 20
-9272.581
 30
-1647.506
 70
    32
  0
VERTEX
  8
W69LPLIFT
 62
2
 10
2337.098
 20
-9272.608
 30
-1647.506
 70
    32
  0
VERTEX
  8
W69LPLIFT
 62
2
 10
2337.065
 20
-9272.637
 30
-1647.506
 70
    32
  0
VERTEX
  8
W69LPLIFT
 62
2
 10
2337.036
 20
-9272.670
 30
-1647.506
 70
    32
  0
VERTEX
  8
W69LPLIFT
 62
2
 10
2337.009
 20
-9272.704
 30
-1647.506
 70
    32
  0
VERTEX
  8
W69LPLIFT
 62
2
 10
2336.986
 20
-9272.741
 30
-1647.506
 70
    32
  0
VERTEX
  8
W69LPLIFT
 62
2
 10
2336.966
 20
-9272.780
 30
-1647.506
 70
    32
  0
VERTEX
  8
W69LPLIFT
 62
2
 10
2336.949
 20
-9272.820
 30
-1647.506
 70
    32
  0
VERTEX
  8
W69LPLIFT
 62
2
 10
2336.936
 20
-9272.862
 30
-1647.506
 70
    32
  0
VERTEX
  8
W69LPLIFT
 62
2
 10
2336.927
 20
-9272.904
 30
-1647.506
 70
    32
  0
VERTEX
  8
W69LPLIFT
 62
2
 10
2336.921
 20
-9272.947
 30
-1647.506
 70
    32
  0
VERTEX
  8
W69LPLIFT
 62
2
 10
2336.919
 20
-9272.991
 30
-1647.506
 70
    32
  0
VERTEX
  8
W69LPLIFT
 62
2
 10
2336.921
 20
-9273.035
 30
-1647.506
 70
    32
  0
VERTEX
  8
W69LPLIFT
 62
2
 10
2336.927
 20
-9273.078
 30
-1647.506
 70
    32
  0
VERTEX
  8
W69LPLIFT
 62
2
 10
2336.936
 20
-9273.120
 30
-1647.506
 70
    32
  0
VERTEX
  8
W69LPLIFT
 62
2
 10
2336.949
 20
-9273.162
 30
-1647.506
 70
    32
  0
VERTEX
  8
W69LPLIFT
 62
2
 10
2336.966
 20
-9273.202
 30
-1647.506
 70
    32
  0
VERTEX
  8
W69LPLIFT
 62
2
 10
2336.986
 20
-9273.241
 30
-1647.506
 70
    32
  0
VERTEX
  8
W69LPLIFT
 62
2
 10
2337.009
 20
-9273.278
 30
-1647.506
 70
    32
  0
VERTEX
  8
W69LPLIFT
 62
2
 10
2337.036
 20
-9273.312
 30
-1647.506
 70
    32
  0
VERTEX
  8
W69LPLIFT
 62
2
 10
2337.065
 20
-9273.345
 30
-1647.506
 70
    32
  0
VERTEX
  8
W69LPLIFT
 62
2
 10
2337.098
 20
-9273.374
 30
-1647.506
 70
    32
  0
VERTEX
  8
W69LPLIFT
 62
2
 10
2337.132
 20
-9273.401
 30
-1647.506
 70
    32
  0
VERTEX
  8
W69LPLIFT
 62
2
 10
2337.169
 20
-9273.424
 30
-1647.506
 70
    32
  0
VERTEX
  8
W69LPLIFT
 62
2
 10
2337.208
 20
-9273.444
 30
-1647.506
 70
    32
  0
VERTEX
  8
W69LPLIFT
 62
2
 10
2337.248
 20
-9273.461
 30
-1647.506
 70
    32
  0
VERTEX
  8
W69LPLIFT
 62
2
 10
2337.290
 20
-9273.474
 30
-1647.506
 70
    32
  0
VERTEX
  8
W69LPLIFT
 62
2
 10
2337.332
 20
-9273.483
 30
-1647.506
 70
    32
  0
VERTEX
  8
W69LPLIFT
 62
2
 10
2337.375
 20
-9273.489
 30
-1647.506
 70
    32
  0
VERTEX
  8
W69LPLIFT
 62
2
 10
2337.419
 20
-9273.491
 30
-1647.506
 70
    32
  0
VERTEX
  8
W69LPLIFT
 62
2
 10
2337.463
 20
-9273.489
 30
-1647.506
 70
    32
  0
VERTEX
  8
W69LPLIFT
 62
2
 10
2337.506
 20
-9273.483
 30
-1647.506
 70
    32
  0
VERTEX
  8
W69LPLIFT
 62
2
 10
2337.548
 20
-9273.474
 30
-1647.506
 70
    32
  0
VERTEX
  8
W69LPLIFT
 62
2
 10
2337.590
 20
-9273.461
 30
-1647.506
 70
    32
  0
VERTEX
  8
W69LPLIFT
 62
2
 10
2337.630
 20
-9273.444
 30
-1647.506
 70
    32
  0
VERTEX
  8
W69LPLIFT
 62
2
 10
2337.669
 20
-9273.424
 30
-1647.506
 70
    32
  0
VERTEX
  8
W69LPLIFT
 62
2
 10
2337.706
 20
-9273.401
 30
-1647.506
 70
    32
  0
VERTEX
  8
W69LPLIFT
 62
2
 10
2337.740
 20
-9273.374
 30
-1647.506
 70
    32
  0
VERTEX
  8
W69LPLIFT
 62
2
 10
2337.773
 20
-9273.345
 30
-1647.506
 70
    32
  0
VERTEX
  8
W69LPLIFT
 62
2
 10
2337.802
 20
-9273.312
 30
-1647.506
 70
    32
  0
VERTEX
  8
W69LPLIFT
 62
2
 10
2337.829
 20
-9273.278
 30
-1647.506
 70
    32
  0
VERTEX
  8
W69LPLIFT
 62
2
 10
2337.852
 20
-9273.241
 30
-1647.506
 70
    32
  0
VERTEX
  8
W69LPLIFT
 62
2
 10
2337.872
 20
-9273.202
 30
-1647.506
 70
    32
  0
VERTEX
  8
W69LPLIFT
 62
2
 10
2337.889
 20
-9273.162
 30
-1647.506
 70
    32
  0
VERTEX
  8
W69LPLIFT
 62
2
 10
2337.902
 20
-9273.120
 30
-1647.506
 70
    32
  0
VERTEX
  8
W69LPLIFT
 62
2
 10
2337.911
 20
-9273.078
 30
-1647.506
 70
    32
  0
VERTEX
  8
W69LPLIFT
 62
2
 10
2337.917
 20
-9273.035
 30
-1647.506
 70
    32
  0
VERTEX
  8
W69LPLIFT
 62
2
 10
2337.919
 20
-9272.991
 30
-1647.506
 70
    32
  0
SEQEND
  8
W69LPLIFT
  0
POLYLINE
  8
W69LPLIFT
 62
1
 66
     1
 70
     8
  0
VERTEX
  8
W69LPLIFT
 62
1
 10
2339.657
 20
-9277.779
 30
-1640.994
 70
    32
  0
VERTEX
  8
W69LPLIFT
 62
1
 10
2339.655
 20
-9277.735
 30
-1640.994
 70
    32
  0
VERTEX
  8
W69LPLIFT
 62
1
 10
2339.649
 20
-9277.692
 30
-1640.994
 70
    32
  0
VERTEX
  8
W69LPLIFT
 62
1
 10
2339.640
 20
-9277.650
 30
-1640.994
 70
    32
  0
VERTEX
  8
W69LPLIFT
 62
1
 10
2339.627
 20
-9277.608
 30
-1640.994
 70
    32
  0
VERTEX
  8
W69LPLIFT
 62
1
 10
2339.610
 20
-9277.568
 30
-1640.994
 70
    32
  0
VERTEX
  8
W69LPLIFT
 62
1
 10
2339.590
 20
-9277.529
 30
-1640.994
 70
    32
  0
VERTEX
  8
W69LPLIFT
 62
1
 10
2339.567
 20
-9277.492
 30
-1640.994
 70
    32
  0
VERTEX
  8
W69LPLIFT
 62
1
 10
2339.540
 20
-9277.458
 30
-1640.994
 70
    32
  0
VERTEX
  8
W69LPLIFT
 62
1
 10
2339.511
 20
-9277.425
 30
-1640.994
 70
    32
  0
VERTEX
  8
W69LPLIFT
 62
1
 10
2339.478
 20
-9277.396
 30
-1640.994
 70
    32
  0
VERTEX
  8
W69LPLIFT
 62
1
 10
2339.444
 20
-9277.369
 30
-1640.994
 70
    32
  0
VERTEX
  8
W69LPLIFT
 62
1
 10
2339.407
 20
-9277.346
 30
-1640.994
 70
    32
  0
VERTEX
  8
W69LPLIFT
 62
1
 10
2339.368
 20
-9277.326
 30
-1640.994
 70
    32
  0
VERTEX
  8
W69LPLIFT
 62
1
 10
2339.328
 20
-9277.309
 30
-1640.994
 70
    32
  0
VERTEX
  8
W69LPLIFT
 62
1
 10
2339.286
 20
-9277.296
 30
-1640.994
 70
    32
  0
VERTEX
  8
W69LPLIFT
 62
1
 10
2339.244
 20
-9277.287
 30
-1640.994
 70
    32
  0
VERTEX
  8
W69LPLIFT
 62
1
 10
2339.201
 20
-9277.281
 30
-1640.994
 70
    32
  0
VERTEX
  8
W69LPLIFT
 62
1
 10
2339.157
 20
-9277.279
 30
-1640.994
 70
    32
  0
VERTEX
  8
W69LPLIFT
 62
1
 10
2339.113
 20
-9277.281
 30
-1640.994
 70
    32
  0
VERTEX
  8
W69LPLIFT
 62
1
 10
2339.070
 20
-9277.287
 30
-1640.994
 70
    32
  0
VERTEX
  8
W69LPLIFT
 62
1
 10
2339.028
 20
-9277.296
 30
-1640.994
 70
    32
  0
VERTEX
  8
W69LPLIFT
 62
1
 10
2338.986
 20
-9277.309
 30
-1640.994
 70
    32
  0
VERTEX
  8
W69LPLIFT
 62
1
 10
2338.946
 20
-9277.326
 30
-1640.994
 70
    32
  0
VERTEX
  8
W69LPLIFT
 62
1
 10
2338.907
 20
-9277.346
 30
-1640.994
 70
    32
  0
VERTEX
  8
W69LPLIFT
 62
1
 10
2338.870
 20
-9277.369
 30
-1640.994
 70
    32
  0
VERTEX
  8
W69LPLIFT
 62
1
 10
2338.836
 20
-9277.396
 30
-1640.994
 70
    32
  0
VERTEX
  8
W69LPLIFT
 62
1
 10
2338.803
 20
-9277.425
 30
-1640.994
 70
    32
  0
VERTEX
  8
W69LPLIFT
 62
1
 10
2338.774
 20
-9277.458
 30
-1640.994
 70
    32
  0
VERTEX
  8
W69LPLIFT
 62
1
 10
2338.747
 20
-9277.492
 30
-1640.994
 70
    32
  0
VERTEX
  8
W69LPLIFT
 62
1
 10
2338.724
 20
-9277.529
 30
-1640.994
 70
    32
  0
VERTEX
  8
W69LPLIFT
 62
1
 10
2338.704
 20
-9277.568
 30
-1640.994
 70
    32
  0
VERTEX
  8
W69LPLIFT
 62
1
 10
2338.687
 20
-9277.608
 30
-1640.994
 70
    32
  0
VERTEX
  8
W69LPLIFT
 62
1
 10
2338.674
 20
-9277.650
 30
-1640.994
 70
    32
  0
VERTEX
  8
W69LPLIFT
 62
1
 10
2338.665
 20
-9277.692
 30
-1640.994
 70
    32
  0
VERTEX
  8
W69LPLIFT
 62
1
 10
2338.659
 20
-9277.735
 30
-1640.994
 70
    32
  0
VERTEX
  8
W69LPLIFT
 62
1
 10
2338.657
 20
-9277.779
 30
-1640.994
 70
    32
  0
VERTEX
  8
W69LPLIFT
 62
1
 10
2338.659
 20
-9277.823
 30
-1640.994
 70
    32
  0
VERTEX
  8
W69LPLIFT
 62
1
 10
2338.665
 20
-9277.866
 30
-1640.994
 70
    32
  0
VERTEX
  8
W69LPLIFT
 62
1
 10
2338.674
 20
-9277.908
 30
-1640.994
 70
    32
  0
VERTEX
  8
W69LPLIFT
 62
1
 10
2338.687
 20
-9277.950
 30
-1640.994
 70
    32
  0
VERTEX
  8
W69LPLIFT
 62
1
 10
2338.704
 20
-9277.990
 30
-1640.994
 70
    32
  0
VERTEX
  8
W69LPLIFT
 62
1
 10
2338.724
 20
-9278.029
 30
-1640.994
 70
    32
  0
VERTEX
  8
W69LPLIFT
 62
1
 10
2338.747
 20
-9278.066
 30
-1640.994
 70
    32
  0
VERTEX
  8
W69LPLIFT
 62
1
 10
2338.774
 20
-9278.100
 30
-1640.994
 70
    32
  0
VERTEX
  8
W69LPLIFT
 62
1
 10
2338.803
 20
-9278.133
 30
-1640.994
 70
    32
  0
VERTEX
  8
W69LPLIFT
 62
1
 10
2338.836
 20
-9278.162
 30
-1640.994
 70
    32
  0
VERTEX
  8
W69LPLIFT
 62
1
 10
2338.870
 20
-9278.189
 30
-1640.994
 70
    32
  0
VERTEX
  8
W69LPLIFT
 62
1
 10
2338.907
 20
-9278.212
 30
-1640.994
 70
    32
  0
VERTEX
  8
W69LPLIFT
 62
1
 10
2338.946
 20
-9278.232
 30
-1640.994
 70
    32
  0
VERTEX
  8
W69LPLIFT
 62
1
 10
2338.986
 20
-9278.249
 30
-1640.994
 70
    32
  0
VERTEX
  8
W69LPLIFT
 62
1
 10
2339.028
 20
-9278.262
 30
-1640.994
 70
    32
  0
VERTEX
  8
W69LPLIFT
 62
1
 10
2339.070
 20
-9278.271
 30
-1640.994
 70
    32
  0
VERTEX
  8
W69LPLIFT
 62
1
 10
2339.113
 20
-9278.277
 30
-1640.994
 70
    32
  0
VERTEX
  8
W69LPLIFT
 62
1
 10
2339.157
 20
-9278.279
 30
-1640.994
 70
    32
  0
VERTEX
  8
W69LPLIFT
 62
1
 10
2339.201
 20
-9278.277
 30
-1640.994
 70
    32
  0
VERTEX
  8
W69LPLIFT
 62
1
 10
2339.244
 20
-9278.271
 30
-1640.994
 70
    32
  0
VERTEX
  8
W69LPLIFT
 62
1
 10
2339.286
 20
-9278.262
 30
-1640.994
 70
    32
  0
VERTEX
  8
W69LPLIFT
 62
1
 10
2339.328
 20
-9278.249
 30
-1640.994
 70
    32
  0
VERTEX
  8
W69LPLIFT
 62
1
 10
2339.368
 20
-9278.232
 30
-1640.994
 70
    32
  0
VERTEX
  8
W69LPLIFT
 62
1
 10
2339.407
 20
-9278.212
 30
-1640.994
 70
    32
  0
VERTEX
  8
W69LPLIFT
 62
1
 10
2339.444
 20
-9278.189
 30
-1640.994
 70
    32
  0
VERTEX
  8
W69LPLIFT
 62
1
 10
2339.478
 20
-9278.162
 30
-1640.994
 70
    32
  0
VERTEX
  8
W69LPLIFT
 62
1
 10
2339.511
 20
-9278.133
 30
-1640.994
 70
    32
  0
VERTEX
  8
W69LPLIFT
 62
1
 10
2339.540
 20
-9278.100
 30
-1640.994
 70
    32
  0
VERTEX
  8
W69LPLIFT
 62
1
 10
2339.567
 20
-9278.066
 30
-1640.994
 70
    32
  0
VERTEX
  8
W69LPLIFT
 62
1
 10
2339.590
 20
-9278.029
 30
-1640.994
 70
    32
  0
VERTEX
  8
W69LPLIFT
 62
1
 10
2339.610
 20
-9277.990
 30
-1640.994
 70
    32
  0
VERTEX
  8
W69LPLIFT
 62
1
 10
2339.627
 20
-9277.950
 30
-1640.994
 70
    32
  0
VERTEX
  8
W69LPLIFT
 62
1
 10
2339.640
 20
-9277.908
 30
-1640.994
 70
    32
  0
VERTEX
  8
W69LPLIFT
 62
1
 10
2339.649
 20
-9277.866
 30
-1640.994
 70
    32
  0
VERTEX
  8
W69LPLIFT
 62
1
 10
2339.655
 20
-9277.823
 30
-1640.994
 70
    32
  0
VERTEX
  8
W69LPLIFT
 62
1
 10
2339.657
 20
-9277.779
 30
-1640.994
 70
    32
  0
SEQEND
  8
W69LPLIFT
  0
POLYLINE
  8
W69LPLIFT
 62
1
 66
     1
 70
     8
  0
VERTEX
  8
W69LPLIFT
 62
1
 10
2358.235
 20
-9300.921
 30
-1639.171
 70
    32
  0
VERTEX
  8
W69LPLIFT
 62
1
 10
2358.233
 20
-9300.877
 30
-1639.171
 70
    32
  0
VERTEX
  8
W69LPLIFT
 62
1
 10
2358.227
 20
-9300.834
 30
-1639.171
 70
    32
  0
VERTEX
  8
W69LPLIFT
 62
1
 10
2358.218
 20
-9300.792
 30
-1639.171
 70
    32
  0
VERTEX
  8
W69LPLIFT
 62
1
 10
2358.205
 20
-9300.750
 30
-1639.171
 70
    32
  0
VERTEX
  8
W69LPLIFT
 62
1
 10
2358.188
 20
-9300.710
 30
-1639.171
 70
    32
  0
VERTEX
  8
W69LPLIFT
 62
1
 10
2358.168
 20
-9300.671
 30
-1639.171
 70
    32
  0
VERTEX
  8
W69LPLIFT
 62
1
 10
2358.145
 20
-9300.634
 30
-1639.171
 70
    32
  0
VERTEX
  8
W69LPLIFT
 62
1
 10
2358.118
 20
-9300.600
 30
-1639.171
 70
    32
  0
VERTEX
  8
W69LPLIFT
 62
1
 10
2358.089
 20
-9300.567
 30
-1639.171
 70
    32
  0
VERTEX
  8
W69LPLIFT
 62
1
 10
2358.056
 20
-9300.538
 30
-1639.171
 70
    32
  0
VERTEX
  8
W69LPLIFT
 62
1
 10
2358.022
 20
-9300.511
 30
-1639.171
 70
    32
  0
VERTEX
  8
W69LPLIFT
 62
1
 10
2357.985
 20
-9300.488
 30
-1639.171
 70
    32
  0
VERTEX
  8
W69LPLIFT
 62
1
 10
2357.946
 20
-9300.468
 30
-1639.171
 70
    32
  0
VERTEX
  8
W69LPLIFT
 62
1
 10
2357.906
 20
-9300.451
 30
-1639.171
 70
    32
  0
VERTEX
  8
W69LPLIFT
 62
1
 10
2357.864
 20
-9300.438
 30
-1639.171
 70
    32
  0
VERTEX
  8
W69LPLIFT
 62
1
 10
2357.822
 20
-9300.429
 30
-1639.171
 70
    32
  0
VERTEX
  8
W69LPLIFT
 62
1
 10
2357.779
 20
-9300.423
 30
-1639.171
 70
    32
  0
VERTEX
  8
W69LPLIFT
 62
1
 10
2357.735
 20
-9300.421
 30
-1639.171
 70
    32
  0
VERTEX
  8
W69LPLIFT
 62
1
 10
2357.691
 20
-9300.423
 30
-1639.171
 70
    32
  0
VERTEX
  8
W69LPLIFT
 62
1
 10
2357.648
 20
-9300.429
 30
-1639.171
 70
    32
  0
VERTEX
  8
W69LPLIFT
 62
1
 10
2357.606
 20
-9300.438
 30
-1639.171
 70
    32
  0
VERTEX
  8
W69LPLIFT
 62
1
 10
2357.564
 20
-9300.451
 30
-1639.171
 70
    32
  0
VERTEX
  8
W69LPLIFT
 62
1
 10
2357.524
 20
-9300.468
 30
-1639.171
 70
    32
  0
VERTEX
  8
W69LPLIFT
 62
1
 10
2357.485
 20
-9300.488
 30
-1639.171
 70
    32
  0
VERTEX
  8
W69LPLIFT
 62
1
 10
2357.448
 20
-9300.511
 30
-1639.171
 70
    32
  0
VERTEX
  8
W69LPLIFT
 62
1
 10
2357.414
 20
-9300.538
 30
-1639.171
 70
    32
  0
VERTEX
  8
W69LPLIFT
 62
1
 10
2357.381
 20
-9300.567
 30
-1639.171
 70
    32
  0
VERTEX
  8
W69LPLIFT
 62
1
 10
2357.352
 20
-9300.600
 30
-1639.171
 70
    32
  0
VERTEX
  8
W69LPLIFT
 62
1
 10
2357.325
 20
-9300.634
 30
-1639.171
 70
    32
  0
VERTEX
  8
W69LPLIFT
 62
1
 10
2357.302
 20
-9300.671
 30
-1639.171
 70
    32
  0
VERTEX
  8
W69LPLIFT
 62
1
 10
2357.282
 20
-9300.710
 30
-1639.171
 70
    32
  0
VERTEX
  8
W69LPLIFT
 62
1
 10
2357.265
 20
-9300.750
 30
-1639.171
 70
    32
  0
VERTEX
  8
W69LPLIFT
 62
1
 10
2357.252
 20
-9300.792
 30
-1639.171
 70
    32
  0
VERTEX
  8
W69LPLIFT
 62
1
 10
2357.243
 20
-9300.834
 30
-1639.171
 70
    32
  0
VERTEX
  8
W69LPLIFT
 62
1
 10
2357.237
 20
-9300.877
 30
-1639.171
 70
    32
  0
VERTEX
  8
W69LPLIFT
 62
1
 10
2357.235
 20
-9300.921
 30
-1639.171
 70
    32
  0
VERTEX
  8
W69LPLIFT
 62
1
 10
2357.237
 20
-9300.965
 30
-1639.171
 70
    32
  0
VERTEX
  8
W69LPLIFT
 62
1
 10
2357.243
 20
-9301.008
 30
-1639.171
 70
    32
  0
VERTEX
  8
W69LPLIFT
 62
1
 10
2357.252
 20
-9301.050
 30
-1639.171
 70
    32
  0
VERTEX
  8
W69LPLIFT
 62
1
 10
2357.265
 20
-9301.092
 30
-1639.171
 70
    32
  0
VERTEX
  8
W69LPLIFT
 62
1
 10
2357.282
 20
-9301.132
 30
-1639.171
 70
    32
  0
VERTEX
  8
W69LPLIFT
 62
1
 10
2357.302
 20
-9301.171
 30
-1639.171
 70
    32
  0
VERTEX
  8
W69LPLIFT
 62
1
 10
2357.325
 20
-9301.208
 30
-1639.171
 70
    32
  0
VERTEX
  8
W69LPLIFT
 62
1
 10
2357.352
 20
-9301.242
 30
-1639.171
 70
    32
  0
VERTEX
  8
W69LPLIFT
 62
1
 10
2357.381
 20
-9301.275
 30
-1639.171
 70
    32
  0
VERTEX
  8
W69LPLIFT
 62
1
 10
2357.414
 20
-9301.304
 30
-1639.171
 70
    32
  0
VERTEX
  8
W69LPLIFT
 62
1
 10
2357.448
 20
-9301.331
 30
-1639.171
 70
    32
  0
VERTEX
  8
W69LPLIFT
 62
1
 10
2357.485
 20
-9301.354
 30
-1639.171
 70
    32
  0
VERTEX
  8
W69LPLIFT
 62
1
 10
2357.524
 20
-9301.374
 30
-1639.171
 70
    32
  0
VERTEX
  8
W69LPLIFT
 62
1
 10
2357.564
 20
-9301.391
 30
-1639.171
 70
    32
  0
VERTEX
  8
W69LPLIFT
 62
1
 10
2357.606
 20
-9301.404
 30
-1639.171
 70
    32
  0
VERTEX
  8
W69LPLIFT
 62
1
 10
2357.648
 20
-9301.413
 30
-1639.171
 70
    32
  0
VERTEX
  8
W69LPLIFT
 62
1
 10
2357.691
 20
-9301.419
 30
-1639.171
 70
    32
  0
VERTEX
  8
W69LPLIFT
 62
1
 10
2357.735
 20
-9301.421
 30
-1639.171
 70
    32
  0
VERTEX
  8
W69LPLIFT
 62
1
 10
2357.779
 20
-9301.419
 30
-1639.171
 70
    32
  0
VERTEX
  8
W69LPLIFT
 62
1
 10
2357.822
 20
-9301.413
 30
-1639.171
 70
    32
  0
VERTEX
  8
W69LPLIFT
 62
1
 10
2357.864
 20
-9301.404
 30
-1639.171
 70
    32
  0
VERTEX
  8
W69LPLIFT
 62
1
 10
2357.906
 20
-9301.391
 30
-1639.171
 70
    32
  0
VERTEX
  8
W69LPLIFT
 62
1
 10
2357.946
 20
-9301.374
 30
-1639.171
 70
    32
  0
VERTEX
  8
W69LPLIFT
 62
1
 10
2357.985
 20
-9301.354
 30
-1639.171
 70
    32
  0
VERTEX
  8
W69LPLIFT
 62
1
 10
2358.022
 20
-9301.331
 30
-1639.171
 70
    32
  0
VERTEX
  8
W69LPLIFT
 62
1
 10
2358.056
 20
-9301.304
 30
-1639.171
 70
    32
  0
VERTEX
  8
W69LPLIFT
 62
1
 10
2358.089
 20
-9301.275
 30
-1639.171
 70
    32
  0
VERTEX
  8
W69LPLIFT
 62
1
 10
2358.118
 20
-9301.242
 30
-1639.171
 70
    32
  0
VERTEX
  8
W69LPLIFT
 62
1
 10
2358.145
 20
-9301.208
 30
-1639.171
 70
    32
  0
VERTEX
  8
W69LPLIFT
 62
1
 10
2358.168
 20
-9301.171
 30
-1639.171
 70
    32
  0
VERTEX
  8
W69LPLIFT
 62
1
 10
2358.188
 20
-9301.132
 30
-1639.171
 70
    32
  0
VERTEX
  8
W69LPLIFT
 62
1
 10
2358.205
 20
-9301.092
 30
-1639.171
 70
    32
  0
VERTEX
  8
W69LPLIFT
 62
1
 10
2358.218
 20
-9301.050
 30
-1639.171
 70
    32
  0
VERTEX
  8
W69LPLIFT
 62
1
 10
2358.227
 20
-9301.008
 30
-1639.171
 70
    32
  0
VERTEX
  8
W69LPLIFT
 62
1
 10
2358.233
 20
-9300.965
 30
-1639.171
 70
    32
  0
VERTEX
  8
W69LPLIFT
 62
1
 10
2358.235
 20
-9300.921
 30
-1639.171
 70
    32
  0
SEQEND
  8
W69LPLIFT
  0
POLYLINE
  8
W69LPLIFT
 62
1
 66
     1
 70
     8
  0
VERTEX
  8
W69LPLIFT
 62
1
 10
2364.221
 20
-9317.296
 30
-1641.146
 70
    32
  0
VERTEX
  8
W69LPLIFT
 62
1
 10
2364.219
 20
-9317.252
 30
-1641.146
 70
    32
  0
VERTEX
  8
W69LPLIFT
 62
1
 10
2364.213
 20
-9317.209
 30
-1641.146
 70
    32
  0
VERTEX
  8
W69LPLIFT
 62
1
 10
2364.204
 20
-9317.167
 30
-1641.146
 70
    32
  0
VERTEX
  8
W69LPLIFT
 62
1
 10
2364.191
 20
-9317.125
 30
-1641.146
 70
    32
  0
VERTEX
  8
W69LPLIFT
 62
1
 10
2364.174
 20
-9317.085
 30
-1641.146
 70
    32
  0
VERTEX
  8
W69LPLIFT
 62
1
 10
2364.154
 20
-9317.046
 30
-1641.146
 70
    32
  0
VERTEX
  8
W69LPLIFT
 62
1
 10
2364.131
 20
-9317.009
 30
-1641.146
 70
    32
  0
VERTEX
  8
W69LPLIFT
 62
1
 10
2364.104
 20
-9316.975
 30
-1641.146
 70
    32
  0
VERTEX
  8
W69LPLIFT
 62
1
 10
2364.075
 20
-9316.942
 30
-1641.146
 70
    32
  0
VERTEX
  8
W69LPLIFT
 62
1
 10
2364.042
 20
-9316.913
 30
-1641.146
 70
    32
  0
VERTEX
  8
W69LPLIFT
 62
1
 10
2364.008
 20
-9316.886
 30
-1641.146
 70
    32
  0
VERTEX
  8
W69LPLIFT
 62
1
 10
2363.971
 20
-9316.863
 30
-1641.146
 70
    32
  0
VERTEX
  8
W69LPLIFT
 62
1
 10
2363.932
 20
-9316.843
 30
-1641.146
 70
    32
  0
VERTEX
  8
W69LPLIFT
 62
1
 10
2363.892
 20
-9316.826
 30
-1641.146
 70
    32
  0
VERTEX
  8
W69LPLIFT
 62
1
 10
2363.850
 20
-9316.813
 30
-1641.146
 70
    32
  0
VERTEX
  8
W69LPLIFT
 62
1
 10
2363.808
 20
-9316.804
 30
-1641.146
 70
    32
  0
VERTEX
  8
W69LPLIFT
 62
1
 10
2363.765
 20
-9316.798
 30
-1641.146
 70
    32
  0
VERTEX
  8
W69LPLIFT
 62
1
 10
2363.721
 20
-9316.796
 30
-1641.146
 70
    32
  0
VERTEX
  8
W69LPLIFT
 62
1
 10
2363.677
 20
-9316.798
 30
-1641.146
 70
    32
  0
VERTEX
  8
W69LPLIFT
 62
1
 10
2363.634
 20
-9316.804
 30
-1641.146
 70
    32
  0
VERTEX
  8
W69LPLIFT
 62
1
 10
2363.592
 20
-9316.813
 30
-1641.146
 70
    32
  0
VERTEX
  8
W69LPLIFT
 62
1
 10
2363.550
 20
-9316.826
 30
-1641.146
 70
    32
  0
VERTEX
  8
W69LPLIFT
 62
1
 10
2363.510
 20
-9316.843
 30
-1641.146
 70
    32
  0
VERTEX
  8
W69LPLIFT
 62
1
 10
2363.471
 20
-9316.863
 30
-1641.146
 70
    32
  0
VERTEX
  8
W69LPLIFT
 62
1
 10
2363.434
 20
-9316.886
 30
-1641.146
 70
    32
  0
VERTEX
  8
W69LPLIFT
 62
1
 10
2363.400
 20
-9316.913
 30
-1641.146
 70
    32
  0
VERTEX
  8
W69LPLIFT
 62
1
 10
2363.367
 20
-9316.942
 30
-1641.146
 70
    32
  0
VERTEX
  8
W69LPLIFT
 62
1
 10
2363.338
 20
-9316.975
 30
-1641.146
 70
    32
  0
VERTEX
  8
W69LPLIFT
 62
1
 10
2363.311
 20
-9317.009
 30
-1641.146
 70
    32
  0
VERTEX
  8
W69LPLIFT
 62
1
 10
2363.288
 20
-9317.046
 30
-1641.146
 70
    32
  0
VERTEX
  8
W69LPLIFT
 62
1
 10
2363.268
 20
-9317.085
 30
-1641.146
 70
    32
  0
VERTEX
  8
W69LPLIFT
 62
1
 10
2363.251
 20
-9317.125
 30
-1641.146
 70
    32
  0
VERTEX
  8
W69LPLIFT
 62
1
 10
2363.238
 20
-9317.167
 30
-1641.146
 70
    32
  0
VERTEX
  8
W69LPLIFT
 62
1
 10
2363.229
 20
-9317.209
 30
-1641.146
 70
    32
  0
VERTEX
  8
W69LPLIFT
 62
1
 10
2363.223
 20
-9317.252
 30
-1641.146
 70
    32
  0
VERTEX
  8
W69LPLIFT
 62
1
 10
2363.221
 20
-9317.296
 30
-1641.146
 70
    32
  0
VERTEX
  8
W69LPLIFT
 62
1
 10
2363.223
 20
-9317.340
 30
-1641.146
 70
    32
  0
VERTEX
  8
W69LPLIFT
 62
1
 10
2363.229
 20
-9317.383
 30
-1641.146
 70
    32
  0
VERTEX
  8
W69LPLIFT
 62
1
 10
2363.238
 20
-9317.425
 30
-1641.146
 70
    32
  0
VERTEX
  8
W69LPLIFT
 62
1
 10
2363.251
 20
-9317.467
 30
-1641.146
 70
    32
  0
VERTEX
  8
W69LPLIFT
 62
1
 10
2363.268
 20
-9317.507
 30
-1641.146
 70
    32
  0
VERTEX
  8
W69LPLIFT
 62
1
 10
2363.288
 20
-9317.546
 30
-1641.146
 70
    32
  0
VERTEX
  8
W69LPLIFT
 62
1
 10
2363.311
 20
-9317.583
 30
-1641.146
 70
    32
  0
VERTEX
  8
W69LPLIFT
 62
1
 10
2363.338
 20
-9317.617
 30
-1641.146
 70
    32
  0
VERTEX
  8
W69LPLIFT
 62
1
 10
2363.367
 20
-9317.650
 30
-1641.146
 70
    32
  0
VERTEX
  8
W69LPLIFT
 62
1
 10
2363.400
 20
-9317.679
 30
-1641.146
 70
    32
  0
VERTEX
  8
W69LPLIFT
 62
1
 10
2363.434
 20
-9317.706
 30
-1641.146
 70
    32
  0
VERTEX
  8
W69LPLIFT
 62
1
 10
2363.471
 20
-9317.729
 30
-1641.146
 70
    32
  0
VERTEX
  8
W69LPLIFT
 62
1
 10
2363.510
 20
-9317.749
 30
-1641.146
 70
    32
  0
VERTEX
  8
W69LPLIFT
 62
1
 10
2363.550
 20
-9317.766
 30
-1641.146
 70
    32
  0
VERTEX
  8
W69LPLIFT
 62
1
 10
2363.592
 20
-9317.779
 30
-1641.146
 70
    32
  0
VERTEX
  8
W69LPLIFT
 62
1
 10
2363.634
 20
-9317.788
 30
-1641.146
 70
    32
  0
VERTEX
  8
W69LPLIFT
 62
1
 10
2363.677
 20
-9317.794
 30
-1641.146
 70
    32
  0
VERTEX
  8
W69LPLIFT
 62
1
 10
2363.721
 20
-9317.796
 30
-1641.146
 70
    32
  0
VERTEX
  8
W69LPLIFT
 62
1
 10
2363.765
 20
-9317.794
 30
-1641.146
 70
    32
  0
VERTEX
  8
W69LPLIFT
 62
1
 10
2363.808
 20
-9317.788
 30
-1641.146
 70
    32
  0
VERTEX
  8
W69LPLIFT
 62
1
 10
2363.850
 20
-9317.779
 30
-1641.146
 70
    32
  0
VERTEX
  8
W69LPLIFT
 62
1
 10
2363.892
 20
-9317.766
 30
-1641.146
 70
    32
  0
VERTEX
  8
W69LPLIFT
 62
1
 10
2363.932
 20
-9317.749
 30
-1641.146
 70
    32
  0
VERTEX
  8
W69LPLIFT
 62
1
 10
2363.971
 20
-9317.729
 30
-1641.146
 70
    32
  0
VERTEX
  8
W69LPLIFT
 62
1
 10
2364.008
 20
-9317.706
 30
-1641.146
 70
    32
  0
VERTEX
  8
W69LPLIFT
 62
1
 10
2364.042
 20
-9317.679
 30
-1641.146
 70
    32
  0
VERTEX
  8
W69LPLIFT
 62
1
 10
2364.075
 20
-9317.650
 30
-1641.146
 70
    32
  0
VERTEX
  8
W69LPLIFT
 62
1
 10
2364.104
 20
-9317.617
 30
-1641.146
 70
    32
  0
VERTEX
  8
W69LPLIFT
 62
1
 10
2364.131
 20
-9317.583
 30
-1641.146
 70
    32
  0
VERTEX
  8
W69LPLIFT
 62
1
 10
2364.154
 20
-9317.546
 30
-1641.146
 70
    32
  0
VERTEX
  8
W69LPLIFT
 62
1
 10
2364.174
 20
-9317.507
 30
-1641.146
 70
    32
  0
VERTEX
  8
W69LPLIFT
 62
1
 10
2364.191
 20
-9317.467
 30
-1641.146
 70
    32
  0
VERTEX
  8
W69LPLIFT
 62
1
 10
2364.204
 20
-9317.425
 30
-1641.146
 70
    32
  0
VERTEX
  8
W69LPLIFT
 62
1
 10
2364.213
 20
-9317.383
 30
-1641.146
 70
    32
  0
VERTEX
  8
W69LPLIFT
 62
1
 10
2364.219
 20
-9317.340
 30
-1641.146
 70
    32
  0
VERTEX
  8
W69LPLIFT
 62
1
 10
2364.221
 20
-9317.296
 30
-1641.146
 70
    32
  0
SEQEND
  8
W69LPLIFT
  0
POLYLINE
  8
W69LPLIFT
 62
1
 66
     1
 70
     8
  0
VERTEX
  8
W69LPLIFT
 62
1
 10
2372.192
 20
-9334.152
 30
-1640.907
 70
    32
  0
VERTEX
  8
W69LPLIFT
 62
1
 10
2372.190
 20
-9334.108
 30
-1640.907
 70
    32
  0
VERTEX
  8
W69LPLIFT
 62
1
 10
2372.184
 20
-9334.065
 30
-1640.907
 70
    32
  0
VERTEX
  8
W69LPLIFT
 62
1
 10
2372.175
 20
-9334.023
 30
-1640.907
 70
    32
  0
VERTEX
  8
W69LPLIFT
 62
1
 10
2372.162
 20
-9333.981
 30
-1640.907
 70
    32
  0
VERTEX
  8
W69LPLIFT
 62
1
 10
2372.145
 20
-9333.941
 30
-1640.907
 70
    32
  0
VERTEX
  8
W69LPLIFT
 62
1
 10
2372.125
 20
-9333.902
 30
-1640.907
 70
    32
  0
VERTEX
  8
W69LPLIFT
 62
1
 10
2372.102
 20
-9333.865
 30
-1640.907
 70
    32
  0
VERTEX
  8
W69LPLIFT
 62
1
 10
2372.075
 20
-9333.831
 30
-1640.907
 70
    32
  0
VERTEX
  8
W69LPLIFT
 62
1
 10
2372.046
 20
-9333.798
 30
-1640.907
 70
    32
  0
VERTEX
  8
W69LPLIFT
 62
1
 10
2372.013
 20
-9333.769
 30
-1640.907
 70
    32
  0
VERTEX
  8
W69LPLIFT
 62
1
 10
2371.979
 20
-9333.742
 30
-1640.907
 70
    32
  0
VERTEX
  8
W69LPLIFT
 62
1
 10
2371.942
 20
-9333.719
 30
-1640.907
 70
    32
  0
VERTEX
  8
W69LPLIFT
 62
1
 10
2371.903
 20
-9333.699
 30
-1640.907
 70
    32
  0
VERTEX
  8
W69LPLIFT
 62
1
 10
2371.863
 20
-9333.682
 30
-1640.907
 70
    32
  0
VERTEX
  8
W69LPLIFT
 62
1
 10
2371.821
 20
-9333.669
 30
-1640.907
 70
    32
  0
VERTEX
  8
W69LPLIFT
 62
1
 10
2371.779
 20
-9333.660
 30
-1640.907
 70
    32
  0
VERTEX
  8
W69LPLIFT
 62
1
 10
2371.736
 20
-9333.654
 30
-1640.907
 70
    32
  0
VERTEX
  8
W69LPLIFT
 62
1
 10
2371.692
 20
-9333.652
 30
-1640.907
 70
    32
  0
VERTEX
  8
W69LPLIFT
 62
1
 10
2371.648
 20
-9333.654
 30
-1640.907
 70
    32
  0
VERTEX
  8
W69LPLIFT
 62
1
 10
2371.605
 20
-9333.660
 30
-1640.907
 70
    32
  0
VERTEX
  8
W69LPLIFT
 62
1
 10
2371.563
 20
-9333.669
 30
-1640.907
 70
    32
  0
VERTEX
  8
W69LPLIFT
 62
1
 10
2371.521
 20
-9333.682
 30
-1640.907
 70
    32
  0
VERTEX
  8
W69LPLIFT
 62
1
 10
2371.481
 20
-9333.699
 30
-1640.907
 70
    32
  0
VERTEX
  8
W69LPLIFT
 62
1
 10
2371.442
 20
-9333.719
 30
-1640.907
 70
    32
  0
VERTEX
  8
W69LPLIFT
 62
1
 10
2371.405
 20
-9333.742
 30
-1640.907
 70
    32
  0
VERTEX
  8
W69LPLIFT
 62
1
 10
2371.371
 20
-9333.769
 30
-1640.907
 70
    32
  0
VERTEX
  8
W69LPLIFT
 62
1
 10
2371.338
 20
-9333.798
 30
-1640.907
 70
    32
  0
VERTEX
  8
W69LPLIFT
 62
1
 10
2371.309
 20
-9333.831
 30
-1640.907
 70
    32
  0
VERTEX
  8
W69LPLIFT
 62
1
 10
2371.282
 20
-9333.865
 30
-1640.907
 70
    32
  0
VERTEX
  8
W69LPLIFT
 62
1
 10
2371.259
 20
-9333.902
 30
-1640.907
 70
    32
  0
VERTEX
  8
W69LPLIFT
 62
1
 10
2371.239
 20
-9333.941
 30
-1640.907
 70
    32
  0
VERTEX
  8
W69LPLIFT
 62
1
 10
2371.222
 20
-9333.981
 30
-1640.907
 70
    32
  0
VERTEX
  8
W69LPLIFT
 62
1
 10
2371.209
 20
-9334.023
 30
-1640.907
 70
    32
  0
VERTEX
  8
W69LPLIFT
 62
1
 10
2371.200
 20
-9334.065
 30
-1640.907
 70
    32
  0
VERTEX
  8
W69LPLIFT
 62
1
 10
2371.194
 20
-9334.108
 30
-1640.907
 70
    32
  0
VERTEX
  8
W69LPLIFT
 62
1
 10
2371.192
 20
-9334.152
 30
-1640.907
 70
    32
  0
VERTEX
  8
W69LPLIFT
 62
1
 10
2371.194
 20
-9334.196
 30
-1640.907
 70
    32
  0
VERTEX
  8
W69LPLIFT
 62
1
 10
2371.200
 20
-9334.239
 30
-1640.907
 70
    32
  0
VERTEX
  8
W69LPLIFT
 62
1
 10
2371.209
 20
-9334.281
 30
-1640.907
 70
    32
  0
VERTEX
  8
W69LPLIFT
 62
1
 10
2371.222
 20
-9334.323
 30
-1640.907
 70
    32
  0
VERTEX
  8
W69LPLIFT
 62
1
 10
2371.239
 20
-9334.363
 30
-1640.907
 70
    32
  0
VERTEX
  8
W69LPLIFT
 62
1
 10
2371.259
 20
-9334.402
 30
-1640.907
 70
    32
  0
VERTEX
  8
W69LPLIFT
 62
1
 10
2371.282
 20
-9334.439
 30
-1640.907
 70
    32
  0
VERTEX
  8
W69LPLIFT
 62
1
 10
2371.309
 20
-9334.473
 30
-1640.907
 70
    32
  0
VERTEX
  8
W69LPLIFT
 62
1
 10
2371.338
 20
-9334.506
 30
-1640.907
 70
    32
  0
VERTEX
  8
W69LPLIFT
 62
1
 10
2371.371
 20
-9334.535
 30
-1640.907
 70
    32
  0
VERTEX
  8
W69LPLIFT
 62
1
 10
2371.405
 20
-9334.562
 30
-1640.907
 70
    32
  0
VERTEX
  8
W69LPLIFT
 62
1
 10
2371.442
 20
-9334.585
 30
-1640.907
 70
    32
  0
VERTEX
  8
W69LPLIFT
 62
1
 10
2371.481
 20
-9334.605
 30
-1640.907
 70
    32
  0
VERTEX
  8
W69LPLIFT
 62
1
 10
2371.521
 20
-9334.622
 30
-1640.907
 70
    32
  0
VERTEX
  8
W69LPLIFT
 62
1
 10
2371.563
 20
-9334.635
 30
-1640.907
 70
    32
  0
VERTEX
  8
W69LPLIFT
 62
1
 10
2371.605
 20
-9334.644
 30
-1640.907
 70
    32
  0
VERTEX
  8
W69LPLIFT
 62
1
 10
2371.648
 20
-9334.650
 30
-1640.907
 70
    32
  0
VERTEX
  8
W69LPLIFT
 62
1
 10
2371.692
 20
-9334.652
 30
-1640.907
 70
    32
  0
VERTEX
  8
W69LPLIFT
 62
1
 10
2371.736
 20
-9334.650
 30
-1640.907
 70
    32
  0
VERTEX
  8
W69LPLIFT
 62
1
 10
2371.779
 20
-9334.644
 30
-1640.907
 70
    32
  0
VERTEX
  8
W69LPLIFT
 62
1
 10
2371.821
 20
-9334.635
 30
-1640.907
 70
    32
  0
VERTEX
  8
W69LPLIFT
 62
1
 10
2371.863
 20
-9334.622
 30
-1640.907
 70
    32
  0
VERTEX
  8
W69LPLIFT
 62
1
 10
2371.903
 20
-9334.605
 30
-1640.907
 70
    32
  0
VERTEX
  8
W69LPLIFT
 62
1
 10
2371.942
 20
-9334.585
 30
-1640.907
 70
    32
  0
VERTEX
  8
W69LPLIFT
 62
1
 10
2371.979
 20
-9334.562
 30
-1640.907
 70
    32
  0
VERTEX
  8
W69LPLIFT
 62
1
 10
2372.013
 20
-9334.535
 30
-1640.907
 70
    32
  0
VERTEX
  8
W69LPLIFT
 62
1
 10
2372.046
 20
-9334.506
 30
-1640.907
 70
    32
  0
VERTEX
  8
W69LPLIFT
 62
1
 10
2372.075
 20
-9334.473
 30
-1640.907
 70
    32
  0
VERTEX
  8
W69LPLIFT
 62
1
 10
2372.102
 20
-9334.439
 30
-1640.907
 70
    32
  0
VERTEX
  8
W69LPLIFT
 62
1
 10
2372.125
 20
-9334.402
 30
-1640.907
 70
    32
  0
VERTEX
  8
W69LPLIFT
 62
1
 10
2372.145
 20
-9334.363
 30
-1640.907
 70
    32
  0
VERTEX
  8
W69LPLIFT
 62
1
 10
2372.162
 20
-9334.323
 30
-1640.907
 70
    32
  0
VERTEX
  8
W69LPLIFT
 62
1
 10
2372.175
 20
-9334.281
 30
-1640.907
 70
    32
  0
VERTEX
  8
W69LPLIFT
 62
1
 10
2372.184
 20
-9334.239
 30
-1640.907
 70
    32
  0
VERTEX
  8
W69LPLIFT
 62
1
 10
2372.190
 20
-9334.196
 30
-1640.907
 70
    32
  0
VERTEX
  8
W69LPLIFT
 62
1
 10
2372.192
 20
-9334.152
 30
-1640.907
 70
    32
  0
SEQEND
  8
W69LPLIFT
  0
POLYLINE
  8
W69LPLIFT
 62
1
 66
     1
 70
     8
  0
VERTEX
  8
W69LPLIFT
 62
1
 10
2373.327
 20
-9342.641
 30
-1642.862
 70
    32
  0
VERTEX
  8
W69LPLIFT
 62
1
 10
2373.325
 20
-9342.597
 30
-1642.862
 70
    32
  0
VERTEX
  8
W69LPLIFT
 62
1
 10
2373.319
 20
-9342.554
 30
-1642.862
 70
    32
  0
VERTEX
  8
W69LPLIFT
 62
1
 10
2373.310
 20
-9342.512
 30
-1642.862
 70
    32
  0
VERTEX
  8
W69LPLIFT
 62
1
 10
2373.297
 20
-9342.470
 30
-1642.862
 70
    32
  0
VERTEX
  8
W69LPLIFT
 62
1
 10
2373.280
 20
-9342.430
 30
-1642.862
 70
    32
  0
VERTEX
  8
W69LPLIFT
 62
1
 10
2373.260
 20
-9342.391
 30
-1642.862
 70
    32
  0
VERTEX
  8
W69LPLIFT
 62
1
 10
2373.237
 20
-9342.354
 30
-1642.862
 70
    32
  0
VERTEX
  8
W69LPLIFT
 62
1
 10
2373.210
 20
-9342.320
 30
-1642.862
 70
    32
  0
VERTEX
  8
W69LPLIFT
 62
1
 10
2373.181
 20
-9342.287
 30
-1642.862
 70
    32
  0
VERTEX
  8
W69LPLIFT
 62
1
 10
2373.148
 20
-9342.258
 30
-1642.862
 70
    32
  0
VERTEX
  8
W69LPLIFT
 62
1
 10
2373.114
 20
-9342.231
 30
-1642.862
 70
    32
  0
VERTEX
  8
W69LPLIFT
 62
1
 10
2373.077
 20
-9342.208
 30
-1642.862
 70
    32
  0
VERTEX
  8
W69LPLIFT
 62
1
 10
2373.038
 20
-9342.188
 30
-1642.862
 70
    32
  0
VERTEX
  8
W69LPLIFT
 62
1
 10
2372.998
 20
-9342.171
 30
-1642.862
 70
    32
  0
VERTEX
  8
W69LPLIFT
 62
1
 10
2372.956
 20
-9342.158
 30
-1642.862
 70
    32
  0
VERTEX
  8
W69LPLIFT
 62
1
 10
2372.914
 20
-9342.149
 30
-1642.862
 70
    32
  0
VERTEX
  8
W69LPLIFT
 62
1
 10
2372.871
 20
-9342.143
 30
-1642.862
 70
    32
  0
VERTEX
  8
W69LPLIFT
 62
1
 10
2372.827
 20
-9342.141
 30
-1642.862
 70
    32
  0
VERTEX
  8
W69LPLIFT
 62
1
 10
2372.783
 20
-9342.143
 30
-1642.862
 70
    32
  0
VERTEX
  8
W69LPLIFT
 62
1
 10
2372.740
 20
-9342.149
 30
-1642.862
 70
    32
  0
VERTEX
  8
W69LPLIFT
 62
1
 10
2372.698
 20
-9342.158
 30
-1642.862
 70
    32
  0
VERTEX
  8
W69LPLIFT
 62
1
 10
2372.656
 20
-9342.171
 30
-1642.862
 70
    32
  0
VERTEX
  8
W69LPLIFT
 62
1
 10
2372.616
 20
-9342.188
 30
-1642.862
 70
    32
  0
VERTEX
  8
W69LPLIFT
 62
1
 10
2372.577
 20
-9342.208
 30
-1642.862
 70
    32
  0
VERTEX
  8
W69LPLIFT
 62
1
 10
2372.540
 20
-9342.231
 30
-1642.862
 70
    32
  0
VERTEX
  8
W69LPLIFT
 62
1
 10
2372.506
 20
-9342.258
 30
-1642.862
 70
    32
  0
VERTEX
  8
W69LPLIFT
 62
1
 10
2372.473
 20
-9342.287
 30
-1642.862
 70
    32
  0
VERTEX
  8
W69LPLIFT
 62
1
 10
2372.444
 20
-9342.320
 30
-1642.862
 70
    32
  0
VERTEX
  8
W69LPLIFT
 62
1
 10
2372.417
 20
-9342.354
 30
-1642.862
 70
    32
  0
VERTEX
  8
W69LPLIFT
 62
1
 10
2372.394
 20
-9342.391
 30
-1642.862
 70
    32
  0
VERTEX
  8
W69LPLIFT
 62
1
 10
2372.374
 20
-9342.430
 30
-1642.862
 70
    32
  0
VERTEX
  8
W69LPLIFT
 62
1
 10
2372.357
 20
-9342.470
 30
-1642.862
 70
    32
  0
VERTEX
  8
W69LPLIFT
 62
1
 10
2372.344
 20
-9342.512
 30
-1642.862
 70
    32
  0
VERTEX
  8
W69LPLIFT
 62
1
 10
2372.335
 20
-9342.554
 30
-1642.862
 70
    32
  0
VERTEX
  8
W69LPLIFT
 62
1
 10
2372.329
 20
-9342.597
 30
-1642.862
 70
    32
  0
VERTEX
  8
W69LPLIFT
 62
1
 10
2372.327
 20
-9342.641
 30
-1642.862
 70
    32
  0
VERTEX
  8
W69LPLIFT
 62
1
 10
2372.329
 20
-9342.685
 30
-1642.862
 70
    32
  0
VERTEX
  8
W69LPLIFT
 62
1
 10
2372.335
 20
-9342.728
 30
-1642.862
 70
    32
  0
VERTEX
  8
W69LPLIFT
 62
1
 10
2372.344
 20
-9342.770
 30
-1642.862
 70
    32
  0
VERTEX
  8
W69LPLIFT
 62
1
 10
2372.357
 20
-9342.812
 30
-1642.862
 70
    32
  0
VERTEX
  8
W69LPLIFT
 62
1
 10
2372.374
 20
-9342.852
 30
-1642.862
 70
    32
  0
VERTEX
  8
W69LPLIFT
 62
1
 10
2372.394
 20
-9342.891
 30
-1642.862
 70
    32
  0
VERTEX
  8
W69LPLIFT
 62
1
 10
2372.417
 20
-9342.928
 30
-1642.862
 70
    32
  0
VERTEX
  8
W69LPLIFT
 62
1
 10
2372.444
 20
-9342.962
 30
-1642.862
 70
    32
  0
VERTEX
  8
W69LPLIFT
 62
1
 10
2372.473
 20
-9342.995
 30
-1642.862
 70
    32
  0
VERTEX
  8
W69LPLIFT
 62
1
 10
2372.506
 20
-9343.024
 30
-1642.862
 70
    32
  0
VERTEX
  8
W69LPLIFT
 62
1
 10
2372.540
 20
-9343.051
 30
-1642.862
 70
    32
  0
VERTEX
  8
W69LPLIFT
 62
1
 10
2372.577
 20
-9343.074
 30
-1642.862
 70
    32
  0
VERTEX
  8
W69LPLIFT
 62
1
 10
2372.616
 20
-9343.094
 30
-1642.862
 70
    32
  0
VERTEX
  8
W69LPLIFT
 62
1
 10
2372.656
 20
-9343.111
 30
-1642.862
 70
    32
  0
VERTEX
  8
W69LPLIFT
 62
1
 10
2372.698
 20
-9343.124
 30
-1642.862
 70
    32
  0
VERTEX
  8
W69LPLIFT
 62
1
 10
2372.740
 20
-9343.133
 30
-1642.862
 70
    32
  0
VERTEX
  8
W69LPLIFT
 62
1
 10
2372.783
 20
-9343.139
 30
-1642.862
 70
    32
  0
VERTEX
  8
W69LPLIFT
 62
1
 10
2372.827
 20
-9343.141
 30
-1642.862
 70
    32
  0
VERTEX
  8
W69LPLIFT
 62
1
 10
2372.871
 20
-9343.139
 30
-1642.862
 70
    32
  0
VERTEX
  8
W69LPLIFT
 62
1
 10
2372.914
 20
-9343.133
 30
-1642.862
 70
    32
  0
VERTEX
  8
W69LPLIFT
 62
1
 10
2372.956
 20
-9343.124
 30
-1642.862
 70
    32
  0
VERTEX
  8
W69LPLIFT
 62
1
 10
2372.998
 20
-9343.111
 30
-1642.862
 70
    32
  0
VERTEX
  8
W69LPLIFT
 62
1
 10
2373.038
 20
-9343.094
 30
-1642.862
 70
    32
  0
VERTEX
  8
W69LPLIFT
 62
1
 10
2373.077
 20
-9343.074
 30
-1642.862
 70
    32
  0
VERTEX
  8
W69LPLIFT
 62
1
 10
2373.114
 20
-9343.051
 30
-1642.862
 70
    32
  0
VERTEX
  8
W69LPLIFT
 62
1
 10
2373.148
 20
-9343.024
 30
-1642.862
 70
    32
  0
VERTEX
  8
W69LPLIFT
 62
1
 10
2373.181
 20
-9342.995
 30
-1642.862
 70
    32
  0
VERTEX
  8
W69LPLIFT
 62
1
 10
2373.210
 20
-9342.962
 30
-1642.862
 70
    32
  0
VERTEX
  8
W69LPLIFT
 62
1
 10
2373.237
 20
-9342.928
 30
-1642.862
 70
    32
  0
VERTEX
  8
W69LPLIFT
 62
1
 10
2373.260
 20
-9342.891
 30
-1642.862
 70
    32
  0
VERTEX
  8
W69LPLIFT
 62
1
 10
2373.280
 20
-9342.852
 30
-1642.862
 70
    32
  0
VERTEX
  8
W69LPLIFT
 62
1
 10
2373.297
 20
-9342.812
 30
-1642.862
 70
    32
  0
VERTEX
  8
W69LPLIFT
 62
1
 10
2373.310
 20
-9342.770
 30
-1642.862
 70
    32
  0
VERTEX
  8
W69LPLIFT
 62
1
 10
2373.319
 20
-9342.728
 30
-1642.862
 70
    32
  0
VERTEX
  8
W69LPLIFT
 62
1
 10
2373.325
 20
-9342.685
 30
-1642.862
 70
    32
  0
VERTEX
  8
W69LPLIFT
 62
1
 10
2373.327
 20
-9342.641
 30
-1642.862
 70
    32
  0
SEQEND
  8
W69LPLIFT
  0
POLYLINE
  8
W69LPLIFT
 62
1
 66
     1
 70
     8
  0
VERTEX
  8
W69LPLIFT
 62
1
 10
2389.004
 20
-9365.119
 30
-1643.386
 70
    32
  0
VERTEX
  8
W69LPLIFT
 62
1
 10
2389.002
 20
-9365.075
 30
-1643.386
 70
    32
  0
VERTEX
  8
W69LPLIFT
 62
1
 10
2388.996
 20
-9365.032
 30
-1643.386
 70
    32
  0
VERTEX
  8
W69LPLIFT
 62
1
 10
2388.987
 20
-9364.990
 30
-1643.386
 70
    32
  0
VERTEX
  8
W69LPLIFT
 62
1
 10
2388.974
 20
-9364.948
 30
-1643.386
 70
    32
  0
VERTEX
  8
W69LPLIFT
 62
1
 10
2388.957
 20
-9364.908
 30
-1643.386
 70
    32
  0
VERTEX
  8
W69LPLIFT
 62
1
 10
2388.937
 20
-9364.869
 30
-1643.386
 70
    32
  0
VERTEX
  8
W69LPLIFT
 62
1
 10
2388.914
 20
-9364.832
 30
-1643.386
 70
    32
  0
VERTEX
  8
W69LPLIFT
 62
1
 10
2388.887
 20
-9364.798
 30
-1643.386
 70
    32
  0
VERTEX
  8
W69LPLIFT
 62
1
 10
2388.858
 20
-9364.765
 30
-1643.386
 70
    32
  0
VERTEX
  8
W69LPLIFT
 62
1
 10
2388.825
 20
-9364.736
 30
-1643.386
 70
    32
  0
VERTEX
  8
W69LPLIFT
 62
1
 10
2388.791
 20
-9364.709
 30
-1643.386
 70
    32
  0
VERTEX
  8
W69LPLIFT
 62
1
 10
2388.754
 20
-9364.686
 30
-1643.386
 70
    32
  0
VERTEX
  8
W69LPLIFT
 62
1
 10
2388.715
 20
-9364.666
 30
-1643.386
 70
    32
  0
VERTEX
  8
W69LPLIFT
 62
1
 10
2388.675
 20
-9364.649
 30
-1643.386
 70
    32
  0
VERTEX
  8
W69LPLIFT
 62
1
 10
2388.633
 20
-9364.636
 30
-1643.386
 70
    32
  0
VERTEX
  8
W69LPLIFT
 62
1
 10
2388.591
 20
-9364.627
 30
-1643.386
 70
    32
  0
VERTEX
  8
W69LPLIFT
 62
1
 10
2388.548
 20
-9364.621
 30
-1643.386
 70
    32
  0
VERTEX
  8
W69LPLIFT
 62
1
 10
2388.504
 20
-9364.619
 30
-1643.386
 70
    32
  0
VERTEX
  8
W69LPLIFT
 62
1
 10
2388.460
 20
-9364.621
 30
-1643.386
 70
    32
  0
VERTEX
  8
W69LPLIFT
 62
1
 10
2388.417
 20
-9364.627
 30
-1643.386
 70
    32
  0
VERTEX
  8
W69LPLIFT
 62
1
 10
2388.375
 20
-9364.636
 30
-1643.386
 70
    32
  0
VERTEX
  8
W69LPLIFT
 62
1
 10
2388.333
 20
-9364.649
 30
-1643.386
 70
    32
  0
VERTEX
  8
W69LPLIFT
 62
1
 10
2388.293
 20
-9364.666
 30
-1643.386
 70
    32
  0
VERTEX
  8
W69LPLIFT
 62
1
 10
2388.254
 20
-9364.686
 30
-1643.386
 70
    32
  0
VERTEX
  8
W69LPLIFT
 62
1
 10
2388.217
 20
-9364.709
 30
-1643.386
 70
    32
  0
VERTEX
  8
W69LPLIFT
 62
1
 10
2388.183
 20
-9364.736
 30
-1643.386
 70
    32
  0
VERTEX
  8
W69LPLIFT
 62
1
 10
2388.150
 20
-9364.765
 30
-1643.386
 70
    32
  0
VERTEX
  8
W69LPLIFT
 62
1
 10
2388.121
 20
-9364.798
 30
-1643.386
 70
    32
  0
VERTEX
  8
W69LPLIFT
 62
1
 10
2388.094
 20
-9364.832
 30
-1643.386
 70
    32
  0
VERTEX
  8
W69LPLIFT
 62
1
 10
2388.071
 20
-9364.869
 30
-1643.386
 70
    32
  0
VERTEX
  8
W69LPLIFT
 62
1
 10
2388.051
 20
-9364.908
 30
-1643.386
 70
    32
  0
VERTEX
  8
W69LPLIFT
 62
1
 10
2388.034
 20
-9364.948
 30
-1643.386
 70
    32
  0
VERTEX
  8
W69LPLIFT
 62
1
 10
2388.021
 20
-9364.990
 30
-1643.386
 70
    32
  0
VERTEX
  8
W69LPLIFT
 62
1
 10
2388.012
 20
-9365.032
 30
-1643.386
 70
    32
  0
VERTEX
  8
W69LPLIFT
 62
1
 10
2388.006
 20
-9365.075
 30
-1643.386
 70
    32
  0
VERTEX
  8
W69LPLIFT
 62
1
 10
2388.004
 20
-9365.119
 30
-1643.386
 70
    32
  0
VERTEX
  8
W69LPLIFT
 62
1
 10
2388.006
 20
-9365.163
 30
-1643.386
 70
    32
  0
VERTEX
  8
W69LPLIFT
 62
1
 10
2388.012
 20
-9365.206
 30
-1643.386
 70
    32
  0
VERTEX
  8
W69LPLIFT
 62
1
 10
2388.021
 20
-9365.248
 30
-1643.386
 70
    32
  0
VERTEX
  8
W69LPLIFT
 62
1
 10
2388.034
 20
-9365.290
 30
-1643.386
 70
    32
  0
VERTEX
  8
W69LPLIFT
 62
1
 10
2388.051
 20
-9365.330
 30
-1643.386
 70
    32
  0
VERTEX
  8
W69LPLIFT
 62
1
 10
2388.071
 20
-9365.369
 30
-1643.386
 70
    32
  0
VERTEX
  8
W69LPLIFT
 62
1
 10
2388.094
 20
-9365.406
 30
-1643.386
 70
    32
  0
VERTEX
  8
W69LPLIFT
 62
1
 10
2388.121
 20
-9365.440
 30
-1643.386
 70
    32
  0
VERTEX
  8
W69LPLIFT
 62
1
 10
2388.150
 20
-9365.473
 30
-1643.386
 70
    32
  0
VERTEX
  8
W69LPLIFT
 62
1
 10
2388.183
 20
-9365.502
 30
-1643.386
 70
    32
  0
VERTEX
  8
W69LPLIFT
 62
1
 10
2388.217
 20
-9365.529
 30
-1643.386
 70
    32
  0
VERTEX
  8
W69LPLIFT
 62
1
 10
2388.254
 20
-9365.552
 30
-1643.386
 70
    32
  0
VERTEX
  8
W69LPLIFT
 62
1
 10
2388.293
 20
-9365.572
 30
-1643.386
 70
    32
  0
VERTEX
  8
W69LPLIFT
 62
1
 10
2388.333
 20
-9365.589
 30
-1643.386
 70
    32
  0
VERTEX
  8
W69LPLIFT
 62
1
 10
2388.375
 20
-9365.602
 30
-1643.386
 70
    32
  0
VERTEX
  8
W69LPLIFT
 62
1
 10
2388.417
 20
-9365.611
 30
-1643.386
 70
    32
  0
VERTEX
  8
W69LPLIFT
 62
1
 10
2388.460
 20
-9365.617
 30
-1643.386
 70
    32
  0
VERTEX
  8
W69LPLIFT
 62
1
 10
2388.504
 20
-9365.619
 30
-1643.386
 70
    32
  0
VERTEX
  8
W69LPLIFT
 62
1
 10
2388.548
 20
-9365.617
 30
-1643.386
 70
    32
  0
VERTEX
  8
W69LPLIFT
 62
1
 10
2388.591
 20
-9365.611
 30
-1643.386
 70
    32
  0
VERTEX
  8
W69LPLIFT
 62
1
 10
2388.633
 20
-9365.602
 30
-1643.386
 70
    32
  0
VERTEX
  8
W69LPLIFT
 62
1
 10
2388.675
 20
-9365.589
 30
-1643.386
 70
    32
  0
VERTEX
  8
W69LPLIFT
 62
1
 10
2388.715
 20
-9365.572
 30
-1643.386
 70
    32
  0
VERTEX
  8
W69LPLIFT
 62
1
 10
2388.754
 20
-9365.552
 30
-1643.386
 70
    32
  0
VERTEX
  8
W69LPLIFT
 62
1
 10
2388.791
 20
-9365.529
 30
-1643.386
 70
    32
  0
VERTEX
  8
W69LPLIFT
 62
1
 10
2388.825
 20
-9365.502
 30
-1643.386
 70
    32
  0
VERTEX
  8
W69LPLIFT
 62
1
 10
2388.858
 20
-9365.473
 30
-1643.386
 70
    32
  0
VERTEX
  8
W69LPLIFT
 62
1
 10
2388.887
 20
-9365.440
 30
-1643.386
 70
    32
  0
VERTEX
  8
W69LPLIFT
 62
1
 10
2388.914
 20
-9365.406
 30
-1643.386
 70
    32
  0
VERTEX
  8
W69LPLIFT
 62
1
 10
2388.937
 20
-9365.369
 30
-1643.386
 70
    32
  0
VERTEX
  8
W69LPLIFT
 62
1
 10
2388.957
 20
-9365.330
 30
-1643.386
 70
    32
  0
VERTEX
  8
W69LPLIFT
 62
1
 10
2388.974
 20
-9365.290
 30
-1643.386
 70
    32
  0
VERTEX
  8
W69LPLIFT
 62
1
 10
2388.987
 20
-9365.248
 30
-1643.386
 70
    32
  0
VERTEX
  8
W69LPLIFT
 62
1
 10
2388.996
 20
-9365.206
 30
-1643.386
 70
    32
  0
VERTEX
  8
W69LPLIFT
 62
1
 10
2389.002
 20
-9365.163
 30
-1643.386
 70
    32
  0
VERTEX
  8
W69LPLIFT
 62
1
 10
2389.004
 20
-9365.119
 30
-1643.386
 70
    32
  0
SEQEND
  8
W69LPLIFT
  0
POLYLINE
  8
W69LPLIFT
 62
1
 66
     1
 70
     8
  0
VERTEX
  8
W69LPLIFT
 62
1
 10
2383.223
 20
-9368.857
 30
-1644.053
 70
    32
  0
VERTEX
  8
W69LPLIFT
 62
1
 10
2383.221
 20
-9368.813
 30
-1644.053
 70
    32
  0
VERTEX
  8
W69LPLIFT
 62
1
 10
2383.215
 20
-9368.770
 30
-1644.053
 70
    32
  0
VERTEX
  8
W69LPLIFT
 62
1
 10
2383.206
 20
-9368.728
 30
-1644.053
 70
    32
  0
VERTEX
  8
W69LPLIFT
 62
1
 10
2383.193
 20
-9368.686
 30
-1644.053
 70
    32
  0
VERTEX
  8
W69LPLIFT
 62
1
 10
2383.176
 20
-9368.646
 30
-1644.053
 70
    32
  0
VERTEX
  8
W69LPLIFT
 62
1
 10
2383.156
 20
-9368.607
 30
-1644.053
 70
    32
  0
VERTEX
  8
W69LPLIFT
 62
1
 10
2383.133
 20
-9368.570
 30
-1644.053
 70
    32
  0
VERTEX
  8
W69LPLIFT
 62
1
 10
2383.106
 20
-9368.536
 30
-1644.053
 70
    32
  0
VERTEX
  8
W69LPLIFT
 62
1
 10
2383.077
 20
-9368.503
 30
-1644.053
 70
    32
  0
VERTEX
  8
W69LPLIFT
 62
1
 10
2383.044
 20
-9368.474
 30
-1644.053
 70
    32
  0
VERTEX
  8
W69LPLIFT
 62
1
 10
2383.010
 20
-9368.447
 30
-1644.053
 70
    32
  0
VERTEX
  8
W69LPLIFT
 62
1
 10
2382.973
 20
-9368.424
 30
-1644.053
 70
    32
  0
VERTEX
  8
W69LPLIFT
 62
1
 10
2382.934
 20
-9368.404
 30
-1644.053
 70
    32
  0
VERTEX
  8
W69LPLIFT
 62
1
 10
2382.894
 20
-9368.387
 30
-1644.053
 70
    32
  0
VERTEX
  8
W69LPLIFT
 62
1
 10
2382.852
 20
-9368.374
 30
-1644.053
 70
    32
  0
VERTEX
  8
W69LPLIFT
 62
1
 10
2382.810
 20
-9368.365
 30
-1644.053
 70
    32
  0
VERTEX
  8
W69LPLIFT
 62
1
 10
2382.767
 20
-9368.359
 30
-1644.053
 70
    32
  0
VERTEX
  8
W69LPLIFT
 62
1
 10
2382.723
 20
-9368.357
 30
-1644.053
 70
    32
  0
VERTEX
  8
W69LPLIFT
 62
1
 10
2382.679
 20
-9368.359
 30
-1644.053
 70
    32
  0
VERTEX
  8
W69LPLIFT
 62
1
 10
2382.636
 20
-9368.365
 30
-1644.053
 70
    32
  0
VERTEX
  8
W69LPLIFT
 62
1
 10
2382.594
 20
-9368.374
 30
-1644.053
 70
    32
  0
VERTEX
  8
W69LPLIFT
 62
1
 10
2382.552
 20
-9368.387
 30
-1644.053
 70
    32
  0
VERTEX
  8
W69LPLIFT
 62
1
 10
2382.512
 20
-9368.404
 30
-1644.053
 70
    32
  0
VERTEX
  8
W69LPLIFT
 62
1
 10
2382.473
 20
-9368.424
 30
-1644.053
 70
    32
  0
VERTEX
  8
W69LPLIFT
 62
1
 10
2382.436
 20
-9368.447
 30
-1644.053
 70
    32
  0
VERTEX
  8
W69LPLIFT
 62
1
 10
2382.402
 20
-9368.474
 30
-1644.053
 70
    32
  0
VERTEX
  8
W69LPLIFT
 62
1
 10
2382.369
 20
-9368.503
 30
-1644.053
 70
    32
  0
VERTEX
  8
W69LPLIFT
 62
1
 10
2382.340
 20
-9368.536
 30
-1644.053
 70
    32
  0
VERTEX
  8
W69LPLIFT
 62
1
 10
2382.313
 20
-9368.570
 30
-1644.053
 70
    32
  0
VERTEX
  8
W69LPLIFT
 62
1
 10
2382.290
 20
-9368.607
 30
-1644.053
 70
    32
  0
VERTEX
  8
W69LPLIFT
 62
1
 10
2382.270
 20
-9368.646
 30
-1644.053
 70
    32
  0
VERTEX
  8
W69LPLIFT
 62
1
 10
2382.253
 20
-9368.686
 30
-1644.053
 70
    32
  0
VERTEX
  8
W69LPLIFT
 62
1
 10
2382.240
 20
-9368.728
 30
-1644.053
 70
    32
  0
VERTEX
  8
W69LPLIFT
 62
1
 10
2382.231
 20
-9368.770
 30
-1644.053
 70
    32
  0
VERTEX
  8
W69LPLIFT
 62
1
 10
2382.225
 20
-9368.813
 30
-1644.053
 70
    32
  0
VERTEX
  8
W69LPLIFT
 62
1
 10
2382.223
 20
-9368.857
 30
-1644.053
 70
    32
  0
VERTEX
  8
W69LPLIFT
 62
1
 10
2382.225
 20
-9368.901
 30
-1644.053
 70
    32
  0
VERTEX
  8
W69LPLIFT
 62
1
 10
2382.231
 20
-9368.944
 30
-1644.053
 70
    32
  0
VERTEX
  8
W69LPLIFT
 62
1
 10
2382.240
 20
-9368.986
 30
-1644.053
 70
    32
  0
VERTEX
  8
W69LPLIFT
 62
1
 10
2382.253
 20
-9369.028
 30
-1644.053
 70
    32
  0
VERTEX
  8
W69LPLIFT
 62
1
 10
2382.270
 20
-9369.068
 30
-1644.053
 70
    32
  0
VERTEX
  8
W69LPLIFT
 62
1
 10
2382.290
 20
-9369.107
 30
-1644.053
 70
    32
  0
VERTEX
  8
W69LPLIFT
 62
1
 10
2382.313
 20
-9369.144
 30
-1644.053
 70
    32
  0
VERTEX
  8
W69LPLIFT
 62
1
 10
2382.340
 20
-9369.178
 30
-1644.053
 70
    32
  0
VERTEX
  8
W69LPLIFT
 62
1
 10
2382.369
 20
-9369.211
 30
-1644.053
 70
    32
  0
VERTEX
  8
W69LPLIFT
 62
1
 10
2382.402
 20
-9369.240
 30
-1644.053
 70
    32
  0
VERTEX
  8
W69LPLIFT
 62
1
 10
2382.436
 20
-9369.267
 30
-1644.053
 70
    32
  0
VERTEX
  8
W69LPLIFT
 62
1
 10
2382.473
 20
-9369.290
 30
-1644.053
 70
    32
  0
VERTEX
  8
W69LPLIFT
 62
1
 10
2382.512
 20
-9369.310
 30
-1644.053
 70
    32
  0
VERTEX
  8
W69LPLIFT
 62
1
 10
2382.552
 20
-9369.327
 30
-1644.053
 70
    32
  0
VERTEX
  8
W69LPLIFT
 62
1
 10
2382.594
 20
-9369.340
 30
-1644.053
 70
    32
  0
VERTEX
  8
W69LPLIFT
 62
1
 10
2382.636
 20
-9369.349
 30
-1644.053
 70
    32
  0
VERTEX
  8
W69LPLIFT
 62
1
 10
2382.679
 20
-9369.355
 30
-1644.053
 70
    32
  0
VERTEX
  8
W69LPLIFT
 62
1
 10
2382.723
 20
-9369.357
 30
-1644.053
 70
    32
  0
VERTEX
  8
W69LPLIFT
 62
1
 10
2382.767
 20
-9369.355
 30
-1644.053
 70
    32
  0
VERTEX
  8
W69LPLIFT
 62
1
 10
2382.810
 20
-9369.349
 30
-1644.053
 70
    32
  0
VERTEX
  8
W69LPLIFT
 62
1
 10
2382.852
 20
-9369.340
 30
-1644.053
 70
    32
  0
VERTEX
  8
W69LPLIFT
 62
1
 10
2382.894
 20
-9369.327
 30
-1644.053
 70
    32
  0
VERTEX
  8
W69LPLIFT
 62
1
 10
2382.934
 20
-9369.310
 30
-1644.053
 70
    32
  0
VERTEX
  8
W69LPLIFT
 62
1
 10
2382.973
 20
-9369.290
 30
-1644.053
 70
    32
  0
VERTEX
  8
W69LPLIFT
 62
1
 10
2383.010
 20
-9369.267
 30
-1644.053
 70
    32
  0
VERTEX
  8
W69LPLIFT
 62
1
 10
2383.044
 20
-9369.240
 30
-1644.053
 70
    32
  0
VERTEX
  8
W69LPLIFT
 62
1
 10
2383.077
 20
-9369.211
 30
-1644.053
 70
    32
  0
VERTEX
  8
W69LPLIFT
 62
1
 10
2383.106
 20
-9369.178
 30
-1644.053
 70
    32
  0
VERTEX
  8
W69LPLIFT
 62
1
 10
2383.133
 20
-9369.144
 30
-1644.053
 70
    32
  0
VERTEX
  8
W69LPLIFT
 62
1
 10
2383.156
 20
-9369.107
 30
-1644.053
 70
    32
  0
VERTEX
  8
W69LPLIFT
 62
1
 10
2383.176
 20
-9369.068
 30
-1644.053
 70
    32
  0
VERTEX
  8
W69LPLIFT
 62
1
 10
2383.193
 20
-9369.028
 30
-1644.053
 70
    32
  0
VERTEX
  8
W69LPLIFT
 62
1
 10
2383.206
 20
-9368.986
 30
-1644.053
 70
    32
  0
VERTEX
  8
W69LPLIFT
 62
1
 10
2383.215
 20
-9368.944
 30
-1644.053
 70
    32
  0
VERTEX
  8
W69LPLIFT
 62
1
 10
2383.221
 20
-9368.901
 30
-1644.053
 70
    32
  0
VERTEX
  8
W69LPLIFT
 62
1
 10
2383.223
 20
-9368.857
 30
-1644.053
 70
    32
  0
SEQEND
  8
W69LPLIFT
  0
POLYLINE
  8
W69LPLIFT
 62
11
 66
     1
 70
     9
  0
VERTEX
  8
W69LPLIFT
 62
11
 10
2332.007
 20
-9017.397
 30
-1619.700
 70
    32
  0
VERTEX
  8
W69LPLIFT
 62
11
 10
2331.988
 20
-9010.611
 30
-1619.731
 70
    32
  0
VERTEX
  8
W69LPLIFT
 62
11
 10
2327.665
 20
-9004.246
 30
-1618.324
 70
    32
  0
VERTEX
  8
W69LPLIFT
 62
11
 10
2319.368
 20
-8999.931
 30
-1617.873
 70
    32
  0
VERTEX
  8
W69LPLIFT
 62
11
 10
2320.993
 20
-8991.329
 30
-1617.809
 70
    32
  0
VERTEX
  8
W69LPLIFT
 62
11
 10
2326.655
 20
-8986.963
 30
-1617.429
 70
    32
  0
VERTEX
  8
W69LPLIFT
 62
11
 10
2332.916
 20
-8993.978
 30
-1618.029
 70
    32
  0
VERTEX
  8
W69LPLIFT
 62
11
 10
2338.162
 20
-8990.987
 30
-1618.220
 70
    32
  0
VERTEX
  8
W69LPLIFT
 62
11
 10
2340.663
 20
-8999.920
 30
-1618.135
 70
    32
  0
VERTEX
  8
W69LPLIFT
 62
11
 10
2350.075
 20
-9003.174
 30
-1617.822
 70
    32
  0
VERTEX
  8
W69LPLIFT
 62
11
 10
2356.893
 20
-9011.332
 30
-1618.146
 70
    32
  0
VERTEX
  8
W69LPLIFT
 62
11
 10
2362.764
 20
-9015.784
 30
-1618.339
 70
    32
  0
VERTEX
  8
W69LPLIFT
 62
11
 10
2367.143
 20
-9021.052
 30
-1617.238
 70
    32
  0
VERTEX
  8
W69LPLIFT
 62
11
 10
2363.956
 20
-9024.598
 30
-1617.576
 70
    32
  0
VERTEX
  8
W69LPLIFT
 62
11
 10
2359.903
 20
-9026.643
 30
-1617.489
 70
    32
  0
VERTEX
  8
W69LPLIFT
 62
11
 10
2354.793
 20
-9024.897
 30
-1618.218
 70
    32
  0
VERTEX
  8
W69LPLIFT
 62
11
 10
2350.593
 20
-9023.117
 30
-1618.245
 70
    32
  0
VERTEX
  8
W69LPLIFT
 62
11
 10
2345.106
 20
-9023.668
 30
-1618.572
 70
    32
  0
VERTEX
  8
W69LPLIFT
 62
11
 10
2340.246
 20
-9026.296
 30
-1618.060
 70
    32
  0
SEQEND
  8
W69LPLIFT
  0
POINT
  8
W69LPLIFT
 62
11
 10
2345.690
 20
-9011.490
 30
-1619.010
  0
POLYLINE
  8
W69LPLIFT
 62
11
 66
     1
 70
     9
  0
VERTEX
  8
W69LPLIFT
 62
11
 10
2345.703
 20
-9009.026
 30
-1619.010
 70
    32
  0
VERTEX
  8
W69LPLIFT
 62
11
 10
2343.538
 20
-9012.776
 30
-1619.010
 70
    32
  0
VERTEX
  8
W69LPLIFT
 62
11
 10
2347.868
 20
-9012.776
 30
-1619.010
 70
    32
  0
SEQEND
  8
W69LPLIFT
  0
POINT
  8
W69LPLIFT
 62
11
 10
2352.030
 20
-9016.510
 30
-1619.790
  0
POLYLINE
  8
W69LPLIFT
 62
11
 66
     1
 70
     9
  0
VERTEX
  8
W69LPLIFT
 62
11
 10
2352.024
 20
-9014.059
 30
-1619.790
 70
    32
  0
VERTEX
  8
W69LPLIFT
 62
11
 10
2349.859
 20
-9017.809
 30
-1619.790
 70
    32
  0
VERTEX
  8
W69LPLIFT
 62
11
 10
2354.190
 20
-9017.809
 30
-1619.790
 70
    32
  0
SEQEND
  8
W69LPLIFT
  0
TEXT
  8
W69LPLIFT
 62
11
 10
2355.371
 20
-9014.228
 30
-1619.790
 40
1.969
  1
ST-305T
 50
56.490
 41
 1.0 
  0
TEXT
  8
W69LPLIFT
 62
11
 10
2357.820
 20
-9016.308
 30
-1619.790
 40
1.969
  1
-1618.79
 50
56.490
 41
 1.0 
  0
TEXT
  8
W69LPLIFT
 62
11
 10
2348.696
 20
-9008.910
 30
-1619.010
 40
1.969
  1
ST-305S
 50
56.490
 41
 1.0 
  0
TEXT
  8
W69LPLIFT
 62
11
 10
2346.355
 20
-9006.830
 30
-1619.010
 40
1.969
  1
-1619.01
 50
56.490
 41
 1.0 
  0
POLYLINE
  8
W69LPLIFT
 62
2
 66
     1
 70
     8
  0
VERTEX
  8
W69LPLIFT
 62
2
 10
1579.285
 20
-6547.271
 30
-1593.565
 70
    32
  0
VERTEX
  8
W69LPLIFT
 62
2
 10
1577.834
 20
-6541.029
 30
-1591.791
 70
    32
  0
VERTEX
  8
W69LPLIFT
 62
2
 10
1573.868
 20
-6533.327
 30
-1587.900
 70
    32
  0
VERTEX
  8
W69LPLIFT
 62
2
 10
1568.388
 20
-6528.234
 30
-1585.305
 70
    32
  0
VERTEX
  8
W69LPLIFT
 62
2
 10
1561.391
 20
-6524.599
 30
-1582.752
 70
    32
  0
VERTEX
  8
W69LPLIFT
 62
2
 10
1555.641
 20
-6517.414
 30
-1581.126
 70
    32
  0
VERTEX
  8
W69LPLIFT
 62
2
 10
1547.236
 20
-6510.220
 30
-1579.318
 70
    32
  0
VERTEX
  8
W69LPLIFT
 62
2
 10
1534.595
 20
-6514.235
 30
-1579.525
 70
    32
  0
VERTEX
  8
W69LPLIFT
 62
2
 10
1522.564
 20
-6517.402
 30
-1579.685
 70
    32
  0
VERTEX
  8
W69LPLIFT
 62
2
 10
1516.890
 20
-6508.154
 30
-1580.453
 70
    32
  0
VERTEX
  8
W69LPLIFT
 62
2
 10
1512.224
 20
-6502.787
 30
-1580.534
 70
    32
  0
VERTEX
  8
W69LPLIFT
 62
2
 10
1505.740
 20
-6498.423
 30
-1580.615
 70
    32
  0
VERTEX
  8
W69LPLIFT
 62
2
 10
1499.921
 20
-6495.288
 30
-1580.679
 70
    32
  0
VERTEX
  8
W69LPLIFT
 62
2
 10
1494.617
 20
-6492.007
 30
-1580.741
 70
    32
  0
VERTEX
  8
W69LPLIFT
 62
2
 10
1488.057
 20
-6487.552
 30
-1580.742
 70
    32
  0
VERTEX
  8
W69LPLIFT
 62
2
 10
1489.033
 20
-6480.587
 30
-1580.802
 70
    32
  0
VERTEX
  8
W69LPLIFT
 62
2
 10
1492.781
 20
-6474.684
 30
-1580.845
 70
    32
  0
VERTEX
  8
W69LPLIFT
 62
2
 10
1495.987
 20
-6467.782
 30
-1580.898
 70
    32
  0
VERTEX
  8
W69LPLIFT
 62
2
 10
1499.581
 20
-6461.142
 30
-1580.947
 70
    32
  0
VERTEX
  8
W69LPLIFT
 62
2
 10
1506.214
 20
-6457.208
 30
-1580.962
 70
    32
  0
VERTEX
  8
W69LPLIFT
 62
2
 10
1511.742
 20
-6451.970
 30
-1580.993
 70
    32
  0
VERTEX
  8
W69LPLIFT
 62
2
 10
1515.320
 20
-6447.824
 30
-1581.020
 70
    32
  0
VERTEX
  8
W69LPLIFT
 62
2
 10
1518.167
 20
-6443.261
 30
-1581.077
 70
    32
  0
VERTEX
  8
W69LPLIFT
 62
2
 10
1515.282
 20
-6434.505
 30
-1581.558
 70
    32
  0
VERTEX
  8
W69LPLIFT
 62
2
 10
1508.471
 20
-6429.604
 30
-1582.086
 70
    32
  0
VERTEX
  8
W69LPLIFT
 62
2
 10
1501.633
 20
-6427.627
 30
-1582.094
 70
    32
  0
VERTEX
  8
W69LPLIFT
 62
2
 10
1494.576
 20
-6430.264
 30
-1582.107
 70
    32
  0
VERTEX
  8
W69LPLIFT
 62
2
 10
1491.712
 20
-6430.690
 30
-1582.111
 70
    32
  0
VERTEX
  8
W69LPLIFT
 62
2
 10
1486.954
 20
-6425.191
 30
-1582.113
 70
    32
  0
VERTEX
  8
W69LPLIFT
 62
2
 10
1483.534
 20
-6417.789
 30
-1582.112
 70
    32
  0
VERTEX
  8
W69LPLIFT
 62
2
 10
1479.799
 20
-6412.966
 30
-1581.967
 70
    32
  0
VERTEX
  8
W69LPLIFT
 62
2
 10
1475.023
 20
-6413.325
 30
-1581.721
 70
    32
  0
VERTEX
  8
W69LPLIFT
 62
2
 10
1468.545
 20
-6417.568
 30
-1581.405
 70
    32
  0
VERTEX
  8
W69LPLIFT
 62
2
 10
1461.382
 20
-6421.221
 30
-1581.050
 70
    32
  0
VERTEX
  8
W69LPLIFT
 62
2
 10
1453.278
 20
-6423.231
 30
-1580.639
 70
    32
  0
VERTEX
  8
W69LPLIFT
 62
2
 10
1450.091
 20
-6411.279
 30
-1580.420
 70
    32
  0
VERTEX
  8
W69LPLIFT
 62
2
 10
1447.940
 20
-6397.597
 30
-1580.247
 70
    32
  0
VERTEX
  8
W69LPLIFT
 62
2
 10
1438.445
 20
-6393.864
 30
-1579.738
 70
    32
  0
VERTEX
  8
W69LPLIFT
 62
2
 10
1439.605
 20
-6383.139
 30
-1579.749
 70
    32
  0
VERTEX
  8
W69LPLIFT
 62
2
 10
1443.214
 20
-6373.508
 30
-1579.893
 70
    32
  0
VERTEX
  8
W69LPLIFT
 62
2
 10
1444.715
 20
-6368.531
 30
-1577.906
 70
    32
  0
VERTEX
  8
W69LPLIFT
 62
2
 10
1444.716
 20
-6361.310
 30
-1576.853
 70
    32
  0
VERTEX
  8
W69LPLIFT
 62
2
 10
1433.260
 20
-6342.084
 30
-1571.362
 70
    32
  0
VERTEX
  8
W69LPLIFT
 62
2
 10
1422.957
 20
-6327.396
 30
-1569.737
 70
    32
  0
VERTEX
  8
W69LPLIFT
 62
2
 10
1422.855
 20
-6323.194
 30
-1569.577
 70
    32
  0
VERTEX
  8
W69LPLIFT
 62
2
 10
1421.126
 20
-6318.559
 30
-1569.371
 70
    32
  0
VERTEX
  8
W69LPLIFT
 62
2
 10
1435.653
 20
-6315.400
 30
-1569.522
 70
    32
  0
VERTEX
  8
W69LPLIFT
 62
2
 10
1436.099
 20
-6325.825
 30
-1569.921
 70
    32
  0
VERTEX
  8
W69LPLIFT
 62
2
 10
1452.601
 20
-6346.551
 30
-1574.063
 70
    32
  0
VERTEX
  8
W69LPLIFT
 62
2
 10
1454.540
 20
-6357.494
 30
-1577.002
 70
    32
  0
VERTEX
  8
W69LPLIFT
 62
2
 10
1458.325
 20
-6362.610
 30
-1576.808
 70
    32
  0
VERTEX
  8
W69LPLIFT
 62
2
 10
1465.101
 20
-6367.384
 30
-1577.388
 70
    32
  0
VERTEX
  8
W69LPLIFT
 62
2
 10
1467.379
 20
-6374.697
 30
-1578.416
 70
    32
  0
VERTEX
  8
W69LPLIFT
 62
2
 10
1471.593
 20
-6377.156
 30
-1578.702
 70
    32
  0
VERTEX
  8
W69LPLIFT
 62
2
 10
1479.820
 20
-6375.655
 30
-1581.799
 70
    32
  0
VERTEX
  8
W69LPLIFT
 62
2
 10
1489.492
 20
-6371.852
 30
-1582.060
 70
    32
  0
VERTEX
  8
W69LPLIFT
 62
2
 10
1496.157
 20
-6374.977
 30
-1582.053
 70
    32
  0
VERTEX
  8
W69LPLIFT
 62
2
 10
1504.156
 20
-6372.545
 30
-1582.039
 70
    32
  0
VERTEX
  8
W69LPLIFT
 62
2
 10
1513.155
 20
-6362.386
 30
-1581.576
 70
    32
  0
VERTEX
  8
W69LPLIFT
 62
2
 10
1514.221
 20
-6362.835
 30
-1581.576
 70
    32
  0
VERTEX
  8
W69LPLIFT
 62
2
 10
1514.956
 20
-6362.100
 30
-1581.571
 70
    32
  0
VERTEX
  8
W69LPLIFT
 62
2
 10
1516.388
 20
-6361.285
 30
-1581.564
 70
    32
  0
VERTEX
  8
W69LPLIFT
 62
2
 10
1522.630
 20
-6354.891
 30
-1581.521
 70
    32
  0
VERTEX
  8
W69LPLIFT
 62
2
 10
1524.092
 20
-6345.113
 30
-1581.474
 70
    32
  0
VERTEX
  8
W69LPLIFT
 62
2
 10
1519.534
 20
-6333.840
 30
-1581.435
 70
    32
  0
VERTEX
  8
W69LPLIFT
 62
2
 10
1524.897
 20
-6325.779
 30
-1582.288
 70
    32
  0
VERTEX
  8
W69LPLIFT
 62
2
 10
1519.167
 20
-6309.712
 30
-1582.887
 70
    32
  0
VERTEX
  8
W69LPLIFT
 62
2
 10
1521.782
 20
-6304.689
 30
-1583.023
 70
    32
  0
VERTEX
  8
W69LPLIFT
 62
2
 10
1521.125
 20
-6301.771
 30
-1583.127
 70
    32
  0
VERTEX
  8
W69LPLIFT
 62
2
 10
1537.665
 20
-6295.227
 30
-1583.152
 70
    32
  0
VERTEX
  8
W69LPLIFT
 62
2
 10
1542.176
 20
-6303.512
 30
-1582.825
 70
    32
  0
VERTEX
  8
W69LPLIFT
 62
2
 10
1545.627
 20
-6319.317
 30
-1582.261
 70
    32
  0
VERTEX
  8
W69LPLIFT
 62
2
 10
1550.326
 20
-6329.419
 30
-1581.872
 70
    32
  0
VERTEX
  8
W69LPLIFT
 62
2
 10
1553.147
 20
-6331.668
 30
-1581.765
 70
    32
  0
VERTEX
  8
W69LPLIFT
 62
2
 10
1562.269
 20
-6347.792
 30
-1581.125
 70
    32
  0
VERTEX
  8
W69LPLIFT
 62
2
 10
1553.875
 20
-6381.566
 30
-1581.566
 70
    32
  0
VERTEX
  8
W69LPLIFT
 62
2
 10
1548.453
 20
-6381.945
 30
-1581.580
 70
    32
  0
VERTEX
  8
W69LPLIFT
 62
2
 10
1544.456
 20
-6395.298
 30
-1581.649
 70
    32
  0
VERTEX
  8
W69LPLIFT
 62
2
 10
1532.834
 20
-6400.825
 30
-1581.700
 70
    32
  0
VERTEX
  8
W69LPLIFT
 62
2
 10
1538.265
 20
-6410.126
 30
-1581.729
 70
    32
  0
VERTEX
  8
W69LPLIFT
 62
2
 10
1535.680
 20
-6422.680
 30
-1581.791
 70
    32
  0
VERTEX
  8
W69LPLIFT
 62
2
 10
1536.891
 20
-6424.706
 30
-1581.797
 70
    32
  0
VERTEX
  8
W69LPLIFT
 62
2
 10
1538.918
 20
-6428.097
 30
-1581.388
 70
    32
  0
VERTEX
  8
W69LPLIFT
 62
2
 10
1543.256
 20
-6436.068
 30
-1581.039
 70
    32
  0
VERTEX
  8
W69LPLIFT
 62
2
 10
1543.471
 20
-6447.024
 30
-1580.938
 70
    32
  0
VERTEX
  8
W69LPLIFT
 62
2
 10
1538.999
 20
-6454.440
 30
-1580.884
 70
    32
  0
VERTEX
  8
W69LPLIFT
 62
2
 10
1540.983
 20
-6462.151
 30
-1580.807
 70
    32
  0
VERTEX
  8
W69LPLIFT
 62
2
 10
1556.980
 20
-6496.304
 30
-1579.068
 70
    32
  0
VERTEX
  8
W69LPLIFT
 62
2
 10
1558.118
 20
-6496.702
 30
-1579.253
 70
    32
  0
VERTEX
  8
W69LPLIFT
 62
2
 10
1565.055
 20
-6505.862
 30
-1581.084
 70
    32
  0
VERTEX
  8
W69LPLIFT
 62
2
 10
1584.626
 20
-6531.418
 30
-1589.839
 70
    32
  0
VERTEX
  8
W69LPLIFT
 62
2
 10
1588.435
 20
-6536.202
 30
-1591.052
 70
    32
  0
VERTEX
  8
W69LPLIFT
 62
2
 10
1589.191
 20
-6545.209
 30
-1594.166
 70
    32
  0
SEQEND
  8
W69LPLIFT
  0
POLYLINE
  8
W69LPLIFT
 62
2
 66
     1
 70
     9
  0
VERTEX
  8
W69LPLIFT
 62
2
 10
1466.736
 20
-6389.270
 30
-1581.193
 70
    32
  0
VERTEX
  8
W69LPLIFT
 62
2
 10
1468.485
 20
-6392.450
 30
-1581.193
 70
    32
  0
VERTEX
  8
W69LPLIFT
 62
2
 10
1464.986
 20
-6392.448
 30
-1581.193
 70
    32
  0
SEQEND
  8
W69LPLIFT
  0
POINT
  8
W69LPLIFT
 62
2
 10
1466.736
 20
-6391.480
 30
-1581.193
  0
TEXT
  8
W69LPLIFT
 62
2
 10
1446.837
 20
-6398.515
 30
-1581.193
 40
1.969
  1
-1581.193
 50
25.200
 41
 1.0 
  0
TEXT
  8
W69LPLIFT
 62
2
 10
1451.912
 20
-6400.036
 30
-1581.193
 40
1.969
  1
ST-215T
 50
25.200
 41
 1.0 
  0
TEXT
  8
W69LPLIFT
 62
2
 10
1456.806
 20
-6408.946
 30
-1581.744
 40
1.969
  1
ST-215S
 50
25.200
 41
 1.0 
  0
TEXT
  8
W69LPLIFT
 62
2
 10
1454.604
 20
-6413.317
 30
-1581.744
 40
1.969
  1
-1581.744
 50
25.200
 41
 1.0 
  0
POLYLINE
  8
W69LPLIFT
 62
2
 66
     1
 70
     9
  0
VERTEX
  8
W69LPLIFT
 62
2
 10
1471.372
 20
-6398.155
 30
-1581.744
 70
    32
  0
VERTEX
  8
W69LPLIFT
 62
2
 10
1473.121
 20
-6401.335
 30
-1581.744
 70
    32
  0
VERTEX
  8
W69LPLIFT
 62
2
 10
1469.622
 20
-6401.333
 30
-1581.744
 70
    32
  0
SEQEND
  8
W69LPLIFT
  0
POINT
  8
W69LPLIFT
 62
2
 10
1471.372
 20
-6400.365
 30
-1581.744
  0
POINT
  8
W69LPLIFT
 62
2
 10
1503.101
 20
-6392.923
 30
-1581.748
  0
POLYLINE
  8
W69LPLIFT
 62
2
 66
     1
 70
     9
  0
VERTEX
  8
W69LPLIFT
 62
2
 10
1503.101
 20
-6390.713
 30
-1581.748
 70
    32
  0
VERTEX
  8
W69LPLIFT
 62
2
 10
1504.850
 20
-6393.893
 30
-1581.748
 70
    32
  0
VERTEX
  8
W69LPLIFT
 62
2
 10
1501.351
 20
-6393.891
 30
-1581.748
 70
    32
  0
SEQEND
  8
W69LPLIFT
  0
POLYLINE
  8
W69LPLIFT
 62
2
 66
     1
 70
     9
  0
VERTEX
  8
W69LPLIFT
 62
2
 10
1507.495
 20
-6386.717
 30
-1582.088
 70
    32
  0
VERTEX
  8
W69LPLIFT
 62
2
 10
1509.244
 20
-6389.897
 30
-1582.088
 70
    32
  0
VERTEX
  8
W69LPLIFT
 62
2
 10
1505.745
 20
-6389.895
 30
-1582.088
 70
    32
  0
SEQEND
  8
W69LPLIFT
  0
POINT
  8
W69LPLIFT
 62
2
 10
1507.495
 20
-6388.927
 30
-1582.088
  0
TEXT
  8
W69LPLIFT
 62
2
 10
1495.081
 20
-6370.980
 30
-1582.088
 40
1.969
  1
-1582.088
 50
313.080
 41
 1.0 
  0
TEXT
  8
W69LPLIFT
 62
2
 10
1495.385
 20
-6376.331
 30
-1582.088
 40
1.969
  1
ST-225T
 50
313.080
 41
 1.0 
  0
TEXT
  8
W69LPLIFT
 62
2
 10
1491.039
 20
-6381.945
 30
-1581.748
 40
1.969
  1
ST-225S
 50
313.080
 41
 1.0 
  0
TEXT
  8
W69LPLIFT
 62
2
 10
1485.472
 20
-6382.170
 30
-1581.748
 40
1.969
  1
-1581.748
 50
313.080
 41
 1.0 
  0
TEXT
  8
W69LPLIFT
 62
2
 10
1473.272
 20
-6385.237
 30
-1581.809
 40
1.969
  1
BK -1581.809
 50
24.380
 41
 1.0 
  0
TEXT
  8
W69LPLIFT
 62
2
 10
1448.379
 20
-6358.746
 30
-1576.416
 40
1.969
  1
BK -1576.416
 50
32.000
 41
 1.0 
  0
TEXT
  8
W69LPLIFT
 62
2
 10
1512.941
 20
-6402.665
 30
-1581.755
 40
1.969
  1
-1581.755
 50
24.380
 41
 1.0 
  0
TEXT
  8
W69LPLIFT
 62
2
 10
1514.434
 20
-6406.780
 30
-1581.755
 40
1.969
  1
ST-212S
 50
24.380
 41
 1.0 
  0
POINT
  8
W69LPLIFT
 62
2
 10
1513.273
 20
-6410.287
 30
-1581.755
  0
POLYLINE
  8
W69LPLIFT
 62
2
 66
     1
 70
     9
  0
VERTEX
  8
W69LPLIFT
 62
2
 10
1513.273
 20
-6408.077
 30
-1581.755
 70
    32
  0
VERTEX
  8
W69LPLIFT
 62
2
 10
1515.022
 20
-6411.257
 30
-1581.755
 70
    32
  0
VERTEX
  8
W69LPLIFT
 62
2
 10
1511.523
 20
-6411.255
 30
-1581.755
 70
    32
  0
SEQEND
  8
W69LPLIFT
  0
POLYLINE
  8
W69LPLIFT
 62
2
 66
     1
 70
     9
  0
VERTEX
  8
W69LPLIFT
 62
2
 10
1516.723
 20
-6413.905
 30
-1582.415
 70
    32
  0
VERTEX
  8
W69LPLIFT
 62
2
 10
1518.472
 20
-6417.085
 30
-1582.415
 70
    32
  0
VERTEX
  8
W69LPLIFT
 62
2
 10
1514.973
 20
-6417.083
 30
-1582.415
 70
    32
  0
SEQEND
  8
W69LPLIFT
  0
POINT
  8
W69LPLIFT
 62
2
 10
1516.723
 20
-6416.115
 30
-1582.415
  0
TEXT
  8
W69LPLIFT
 62
2
 10
1521.249
 20
-6416.876
 30
-1582.415
 40
1.969
  1
ST-212T
 50
24.380
 41
 1.0 
  0
TEXT
  8
W69LPLIFT
 62
2
 10
1523.435
 20
-6420.867
 30
-1582.415
 40
1.969
  1
-1582.415
 50
24.380
 41
 1.0 
  0
TEXT
  8
W69LPLIFT
 62
2
 10
1533.487
 20
-6398.150
 30
1000.000
 40
1.575
  1
-1581.191
 50
0.297
 41
 1.0 
  0
TEXT
  8
W69LPLIFT
 62
2
 10
1526.810
 20
-6440.116
 30
-1581.054
 40
1.969
  1
BK -1581.054
 50
24.380
 41
 1.0 
  0
TEXT
  8
W69LPLIFT
 62
2
 10
1425.659
 20
-6317.752
 30
-1569.425
 40
1.969
  1
BK -1569.425
 50
32.000
 41
 1.0 
  0
TEXT
  8
W69LPLIFT
 62
2
 10
1531.401
 20
-6319.014
 30
1000.000
 40
1.575
  1
-1581.942
 41
 1.0 
  0
TEXT
  8
W69LPLIFT
 62
2
 10
1526.662
 20
-6331.698
 30
1000.000
 40
1.575
  1
-1581.957
 41
 1.0 
  0
TEXT
  8
W69LPLIFT
 62
2
 10
1527.041
 20
-6339.650
 30
1000.000
 40
1.575
  1
-1581.43
 50
-0.707
 41
 1.0 
  0
TEXT
  8
W69LPLIFT
 62
2
 10
1539.772
 20
-6355.849
 30
-1581.599
 40
1.969
  1
BK -1581.599
 50
32.000
 41
 1.0 
  0
TEXT
  8
W69LPLIFT
 62
2
 10
1525.146
 20
-6359.907
 30
1000.000
 40
1.575
  1
-1581.089
 50
-0.729
 41
 1.0 
  0
POINT
  8
W69LPLIFT
 62
2
 10
1538.105
 20
-6472.909
 30
-1580.718
  0
POINT
  8
W69LPLIFT
 62
2
 10
1538.611
 20
-6477.296
 30
-1580.954
  0
POLYLINE
  8
W69LPLIFT
 62
2
 66
     1
 70
     9
  0
VERTEX
  8
W69LPLIFT
 62
2
 10
1538.105
 20
-6470.699
 30
-1580.718
 70
    32
  0
VERTEX
  8
W69LPLIFT
 62
2
 10
1539.854
 20
-6473.879
 30
-1580.718
 70
    32
  0
VERTEX
  8
W69LPLIFT
 62
2
 10
1536.355
 20
-6473.877
 30
-1580.718
 70
    32
  0
SEQEND
  8
W69LPLIFT
  0
POLYLINE
  8
W69LPLIFT
 62
2
 66
     1
 70
     9
  0
VERTEX
  8
W69LPLIFT
 62
2
 10
1538.611
 20
-6475.086
 30
-1580.954
 70
    32
  0
VERTEX
  8
W69LPLIFT
 62
2
 10
1540.360
 20
-6478.266
 30
-1580.954
 70
    32
  0
VERTEX
  8
W69LPLIFT
 62
2
 10
1536.861
 20
-6478.264
 30
-1580.954
 70
    32
  0
SEQEND
  8
W69LPLIFT
  0
TEXT
  8
W69LPLIFT
 62
2
 10
1541.784
 20
-6470.742
 30
-1580.718
 40
1.969
  1
-1580.718
 50
10.000
 41
 1.0 
  0
TEXT
  8
W69LPLIFT
 62
2
 10
1542.227
 20
-6473.342
 30
-1580.718
 40
1.969
  1
ST-159T
 50
10.000
 41
 1.0 
  0
TEXT
  8
W69LPLIFT
 62
2
 10
1542.949
 20
-6478.020
 30
-1580.954
 40
1.969
  1
ST-159S
 50
10.000
 41
 1.0 
  0
TEXT
  8
W69LPLIFT
 62
2
 10
1543.295
 20
-6480.674
 30
-1580.954
 40
1.969
  1
-1580.954
 50
10.000
 41
 1.0 
  0
TEXT
  8
W69LPLIFT
 62
2
 10
1576.576
 20
-6513.378
 30
-1582.901
 40
2.362
  1
BK -1582.901
 50
36.000
 41
 1.0 
  0
TEXT
  8
W69LPLIFT
 62
2
 10
1584.634
 20
-6527.099
 30
-1589.413
 40
2.362
  1
-1589.413
 50
36.000
 41
 1.0 
  0
TEXT
  8
W69LPLIFT
 62
2
 10
1586.807
 20
-6529.271
 30
-1589.413
 40
2.362
  1
ST-125T
 50
36.000
 41
 1.0 
  0
TEXT
  8
W69LPLIFT
 62
2
 10
1589.830
 20
-6537.075
 30
-1591.847
 40
2.362
  1
-1591.847
 50
36.000
 41
 1.0 
  0
TEXT
  8
W69LPLIFT
 62
2
 10
1584.103
 20
-6545.573
 30
-1593.609
 40
2.362
  1
BK -1593.609
 50
36.000
 41
 1.0 
  0
TEXT
  8
W69LPLIFT
 62
2
 10
1589.786
 20
-6533.770
 30
-1591.847
 40
2.362
  1
ST-125S
 50
36.000
 41
 1.0 
  0
TEXT
  8
W69LPLIFT
 62
2
 10
1543.009
 20
-6545.328
 30
-1592.048
 40
2.362
  1
EP -1592.048
 50
36.000
 41
 1.0 
  0
TEXT
  8
W69LPLIFT
 62
2
 10
1549.123
 20
-6545.683
 30
1000.000
 40
2.362
  1
Mine +12'
 50
35.997
 41
 1.0 
  0
POINT
  8
W69LPLIFT
 62
2
 10
1580.510
 20
-6533.340
 30
-1589.413
  0
POLYLINE
  8
W69LPLIFT
 62
2
 66
     1
 70
     9
  0
VERTEX
  8
W69LPLIFT
 62
2
 10
1580.510
 20
-6531.130
 30
-1589.413
 70
    32
  0
VERTEX
  8
W69LPLIFT
 62
2
 10
1582.259
 20
-6534.310
 30
-1589.413
 70
    32
  0
VERTEX
  8
W69LPLIFT
 62
2
 10
1578.760
 20
-6534.308
 30
-1589.413
 70
    32
  0
SEQEND
  8
W69LPLIFT
  0
POINT
  8
W69LPLIFT
 62
2
 10
1585.025
 20
-6538.903
 30
-1591.847
  0
POLYLINE
  8
W69LPLIFT
 62
2
 66
     1
 70
     9
  0
VERTEX
  8
W69LPLIFT
 62
2
 10
1585.025
 20
-6536.693
 30
-1591.847
 70
    32
  0
VERTEX
  8
W69LPLIFT
 62
2
 10
1586.774
 20
-6539.873
 30
-1591.847
 70
    32
  0
VERTEX
  8
W69LPLIFT
 62
2
 10
1583.275
 20
-6539.871
 30
-1591.847
 70
    32
  0
SEQEND
  8
W69LPLIFT
  0
POLYLINE
  8
W69LPLIFT
 62
2
 66
     1
 70
     8
  0
VERTEX
  8
W69LPLIFT
 62
2
 10
1566.935
 20
-6527.059
 30
-1592.048
 70
    32
  0
VERTEX
  8
W69LPLIFT
 62
2
 10
1566.933
 20
-6527.015
 30
-1592.048
 70
    32
  0
VERTEX
  8
W69LPLIFT
 62
2
 10
1566.927
 20
-6526.972
 30
-1592.048
 70
    32
  0
VERTEX
  8
W69LPLIFT
 62
2
 10
1566.918
 20
-6526.930
 30
-1592.048
 70
    32
  0
VERTEX
  8
W69LPLIFT
 62
2
 10
1566.905
 20
-6526.888
 30
-1592.048
 70
    32
  0
VERTEX
  8
W69LPLIFT
 62
2
 10
1566.888
 20
-6526.848
 30
-1592.048
 70
    32
  0
VERTEX
  8
W69LPLIFT
 62
2
 10
1566.868
 20
-6526.809
 30
-1592.048
 70
    32
  0
VERTEX
  8
W69LPLIFT
 62
2
 10
1566.845
 20
-6526.772
 30
-1592.048
 70
    32
  0
VERTEX
  8
W69LPLIFT
 62
2
 10
1566.818
 20
-6526.738
 30
-1592.048
 70
    32
  0
VERTEX
  8
W69LPLIFT
 62
2
 10
1566.789
 20
-6526.705
 30
-1592.048
 70
    32
  0
VERTEX
  8
W69LPLIFT
 62
2
 10
1566.756
 20
-6526.676
 30
-1592.048
 70
    32
  0
VERTEX
  8
W69LPLIFT
 62
2
 10
1566.722
 20
-6526.649
 30
-1592.048
 70
    32
  0
VERTEX
  8
W69LPLIFT
 62
2
 10
1566.685
 20
-6526.626
 30
-1592.048
 70
    32
  0
VERTEX
  8
W69LPLIFT
 62
2
 10
1566.646
 20
-6526.606
 30
-1592.048
 70
    32
  0
VERTEX
  8
W69LPLIFT
 62
2
 10
1566.606
 20
-6526.589
 30
-1592.048
 70
    32
  0
VERTEX
  8
W69LPLIFT
 62
2
 10
1566.564
 20
-6526.576
 30
-1592.048
 70
    32
  0
VERTEX
  8
W69LPLIFT
 62
2
 10
1566.522
 20
-6526.567
 30
-1592.048
 70
    32
  0
VERTEX
  8
W69LPLIFT
 62
2
 10
1566.479
 20
-6526.561
 30
-1592.048
 70
    32
  0
VERTEX
  8
W69LPLIFT
 62
2
 10
1566.435
 20
-6526.559
 30
-1592.048
 70
    32
  0
VERTEX
  8
W69LPLIFT
 62
2
 10
1566.391
 20
-6526.561
 30
-1592.048
 70
    32
  0
VERTEX
  8
W69LPLIFT
 62
2
 10
1566.348
 20
-6526.567
 30
-1592.048
 70
    32
  0
VERTEX
  8
W69LPLIFT
 62
2
 10
1566.306
 20
-6526.576
 30
-1592.048
 70
    32
  0
VERTEX
  8
W69LPLIFT
 62
2
 10
1566.264
 20
-6526.589
 30
-1592.048
 70
    32
  0
VERTEX
  8
W69LPLIFT
 62
2
 10
1566.224
 20
-6526.606
 30
-1592.048
 70
    32
  0
VERTEX
  8
W69LPLIFT
 62
2
 10
1566.185
 20
-6526.626
 30
-1592.048
 70
    32
  0
VERTEX
  8
W69LPLIFT
 62
2
 10
1566.148
 20
-6526.649
 30
-1592.048
 70
    32
  0
VERTEX
  8
W69LPLIFT
 62
2
 10
1566.114
 20
-6526.676
 30
-1592.048
 70
    32
  0
VERTEX
  8
W69LPLIFT
 62
2
 10
1566.081
 20
-6526.705
 30
-1592.048
 70
    32
  0
VERTEX
  8
W69LPLIFT
 62
2
 10
1566.052
 20
-6526.738
 30
-1592.048
 70
    32
  0
VERTEX
  8
W69LPLIFT
 62
2
 10
1566.025
 20
-6526.772
 30
-1592.048
 70
    32
  0
VERTEX
  8
W69LPLIFT
 62
2
 10
1566.002
 20
-6526.809
 30
-1592.048
 70
    32
  0
VERTEX
  8
W69LPLIFT
 62
2
 10
1565.982
 20
-6526.848
 30
-1592.048
 70
    32
  0
VERTEX
  8
W69LPLIFT
 62
2
 10
1565.965
 20
-6526.888
 30
-1592.048
 70
    32
  0
VERTEX
  8
W69LPLIFT
 62
2
 10
1565.952
 20
-6526.930
 30
-1592.048
 70
    32
  0
VERTEX
  8
W69LPLIFT
 62
2
 10
1565.943
 20
-6526.972
 30
-1592.048
 70
    32
  0
VERTEX
  8
W69LPLIFT
 62
2
 10
1565.937
 20
-6527.015
 30
-1592.048
 70
    32
  0
VERTEX
  8
W69LPLIFT
 62
2
 10
1565.935
 20
-6527.059
 30
-1592.048
 70
    32
  0
VERTEX
  8
W69LPLIFT
 62
2
 10
1565.937
 20
-6527.103
 30
-1592.048
 70
    32
  0
VERTEX
  8
W69LPLIFT
 62
2
 10
1565.943
 20
-6527.146
 30
-1592.048
 70
    32
  0
VERTEX
  8
W69LPLIFT
 62
2
 10
1565.952
 20
-6527.188
 30
-1592.048
 70
    32
  0
VERTEX
  8
W69LPLIFT
 62
2
 10
1565.965
 20
-6527.230
 30
-1592.048
 70
    32
  0
VERTEX
  8
W69LPLIFT
 62
2
 10
1565.982
 20
-6527.270
 30
-1592.048
 70
    32
  0
VERTEX
  8
W69LPLIFT
 62
2
 10
1566.002
 20
-6527.309
 30
-1592.048
 70
    32
  0
VERTEX
  8
W69LPLIFT
 62
2
 10
1566.025
 20
-6527.346
 30
-1592.048
 70
    32
  0
VERTEX
  8
W69LPLIFT
 62
2
 10
1566.052
 20
-6527.380
 30
-1592.048
 70
    32
  0
VERTEX
  8
W69LPLIFT
 62
2
 10
1566.081
 20
-6527.413
 30
-1592.048
 70
    32
  0
VERTEX
  8
W69LPLIFT
 62
2
 10
1566.114
 20
-6527.442
 30
-1592.048
 70
    32
  0
VERTEX
  8
W69LPLIFT
 62
2
 10
1566.148
 20
-6527.469
 30
-1592.048
 70
    32
  0
VERTEX
  8
W69LPLIFT
 62
2
 10
1566.185
 20
-6527.492
 30
-1592.048
 70
    32
  0
VERTEX
  8
W69LPLIFT
 62
2
 10
1566.224
 20
-6527.512
 30
-1592.048
 70
    32
  0
VERTEX
  8
W69LPLIFT
 62
2
 10
1566.264
 20
-6527.529
 30
-1592.048
 70
    32
  0
VERTEX
  8
W69LPLIFT
 62
2
 10
1566.306
 20
-6527.542
 30
-1592.048
 70
    32
  0
VERTEX
  8
W69LPLIFT
 62
2
 10
1566.348
 20
-6527.551
 30
-1592.048
 70
    32
  0
VERTEX
  8
W69LPLIFT
 62
2
 10
1566.391
 20
-6527.557
 30
-1592.048
 70
    32
  0
VERTEX
  8
W69LPLIFT
 62
2
 10
1566.435
 20
-6527.559
 30
-1592.048
 70
    32
  0
VERTEX
  8
W69LPLIFT
 62
2
 10
1566.479
 20
-6527.557
 30
-1592.048
 70
    32
  0
VERTEX
  8
W69LPLIFT
 62
2
 10
1566.522
 20
-6527.551
 30
-1592.048
 70
    32
  0
VERTEX
  8
W69LPLIFT
 62
2
 10
1566.564
 20
-6527.542
 30
-1592.048
 70
    32
  0
VERTEX
  8
W69LPLIFT
 62
2
 10
1566.606
 20
-6527.529
 30
-1592.048
 70
    32
  0
VERTEX
  8
W69LPLIFT
 62
2
 10
1566.646
 20
-6527.512
 30
-1592.048
 70
    32
  0
VERTEX
  8
W69LPLIFT
 62
2
 10
1566.685
 20
-6527.492
 30
-1592.048
 70
    32
  0
VERTEX
  8
W69LPLIFT
 62
2
 10
1566.722
 20
-6527.469
 30
-1592.048
 70
    32
  0
VERTEX
  8
W69LPLIFT
 62
2
 10
1566.756
 20
-6527.442
 30
-1592.048
 70
    32
  0
VERTEX
  8
W69LPLIFT
 62
2
 10
1566.789
 20
-6527.413
 30
-1592.048
 70
    32
  0
VERTEX
  8
W69LPLIFT
 62
2
 10
1566.818
 20
-6527.380
 30
-1592.048
 70
    32
  0
VERTEX
  8
W69LPLIFT
 62
2
 10
1566.845
 20
-6527.346
 30
-1592.048
 70
    32
  0
VERTEX
  8
W69LPLIFT
 62
2
 10
1566.868
 20
-6527.309
 30
-1592.048
 70
    32
  0
VERTEX
  8
W69LPLIFT
 62
2
 10
1566.888
 20
-6527.270
 30
-1592.048
 70
    32
  0
VERTEX
  8
W69LPLIFT
 62
2
 10
1566.905
 20
-6527.230
 30
-1592.048
 70
    32
  0
VERTEX
  8
W69LPLIFT
 62
2
 10
1566.918
 20
-6527.188
 30
-1592.048
 70
    32
  0
VERTEX
  8
W69LPLIFT
 62
2
 10
1566.927
 20
-6527.146
 30
-1592.048
 70
    32
  0
VERTEX
  8
W69LPLIFT
 62
2
 10
1566.933
 20
-6527.103
 30
-1592.048
 70
    32
  0
VERTEX
  8
W69LPLIFT
 62
2
 10
1566.935
 20
-6527.059
 30
-1592.048
 70
    32
  0
SEQEND
  8
W69LPLIFT
  0
ENDSEC
  0
EOF
